  0
SECTION
  2
HEADER
  9
$ACADVER
  1
AC1009
  9
$INSBASE
 10
0
 20
0
 30
0
  9
$EXTMIN
 10
0
 20
0
  9
$EXTMAX
 10
7425
 20
5250
  9
$LIMMIN
 10
0
 20
0
  9
$LIMMAX
 10
7425
 20
5250
  9
$LTSCALE
 40
25
  0
ENDSEC
  0
SECTION
  2
TABLES
  0
TABLE
  2
LTYPE
 70
     9
  0
LTYPE
  2
CONTINUOUS
 70
    64
  3
実線
 72
    65
 73
     0
 40
0.0
  0
LTYPE
  2
DASHED1
 70
    64
  3
--  --  --  --  --  --  --  --  
 72
    65
 73
     2
 40
2.5
 49
1.25
 49
-1.25
  0
LTYPE
  2
DASHED2
 70
    64
  3
----    ----    ----    ----    
 72
    65
 73
     2
 40
5.0
 49
2.5
 49
-2.5
  0
LTYPE
  2
DASHED3
 70
    64
  3
------  ------  ------  ------  
 72
    65
 73
     2
 40
5.0
 49
3.75
 49
-1.25
  0
LTYPE
  2
CENTER1
 70
    64
  3
----- - ----- - ----- - ----- - 
 72
    65
 73
     4
 40
10.0
 49
6.25
 49
-1.25
 49
1.25
 49
-1.25
  0
LTYPE
  2
CENTER2
 70
    64
  3
----------  --  ----------  --  
 72
    65
 73
     4
 40
20.0
 49
12.5
 49
-2.5
 49
2.5
 49
-2.5
  0
LTYPE
  2
PHANTOM1
 70
    64
  3
--- - - --- - - --- - - --- - - 
 72
    65
 73
     6
 40
10.0
 49
3.25
 49
-1.25
 49
1.25
 49
-1.25
 49
1.25
 49
-1.25
  0
LTYPE
  2
PHANTOM2
 70
    64
  3
--------  -  -  --------  -  -  
 72
    65
 73
     6
 40
20.0
 49
10.0
 49
-2.5
 49
1.25
 49
-2.5
 49
1.25
 49
-2.5
  0
LTYPE
  2
DOT
 70
    64
  3
-   -   -   -   -   -   -   -   
 72
    65
 73
     2
 40
2.5
 49
0.625
 49
-1.875
  0
LTYPE
  2
DUMMY
 70
    64
  3
ダミー
 72
    65
 73
     0
 40
0.0
  0
LTYPE
  2
RAND1
 70
    64
  3
ランダム線1
 72
    65
 73
     4
 40
10.0
 49
1.0
 49
-2.0
 49
3.0
 49
-4.0
  0
LTYPE
  2
RAND2
 70
    64
  3
ランダム線2
 72
    65
 73
     4
 40
14.0
 49
2.0
 49
-3.0
 49
4.0
 49
-5.0
  0
LTYPE
  2
RAND3
 70
    64
  3
ランダム線3
 72
    65
 73
     4
 40
18.0
 49
3.0
 49
-4.0
 49
5.0
 49
-6.0
  0
LTYPE
  2
RAND4
 70
    64
  3
ランダム線4
 72
    65
 73
     4
 40
22.0
 49
4.0
 49
-5.0
 49
6.0
 49
-7.0
  0
LTYPE
  2
RAND5
 70
    64
  3
ランダム線5
 72
    65
 73
     4
 40
26.0
 49
5.0
 49
-6.0
 49
7.0
 49
-8.0
  0
LTYPE
  2
LONG1
 70
    64
  3
----------  --  ----------  --  
 72
    65
 73
     4
 40
40.0
 49
32.5
 49
-2.5
 49
2.5
 49
-2.5
  0
LTYPE
  2
LONG2
 70
    64
  3
--------  -  -  --------  -  -  
 72
    65
 73
     6
 40
40.0
 49
30.0
 49
-2.5
 49
1.25
 49
-2.5
 49
1.25
 49
-2.5
  0
LTYPE
  2
LONG3
 70
    64
  3
+++++++++++++++..+++++++++++++++
 72
    65
 73
     2
 40
40.0
 49
37.5
 49
-2.5
  0
LTYPE
  2
LONG4
 70
    64
  3
+++++++++++++++..+++++++++++++++
 72
    65
 73
     2
 40
80.0
 49
75.0
 49
-5.0
  0
LTYPE
  2
LONG5
 70
    64
  3
----------  --  ----------  --  
 72
    65
 73
     4
 40
60.0
 49
37.5
 49
-7.5
 49
7.5
 49
-7.5
  0
LTYPE
  2
dashed
 70
   64
  3
-------   -------------   ------
 72
   65
 73
    2
 40
7.5
 49
6
 49
-1.5
  0
LTYPE
  2
dashed_spaced
 70
   64
  3
----        --------        ----
 72
   65
 73
    2
 40
12
 49
6
 49
-6
  0
LTYPE
  2
long_dashed_dotted
 70
   64
  3
------------- --- --------------
 72
   65
 73
    4
 40
15.25
 49
12
 49
-1.5
 49
0.25
 49
-1.5
  0
LTYPE
  2
long_dashed_double-dotted
 70
   64
  3
----------- --- --- ------------
 72
   65
 73
    6
 40
17
 49
12
 49
-1.5
 49
0.25
 49
-1.5
 49
0.25
 49
-1.5
  0
LTYPE
  2
long_dashed_triplicate-dotted
 70
   64
  3
--------- --- --- --- ----------
 72
   65
 73
    8
 40
18.75
 49
12
 49
-1.5
 49
0.25
 49
-1.5
 49
0.25
 49
-1.5
 49
0.25
 49
-1.5
  0
LTYPE
  2
dotted
 70
   64
  3
   -       -       -       -    
 72
   65
 73
    2
 40
1.75
 49
0.25
 49
-1.5
  0
LTYPE
  2
chain
 70
   64
  3
-------------- -- --------------
 72
   65
 73
    4
 40
18.5
 49
12
 49
-1.5
 49
3.5
 49
-1.5
  0
LTYPE
  2
chain_double_dash
 70
   64
  3
------------ -- -- -------------
 72
   65
 73
    6
 40
23.5
 49
12
 49
-1.5
 49
3.5
 49
-1.5
 49
3.5
 49
-1.5
  0
LTYPE
  2
dashed_dotted
 70
   64
  3
-----------     -     ----------
 72
   65
 73
    4
 40
9.25
 49
6
 49
-1.5
 49
0.25
 49
-1.5
  0
LTYPE
  2
double-dashed_dotted
 70
   64
  3
------   -----------   -   -----
 72
   65
 73
    6
 40
16.75
 49
6
 49
-1.5
 49
6
 49
-1.5
 49
0.25
 49
-1.5
  0
LTYPE
  2
dashed_double-dotted
 70
   64
  3
---------    -    -    ---------
 72
   65
 73
    6
 40
11
 49
6
 49
-1.5
 49
0.25
 49
-1.5
 49
0.25
 49
-1.5
  0
LTYPE
  2
double-dashed_double-dotted
 70
   64
  3
-----   ---------   -   -   ----
 72
   65
 73
    8
 40
18.5
 49
6
 49
-1.5
 49
6
 49
-1.5
 49
0.25
 49
-1.5
 49
0.25
 49
-1.5
  0
LTYPE
  2
dashed_triplicate-dotted
 70
   64
  3
-------    -    -    -    ------
 72
   65
 73
    8
 40
12.75
 49
6
 49
-1.5
 49
0.25
 49
-1.5
 49
0.25
 49
-1.5
 49
0.25
 49
-1.5
  0
LTYPE
  2
double-dashed_triplicate-dotted
 70
   64
  3
-----  ---------  -  -  -  -----
 72
   65
 73
   10
 40
20.25
 49
6
 49
-1.5
 49
6
 49
-1.5
 49
0.25
 49
-1.5
 49
0.25
 49
-1.5
 49
0.25
 49
-1.5
  0
LTYPE
  2
undefined
 70
   64
  3
--------------------------------
 72
   65
 73
    0
 40
0
  0
LTYPE
  2
_
 70
   64
  3
                                
 72
   65
 73
    0
 40
0
  0
LTYPE
  2
__18
 70
   64
  3
                                
 72
   65
 73
    0
 40
0
  0
LTYPE
  2
__19
 70
   64
  3
                                
 72
   65
 73
    0
 40
0
  0
LTYPE
  2
__20
 70
   64
  3
                                
 72
   65
 73
    0
 40
0
  0
LTYPE
  2
__21
 70
   64
  3
                                
 72
   65
 73
    0
 40
0
  0
LTYPE
  2
__22
 70
   64
  3
                                
 72
   65
 73
    0
 40
0
  0
LTYPE
  2
__23
 70
   64
  3
                                
 72
   65
 73
    0
 40
0
  0
LTYPE
  2
__24
 70
   64
  3
                                
 72
   65
 73
    0
 40
0
  0
LTYPE
  2
__25
 70
   64
  3
                                
 72
   65
 73
    0
 40
0
  0
LTYPE
  2
__26
 70
   64
  3
                                
 72
   65
 73
    0
 40
0
  0
LTYPE
  2
__27
 70
   64
  3
                                
 72
   65
 73
    0
 40
0
  0
LTYPE
  2
__28
 70
   64
  3
                                
 72
   65
 73
    0
 40
0
  0
LTYPE
  2
__29
 70
   64
  3
                                
 72
   65
 73
    0
 40
0
  0
LTYPE
  2
__30
 70
   64
  3
                                
 72
   65
 73
    0
 40
0
  0
LTYPE
  2
__31
 70
   64
  3
                                
 72
   65
 73
    0
 40
0
  0
LTYPE
  2
__32
 70
   64
  3
                                
 72
   65
 73
    0
 40
0
  0
ENDTAB
  0
TABLE
  2
STYLE
  5
3
100
AcDbSymbolTable
 70
     1
  0
STYLE
  5
10
100
AcDbSymbolTableRecord
100
AcDbTextStyleTableRecord
  2
STANDARD
 70
     0
 40
0.0
 41
1.0
 50
0.0
 71
     0
 42
0.2
  3
txt
  4
bigfont.shx
  0
STYLE
  5
26
100
AcDbSymbolTableRecord
100
AcDbTextStyleTableRecord
  2
TATEGAKI
 70
    68
 40
0.0
 41
1.0
 50
0.0
 71
     0
 42
1.0
  3
txt
  4
bigfont.shx
  0
ENDTAB
  0
TABLE
  2
LAYER
 70
    3
  0
LAYER
  2
_0-0_
 70
   64
 62
    7
  6
CONTINUOUS
  0
LAYER
  2
_0-1_
 70
   64
 62
    7
  6
CONTINUOUS
  0
LAYER
  2
ADD_LINE
 70
   64
 62
    7
  6
CONTINUOUS
  0
ENDTAB
  0
ENDSEC
  0
SECTION
  2
BLOCKS
  0
ENDSEC
  0
SECTION
  2
ENTITIES
  0
LINE
  8
_0-0_
  6
CONTINUOUS
 62
    7
 10
3113.3174152447909
 20
992.72030458487143
 11
4307.4519006441915
 21
992.72030458487143
  0
LINE
  8
_0-0_
  6
CONTINUOUS
 62
    7
 10
2674.1355284760816
 20
993.12974679424042
 11
374.13544664051557
 21
993.12974679424042
  0
LINE
  8
_0-0_
  6
CONTINUOUS
 62
    7
 10
475.90964033797007
 20
3369.63326884973
 11
2645.9096061677083
 21
3369.63326884973
  0
LINE
  8
_0-0_
  6
CONTINUOUS
 62
    7
 10
4307.4519006441915
 20
2167.1288398241904
 11
4307.4519006441915
 21
992.12888806022727
  0
LINE
  8
_0-0_
  6
CONTINUOUS
 62
    7
 10
3625.3231483076524
 20
1005.2190092079428
 11
3632.9234193190641
 21
1005.2190092079428
  0
LINE
  8
_0-0_
  6
CONTINUOUS
 62
    7
 10
3558.3751914123768
 20
1588.8201525772861
 11
3595.3894670405439
 21
1033.2247907130413
  0
LINE
  8
_0-0_
  6
CONTINUOUS
 62
    7
 10
4257.5226978905866
 20
1588.8201525772861
 11
4220.5079848241621
 21
1033.2247907130413
  0
LINE
  8
_0-0_
  6
CONTINUOUS
 62
    7
 10
3709.8097547140819
 20
1145.2190458084165
 11
4106.0876971506241
 21
1145.2190458084165
  0
LINE
  8
_0-0_
  6
CONTINUOUS
 62
    7
 10
3660.5808906113316
 20
1186.4713326384201
 11
3588.8283306107096
 21
1590.2687293682318
  0
LINE
  8
_0-0_
  6
CONTINUOUS
 62
    7
 10
4227.0691212539969
 20
1590.2687293682318
 11
4155.3165612533749
 21
1186.4713326384201
  0
LINE
  8
_0-0_
  6
CONTINUOUS
 62
    7
 10
4251.1229761779077
 20
1582.8202494323023
 11
4214.9079002468734
 21
1039.2248032175896
  0
LINE
  8
_0-0_
  6
CONTINUOUS
 62
    7
 10
3630.9234516040697
 20
1011.2190217124909
 11
3632.9234193190641
 21
1011.2190217124909
  0
LINE
  8
_0-0_
  6
CONTINUOUS
 62
    7
 10
3564.7749131250562
 20
1582.8202494323023
 11
3600.9897703369611
 21
1039.2248032175896
  0
LINE
  8
_0-0_
  6
CONTINUOUS
 62
    7
 10
3570.7614744031753
 20
1589.219096268466
 11
3577.9870795467182
 21
1589.219096268466
  0
LINE
  8
_0-0_
  6
CONTINUOUS
 62
    7
 10
4237.9105910371163
 20
1589.219096268466
 11
4245.1361961806597
 21
1589.219096268466
  0
LINE
  8
_0-0_
  6
CONTINUOUS
 62
    7
 10
3655.6365259825952
 20
1180.5305930178138
 11
3583.894683219291
 21
1584.2687168636835
  0
LINE
  8
_0-0_
  6
CONTINUOUS
 62
    7
 10
3704.8653900853451
 20
1139.2781968282457
 11
3882.8773896206299
 21
1139.2781968282457
  0
LINE
  8
_0-0_
  6
CONTINUOUS
 62
    7
 10
4232.0029873645435
 20
1584.2687168636835
 11
4160.2609258821112
 21
1180.5305930178138
  0
LINE
  8
_0-0_
  6
CONTINUOUS
 62
    7
 10
4182.9740325456423
 20
1005.2190092079428
 11
4190.5745222761825
 21
1005.2190092079428
  0
LINE
  8
_0-0_
  6
CONTINUOUS
 62
    7
 10
4182.9740325456423
 20
1011.2190217124909
 11
4184.9740002606359
 21
1011.2190217124909
  0
LINE
  8
_0-0_
  6
CONTINUOUS
 62
    7
 10
3564.3617526904955
 20
1595.2189994134496
 11
3582.9209456572657
 21
1595.2189994134496
  0
LINE
  8
_0-0_
  6
CONTINUOUS
 62
    7
 10
4232.9767249265697
 20
1595.2189994134496
 11
4251.5359178933395
 21
1595.2189994134496
  0
LINE
  8
_0-0_
  6
CONTINUOUS
 62
    7
 10
3582.9209456572657
 20
1595.2189994134496
 11
4232.9767249265697
 21
1595.2189994134496
  0
LINE
  8
_0-0_
  6
CONTINUOUS
 62
    7
 10
3632.9234193190641
 20
1011.2190217124909
 11
3632.9234193190641
 21
1005.2190092079428
  0
LINE
  8
_0-0_
  6
CONTINUOUS
 62
    7
 10
4182.9740325456423
 20
1011.2190217124909
 11
4182.9740325456423
 21
1005.2190092079428
  0
LINE
  8
_0-1_
  6
CONTINUOUS
 62
    7
 10
3763.9488632614543
 20
1139.2262510351231
 11
4051.9485886032512
 21
1139.2262510351231
  0
LINE
  8
_0-1_
  6
CONTINUOUS
 62
    7
 10
4051.9485886032512
 20
1139.2262510351231
 11
4051.9485886032512
 21
1099.2262405778449
  0
LINE
  8
_0-1_
  6
CONTINUOUS
 62
    7
 10
4051.9485886032512
 20
1099.2262405778449
 11
3763.9488632614543
 21
1099.2262405778449
  0
LINE
  8
_0-1_
  6
CONTINUOUS
 62
    7
 10
3763.9488632614543
 20
1099.2262405778449
 11
3763.9488632614543
 21
1139.2262510351231
  0
LINE
  8
_0-1_
  6
CONTINUOUS
 62
    7
 10
3640.669575989476
 20
1101.6475706947356
 11
4175.22787587523
 21
1101.6475706947356
  0
LINE
  8
_0-1_
  6
CONTINUOUS
 62
    7
 10
4175.22787587523
 20
1101.6475706947356
 11
4175.22787587523
 21
1069.6475404570001
  0
LINE
  8
_0-1_
  6
CONTINUOUS
 62
    7
 10
4175.22787587523
 20
1069.6475404570001
 11
3640.669575989476
 21
1069.6475404570001
  0
LINE
  8
_0-1_
  6
CONTINUOUS
 62
    7
 10
3640.669575989476
 20
1069.6475404570001
 11
3640.669575989476
 21
1101.6475706947356
  0
LINE
  8
_0-1_
  6
CONTINUOUS
 62
    7
 10
3648.6696655685832
 20
1002.8095992835791
 11
3672.6694968676475
 21
1002.8095992835791
  0
LINE
  8
_0-1_
  6
CONTINUOUS
 62
    7
 10
3672.6694968676475
 20
1002.8095992835791
 11
3672.6694968676475
 21
994.80950970447213
  0
LINE
  8
_0-1_
  6
CONTINUOUS
 62
    7
 10
3672.6694968676475
 20
994.80950970447213
 11
3648.6696655685832
 21
994.80950970447213
  0
LINE
  8
_0-1_
  6
CONTINUOUS
 62
    7
 10
3648.6696655685832
 20
994.80950970447213
 11
3648.6696655685832
 21
1002.8095992835791
  0
LINE
  8
_0-1_
  6
CONTINUOUS
 62
    7
 10
3650.6696332835782
 20
1042.8096097408575
 11
3670.669529152653
 21
1042.8096097408575
  0
LINE
  8
_0-1_
  6
CONTINUOUS
 62
    7
 10
3670.669529152653
 20
1042.8096097408575
 11
3670.669529152653
 21
1034.8095201617502
  0
LINE
  8
_0-1_
  6
CONTINUOUS
 62
    7
 10
3670.669529152653
 20
1034.8095201617502
 11
3650.6696332835782
 21
1034.8095201617502
  0
LINE
  8
_0-1_
  6
CONTINUOUS
 62
    7
 10
3650.6696332835782
 20
1034.8095201617502
 11
3650.6696332835782
 21
1042.8096097408575
  0
LINE
  8
_0-1_
  6
CONTINUOUS
 62
    7
 10
3650.6696332835782
 20
1034.8095201617502
 11
3648.6696655685832
 21
1002.8095992835791
  0
LINE
  8
_0-1_
  6
CONTINUOUS
 62
    7
 10
3670.669529152653
 20
1034.8095201617502
 11
3672.6694968676475
 21
1002.8095992835791
  0
LINE
  8
_0-1_
  6
CONTINUOUS
 62
    7
 10
3658.2696855758604
 20
1118.8095858658603
 11
3663.0696955794988
 21
1118.8095858658603
  0
LINE
  8
_0-1_
  6
CONTINUOUS
 62
    7
 10
3663.0696955794988
 20
1118.8095858658603
 11
3663.0696955794988
 21
1042.8096097408575
  0
LINE
  8
_0-1_
  6
CONTINUOUS
 62
    7
 10
3663.0696955794988
 20
1042.8096097408575
 11
3658.2696855758604
 21
1042.8096097408575
  0
LINE
  8
_0-1_
  6
CONTINUOUS
 62
    7
 10
3658.2696855758604
 20
1042.8096097408575
 11
3658.2696855758604
 21
1118.8095858658603
  0
LINE
  8
_0-1_
  6
CONTINUOUS
 62
    7
 10
3650.6696332835782
 20
1109.6475509142783
 11
3670.669529152653
 21
1109.6475509142783
  0
LINE
  8
_0-1_
  6
CONTINUOUS
 62
    7
 10
3670.669529152653
 20
1109.6475509142783
 11
3670.669529152653
 21
1101.6475706947356
  0
LINE
  8
_0-1_
  6
CONTINUOUS
 62
    7
 10
3670.669529152653
 20
1101.6475706947356
 11
3650.6696332835782
 21
1101.6475706947356
  0
LINE
  8
_0-1_
  6
CONTINUOUS
 62
    7
 10
3650.6696332835782
 20
1101.6475706947356
 11
3650.6696332835782
 21
1109.6475509142783
  0
LINE
  8
_0-0_
  6
CONTINUOUS
 62
    7
 10
3727.4914465355591
 20
1139.2781968282457
 11
3932.9185765682496
 21
1139.2190333038682
  0
LINE
  8
_0-0_
  6
CONTINUOUS
 62
    7
 10
3932.9185765682496
 20
1139.2190333038682
 11
4111.0320617793604
 21
1139.2781968282457
  0
LINE
  8
_0-1_
  6
CONTINUOUS
 62
    7
 10
4143.227954997059
 20
1002.8095992835791
 11
4167.2280050152513
 21
1002.8095992835791
  0
LINE
  8
_0-1_
  6
CONTINUOUS
 62
    7
 10
4167.2280050152513
 20
1002.8095992835791
 11
4167.2280050152513
 21
994.80950970447213
  0
LINE
  8
_0-1_
  6
CONTINUOUS
 62
    7
 10
4167.2280050152513
 20
994.80950970447213
 11
4143.227954997059
 21
994.80950970447213
  0
LINE
  8
_0-1_
  6
CONTINUOUS
 62
    7
 10
4143.227954997059
 20
994.80950970447213
 11
4143.227954997059
 21
1002.8095992835791
  0
LINE
  8
_0-1_
  6
CONTINUOUS
 62
    7
 10
4145.2279227120534
 20
1042.8096097408575
 11
4165.2280373002568
 21
1042.8096097408575
  0
LINE
  8
_0-1_
  6
CONTINUOUS
 62
    7
 10
4165.2280373002568
 20
1042.8096097408575
 11
4165.2280373002568
 21
1034.8095201617502
  0
LINE
  8
_0-1_
  6
CONTINUOUS
 62
    7
 10
4165.2280373002568
 20
1034.8095201617502
 11
4145.2279227120534
 21
1034.8095201617502
  0
LINE
  8
_0-1_
  6
CONTINUOUS
 62
    7
 10
4145.2279227120534
 20
1034.8095201617502
 11
4145.2279227120534
 21
1042.8096097408575
  0
LINE
  8
_0-1_
  6
CONTINUOUS
 62
    7
 10
4145.2279227120534
 20
1034.8095201617502
 11
4143.227954997059
 21
1002.8095992835791
  0
LINE
  8
_0-1_
  6
CONTINUOUS
 62
    7
 10
4165.2280373002568
 20
1034.8095201617502
 11
4167.2280050152513
 21
1002.8095992835791
  0
LINE
  8
_0-1_
  6
CONTINUOUS
 62
    7
 10
4152.8279750043357
 20
1118.8095858658603
 11
4157.6279850079745
 21
1118.8095858658603
  0
LINE
  8
_0-1_
  6
CONTINUOUS
 62
    7
 10
4157.6279850079745
 20
1118.8095858658603
 11
4157.6279850079745
 21
1042.8096097408575
  0
LINE
  8
_0-1_
  6
CONTINUOUS
 62
    7
 10
4157.6279850079745
 20
1042.8096097408575
 11
4152.8279750043357
 21
1042.8096097408575
  0
LINE
  8
_0-1_
  6
CONTINUOUS
 62
    7
 10
4152.8279750043357
 20
1042.8096097408575
 11
4152.8279750043357
 21
1118.8095858658603
  0
LINE
  8
_0-1_
  6
CONTINUOUS
 62
    7
 10
4145.2279227120534
 20
1109.6475509142783
 11
4165.2280373002568
 21
1109.6475509142783
  0
LINE
  8
_0-1_
  6
CONTINUOUS
 62
    7
 10
4165.2280373002568
 20
1109.6475509142783
 11
4165.2280373002568
 21
1101.6475706947356
  0
LINE
  8
_0-1_
  6
CONTINUOUS
 62
    7
 10
4165.2280373002568
 20
1101.6475706947356
 11
4145.2279227120534
 21
1101.6475706947356
  0
LINE
  8
_0-1_
  6
CONTINUOUS
 62
    7
 10
4145.2279227120534
 20
1101.6475706947356
 11
4145.2279227120534
 21
1109.6475509142783
  0
LINE
  8
_0-0_
  6
CONTINUOUS
 62
    7
 10
1340.9059568721816
 20
3320.2191496447704
 11
2220.1586049495977
 21
3320.2191496447704
  0
LINE
  8
_0-0_
  6
CONTINUOUS
 62
    7
 10
1340.9059568721816
 20
2620.2190760019662
 11
2220.1586049495977
 21
2620.2190760019662
  0
LINE
  8
_0-0_
  6
CONTINUOUS
 62
    7
 10
1370.9059100353577
 20
3290.2189777624649
 11
2190.1586517864212
 21
3290.2189777624649
  0
LINE
  8
_0-0_
  6
CONTINUOUS
 62
    7
 10
1370.9059100353577
 20
2650.2190291651427
 11
2190.1586517864212
 21
2650.2190291651427
  0
LINE
  8
_0-0_
  6
CONTINUOUS
 62
    7
 10
1490.5275573141325
 20
3210.2189568479084
 11
1466.739883570137
 21
3209.5260546474378
  0
LINE
  8
_0-0_
  6
CONTINUOUS
 62
    7
 10
1466.739883570137
 20
3209.5260546474378
 11
1443.1376836474797
 21
3206.4808282152562
  0
LINE
  8
_0-0_
  6
CONTINUOUS
 62
    7
 10
1443.1376836474797
 20
3206.4808282152562
 11
1419.9531279015264
 21
3201.1134607911563
  0
LINE
  8
_0-0_
  6
CONTINUOUS
 62
    7
 10
1419.9531279015264
 20
3201.1134607911563
 11
1397.4139029455
 21
3193.4768824043422
  0
LINE
  8
_0-0_
  6
CONTINUOUS
 62
    7
 10
1397.4139029455
 20
3193.4768824043422
 11
1375.7416806165775
 21
3183.6456762777789
  0
LINE
  8
_0-0_
  6
CONTINUOUS
 62
    7
 10
1375.7416806165775
 20
3183.6456762777789
 11
1355.1494933463432
 21
3171.7169537047157
  0
LINE
  8
_0-0_
  6
CONTINUOUS
 62
    7
 10
1355.1494933463432
 20
3171.7169537047157
 11
1335.8397656886275
 21
3157.8077294191335
  0
LINE
  8
_0-0_
  6
CONTINUOUS
 62
    7
 10
1335.8397656886275
 20
3157.8077294191335
 11
1318.0021271282178
 21
3142.0549215957462
  0
LINE
  8
_0-0_
  6
CONTINUOUS
 62
    7
 10
1318.0021271282178
 20
3142.0549215957462
 11
1301.8120997660865
 21
3124.6129459395834
  0
LINE
  8
_0-0_
  6
CONTINUOUS
 62
    7
 10
1301.8120997660865
 20
3124.6129459395834
 11
1287.4288017685349
 21
3105.6537156859877
  0
LINE
  8
_0-0_
  6
CONTINUOUS
 62
    7
 10
1287.4288017685349
 20
3105.6537156859877
 11
1274.9934163332905
 21
3085.3633608136856
  0
LINE
  8
_0-0_
  6
CONTINUOUS
 62
    7
 10
1274.9934163332905
 20
3085.3633608136856
 11
1264.6285355321224
 21
3063.9413531682662
  0
LINE
  8
_0-0_
  6
CONTINUOUS
 62
    7
 10
1264.6285355321224
 20
3063.9413531682662
 11
1256.4356450408582
 21
3041.5983192708959
  0
LINE
  8
_0-0_
  6
CONTINUOUS
 62
    7
 10
1256.4356450408582
 20
3041.5983192708959
 11
1250.4955615776385
 21
3018.5538531270263
  0
LINE
  8
_0-0_
  6
CONTINUOUS
 62
    7
 10
1250.4955615776385
 20
3018.5538531270263
 11
1246.8665737903254
 21
2995.034329035107
  0
LINE
  8
_0-0_
  6
CONTINUOUS
 62
    7
 10
1246.8665737903254
 20
2995.034329035107
 11
1245.5844422565001
 21
2971.2711518335523
  0
LINE
  8
_0-0_
  6
CONTINUOUS
 62
    7
 10
1245.5844422565001
 20
2971.2711518335523
 11
1246.6615246069478
 21
2947.4979135520671
  0
LINE
  8
_0-0_
  6
CONTINUOUS
 62
    7
 10
1246.6615246069478
 20
2947.4979135520671
 11
1250.0874316830434
 21
2923.9479875012253
  0
LINE
  8
_0-0_
  6
CONTINUOUS
 62
    7
 10
1250.0874316830434
 20
2923.9479875012253
 11
1255.8285900984949
 21
2900.8529972385713
  0
LINE
  8
_0-0_
  6
CONTINUOUS
 62
    7
 10
1255.8285900984949
 20
2900.8529972385713
 11
1263.8282422393445
 21
2878.4401919390702
  0
LINE
  8
_0-0_
  6
CONTINUOUS
 62
    7
 10
1263.8282422393445
 20
2878.4401919390702
 11
1274.0080866574322
 21
2856.929603046432
  0
LINE
  8
_0-0_
  6
CONTINUOUS
 62
    7
 10
1274.0080866574322
 20
2856.929603046432
 11
1286.2678406321404
 21
2836.5327319583375
  0
LINE
  8
_0-0_
  6
CONTINUOUS
 62
    7
 10
1286.2678406321404
 20
2836.5327319583375
 11
1300.4870992829901
 21
2817.4499253968934
  0
LINE
  8
_0-0_
  6
CONTINUOUS
 62
    7
 10
1300.4870992829901
 20
2817.4499253968934
 11
1316.5259917270262
 21
2799.8692818129844
  0
LINE
  8
_0-0_
  6
CONTINUOUS
 62
    7
 10
1316.5259917270262
 20
2799.8692818129844
 11
1334.227040191415
 21
2783.9629331610836
  0
LINE
  8
_0-0_
  6
CONTINUOUS
 62
    7
 10
1334.227040191415
 20
2783.9629331610836
 11
1353.4161442495219
 21
2769.8877010566384
  0
LINE
  8
_0-0_
  6
CONTINUOUS
 62
    7
 10
1353.4161442495219
 20
2769.8877010566384
 11
1373.9046586526406
 21
2757.7815972700082
  0
LINE
  8
_0-0_
  6
CONTINUOUS
 62
    7
 10
1373.9046586526406
 20
2757.7815972700082
 11
1395.4912524425843
 21
2747.7640424455913
  0
LINE
  8
_0-0_
  6
CONTINUOUS
 62
    7
 10
1395.4912524425843
 20
2747.7640424455913
 11
1417.9636587047205
 21
2739.9332414722812
  0
LINE
  8
_0-0_
  6
CONTINUOUS
 62
    7
 10
1417.9636587047205
 20
2739.9332414722812
 11
1441.1010804783884
 21
2734.3659647643335
  0
LINE
  8
_0-0_
  6
CONTINUOUS
 62
    7
 10
1441.1010804783884
 20
2734.3659647643335
 11
1464.676049869493
 21
2731.1173295422409
  0
LINE
  8
_0-0_
  6
CONTINUOUS
 62
    7
 10
1464.676049869493
 20
2731.1173295422409
 11
1488.4569433204915
 21
2730.2190500796987
  0
LINE
  8
_0-0_
  6
CONTINUOUS
 62
    7
 10
1488.4569433204915
 20
2730.2190500796987
 11
2079.0340239476973
 21
2730.2190500796987
  0
LINE
  8
_0-0_
  6
CONTINUOUS
 62
    7
 10
2079.0340239476973
 20
2730.2190500796987
 11
2102.3077077386924
 21
2731.7153076407531
  0
LINE
  8
_0-0_
  6
CONTINUOUS
 62
    7
 10
2102.3077077386924
 20
2731.7153076407531
 11
2125.3261463062181
 21
2735.4630599150782
  0
LINE
  8
_0-0_
  6
CONTINUOUS
 62
    7
 10
2125.3261463062181
 20
2735.4630599150782
 11
2147.8721515552415
 21
2741.4270931229166
  0
LINE
  8
_0-0_
  6
CONTINUOUS
 62
    7
 10
2147.8721515552415
 20
2741.4270931229166
 11
2169.7331284924362
 21
2749.5507590098728
  0
LINE
  8
_0-0_
  6
CONTINUOUS
 62
    7
 10
2169.7331284924362
 20
2749.5507590098728
 11
2190.7026062600858
 21
2759.7579433190772
  0
LINE
  8
_0-0_
  6
CONTINUOUS
 62
    7
 10
2190.7026062600858
 20
2759.7579433190772
 11
2210.5824253273745
 21
2771.9517534764113
  0
LINE
  8
_0-0_
  6
CONTINUOUS
 62
    7
 10
2210.5824253273745
 20
2771.9517534764113
 11
2229.1849246816746
 21
2786.0173619391835
  0
LINE
  8
_0-0_
  6
CONTINUOUS
 62
    7
 10
2229.1849246816746
 20
2786.0173619391835
 11
2246.3346915815787
 21
2801.8217874769998
  0
LINE
  8
_0-0_
  6
CONTINUOUS
 62
    7
 10
2246.3346915815787
 20
2801.8217874769998
 11
2261.8698738716739
 21
2819.2160823630547
  0
LINE
  8
_0-0_
  6
CONTINUOUS
 62
    7
 10
2261.8698738716739
 20
2819.2160823630547
 11
2275.6434922973158
 21
2838.0357698123889
  0
LINE
  8
_0-0_
  6
CONTINUOUS
 62
    7
 10
2275.6434922973158
 20
2838.0357698123889
 11
2287.5256276959158
 21
2858.1034686114335
  0
LINE
  8
_0-0_
  6
CONTINUOUS
 62
    7
 10
2287.5256276959158
 20
2858.1034686114335
 11
2297.4042958734581
 21
2879.229330556273
  0
LINE
  8
_0-0_
  6
CONTINUOUS
 62
    7
 10
2297.4042958734581
 20
2879.229330556273
 11
2305.1861037618864
 21
2901.214321239574
  0
LINE
  8
_0-0_
  6
CONTINUOUS
 62
    7
 10
2305.1861037618864
 20
2901.214321239574
 11
2310.7977804530078
 21
2923.8508762079773
  0
LINE
  8
_0-0_
  6
CONTINUOUS
 62
    7
 10
2310.7977804530078
 20
2923.8508762079773
 11
2314.1859584793619
 21
2946.9250881533826
  0
LINE
  8
_0-0_
  6
CONTINUOUS
 62
    7
 10
2314.1859584793619
 20
2946.9250881533826
 11
2315.3189235672526
 21
2970.2191128233681
  0
LINE
  8
_0-0_
  6
CONTINUOUS
 62
    7
 10
2315.3189235672526
 20
2970.2191128233681
 11
2314.1859584793619
 21
2993.5131374933544
  0
LINE
  8
_0-0_
  6
CONTINUOUS
 62
    7
 10
2314.1859584793619
 20
2993.5131374933544
 11
2310.7977804530078
 21
3016.5873494387588
  0
LINE
  8
_0-0_
  6
CONTINUOUS
 62
    7
 10
2310.7977804530078
 20
3016.5873494387588
 11
2305.1861037618864
 21
3039.2236856880336
  0
LINE
  8
_0-0_
  6
CONTINUOUS
 62
    7
 10
2305.1861037618864
 20
3039.2236856880336
 11
2297.4042958734581
 21
3061.2086763713351
  0
LINE
  8
_0-0_
  6
CONTINUOUS
 62
    7
 10
2297.4042958734581
 20
3061.2086763713351
 11
2287.5256276959158
 21
3082.334757035303
  0
LINE
  8
_0-0_
  6
CONTINUOUS
 62
    7
 10
2287.5256276959158
 20
3082.334757035303
 11
2275.6434922973158
 21
3102.4022371152191
  0
LINE
  8
_0-0_
  6
CONTINUOUS
 62
    7
 10
2275.6434922973158
 20
3102.4022371152191
 11
2261.8698738716739
 21
3121.2221432836818
  0
LINE
  8
_0-0_
  6
CONTINUOUS
 62
    7
 10
2261.8698738716739
 20
3121.2221432836818
 11
2246.3346915815787
 21
3138.6162194506082
  0
LINE
  8
_0-0_
  6
CONTINUOUS
 62
    7
 10
2246.3346915815787
 20
3138.6162194506082
 11
2229.1849246816746
 21
3154.4208637075531
  0
LINE
  8
_0-0_
  6
CONTINUOUS
 62
    7
 10
2229.1849246816746
 20
3154.4208637075531
 11
2210.5824253273745
 21
3168.4864721703252
  0
LINE
  8
_0-0_
  6
CONTINUOUS
 62
    7
 10
2210.5824253273745
 20
3168.4864721703252
 11
2190.7026062600858
 21
3180.6802823276589
  0
LINE
  8
_0-0_
  6
CONTINUOUS
 62
    7
 10
2190.7026062600858
 20
3180.6802823276589
 11
2169.7331284924362
 21
3190.8872479177348
  0
LINE
  8
_0-0_
  6
CONTINUOUS
 62
    7
 10
2169.7331284924362
 20
3190.8872479177348
 11
2147.8721515552415
 21
3199.0111325238199
  0
LINE
  8
_0-0_
  6
CONTINUOUS
 62
    7
 10
2147.8721515552415
 20
3199.0111325238199
 11
2125.3261463062181
 21
3204.9749470125294
  0
LINE
  8
_0-0_
  6
CONTINUOUS
 62
    7
 10
2125.3261463062181
 20
3204.9749470125294
 11
2102.3077077386924
 21
3208.7229180059835
  0
LINE
  8
_0-0_
  6
CONTINUOUS
 62
    7
 10
2102.3077077386924
 20
3208.7229180059835
 11
2079.0340239476973
 21
3210.2189568479084
  0
LINE
  8
_0-0_
  6
CONTINUOUS
 62
    7
 10
2079.0340239476973
 20
3210.2189568479084
 11
1490.5275573141325
 21
3210.2189568479084
  0
LINE
  8
_0-0_
  6
CONTINUOUS
 62
    7
 10
2298.1604079021909
 20
993.12963743467571
 11
2298.1604079021909
 21
993.12974679424042
  0
LINE
  8
_0-0_
  6
CONTINUOUS
 62
    7
 10
1045.532225457858
 20
1585.2197076362993
 11
1124.4924556334506
 21
1027.8533769850565
  0
LINE
  8
_0-0_
  6
CONTINUOUS
 62
    7
 10
2513.5937193645932
 20
1585.2197076362993
 11
2434.6334891890006
 21
1027.8533769850565
  0
LINE
  8
_0-0_
  6
CONTINUOUS
 62
    7
 10
1279.169311302509
 20
1142.0612883843971
 11
2279.8048424444601
 21
1142.0612883843971
  0
LINE
  8
_0-0_
  6
CONTINUOUS
 62
    7
 10
1076.0287804032841
 20
1588.1822582377429
 11
1232.3974285346658
 21
1174.3867726859899
  0
LINE
  8
_0-0_
  6
CONTINUOUS
 62
    7
 10
2483.0963989022157
 20
1588.1840079907745
 11
2326.5711478745152
 21
1174.3718997852222
  0
LINE
  8
_0-0_
  6
CONTINUOUS
 62
    7
 10
1154.1958256577893
 20
1002.0613611434875
 11
1161.3458633422852
 21
1002.0613611434875
  0
LINE
  8
_0-0_
  6
CONTINUOUS
 62
    7
 10
1585.4452070582327
 20
1002.0613611434875
 11
1685.4452332014282
 21
1002.0613611434875
  0
LINE
  8
_0-0_
  6
CONTINUOUS
 62
    7
 10
1873.7481864722997
 20
1002.0613611434875
 11
1973.7481032559308
 21
1002.0613611434875
  0
LINE
  8
_0-0_
  6
CONTINUOUS
 62
    7
 10
2397.6983898855083
 20
1002.0613611434875
 11
2404.9301191646618
 21
1002.0613611434875
  0
LINE
  8
_0-0_
  6
CONTINUOUS
 62
    7
 10
1052.3821804974532
 20
1579.219695131751
 11
1129.6424162433873
 21
1033.8533894896048
  0
LINE
  8
_0-0_
  6
CONTINUOUS
 62
    7
 10
1058.3229201180593
 20
1586.0613388444465
 11
1066.6835681812181
 21
1586.0613388444465
  0
LINE
  8
_0-0_
  6
CONTINUOUS
 62
    7
 10
2492.4387677756054
 20
1586.0613388444465
 11
2500.7212237501694
 21
1586.0613388444465
  0
LINE
  8
_0-0_
  6
CONTINUOUS
 62
    7
 10
1072.2961197488555
 20
1582.1822457331948
 11
1228.6645491611082
 21
1168.3873069792639
  0
LINE
  8
_0-0_
  6
CONTINUOUS
 62
    7
 10
1275.4364319289514
 20
1136.0619320372357
 11
1754.5615715409799
 21
1136.0619320372357
  0
LINE
  8
_0-0_
  6
CONTINUOUS
 62
    7
 10
2506.6620727303407
 20
1579.219695131751
 11
2429.4017276248414
 21
1033.8533894896048
  0
LINE
  8
_0-0_
  6
CONTINUOUS
 62
    7
 10
2486.826872365355
 20
1582.1841048457907
 11
2330.3018400567835
 21
1168.3724340784963
  0
LINE
  8
_0-0_
  6
CONTINUOUS
 62
    7
 10
1159.3458956272905
 20
1008.0613736480359
 11
1161.3458633422852
 21
1008.0613736480359
  0
LINE
  8
_0-0_
  6
CONTINUOUS
 62
    7
 10
2397.6983898855083
 20
1008.0613736480359
 11
2399.6983576005027
 21
1008.0613736480359
  0
LINE
  8
_0-0_
  6
CONTINUOUS
 62
    7
 10
1739.6303821254421
 20
1142.0612883843971
 11
1754.5629932153179
 21
1136.0612758798488
  0
LINE
  8
_0-0_
  6
CONTINUOUS
 62
    7
 10
1754.5629932153179
 20
1136.0612758798488
 11
1754.5629932153179
 21
1130.061372734865
  0
LINE
  8
_0-0_
  6
CONTINUOUS
 62
    7
 10
1754.5629932153179
 20
1130.061372734865
 11
1804.4567634700347
 21
1130.061372734865
  0
LINE
  8
_0-0_
  6
CONTINUOUS
 62
    7
 10
1804.4567634700347
 20
1130.061372734865
 11
1804.4567634700347
 21
1136.0612758798488
  0
LINE
  8
_0-0_
  6
CONTINUOUS
 62
    7
 10
1804.4567634700347
 20
1136.0612758798488
 11
1819.5629281887213
 21
1142.0612883843971
  0
LINE
  8
_0-0_
  6
CONTINUOUS
 62
    7
 10
1804.4581851443727
 20
1136.0619320372357
 11
2283.5355346267283
 21
1136.0619320372357
  0
LINE
  8
_0-0_
  6
CONTINUOUS
 62
    7
 10
2488.708294312466
 20
1592.0613513489948
 11
2507.6530891035513
 21
1592.0613513489948
  0
LINE
  8
_0-0_
  6
CONTINUOUS
 62
    7
 10
1051.4728557188998
 20
1592.0613513489948
 11
1070.4162288356472
 21
1592.0613513489948
  0
LINE
  8
_0-0_
  6
CONTINUOUS
 62
    7
 10
1070.4162288356472
 20
1592.0613513489948
 11
2488.708294312466
 21
1592.0613513489948
  0
LINE
  8
_0-0_
  6
CONTINUOUS
 62
    7
 10
1585.4452070582327
 20
1008.0613736480359
 11
1685.4452332014282
 21
1008.0613736480359
  0
LINE
  8
_0-0_
  6
CONTINUOUS
 62
    7
 10
1873.7481864722997
 20
1008.0613736480359
 11
1973.7481032559308
 21
1008.0613736480359
  0
LINE
  8
_0-0_
  6
CONTINUOUS
 62
    7
 10
1973.7481032559308
 20
1002.0613611434875
 11
1973.7481032559308
 21
1008.0613736480359
  0
LINE
  8
_0-0_
  6
CONTINUOUS
 62
    7
 10
1873.7481864722997
 20
1002.0613611434875
 11
1873.7481864722997
 21
1008.0613736480359
  0
LINE
  8
_0-0_
  6
CONTINUOUS
 62
    7
 10
1685.4452332014282
 20
1002.0613611434875
 11
1685.4452332014282
 21
1008.0613736480359
  0
LINE
  8
_0-0_
  6
CONTINUOUS
 62
    7
 10
1585.4452070582327
 20
1002.0613611434875
 11
1585.4452070582327
 21
1008.0613736480359
  0
LINE
  8
_0-0_
  6
CONTINUOUS
 62
    7
 10
1161.3458633422852
 20
1008.0613736480359
 11
1161.3458633422852
 21
1002.0613611434875
  0
LINE
  8
_0-0_
  6
CONTINUOUS
 62
    7
 10
2397.6983898855083
 20
1008.0613736480359
 11
2397.6983898855083
 21
1002.0613611434875
  0
LINE
  8
_0-1_
  6
CONTINUOUS
 62
    7
 10
2036.5646745247268
 20
1136.0619320372357
 11
2116.5646954392832
 21
1136.0619320372357
  0
LINE
  8
_0-1_
  6
CONTINUOUS
 62
    7
 10
2116.5646954392832
 20
1136.0619320372357
 11
2116.5646954392832
 21
1096.0619215799572
  0
LINE
  8
_0-1_
  6
CONTINUOUS
 62
    7
 10
2116.5646954392832
 20
1096.0619215799572
 11
2036.5646745247268
 21
1096.0619215799572
  0
LINE
  8
_0-1_
  6
CONTINUOUS
 62
    7
 10
2036.5646745247268
 20
1096.0619215799572
 11
2036.5646745247268
 21
1136.0619320372357
  0
LINE
  8
_0-1_
  6
CONTINUOUS
 62
    7
 10
2060.5647245429195
 20
1096.0619215799572
 11
2092.5646454210905
 21
1096.0619215799572
  0
LINE
  8
_0-1_
  6
CONTINUOUS
 62
    7
 10
2092.5646454210905
 20
1096.0619215799572
 11
2092.5646454210905
 21
1064.061891342222
  0
LINE
  8
_0-1_
  6
CONTINUOUS
 62
    7
 10
2092.5646454210905
 20
1064.061891342222
 11
2060.5647245429195
 21
1064.061891342222
  0
LINE
  8
_0-1_
  6
CONTINUOUS
 62
    7
 10
2060.5647245429195
 20
1064.061891342222
 11
2060.5647245429195
 21
1096.0619215799572
  0
LINE
  8
_0-1_
  6
CONTINUOUS
 62
    7
 10
2062.5646922579144
 20
1094.0618445053983
 11
2090.5646777060961
 21
1094.0618445053983
  0
LINE
  8
_0-1_
  6
CONTINUOUS
 62
    7
 10
2090.5646777060961
 20
1094.0618445053983
 11
2090.5646777060961
 21
1066.0618590572165
  0
LINE
  8
_0-1_
  6
CONTINUOUS
 62
    7
 10
2090.5646777060961
 20
1066.0618590572165
 11
2062.5646922579144
 21
1066.0618590572165
  0
LINE
  8
_0-1_
  6
CONTINUOUS
 62
    7
 10
2062.5646922579144
 20
1066.0618590572165
 11
2062.5646922579144
 21
1094.0618445053983
  0
LINE
  8
_0-1_
  6
CONTINUOUS
 62
    7
 10
2064.5646599729089
 20
1000.0612840689286
 11
2088.5647099911016
 21
1000.0612840689286
  0
LINE
  8
_0-1_
  6
CONTINUOUS
 62
    7
 10
2088.5647099911016
 20
1000.0612840689286
 11
2088.5647099911016
 21
992.06130384938581
  0
LINE
  8
_0-1_
  6
CONTINUOUS
 62
    7
 10
2088.5647099911016
 20
992.06130384938581
 11
2064.5646599729089
 21
992.06130384938581
  0
LINE
  8
_0-1_
  6
CONTINUOUS
 62
    7
 10
2064.5646599729089
 20
992.06130384938581
 11
2064.5646599729089
 21
1000.0612840689286
  0
LINE
  8
_0-1_
  6
CONTINUOUS
 62
    7
 10
2066.5648464070323
 20
1040.0612945262069
 11
2086.5647422761067
 21
1040.0612945262069
  0
LINE
  8
_0-1_
  6
CONTINUOUS
 62
    7
 10
2086.5647422761067
 20
1040.0612945262069
 11
2086.5647422761067
 21
1032.0613143066641
  0
LINE
  8
_0-1_
  6
CONTINUOUS
 62
    7
 10
2086.5647422761067
 20
1032.0613143066641
 11
2066.5648464070323
 21
1032.0613143066641
  0
LINE
  8
_0-1_
  6
CONTINUOUS
 62
    7
 10
2066.5648464070323
 20
1032.0613143066641
 11
2066.5648464070323
 21
1040.0612945262069
  0
LINE
  8
_0-1_
  6
CONTINUOUS
 62
    7
 10
2066.5648464070323
 20
1032.0613143066641
 11
2064.5646599729089
 21
1000.0612840689286
  0
LINE
  8
_0-1_
  6
CONTINUOUS
 62
    7
 10
2086.5647422761067
 20
1032.0613143066641
 11
2088.5647099911016
 21
1000.0612840689286
  0
LINE
  8
_0-1_
  6
CONTINUOUS
 62
    7
 10
2074.1646799801861
 20
1116.0612706512097
 11
2078.9646899838244
 21
1116.0612706512097
  0
LINE
  8
_0-1_
  6
CONTINUOUS
 62
    7
 10
2078.9646899838244
 20
1116.0612706512097
 11
2078.9646899838244
 21
1040.0612945262069
  0
LINE
  8
_0-1_
  6
CONTINUOUS
 62
    7
 10
2078.9646899838244
 20
1040.0612945262069
 11
2074.1646799801861
 21
1040.0612945262069
  0
LINE
  8
_0-1_
  6
CONTINUOUS
 62
    7
 10
2074.1646799801861
 20
1040.0612945262069
 11
2074.1646799801861
 21
1116.0612706512097
  0
LINE
  8
_0-1_
  6
CONTINUOUS
 62
    7
 10
2066.5648464070323
 20
1104.0619017995002
 11
2086.5647422761067
 21
1104.0619017995002
  0
LINE
  8
_0-1_
  6
CONTINUOUS
 62
    7
 10
2086.5647422761067
 20
1104.0619017995002
 11
2086.5647422761067
 21
1096.0619215799572
  0
LINE
  8
_0-1_
  6
CONTINUOUS
 62
    7
 10
2086.5647422761067
 20
1096.0619215799572
 11
2066.5648464070323
 21
1096.0619215799572
  0
LINE
  8
_0-1_
  6
CONTINUOUS
 62
    7
 10
2066.5648464070323
 20
1096.0619215799572
 11
2066.5648464070323
 21
1104.0619017995002
  0
LINE
  8
_0-1_
  6
CONTINUOUS
 62
    7
 10
1446.146383985129
 20
1136.0619320372357
 11
1526.1464048996856
 21
1136.0619320372357
  0
LINE
  8
_0-1_
  6
CONTINUOUS
 62
    7
 10
1526.1464048996856
 20
1136.0619320372357
 11
1526.1464048996856
 21
1096.0619215799572
  0
LINE
  8
_0-1_
  6
CONTINUOUS
 62
    7
 10
1526.1464048996856
 20
1096.0619215799572
 11
1446.146383985129
 21
1096.0619215799572
  0
LINE
  8
_0-1_
  6
CONTINUOUS
 62
    7
 10
1446.146383985129
 20
1096.0619215799572
 11
1446.146383985129
 21
1136.0619320372357
  0
LINE
  8
_0-1_
  6
CONTINUOUS
 62
    7
 10
1470.1463246437572
 20
1096.0619215799572
 11
1502.1463548814929
 21
1096.0619215799572
  0
LINE
  8
_0-1_
  6
CONTINUOUS
 62
    7
 10
1502.1463548814929
 20
1096.0619215799572
 11
1502.1463548814929
 21
1064.061891342222
  0
LINE
  8
_0-1_
  6
CONTINUOUS
 62
    7
 10
1502.1463548814929
 20
1064.061891342222
 11
1470.1463246437572
 21
1064.061891342222
  0
LINE
  8
_0-1_
  6
CONTINUOUS
 62
    7
 10
1470.1463246437572
 20
1064.061891342222
 11
1470.1463246437572
 21
1096.0619215799572
  0
LINE
  8
_0-1_
  6
CONTINUOUS
 62
    7
 10
1472.1464017183162
 20
1094.0618445053983
 11
1500.1463871664982
 21
1094.0618445053983
  0
LINE
  8
_0-1_
  6
CONTINUOUS
 62
    7
 10
1500.1463871664982
 20
1094.0618445053983
 11
1500.1463871664982
 21
1066.0618590572165
  0
LINE
  8
_0-1_
  6
CONTINUOUS
 62
    7
 10
1500.1463871664982
 20
1066.0618590572165
 11
1472.1464017183162
 21
1066.0618590572165
  0
LINE
  8
_0-1_
  6
CONTINUOUS
 62
    7
 10
1472.1464017183162
 20
1066.0618590572165
 11
1472.1464017183162
 21
1094.0618445053983
  0
LINE
  8
_0-1_
  6
CONTINUOUS
 62
    7
 10
1474.1463694333106
 20
1000.0612840689286
 11
1498.1464194515033
 21
1000.0612840689286
  0
LINE
  8
_0-1_
  6
CONTINUOUS
 62
    7
 10
1498.1464194515033
 20
1000.0612840689286
 11
1498.1464194515033
 21
992.06130384938581
  0
LINE
  8
_0-1_
  6
CONTINUOUS
 62
    7
 10
1498.1464194515033
 20
992.06130384938581
 11
1474.1463694333106
 21
992.06130384938581
  0
LINE
  8
_0-1_
  6
CONTINUOUS
 62
    7
 10
1474.1463694333106
 20
992.06130384938581
 11
1474.1463694333106
 21
1000.0612840689286
  0
LINE
  8
_0-1_
  6
CONTINUOUS
 62
    7
 10
1476.1463371483053
 20
1040.0612945262069
 11
1496.1463423769444
 21
1040.0612945262069
  0
LINE
  8
_0-1_
  6
CONTINUOUS
 62
    7
 10
1496.1463423769444
 20
1040.0612945262069
 11
1496.1463423769444
 21
1032.0613143066641
  0
LINE
  8
_0-1_
  6
CONTINUOUS
 62
    7
 10
1496.1463423769444
 20
1032.0613143066641
 11
1476.1463371483053
 21
1032.0613143066641
  0
LINE
  8
_0-1_
  6
CONTINUOUS
 62
    7
 10
1476.1463371483053
 20
1032.0613143066641
 11
1476.1463371483053
 21
1040.0612945262069
  0
LINE
  8
_0-1_
  6
CONTINUOUS
 62
    7
 10
1476.1463371483053
 20
1032.0613143066641
 11
1474.1463694333106
 21
1000.0612840689286
  0
LINE
  8
_0-1_
  6
CONTINUOUS
 62
    7
 10
1496.1463423769444
 20
1032.0613143066641
 11
1498.1464194515033
 21
1000.0612840689286
  0
LINE
  8
_0-1_
  6
CONTINUOUS
 62
    7
 10
1483.7463894405878
 20
1116.0612706512097
 11
1488.5463994442266
 21
1116.0612706512097
  0
LINE
  8
_0-1_
  6
CONTINUOUS
 62
    7
 10
1488.5463994442266
 20
1116.0612706512097
 11
1488.5463994442266
 21
1040.0612945262069
  0
LINE
  8
_0-1_
  6
CONTINUOUS
 62
    7
 10
1488.5463994442266
 20
1040.0612945262069
 11
1483.7463894405878
 21
1040.0612945262069
  0
LINE
  8
_0-1_
  6
CONTINUOUS
 62
    7
 10
1483.7463894405878
 20
1040.0612945262069
 11
1483.7463894405878
 21
1116.0612706512097
  0
LINE
  8
_0-1_
  6
CONTINUOUS
 62
    7
 10
1476.1463371483053
 20
1104.0619017995002
 11
1496.1463423769444
 21
1104.0619017995002
  0
LINE
  8
_0-1_
  6
CONTINUOUS
 62
    7
 10
1496.1463423769444
 20
1104.0619017995002
 11
1496.1463423769444
 21
1096.0619215799572
  0
LINE
  8
_0-1_
  6
CONTINUOUS
 62
    7
 10
1496.1463423769444
 20
1096.0619215799572
 11
1476.1463371483053
 21
1096.0619215799572
  0
LINE
  8
_0-1_
  6
CONTINUOUS
 62
    7
 10
1476.1463371483053
 20
1096.0619215799572
 11
1476.1463371483053
 21
1104.0619017995002
  0
LINE
  8
_0-0_
  6
CONTINUOUS
 62
    7
 10
2397.6983898855083
 20
1002.0613611434875
 11
1161.3458633422852
 21
1002.0613611434875
  0
ARC
  8
_0-0_
  6
CONTINUOUS
 62
    7
 10
4106.0876971506241
 20
1195.2190042002319
 40
49.999999401652211
 50
270
 51
349.92404174804687
  0
ARC
  8
_0-0_
  6
CONTINUOUS
 62
    7
 10
3709.8097547140819
 20
1195.2190042002319
 40
49.999999401652211
 50
190.07594299316403
 51
270
  0
ARC
  8
_0-0_
  6
CONTINUOUS
 62
    7
 10
4111.0320617793604
 20
1189.2782645796256
 40
49.999999401652211
 50
270
 51
349.92404174804687
  0
ARC
  8
_0-0_
  6
CONTINUOUS
 62
    7
 10
3704.8653900853451
 20
1189.2782645796256
 40
49.999999401652211
 50
190.07594299316403
 51
270
  0
ARC
  8
_0-0_
  6
CONTINUOUS
 62
    7
 10
3625.3231483076524
 20
1035.2190717306837
 40
30.000001007985883
 50
183.81147766113281
 51
270
  0
ARC
  8
_0-0_
  6
CONTINUOUS
 62
    7
 10
3630.9234516040697
 20
1041.2190842352318
 40
30.000001007985883
 50
183.81147766113281
 51
270
  0
ARC
  8
_0-0_
  6
CONTINUOUS
 62
    7
 10
4190.5745222761825
 20
1035.2190717306837
 40
30.000001007985883
 50
270
 51
356.18850708007812
  0
ARC
  8
_0-0_
  6
CONTINUOUS
 62
    7
 10
4184.9740002606359
 20
1041.2190842352318
 40
30.000001007985883
 50
270
 51
356.18850708007812
  0
ARC
  8
_0-0_
  6
CONTINUOUS
 62
    7
 10
4251.5359178933395
 20
1589.219096268466
 40
6.0000001161600167
 50
356.18850708007812
 51
90
  0
ARC
  8
_0-0_
  6
CONTINUOUS
 62
    7
 10
4245.1361961806597
 20
1583.2190837639178
 40
6.0000001161600167
 50
356.18850708007812
 51
90
  0
ARC
  8
_0-0_
  6
CONTINUOUS
 62
    7
 10
4237.9105910371163
 20
1583.2190837639178
 40
6.0000001161600167
 50
90
 51
169.92404174804685
  0
ARC
  8
_0-0_
  6
CONTINUOUS
 62
    7
 10
4232.9767249265697
 20
1589.219096268466
 40
6.0000001161600167
 50
90
 51
169.92404174804685
  0
ARC
  8
_0-0_
  6
CONTINUOUS
 62
    7
 10
3564.3617526904955
 20
1589.219096268466
 40
6.0000001161600167
 50
90
 51
183.81147766113281
  0
ARC
  8
_0-0_
  6
CONTINUOUS
 62
    7
 10
3570.7614744031753
 20
1583.2190837639178
 40
6.0000001161600167
 50
90
 51
183.81147766113281
  0
ARC
  8
_0-0_
  6
CONTINUOUS
 62
    7
 10
3577.9870795467182
 20
1583.2190837639178
 40
6.0000001161600167
 50
10.075942993164062
 51
90
  0
ARC
  8
_0-0_
  6
CONTINUOUS
 62
    7
 10
3582.9209456572657
 20
1589.219096268466
 40
6.0000001161600167
 50
10.075942993164062
 51
90
  0
ARC
  8
_0-0_
  6
CONTINUOUS
 62
    7
 10
2160.481090619297
 20
2970.2191128233681
 40
355.05130042440641
 50
279.67630004882818
 51
80.323684692382841
  0
ARC
  8
_0-0_
  6
CONTINUOUS
 62
    7
 10
1400.5835805620463
 20
2970.2191128233681
 40
355.05130042440641
 50
99.676300048828125
 51
260.32368469238281
  0
ARC
  8
_0-0_
  6
CONTINUOUS
 62
    7
 10
1396.5589298704876
 20
2970.2191128233681
 40
321.02658721010658
 50
94.583343505859361
 51
265.41664123535156
  0
ARC
  8
_0-0_
  6
CONTINUOUS
 62
    7
 10
2164.5057413108561
 20
2970.2191128233681
 40
321.02658721010658
 50
274.58334350585937
 51
85.416641235351563
  0
CIRCLE
  8
_0-0_
  6
CONTINUOUS
 62
    7
 10
1780.5322809108893
 20
2970.2191128233681
 40
24.999999700826105
  0
CIRCLE
  8
_0-0_
  6
CONTINUOUS
 62
    7
 10
1780.5322809108893
 20
2970.2191128233681
 40
40.000000204819045
  0
CIRCLE
  8
_0-0_
  6
CONTINUOUS
 62
    7
 10
1485.6156724760431
 20
2722.9398587495662
 40
24.999999700826105
  0
CIRCLE
  8
_0-0_
  6
CONTINUOUS
 62
    7
 10
1487.9188942633077
 20
3217.4874309407237
 40
24.999999700826105
  0
CIRCLE
  8
_0-0_
  6
CONTINUOUS
 62
    7
 10
2079.0340239476973
 20
2722.9398587495662
 40
24.999999700826105
  0
CIRCLE
  8
_0-0_
  6
CONTINUOUS
 62
    7
 10
2081.3371363753977
 20
3217.4874309407237
 40
24.999999700826105
  0
ARC
  8
_0-0_
  6
CONTINUOUS
 62
    7
 10
2279.8048424444601
 20
1192.061356135777
 40
49.999999401652211
 50
270
 51
339.28077697753906
  0
ARC
  8
_0-0_
  6
CONTINUOUS
 62
    7
 10
1279.169311302509
 20
1192.061356135777
 40
49.999999401652211
 50
200.70100402832034
 51
270
  0
ARC
  8
_0-0_
  6
CONTINUOUS
 62
    7
 10
2283.5355346267283
 20
1186.0618904290511
 40
49.999999401652211
 50
270
 51
339.28077697753906
  0
ARC
  8
_0-0_
  6
CONTINUOUS
 62
    7
 10
1275.4364319289514
 20
1186.0618904290511
 40
49.999999401652211
 50
200.70100402832034
 51
270
  0
ARC
  8
_0-0_
  6
CONTINUOUS
 62
    7
 10
2399.6983576005027
 20
1038.0613268112122
 40
30.000001007985883
 50
270
 51
351.93675231933594
  0
ARC
  8
_0-0_
  6
CONTINUOUS
 62
    7
 10
2404.9301191646618
 20
1032.0613143066641
 40
30.000001007985883
 50
270
 51
351.93675231933594
  0
ARC
  8
_0-0_
  6
CONTINUOUS
 62
    7
 10
1159.3458956272905
 20
1038.0613268112122
 40
30.000001007985883
 50
188.06323242187503
 51
270
  0
ARC
  8
_0-0_
  6
CONTINUOUS
 62
    7
 10
1154.1958256577893
 20
1032.0613143066641
 40
30.000001007985883
 50
188.06323242187503
 51
270
  0
ARC
  8
_0-0_
  6
CONTINUOUS
 62
    7
 10
2500.7212237501694
 20
1580.0613263398982
 40
6.0000001161600167
 50
351.93675231933594
 51
90.000000000000028
  0
ARC
  8
_0-0_
  6
CONTINUOUS
 62
    7
 10
2507.6530891035513
 20
1586.0613388444465
 40
6.0000001161600167
 50
351.93675231933594
 51
90.000000000000028
  0
ARC
  8
_0-0_
  6
CONTINUOUS
 62
    7
 10
2488.708294312466
 20
1586.0613388444465
 40
6.0000001161600167
 50
90
 51
159.28077697753906
  0
ARC
  8
_0-0_
  6
CONTINUOUS
 62
    7
 10
2492.4387677756054
 20
1580.0613263398982
 40
6.0000001161600167
 50
90
 51
159.28077697753906
  0
ARC
  8
_0-0_
  6
CONTINUOUS
 62
    7
 10
1051.4728557188998
 20
1586.0613388444465
 40
6.0000001161600167
 50
90
 51
188.063232421875
  0
ARC
  8
_0-0_
  6
CONTINUOUS
 62
    7
 10
1070.4162288356472
 20
1586.0613388444465
 40
6.0000001161600167
 50
20.701004028320312
 51
90
  0
ARC
  8
_0-0_
  6
CONTINUOUS
 62
    7
 10
1066.6835681812181
 20
1580.0613263398982
 40
6.0000001161600167
 50
20.701004028320312
 51
90
  0
ARC
  8
_0-0_
  6
CONTINUOUS
 62
    7
 10
1058.3229201180593
 20
1580.0613263398982
 40
6.0000001161600167
 50
90
 51
188.063232421875
  0
TEXT
  8
_0-0_
 62
    6
 10
4853.5819609653072
 20
4566.5102734068641
 40
250
 41
1
 50
0
  1
T24-147
  0
ENDSEC
  0
EOF
