  0
SECTION
  2
HEADER
  9
$ACADVER
  1
AC1015
  9
$ACADMAINTVER
 70
               6
  9
$DWGCODEPAGE
  3
ANSI_932
  9
$INSBASE
 10
0.0
 20
0.0
 30
0.0
  9
$EXTMIN
 10
-1243.7602007448982
 20
-789.99999999998886
 30
-14.834305555555554
  9
$EXTMAX
 10
1107.1356510221212
 20
1121.2346568226751
 30
14.834305555555554
  9
$LIMMIN
 10
0.0
 20
0.0
  9
$LIMMAX
 10
0.0
 20
0.0
  9
$ORTHOMODE
 70
               0
  9
$REGENMODE
 70
               1
  9
$FILLMODE
 70
               1
  9
$QTEXTMODE
 70
               0
  9
$MIRRTEXT
 70
               1
  9
$LTSCALE
 40
50.799999999999997
  9
$ATTMODE
 70
               1
  9
$TEXTSIZE
 40
0.2
  9
$TRACEWID
 40
1.0
  9
$TEXTSTYLE
  7
Standard
  9
$CLAYER
  8
DEFAULT_1
  9
$CELTYPE
  6
Continuous
  9
$CECOLOR
 62
             256
  9
$CELTSCALE
 40
1.0
  9
$DISPSILH
 70
               0
  9
$DIMSCALE
 40
1.0
  9
$DIMASZ
 40
0.18
  9
$DIMEXO
 40
0.0625
  9
$DIMDLI
 40
0.38
  9
$DIMRND
 40
0.0
  9
$DIMDLE
 40
0.0
  9
$DIMEXE
 40
0.18
  9
$DIMTP
 40
0.0
  9
$DIMTM
 40
0.0
  9
$DIMTXT
 40
0.18
  9
$DIMCEN
 40
0.09
  9
$DIMTSZ
 40
0.0
  9
$DIMTOL
 70
               0
  9
$DIMLIM
 70
               0
  9
$DIMTIH
 70
               1
  9
$DIMTOH
 70
               1
  9
$DIMSE1
 70
               0
  9
$DIMSE2
 70
               0
  9
$DIMTAD
 70
               0
  9
$DIMZIN
 70
               0
  9
$DIMBLK
  1

  9
$DIMASO
 70
               1
  9
$DIMSHO
 70
               1
  9
$DIMPOST
  1

  9
$DIMAPOST
  1

  9
$DIMALT
 70
               0
  9
$DIMALTD
 70
               2
  9
$DIMALTF
 40
25.399999999999999
  9
$DIMLFAC
 40
1.0
  9
$DIMTOFL
 70
               0
  9
$DIMTVP
 40
0.0
  9
$DIMTIX
 70
               0
  9
$DIMSOXD
 70
               0
  9
$DIMSAH
 70
               0
  9
$DIMBLK1
  1

  9
$DIMBLK2
  1

  9
$DIMSTYLE
  2
Standard
  9
$DIMCLRD
 70
               0
  9
$DIMCLRE
 70
               0
  9
$DIMCLRT
 70
               0
  9
$DIMTFAC
 40
1.0
  9
$DIMGAP
 40
0.09
  9
$DIMJUST
 70
               0
  9
$DIMSD1
 70
               0
  9
$DIMSD2
 70
               0
  9
$DIMTOLJ
 70
               1
  9
$DIMTZIN
 70
               0
  9
$DIMALTZ
 70
               0
  9
$DIMALTTZ
 70
               0
  9
$DIMUPT
 70
               0
  9
$DIMDEC
 70
               4
  9
$DIMTDEC
 70
               4
  9
$DIMALTU
 70
               2
  9
$DIMALTTD
 70
               2
  9
$DIMTXSTY
  7
Standard
  9
$DIMAUNIT
 70
               0
  9
$DIMADEC
 70
               0
  9
$DIMALTRND
 40
0.0
  9
$DIMAZIN
 70
               0
  9
$DIMDSEP
 70
               0
  9
$DIMATFIT
 70
               3
  9
$DIMFRAC
 70
               0
  9
$DIMLDRBLK
  1

  9
$DIMLUNIT
 70
               2
  9
$DIMLWD
 70
               0
  9
$DIMLWE
 70
               0
  9
$DIMTMOVE
 70
               0
  9
$LUNITS
 70
               2
  9
$LUPREC
 70
               4
  9
$SKETCHINC
 40
0.1
  9
$FILLETRAD
 40
0.0
  9
$AUNITS
 70
               0
  9
$AUPREC
 70
               0
  9
$MENU
  1
acad
  9
$ELEVATION
 40
0.0
  9
$PELEVATION
 40
0.0
  9
$THICKNESS
 40
0.0
  9
$LIMCHECK
 70
               0
  9
$CHAMFERA
 40
0.0
  9
$CHAMFERB
 40
0.0
  9
$CHAMFERC
 40
0.0
  9
$CHAMFERD
 40
0.0
  9
$SKPOLY
 70
               0
  9
$TDCREATE
 40
2456960.567083333
  9
$TDUCREATE
 40
0.000000000
  9
$TDUPDATE
 40
2456960.567083333
  9
$TDUUPDATE
 40
0.000000000
  9
$TDINDWG
 40
0.0000000000
  9
$TDUSRTIMER
 40
0.0000000000
  9
$USRTIMER
 70
               1
  9
$ANGBASE
 50
0.0
  9
$ANGDIR
 70
               0
  9
$PDMODE
 70
               1
  9
$PDSIZE
 40
-2.0
  9
$PLINEWID
 40
0.0
  9
$SPLFRAME
 70
               0
  9
$SPLINETYPE
 70
               6
  9
$SPLINESEGS
 70
               8
  9
$HANDSEED
  5
2E3
  9
$SURFTAB1
 70
               6
  9
$SURFTAB2
 70
               6
  9
$SURFTYPE
 70
               6
  9
$SURFU
 70
               6
  9
$SURFV
 70
               6
  9
$UCSBASE
  2

  9
$UCSNAME
  2

  9
$UCSORG
 10
0.0
 20
0.0
 30
0.0
  9
$UCSXDIR
 10
1.0
 20
0.0
 30
0.0
  9
$UCSYDIR
 10
0.0
 20
1.0
 30
0.0
  9
$UCSORTHOREF
  2

  9
$UCSORTHOVIEW
 70
               0
  9
$UCSORGTOP
 10
0.0
 20
0.0
 30
0.0
  9
$UCSORGBOTTOM
 10
0.0
 20
0.0
 30
0.0
  9
$UCSORGLEFT
 10
0.0
 20
0.0
 30
0.0
  9
$UCSORGRIGHT
 10
0.0
 20
0.0
 30
0.0
  9
$UCSORGFRONT
 10
0.0
 20
0.0
 30
0.0
  9
$UCSORGBACK
 10
0.0
 20
0.0
 30
0.0
  9
$PUCSBASE
  2

  9
$PUCSNAME
  2

  9
$PUCSORG
 10
0.0
 20
0.0
 30
0.0
  9
$PUCSXDIR
 10
1.0
 20
0.0
 30
0.0
  9
$PUCSYDIR
 10
0.0
 20
1.0
 30
0.0
  9
$PUCSORTHOREF
  2

  9
$PUCSORTHOVIEW
 70
               0
  9
$PUCSORGTOP
 10
0.0
 20
0.0
 30
0.0
  9
$PUCSORGBOTTOM
 10
0.0
 20
0.0
 30
0.0
  9
$PUCSORGLEFT
 10
0.0
 20
0.0
 30
0.0
  9
$PUCSORGRIGHT
 10
0.0
 20
0.0
 30
0.0
  9
$PUCSORGFRONT
 10
0.0
 20
0.0
 30
0.0
  9
$PUCSORGBACK
 10
0.0
 20
0.0
 30
0.0
  9
$USERI1
 70
               0
  9
$USERI2
 70
               0
  9
$USERI3
 70
               0
  9
$USERI4
 70
               0
  9
$USERI5
 70
               0
  9
$USERR1
 40
0.0
  9
$USERR2
 40
0.0
  9
$USERR3
 40
0.0
  9
$USERR4
 40
0.0
  9
$USERR5
 40
0.0
  9
$WORLDVIEW
 70
               1
  9
$SHADEDGE
 70
               3
  9
$SHADEDIF
 70
              70
  9
$TILEMODE
 70
               1
  9
$MAXACTVP
 70
              64
  9
$PINSBASE
 10
0.0
 20
0.0
 30
0.0
  9
$PLIMCHECK
 70
               0
  9
$PEXTMIN
 10
1.0000000000000000E+20
 20
1.0000000000000000E+20
 30
1.0000000000000000E+20
  9
$PEXTMAX
 10
-1.0000000000000000E+20
 20
-1.0000000000000000E+20
 30
-1.0000000000000000E+20
  9
$PLIMMIN
 10
0.0
 20
0.0
  9
$PLIMMAX
 10
12.0
 20
9.0
  9
$UNITMODE
 70
               0
  9
$VISRETAIN
 70
               0
  9
$PLINEGEN
 70
               1
  9
$PSLTSCALE
 70
               0
  9
$TREEDEPTH
 70
            3020
  9
$CMLSTYLE
  2
Standard
  9
$CMLJUST
 70
               0
  9
$CMLSCALE
 40
1.0
  9
$PROXYGRAPHICS
 70
               0
  9
$MEASUREMENT
 70
               1
  9
$CELWEIGHT
370
               0
  9
$ENDCAPS
280
               0
  9
$JOINSTYLE
280
               0
  9
$LWDISPLAY
290
               1
  9
$INSUNITS
 70
               4
  9
$HYPERLINKBASE
  1

  9
$STYLESHEET
  1

  9
$XEDIT
290
               1
  9
$CEPSNTYPE
380
               0
  9
$PSTYLEMODE
290
               1
  9
$FINGERPRINTGUID
  2

  9
$VERSIONGUID
  2

  9
$EXTNAMES
290
               1
  9
$PSVPSCALE
 40
0.0
  0
ENDSEC
  0
SECTION
  2
CLASSES
  0
CLASS
  1
LWPOLYLINE
  2
AcDbPolyline
  3
AutoCAD 2000
 90
        0
280
               0
281
               1
  0
CLASS
  1
IMAGE
  2
AcDbRasterImage
  3
ISM
 90
    32895
280
               0
281
               1
  0
CLASS
  1
OLE2FRAME
  2
AcDbOle2Frame
  3
AutoCAD 2000
 90
    32768
280
               0
281
               1
  0
CLASS
  1
HATCH
  2
AcDbHatch
  3
AutoCAD 2000
 90
    32768
280
               0
281
               1
  0
CLASS
  1
DICTIONARYVAR
  2
AcDbDictionaryVar
  3
AutoCAD 2000
 90
    32768
280
               0
281
               0
  0
CLASS
  1
RASTERVARIABLES
  2
AcDbRasterVariables
  3
ISM
 90
    32768
280
               0
281
               0
  0
CLASS
  1
IMAGEDEF
  2
AcDbRasterImageDef
  3
ISM
 90
    32768
280
               0
281
               0
  0
CLASS
  1
IMAGEDEF_REACTOR
  2
AcDbRasterImageDefReactor
  3
ISM
 90
    32769
280
               0
281
               0
  0
CLASS
  1
IDBUFFER
  2
AcDbIdBuffer
  3
AutoCAD 2000
 90
    32768
280
               0
281
               0
  0
CLASS
  1
SPATIAL_FILTER
  2
AcDbSpatialFilter
  3
AutoCAD 2000
 90
    32768
280
               0
281
               0
  0
CLASS
  1
XRECORD
  2
AcDbXrecord
  3
AutoCAD 2000
 90
    32768
280
               0
281
               0
  0
CLASS
  1
SORTENTSTABLE
  2
AcDbSortentsTable
  3
AutoCAD 2000
 90
    32768
280
               0
281
               0
  0
CLASS
  1
LAYER_INDEX
  2
AcDbLayerIndex
  3
AutoCAD 2000
 90
    32768
280
               0
281
               0
  0
CLASS
  1
SPATIAL_INDEX
  2
AcDbSpatialIndex
  3
AutoCAD 2000
 90
    32768
280
               0
281
               0
  0
CLASS
  1
OBJECT_PTR
  2
CAseDLPNTableRecord
  3
"ASE-LPNTableRecord"
 90
    32769
280
               0
281
               0
  0
CLASS
  1
LAYOUT
  2
AcDbLayout
  3
AutoCAD 2000
 90
        0
280
               0
281
               0
  0
CLASS
  1
PLOTSETTINGS
  2
AcDbPlotSettings
  3
AutoCAD 2000
 90
    32768
280
               0
281
               0
  0
CLASS
  1
ACDBDICTIONARYWDFLT
  2
AcDbDictionaryWithDefault
  3
AutoCAD 2000
 90
        0
280
               0
281
               0
  0
CLASS
  1
ACDBPLACEHOLDER
  2
AcDbPlaceHolder
  3
AutoCAD 2000
 90
        0
280
               0
281
               0
  0
CLASS
  1
VBA_PROJECT
  2
AcDbVbaProject
  3
acadvba
 90
    32768
280
               0
281
               0
  0
CLASS
  1
WIPEOUT
  2
AcDbWipeout
  3
WipeOut|AutoCAD Express Tool|expresstools@autodesk.com
 90
    32895
280
               0
281
               1
  0
CLASS
  1
WIPEOUTVARIABLES
  2
AcDbWipeoutVariables
  3
WipeOut|AutoCAD Express Tool|expresstools@autodesk.com
 90
        0
280
               0
281
               0
  0
CLASS
  1
RTEXT
  2
RText
  3
RText|AutoCAD Express Tool|expresstools@autodesk.com
 90
    32768
280
               0
281
               1
  0
CLASS
  1
ARCALIGNEDTEXT
  2
AcDbArcAlignedText
  3
ATEXT|AutoCAD Express Tool|expresstools@autodesk.com
 90
    32768
280
               0
281
               1
  0
ENDSEC
  0
SECTION
  2
TABLES
  0
TABLE
  2
VPORT
  5
7
100
AcDbSymbolTable
 70
               1
  0
VPORT
  5
15
100
AcDbSymbolTableRecord
100
AcDbViewportTableRecord
  2
*ACTIVE
 70
               0
 10
0.0
 20
0.0
 11
1.0
 21
1.0
 12
-68.31227486138846
 22
165.61732841134312
 13
0.0
 23
0.0
 14
1.0
 24
1.0
 15
0.0
 25
0.0
 16
0.0
 26
0.0
 36
1.0
 17
0.0
 27
0.0
 37
0.0
 40
1911.234656822664
 41
0.688564
 42
50.0
 43
0.0
 44
0.0
 50
0.0
 51
0.0
 71
               0
 72
            2000
 73
               1
 74
               1
 75
               0
 76
               0
 77
               0
 78
               0
281
               0
 65
               0
110
0.0
120
0.0
130
0.0
111
1.0
121
0.0
131
0.0
112
0.0
122
1.0
132
0.0
345
0
346
0
 79
               0
146
0.0
  0
ENDTAB
  0
TABLE
  2
LTYPE
  5
4
100
AcDbSymbolTable
 70
              17
  0
LTYPE
  5
11
100
AcDbSymbolTableRecord
100
AcDbLinetypeTableRecord
  2
ByBlock
 70
              64
  3

 72
              65
 73
               0
 40
0.0
  0
LTYPE
  5
12
100
AcDbSymbolTableRecord
100
AcDbLinetypeTableRecord
  2
ByLayer
 70
              64
  3

 72
              65
 73
               0
 40
0.0
  0
LTYPE
  5
13
100
AcDbSymbolTableRecord
100
AcDbLinetypeTableRecord
  2
Continuous
 70
              64
  3
Solid line
 72
              65
 73
               0
 40
0.0
  0
LTYPE
  5
2C
100
AcDbSymbolTableRecord
100
AcDbLinetypeTableRecord
  2
STYLE_01
 70
               0
  3

 72
              65
 73
               4
 40
2.8125
 49
1.875
 74
               0
 49
-0.3125
 74
               0
 49
0.3125
 74
               0
 49
-0.3125
 74
               0
  0
LTYPE
  5
2D
100
AcDbSymbolTableRecord
100
AcDbLinetypeTableRecord
  2
STYLE_02
 70
               0
  3

 72
              65
 73
               2
 40
0.6944250000000001
 49
0.48607
 74
               0
 49
-0.2083550000000001
 74
               0
  0
LTYPE
  5
2E
100
AcDbSymbolTableRecord
100
AcDbLinetypeTableRecord
  2
STYLE_03
 70
               0
  3

 72
              65
 73
               2
 40
1.25
 49
1.0416400000000001
 74
               0
 49
-0.2083599999999999
 74
               0
  0
LTYPE
  5
2F
100
AcDbSymbolTableRecord
100
AcDbLinetypeTableRecord
  2
STYLE_04
 70
               0
  3

 72
              65
 73
               2
 40
1.5277099999999999
 49
1.3194249999999998
 74
               0
 49
-0.208285
 74
               0
  0
LTYPE
  5
30
100
AcDbSymbolTableRecord
100
AcDbLinetypeTableRecord
  2
STYLE_05
 70
               0
  3

 72
              65
 73
               2
 40
0.20828
 49
0.069425
 74
               0
 49
-0.138855
 74
               0
  0
LTYPE
  5
31
100
AcDbSymbolTableRecord
100
AcDbLinetypeTableRecord
  2
STYLE_06
 70
               0
  3

 72
              65
 73
               4
 40
1.0416400000000001
 49
0.625
 74
               0
 49
-0.20828
 74
               0
 49
0.06943
 74
               0
 49
-0.13893
 74
               0
  0
LTYPE
  5
32
100
AcDbSymbolTableRecord
100
AcDbLinetypeTableRecord
  2
STYLE_07
 70
               0
  3

 72
              65
 73
               6
 40
1.875
 49
0.625
 74
               0
 49
-0.20828
 74
               0
 49
0.6250000000000001
 74
               0
 49
-0.2083599999999999
 74
               0
 49
0.06943
 74
               0
 49
-0.1389299999999999
 74
               0
  0
LTYPE
  5
33
100
AcDbSymbolTableRecord
100
AcDbLinetypeTableRecord
  2
STYLE_08
 70
               0
  3

 72
              65
 73
               6
 40
1.25
 49
0.625
 74
               0
 49
-0.20828
 74
               0
 49
0.06943
 74
               0
 49
-0.13893
 74
               0
 49
0.0694299999999999
 74
               0
 49
-0.13893
 74
               0
  0
LTYPE
  5
34
100
AcDbSymbolTableRecord
100
AcDbLinetypeTableRecord
  2
STYLE_09
 70
               0
  3

 72
              65
 73
               4
 40
5.0
 49
3.75
 74
               0
 49
-0.2777849999999998
 74
               0
 49
0.6944300000000003
 74
               0
 49
-0.2777849999999998
 74
               0
  0
LTYPE
  5
35
100
AcDbSymbolTableRecord
100
AcDbLinetypeTableRecord
  2
STYLE_10
 70
               0
  3

 72
              65
 73
               6
 40
5.9375
 49
3.75
 74
               0
 49
-0.2777849999999998
 74
               0
 49
0.6944300000000003
 74
               0
 49
-0.2777849999999998
 74
               0
 49
0.625
 74
               0
 49
-0.3125
 74
               0
  0
LTYPE
  5
36
100
AcDbSymbolTableRecord
100
AcDbLinetypeTableRecord
  2
STYLE_11
 70
               0
  3

 72
              65
 73
               2
 40
0.41664
 49
0.20828
 74
               0
 49
-0.20836
 74
               0
  0
LTYPE
  5
37
100
AcDbSymbolTableRecord
100
AcDbLinetypeTableRecord
  2
STYLE_12
 70
               0
  3

 72
              65
 73
               4
 40
1.3641732283464569
 49
0.8526082677165356
 74
               0
 49
-0.1705216535433071
 74
               0
 49
0.1705216535433071
 74
               0
 49
-0.1705216535433071
 74
               0
  0
LTYPE
  5
38
100
AcDbSymbolTableRecord
100
AcDbLinetypeTableRecord
  2
STYLE_13
 70
               0
  3

 72
              65
 73
               4
 40
0.9646653543307084
 49
0.6029158464566929
 74
               0
 49
-0.1205831692913385
 74
               0
 49
0.1205831692913385
 74
               0
 49
-0.1205831692913385
 74
               0
  0
LTYPE
  5
39
100
AcDbSymbolTableRecord
100
AcDbLinetypeTableRecord
  2
STYLE_14
 70
               0
  3

 72
              65
 73
               4
 40
0.3858661417322835
 49
0.2411663385826772
 74
               0
 49
-0.0482332677165354
 74
               0
 49
0.0482332677165355
 74
               0
 49
-0.0482332677165354
 74
               0
  0
ENDTAB
  0
TABLE
  2
LAYER
  5
2
100
AcDbSymbolTable
 70
              11
  0
LAYER
  5
14
100
AcDbSymbolTableRecord
100
AcDbLayerTableRecord
  2
0
 70
               0
 62
               7
  6
Continuous
290
               1
370
              15
390
1D
  0
LAYER
  5
3A
100
AcDbSymbolTableRecord
100
AcDbLayerTableRecord
  2
一般
 70
               0
 62
               7
  6
Continuous
290
               1
370
               5
390
1D
  0
LAYER
  5
3B
100
AcDbSymbolTableRecord
100
AcDbLayerTableRecord
  2
寸法
 70
               0
 62
               7
  6
Continuous
290
               1
370
               5
390
1D
  0
LAYER
  5
3C
100
AcDbSymbolTableRecord
100
AcDbLayerTableRecord
  2
center
 70
               0
 62
               7
  6
STYLE_12
290
               1
370
              15
390
1D
  0
LAYER
  5
3D
100
AcDbSymbolTableRecord
100
AcDbLayerTableRecord
  2
1
 70
               0
 62
               7
  6
Continuous
290
               1
370
              15
390
1D
  0
LAYER
  5
3E
100
AcDbSymbolTableRecord
100
AcDbLayerTableRecord
  2
LAYER1
 70
               0
 62
               7
  6
Continuous
290
               1
370
              15
390
1D
  0
LAYER
  5
3F
100
AcDbSymbolTableRecord
100
AcDbLayerTableRecord
  2
LAYER3
 70
               0
 62
               7
  6
Continuous
290
               1
370
              15
390
1D
  0
LAYER
  5
40
100
AcDbSymbolTableRecord
100
AcDbLayerTableRecord
  2
LAYER55
 70
               0
 62
               7
  6
Continuous
290
               1
370
              15
390
1D
  0
LAYER
  5
41
100
AcDbSymbolTableRecord
100
AcDbLayerTableRecord
  2
DEFAULT
 70
               0
 62
               7
  6
Continuous
290
               1
370
              15
390
1D
  0
LAYER
  5
42
100
AcDbSymbolTableRecord
100
AcDbLayerTableRecord
  2
DEFAULT_1
 70
               0
 62
               7
  6
STYLE_13
290
               1
370
              15
390
1D
  0
LAYER
  5
43
100
AcDbSymbolTableRecord
100
AcDbLayerTableRecord
  2
_1-0_
 70
               0
 62
               7
  6
Continuous
290
               1
370
              15
390
1D
  0
ENDTAB
  0
TABLE
  2
STYLE
  5
3
100
AcDbSymbolTable
 70
               3
  0
STYLE
  5
17
100
AcDbSymbolTableRecord
100
AcDbTextStyleTableRecord
  2
Standard
 70
               0
 40
0.0
 41
1.0
 50
0.0
 71
               0
 42
0.0
  3
txt
  4
BIGFONT.SHX
  0
STYLE
  5
2A
100
AcDbSymbolTableRecord
100
AcDbTextStyleTableRecord
  2
Arial
 70
               0
 40
0.0
 41
1.0
 50
0.0
 71
               0
 42
0.0
  3

  4
Arial
1001
ACAD
1000
Arial
1071
        0
  0
STYLE
  5
2B
100
AcDbSymbolTableRecord
100
AcDbTextStyleTableRecord
  2
ＭＳ ゴシック
 70
               0
 40
0.0
 41
1.0
 50
0.0
 71
               0
 42
0.0
  3

  4
ＭＳ ゴシック
1001
ACAD
1000
ＭＳ ゴシック
1071
        0
  0
ENDTAB
  0
TABLE
  2
VIEW
  5
5
100
AcDbSymbolTable
 70
               0
  0
ENDTAB
  0
TABLE
  2
UCS
  5
6
100
AcDbSymbolTable
 70
               0
  0
ENDTAB
  0
TABLE
  2
APPID
  5
8
100
AcDbSymbolTable
 70
               1
  0
APPID
  5
16
100
AcDbSymbolTableRecord
100
AcDbRegAppTableRecord
  2
ACAD
 70
               0
  0
ENDTAB
  0
TABLE
  2
DIMSTYLE
  5
9
100
AcDbSymbolTable
 70
               1
100
AcDbDimStyleTable
 71
               0
  0
DIMSTYLE
105
18
100
AcDbSymbolTableRecord
100
AcDbDimStyleTableRecord
  2
Standard
 70
               0
  3

  4

 40
1.0
 41
0.18
 42
0.0625
 43
0.38
 44
0.18
 45
0.0
 46
0.0
 47
0.0
 48
0.0
 71
               0
 72
               0
 73
               1
 74
               1
 75
               0
 76
               0
 77
               0
 78
               0
 79
               0
140
0.18
141
0.09
142
0.0
143
25.399999999999999
144
1.0
145
0.0
146
1.0
147
0.09
148
0.0
170
               0
171
               2
172
               0
173
               0
174
               0
175
               0
176
               0
177
               0
178
               0
179
               0
271
               4
272
               4
273
               2
274
               2
275
               0
276
               0
277
               2
278
              46
279
               0
280
               0
281
               0
282
               0
283
               1
284
               0
285
               0
286
               0
288
               0
340
17
341
0
342
0
343
0
344
0
371
              -2
372
              -2
  0
ENDTAB
  0
TABLE
  2
BLOCK_RECORD
  5
1
100
AcDbSymbolTable
 70
               6
  0
BLOCK_RECORD
  5
A
100
AcDbSymbolTableRecord
100
AcDbBlockTableRecord
  2
*MODEL_SPACE
340
20
  0
BLOCK_RECORD
  5
B
100
AcDbSymbolTableRecord
100
AcDbBlockTableRecord
  2
*PAPER_SPACE
340
21
  0
BLOCK_RECORD
  5
24
100
AcDbSymbolTableRecord
100
AcDbBlockTableRecord
  2
グループ
340
0
102
{BLKREFS
331
59
102
}
  0
BLOCK_RECORD
  5
25
100
AcDbSymbolTableRecord
100
AcDbBlockTableRecord
  2
1_10
340
0
102
{BLKREFS
331
2DD
102
}
  0
BLOCK_RECORD
  5
26
100
AcDbSymbolTableRecord
100
AcDbBlockTableRecord
  2
グループ-1
340
0
102
{BLKREFS
331
2DF
102
}
  0
BLOCK_RECORD
  5
27
100
AcDbSymbolTableRecord
100
AcDbBlockTableRecord
  2
グループ-2
340
0
102
{BLKREFS
331
2E0
102
}
  0
BLOCK_RECORD
  5
28
100
AcDbSymbolTableRecord
100
AcDbBlockTableRecord
  2
グループ-3
340
0
102
{BLKREFS
331
2E1
102
}
  0
BLOCK_RECORD
  5
29
100
AcDbSymbolTableRecord
100
AcDbBlockTableRecord
  2
グループ-4
340
0
102
{BLKREFS
331
2E2
102
}
  0
ENDTAB
  0
ENDSEC
  0
SECTION
  2
BLOCKS
  0
BLOCK
  5
D
100
AcDbEntity
  8
0
100
AcDbBlockBegin
  2
*MODEL_SPACE
 70
               0
 10
0.0
 20
0.0
 30
0.0
  3
*MODEL_SPACE
  1

  0
ENDBLK
  5
E
100
AcDbEntity
  8
0
100
AcDbBlockEnd
  0
BLOCK
  5
F
100
AcDbEntity
 67
               1
  8
0
100
AcDbBlockBegin
  2
*PAPER_SPACE
 70
               0
 10
0.0
 20
0.0
 30
0.0
  3
*PAPER_SPACE
  1

  0
ENDBLK
  5
10
100
AcDbEntity
 67
               1
  8
0
100
AcDbBlockEnd
  0
BLOCK
  5
44
100
AcDbEntity
  8
一般
100
AcDbBlockBegin
  2
グループ
 70
               0
 10
0.0
 20
0.0
 30
0.0
  3
グループ
  1

  0
LINE
  5
45
100
AcDbEntity
  8
一般
370
              15
  6
Continuous
 62
               9
100
AcDbLine
 10
-33.119899627550922
 20
-0.8608946790423033
 30
0.0
 11
-33.119899627550922
 21
-20.860894679042303
 31
0.0
  0
POLYLINE
  5
46
100
AcDbEntity
  8
一般
370
              15
  6
Continuous
 62
               9
100
AcDb2dPolyline
 66
               1
 10
0.0
 20
0.0
 30
0.0
 75
               5
  0
VERTEX
  5
47
100
AcDbEntity
  8
一般
370
              15
  6
Continuous
 62
               9
100
AcDbVertex
100
AcDb2dVertex
 10
-133.11989962755092
 20
-0.8608946790423033
 30
0.0
  0
VERTEX
  5
48
100
AcDbEntity
  8
一般
370
              15
  6
Continuous
 62
               9
100
AcDbVertex
100
AcDb2dVertex
 10
-133.11989962755092
 20
-20.860894679042303
 30
0.0
  0
VERTEX
  5
49
100
AcDbEntity
  8
一般
370
              15
  6
Continuous
 62
               9
100
AcDbVertex
100
AcDb2dVertex
 10
66.880100372449078
 20
-20.860894679042303
 30
0.0
  0
VERTEX
  5
4A
100
AcDbEntity
  8
一般
370
              15
  6
Continuous
 62
               9
100
AcDbVertex
100
AcDb2dVertex
 10
66.880100372449078
 20
-0.8608946790423033
 30
0.0
  0
SEQEND
  5
4B
100
AcDbEntity
  8
一般
370
              15
  6
Continuous
 62
               9
  0
LINE
  5
4C
100
AcDbEntity
  8
一般
370
               5
  6
Continuous
 62
               9
100
AcDbLine
 10
-113.11989962755092
 20
-5.8608946790423033
 30
0.0
 11
-113.11989962755092
 21
-20.860894679042303
 31
0.0
  0
LINE
  5
4D
100
AcDbEntity
  8
一般
370
               5
  6
Continuous
 62
               9
100
AcDbLine
 10
-93.119899627550922
 20
-5.8608946790423033
 30
0.0
 11
-93.119899627550922
 21
-20.860894679042303
 31
0.0
  0
LINE
  5
4E
100
AcDbEntity
  8
一般
370
               5
  6
Continuous
 62
               9
100
AcDbLine
 10
-73.119899627550922
 20
-5.8608946790423033
 30
0.0
 11
-73.119899627550922
 21
-20.860894679042303
 31
0.0
  0
LINE
  5
4F
100
AcDbEntity
  8
一般
370
               5
  6
Continuous
 62
               9
100
AcDbLine
 10
-53.119899627550922
 20
-5.8608946790423033
 30
0.0
 11
-53.119899627550922
 21
-20.860894679042303
 31
0.0
  0
LINE
  5
50
100
AcDbEntity
  8
一般
370
               5
  6
Continuous
 62
               9
100
AcDbLine
 10
-13.119899627550922
 20
-5.8608946790423033
 30
0.0
 11
-13.119899627550922
 21
-20.860894679042303
 31
0.0
  0
LINE
  5
51
100
AcDbEntity
  8
一般
370
               5
  6
Continuous
 62
               9
100
AcDbLine
 10
6.8801003724490783
 20
-5.8608946790423033
 30
0.0
 11
6.8801003724490783
 21
-20.860894679042303
 31
0.0
  0
LINE
  5
52
100
AcDbEntity
  8
一般
370
               5
  6
Continuous
 62
               9
100
AcDbLine
 10
26.880100372449078
 20
-5.8608946790423033
 30
0.0
 11
26.880100372449078
 21
-20.860894679042303
 31
0.0
  0
LINE
  5
53
100
AcDbEntity
  8
一般
370
               5
  6
Continuous
 62
               9
100
AcDbLine
 10
46.880100372449078
 20
-5.8608946790423033
 30
0.0
 11
46.880100372449078
 21
-20.860894679042303
 31
0.0
  0
MTEXT
  5
54
100
AcDbEntity
  8
一般
 62
               9
100
AcDbMText
 10
-136.88010037244908
 20
18.945972804042416
 30
0.0
 40
16.288411458333332
 41
30.0
 71
               1
 72
               1
  1
0
  7
ＭＳ ゴシック
 73
               1
 44
0.7828267384257843
  0
MTEXT
  5
55
100
AcDbEntity
  8
一般
 62
               9
100
AcDbMText
 10
-48.228066425365569
 20
17.639448705947533
 30
0.0
 40
16.288411458333332
 41
40.0
 71
               1
 72
               1
  1
100
  7
ＭＳ ゴシック
 73
               1
 44
0.7828267384257843
  0
MTEXT
  5
56
100
AcDbEntity
  8
一般
 62
               9
100
AcDbMText
 10
46.584574016184888
 20
15.866118883654512
 30
0.0
 40
16.288411458333332
 41
90.29552635626419
 71
               1
 72
               1
  1
200mm
  7
ＭＳ ゴシック
 73
               1
 44
0.7828267384257843
  0
ENDBLK
  5
57
100
AcDbEntity
  8
一般
100
AcDbBlockEnd
  0
BLOCK
  5
58
100
AcDbEntity
  8
一般
100
AcDbBlockBegin
  2
1_10
 70
               0
 10
0.0
 20
0.0
 30
0.0
  3
1_10
  1

  0
INSERT
  5
59
100
AcDbEntity
  8
一般
 62
               9
100
AcDbBlockReference
  2
グループ
 10
0.0
 20
0.0
 30
0.0
  0
ENDBLK
  5
5A
100
AcDbEntity
  8
一般
100
AcDbBlockEnd
  0
BLOCK
  5
5B
100
AcDbEntity
  8
DEFAULT_1
100
AcDbBlockBegin
  2
グループ-1
 70
               0
 10
0.0
 20
0.0
 30
0.0
  3
グループ-1
  1

  0
LWPOLYLINE
  5
5C
100
AcDbEntity
  8
一般
370
              15
  6
Continuous
 62
               7
100
AcDbPolyline
 90
        4
 70
             128
 10
-329.24878929488227
 20
-347.92121597166107
 10
-329.24878929488227
 20
-344.34716958885019
 42
0.4121230475684406
 10
-331.23450394501413
 20
-342.34722060730616
 10
-355.24878929488227
 20
-342.17568999766422
  0
LWPOLYLINE
  5
5D
100
AcDbEntity
  8
一般
370
              15
  6
Continuous
 62
               7
100
AcDbPolyline
 90
        3
 70
             128
 10
-329.25265945537194
 20
-392.5000000000004
 42
-0.3940403751625639
 10
-331.23450394501413
 20
-394.37558795945085
 10
-334.3127465110565
 20
-394.39757540635117
  0
LINE
  5
5E
100
AcDbEntity
  8
一般
370
              15
  6
Continuous
 62
               7
100
AcDbLine
 10
-364.24878929488227
 20
-344.5
 30
0.0
 11
-364.24878929488227
 21
-392.5
 31
0.0
  0
LINE
  5
5F
100
AcDbEntity
  8
一般
370
              15
  6
Continuous
 62
               7
100
AcDbLine
 10
-355.24878929488227
 20
-394.54711856909285
 30
0.0
 11
-354.27729177084393
 21
-394.54017930106397
 31
0.0
  0
POLYLINE
  5
60
100
AcDbEntity
  8
一般
370
              15
  6
Continuous
 62
               7
100
AcDb2dPolyline
 66
               1
 10
0.0
 20
0.0
 30
0.0
 70
               1
 75
               5
  0
VERTEX
  5
61
100
AcDbEntity
  8
一般
370
              15
  6
Continuous
 62
               7
100
AcDbVertex
100
AcDb2dVertex
 10
-354.24878929488227
 20
-395.61140428337853
 30
0.0
  0
VERTEX
  5
62
100
AcDbEntity
  8
一般
370
              15
  6
Continuous
 62
               7
100
AcDbVertex
100
AcDb2dVertex
 10
-334.24878929488227
 20
-395.61140428337853
 30
0.0
  0
VERTEX
  5
63
100
AcDbEntity
  8
一般
370
              15
  6
Continuous
 62
               7
100
AcDbVertex
100
AcDb2dVertex
 10
-334.24878929488227
 20
-403.61140428337853
 30
0.0
  0
VERTEX
  5
64
100
AcDbEntity
  8
一般
370
              15
  6
Continuous
 62
               7
100
AcDbVertex
100
AcDb2dVertex
 10
-354.24878929488227
 20
-403.61140428337853
 30
0.0
  0
SEQEND
  5
65
100
AcDbEntity
  8
一般
370
              15
  6
Continuous
 62
               7
  0
POLYLINE
  5
66
100
AcDbEntity
  8
一般
370
              15
  6
Continuous
 62
               7
100
AcDb2dPolyline
 66
               1
 10
0.0
 20
0.0
 30
0.0
 70
               1
 75
               5
  0
VERTEX
  5
67
100
AcDbEntity
  8
一般
370
              15
  6
Continuous
 62
               7
100
AcDbVertex
100
AcDb2dVertex
 10
-354.74878929488227
 20
-396.61140428337853
 30
0.0
  0
VERTEX
  5
68
100
AcDbEntity
  8
一般
370
              15
  6
Continuous
 62
               7
100
AcDbVertex
100
AcDb2dVertex
 10
-333.74878929488227
 20
-396.61140428337853
 30
0.0
  0
VERTEX
  5
69
100
AcDbEntity
  8
一般
370
              15
  6
Continuous
 62
               7
100
AcDbVertex
100
AcDb2dVertex
 10
-333.74878929488227
 20
-397.61140428337853
 30
0.0
  0
VERTEX
  5
6A
100
AcDbEntity
  8
一般
370
              15
  6
Continuous
 62
               7
100
AcDbVertex
100
AcDb2dVertex
 10
-354.74878929488227
 20
-397.61140428337853
 30
0.0
  0
SEQEND
  5
6B
100
AcDbEntity
  8
一般
370
              15
  6
Continuous
 62
               7
  0
POLYLINE
  5
6C
100
AcDbEntity
  8
一般
370
              15
  6
Continuous
 62
               7
100
AcDb2dPolyline
 66
               1
 10
0.0
 20
0.0
 30
0.0
 70
               1
 75
               5
  0
VERTEX
  5
6D
100
AcDbEntity
  8
一般
370
              15
  6
Continuous
 62
               7
100
AcDbVertex
100
AcDb2dVertex
 10
-354.74878929488227
 20
-398.61140428337853
 30
0.0
  0
VERTEX
  5
6E
100
AcDbEntity
  8
一般
370
              15
  6
Continuous
 62
               7
100
AcDbVertex
100
AcDb2dVertex
 10
-333.74878929488227
 20
-398.61140428337853
 30
0.0
  0
VERTEX
  5
6F
100
AcDbEntity
  8
一般
370
              15
  6
Continuous
 62
               7
100
AcDbVertex
100
AcDb2dVertex
 10
-333.74878929488227
 20
-399.61140428337853
 30
0.0
  0
VERTEX
  5
70
100
AcDbEntity
  8
一般
370
              15
  6
Continuous
 62
               7
100
AcDbVertex
100
AcDb2dVertex
 10
-354.74878929488227
 20
-399.61140428337853
 30
0.0
  0
SEQEND
  5
71
100
AcDbEntity
  8
一般
370
              15
  6
Continuous
 62
               7
  0
POLYLINE
  5
72
100
AcDbEntity
  8
一般
370
              15
  6
Continuous
 62
               7
100
AcDb2dPolyline
 66
               1
 10
0.0
 20
0.0
 30
0.0
 70
               1
 75
               5
  0
VERTEX
  5
73
100
AcDbEntity
  8
一般
370
              15
  6
Continuous
 62
               7
100
AcDbVertex
100
AcDb2dVertex
 10
-354.74878929488227
 20
-400.61140428337853
 30
0.0
  0
VERTEX
  5
74
100
AcDbEntity
  8
一般
370
              15
  6
Continuous
 62
               7
100
AcDbVertex
100
AcDb2dVertex
 10
-333.74878929488227
 20
-400.61140428337853
 30
0.0
  0
VERTEX
  5
75
100
AcDbEntity
  8
一般
370
              15
  6
Continuous
 62
               7
100
AcDbVertex
100
AcDb2dVertex
 10
-333.74878929488227
 20
-401.61140428337853
 30
0.0
  0
VERTEX
  5
76
100
AcDbEntity
  8
一般
370
              15
  6
Continuous
 62
               7
100
AcDbVertex
100
AcDb2dVertex
 10
-354.74878929488227
 20
-401.61140428337853
 30
0.0
  0
SEQEND
  5
77
100
AcDbEntity
  8
一般
370
              15
  6
Continuous
 62
               7
  0
POLYLINE
  5
78
100
AcDbEntity
  8
一般
370
              15
  6
Continuous
 62
               7
100
AcDb2dPolyline
 66
               1
 10
0.0
 20
0.0
 30
0.0
 70
               1
 75
               5
  0
VERTEX
  5
79
100
AcDbEntity
  8
一般
370
              15
  6
Continuous
 62
               7
100
AcDbVertex
100
AcDb2dVertex
 10
-354.74878929488227
 20
-402.61140428337853
 30
0.0
  0
VERTEX
  5
7A
100
AcDbEntity
  8
一般
370
              15
  6
Continuous
 62
               7
100
AcDbVertex
100
AcDb2dVertex
 10
-333.74878929488227
 20
-402.61140428337853
 30
0.0
  0
VERTEX
  5
7B
100
AcDbEntity
  8
一般
370
              15
  6
Continuous
 62
               7
100
AcDbVertex
100
AcDb2dVertex
 10
-333.74878929488227
 20
-403.61140428337853
 30
0.0
  0
VERTEX
  5
7C
100
AcDbEntity
  8
一般
370
              15
  6
Continuous
 62
               7
100
AcDbVertex
100
AcDb2dVertex
 10
-354.74878929488227
 20
-403.61140428337853
 30
0.0
  0
SEQEND
  5
7D
100
AcDbEntity
  8
一般
370
              15
  6
Continuous
 62
               7
  0
LINE
  5
7E
100
AcDbEntity
  8
一般
370
              15
  6
Continuous
 62
               7
100
AcDbLine
 10
-338.24878929488227
 20
-393.45934871369047
 30
0.0
 11
-338.24878929488227
 21
-395.61140428337853
 31
0.0
  0
LINE
  5
7F
100
AcDbEntity
  8
一般
370
              15
  6
Continuous
 62
               7
100
AcDbLine
 10
-350.24878929488227
 20
-393.54275417873009
 30
0.0
 11
-350.24878929488227
 21
-395.61140428337853
 31
0.0
  0
SPLINE
  5
80
100
AcDbEntity
  8
一般
370
              15
  6
Continuous
 62
               7
100
AcDbSpline
210
0.0
220
0.0
230
1.0
 70
               8
 71
               2
 72
               6
 73
               3
 74
               0
 42
0.000001
 43
0.000001
 40
0.0
 40
0.0
 40
0.0
 40
1.0
 40
1.0
 40
1.0
 10
-334.24878929488227
 20
-394.39711856909275
 30
0.0
 10
-344.25261563027334
 20
-391.46857447148841
 30
0.0
 10
-354.25644196566441
 20
-394.54003037388406
 30
0.0
  0
POLYLINE
  5
81
100
AcDbEntity
  8
一般
370
              15
  6
Continuous
 62
               7
100
AcDb2dPolyline
 66
               1
 10
0.0
 20
0.0
 30
0.0
 70
               1
 75
               5
  0
VERTEX
  5
82
100
AcDbEntity
  8
一般
370
              15
  6
Continuous
 62
               7
100
AcDbVertex
100
AcDb2dVertex
 10
-376.24878929488227
 20
-358.36140428337853
 30
0.0
  0
VERTEX
  5
83
100
AcDbEntity
  8
一般
370
              15
  6
Continuous
 62
               7
100
AcDbVertex
100
AcDb2dVertex
 10
-364.24878929488227
 20
-358.36140428337853
 30
0.0
  0
VERTEX
  5
84
100
AcDbEntity
  8
一般
370
              15
  6
Continuous
 62
               7
100
AcDbVertex
100
AcDb2dVertex
 10
-364.24878929488227
 20
-378.36140428337853
 30
0.0
  0
VERTEX
  5
85
100
AcDbEntity
  8
一般
370
              15
  6
Continuous
 62
               7
100
AcDbVertex
100
AcDb2dVertex
 10
-376.24878929488227
 20
-378.36140428337853
 30
0.0
  0
SEQEND
  5
86
100
AcDbEntity
  8
一般
370
              15
  6
Continuous
 62
               7
  0
POLYLINE
  5
87
100
AcDbEntity
  8
一般
370
              15
  6
Continuous
 62
               7
100
AcDb2dPolyline
 66
               1
 10
0.0
 20
0.0
 30
0.0
 70
               1
 75
               5
  0
VERTEX
  5
88
100
AcDbEntity
  8
一般
370
              15
  6
Continuous
 62
               7
100
AcDbVertex
100
AcDb2dVertex
 10
-366.24878929488227
 20
-357.86140428337853
 30
0.0
  0
VERTEX
  5
89
100
AcDbEntity
  8
一般
370
              15
  6
Continuous
 62
               7
100
AcDbVertex
100
AcDb2dVertex
 10
-365.24878929488227
 20
-357.86140428337853
 30
0.0
  0
VERTEX
  5
8A
100
AcDbEntity
  8
一般
370
              15
  6
Continuous
 62
               7
100
AcDbVertex
100
AcDb2dVertex
 10
-365.24878929488227
 20
-378.86140428337853
 30
0.0
  0
VERTEX
  5
8B
100
AcDbEntity
  8
一般
370
              15
  6
Continuous
 62
               7
100
AcDbVertex
100
AcDb2dVertex
 10
-366.24878929488227
 20
-378.86140428337853
 30
0.0
  0
SEQEND
  5
8C
100
AcDbEntity
  8
一般
370
              15
  6
Continuous
 62
               7
  0
POLYLINE
  5
8D
100
AcDbEntity
  8
一般
370
              15
  6
Continuous
 62
               7
100
AcDb2dPolyline
 66
               1
 10
0.0
 20
0.0
 30
0.0
 70
               1
 75
               5
  0
VERTEX
  5
8E
100
AcDbEntity
  8
一般
370
              15
  6
Continuous
 62
               7
100
AcDbVertex
100
AcDb2dVertex
 10
-368.24878929488227
 20
-357.86140428337853
 30
0.0
  0
VERTEX
  5
8F
100
AcDbEntity
  8
一般
370
              15
  6
Continuous
 62
               7
100
AcDbVertex
100
AcDb2dVertex
 10
-367.24878929488227
 20
-357.86140428337853
 30
0.0
  0
VERTEX
  5
90
100
AcDbEntity
  8
一般
370
              15
  6
Continuous
 62
               7
100
AcDbVertex
100
AcDb2dVertex
 10
-367.24878929488227
 20
-378.86140428337853
 30
0.0
  0
VERTEX
  5
91
100
AcDbEntity
  8
一般
370
              15
  6
Continuous
 62
               7
100
AcDbVertex
100
AcDb2dVertex
 10
-368.24878929488227
 20
-378.86140428337853
 30
0.0
  0
SEQEND
  5
92
100
AcDbEntity
  8
一般
370
              15
  6
Continuous
 62
               7
  0
POLYLINE
  5
93
100
AcDbEntity
  8
一般
370
              15
  6
Continuous
 62
               7
100
AcDb2dPolyline
 66
               1
 10
0.0
 20
0.0
 30
0.0
 70
               1
 75
               5
  0
VERTEX
  5
94
100
AcDbEntity
  8
一般
370
              15
  6
Continuous
 62
               7
100
AcDbVertex
100
AcDb2dVertex
 10
-370.24878929488227
 20
-357.86140428337853
 30
0.0
  0
VERTEX
  5
95
100
AcDbEntity
  8
一般
370
              15
  6
Continuous
 62
               7
100
AcDbVertex
100
AcDb2dVertex
 10
-369.24878929488227
 20
-357.86140428337853
 30
0.0
  0
VERTEX
  5
96
100
AcDbEntity
  8
一般
370
              15
  6
Continuous
 62
               7
100
AcDbVertex
100
AcDb2dVertex
 10
-369.24878929488227
 20
-378.86140428337853
 30
0.0
  0
VERTEX
  5
97
100
AcDbEntity
  8
一般
370
              15
  6
Continuous
 62
               7
100
AcDbVertex
100
AcDb2dVertex
 10
-370.24878929488227
 20
-378.86140428337853
 30
0.0
  0
SEQEND
  5
98
100
AcDbEntity
  8
一般
370
              15
  6
Continuous
 62
               7
  0
POLYLINE
  5
99
100
AcDbEntity
  8
一般
370
              15
  6
Continuous
 62
               7
100
AcDb2dPolyline
 66
               1
 10
0.0
 20
0.0
 30
0.0
 70
               1
 75
               5
  0
VERTEX
  5
9A
100
AcDbEntity
  8
一般
370
              15
  6
Continuous
 62
               7
100
AcDbVertex
100
AcDb2dVertex
 10
-372.24878929488227
 20
-357.86140428337853
 30
0.0
  0
VERTEX
  5
9B
100
AcDbEntity
  8
一般
370
              15
  6
Continuous
 62
               7
100
AcDbVertex
100
AcDb2dVertex
 10
-371.24878929488227
 20
-357.86140428337853
 30
0.0
  0
VERTEX
  5
9C
100
AcDbEntity
  8
一般
370
              15
  6
Continuous
 62
               7
100
AcDbVertex
100
AcDb2dVertex
 10
-371.24878929488227
 20
-378.86140428337853
 30
0.0
  0
VERTEX
  5
9D
100
AcDbEntity
  8
一般
370
              15
  6
Continuous
 62
               7
100
AcDbVertex
100
AcDb2dVertex
 10
-372.24878929488227
 20
-378.86140428337853
 30
0.0
  0
SEQEND
  5
9E
100
AcDbEntity
  8
一般
370
              15
  6
Continuous
 62
               7
  0
POLYLINE
  5
9F
100
AcDbEntity
  8
一般
370
              15
  6
Continuous
 62
               7
100
AcDb2dPolyline
 66
               1
 10
0.0
 20
0.0
 30
0.0
 70
               1
 75
               5
  0
VERTEX
  5
A0
100
AcDbEntity
  8
一般
370
              15
  6
Continuous
 62
               7
100
AcDbVertex
100
AcDb2dVertex
 10
-374.24878929488227
 20
-357.86140428337853
 30
0.0
  0
VERTEX
  5
A1
100
AcDbEntity
  8
一般
370
              15
  6
Continuous
 62
               7
100
AcDbVertex
100
AcDb2dVertex
 10
-373.24878929488227
 20
-357.86140428337853
 30
0.0
  0
VERTEX
  5
A2
100
AcDbEntity
  8
一般
370
              15
  6
Continuous
 62
               7
100
AcDbVertex
100
AcDb2dVertex
 10
-373.24878929488227
 20
-378.86140428337853
 30
0.0
  0
VERTEX
  5
A3
100
AcDbEntity
  8
一般
370
              15
  6
Continuous
 62
               7
100
AcDbVertex
100
AcDb2dVertex
 10
-374.24878929488227
 20
-378.86140428337853
 30
0.0
  0
SEQEND
  5
A4
100
AcDbEntity
  8
一般
370
              15
  6
Continuous
 62
               7
  0
POLYLINE
  5
A5
100
AcDbEntity
  8
一般
370
              15
  6
Continuous
 62
               7
100
AcDb2dPolyline
 66
               1
 10
0.0
 20
0.0
 30
0.0
 70
               1
 75
               5
  0
VERTEX
  5
A6
100
AcDbEntity
  8
一般
370
              15
  6
Continuous
 62
               7
100
AcDbVertex
100
AcDb2dVertex
 10
-376.24878929488227
 20
-357.86140428337853
 30
0.0
  0
VERTEX
  5
A7
100
AcDbEntity
  8
一般
370
              15
  6
Continuous
 62
               7
100
AcDbVertex
100
AcDb2dVertex
 10
-375.24878929488227
 20
-357.86140428337853
 30
0.0
  0
VERTEX
  5
A8
100
AcDbEntity
  8
一般
370
              15
  6
Continuous
 62
               7
100
AcDbVertex
100
AcDb2dVertex
 10
-375.24878929488227
 20
-378.86140428337853
 30
0.0
  0
VERTEX
  5
A9
100
AcDbEntity
  8
一般
370
              15
  6
Continuous
 62
               7
100
AcDbVertex
100
AcDb2dVertex
 10
-376.24878929488227
 20
-378.86140428337853
 30
0.0
  0
SEQEND
  5
AA
100
AcDbEntity
  8
一般
370
              15
  6
Continuous
 62
               7
  0
POLYLINE
  5
AB
100
AcDbEntity
  8
一般
370
              15
  6
Continuous
 62
               7
100
AcDb2dPolyline
 66
               1
 10
0.0
 20
0.0
 30
0.0
 75
               5
  0
VERTEX
  5
AC
100
AcDbEntity
  8
一般
370
              15
  6
Continuous
 62
               7
100
AcDbVertex
100
AcDb2dVertex
 10
-355.24878929488227
 20
-392.5
 30
0.0
  0
VERTEX
  5
AD
100
AcDbEntity
  8
一般
370
              15
  6
Continuous
 62
               7
100
AcDbVertex
100
AcDb2dVertex
 10
-335.24878929488227
 20
-392.5
 30
0.0
  0
VERTEX
  5
AE
100
AcDbEntity
  8
一般
370
              15
  6
Continuous
 62
               7
100
AcDbVertex
100
AcDb2dVertex
 10
-335.24878929488227
 20
-344.5
 30
0.0
  0
VERTEX
  5
AF
100
AcDbEntity
  8
一般
370
              15
  6
Continuous
 62
               7
100
AcDbVertex
100
AcDb2dVertex
 10
-355.24878929488227
 20
-344.5
 30
0.0
  0
SEQEND
  5
B0
100
AcDbEntity
  8
一般
370
              15
  6
Continuous
 62
               7
  0
POLYLINE
  5
B1
100
AcDbEntity
  8
一般
370
              15
  6
Continuous
 62
               7
100
AcDb2dPolyline
 66
               1
 10
0.0
 20
0.0
 30
0.0
 75
               5
  0
VERTEX
  5
B2
100
AcDbEntity
  8
一般
370
              15
  6
Continuous
 62
               7
100
AcDbVertex
100
AcDb2dVertex
 10
-364.24878929488233
 20
-392.5
 30
0.0
  0
VERTEX
  5
B3
100
AcDbEntity
  8
一般
370
              15
  6
Continuous
 62
               7
100
AcDbVertex
100
AcDb2dVertex
 10
-380.24878929488227
 20
-392.5
 30
0.0
  0
VERTEX
  5
B4
100
AcDbEntity
  8
一般
370
              15
  6
Continuous
 62
               7
100
AcDbVertex
100
AcDb2dVertex
 10
-380.24878929488227
 20
-344.5
 30
0.0
  0
VERTEX
  5
B5
100
AcDbEntity
  8
一般
370
              15
  6
Continuous
 62
               7
100
AcDbVertex
100
AcDb2dVertex
 10
-364.24878929488227
 20
-344.5
 30
0.0
  0
SEQEND
  5
B6
100
AcDbEntity
  8
一般
370
              15
  6
Continuous
 62
               7
  0
POLYLINE
  5
B7
100
AcDbEntity
  8
一般
370
              15
  6
Continuous
 62
               7
100
AcDb2dPolyline
 66
               1
 10
0.0
 20
0.0
 30
0.0
 70
               1
 75
               5
  0
VERTEX
  5
B8
100
AcDbEntity
  8
一般
370
              15
  6
Continuous
 62
               7
100
AcDbVertex
100
AcDb2dVertex
 10
-380.24878929488227
 20
-344.5
 30
0.0
  0
VERTEX
  5
B9
100
AcDbEntity
  8
一般
370
              15
  6
Continuous
 62
               7
100
AcDbVertex
100
AcDb2dVertex
 10
-377.24878929488227
 20
-344.5
 30
0.0
  0
VERTEX
  5
BA
100
AcDbEntity
  8
一般
370
              15
  6
Continuous
 62
               7
100
AcDbVertex
100
AcDb2dVertex
 10
-377.24878929488227
 20
-392.5
 30
0.0
  0
VERTEX
  5
BB
100
AcDbEntity
  8
一般
370
              15
  6
Continuous
 62
               7
100
AcDbVertex
100
AcDb2dVertex
 10
-380.24878929488227
 20
-392.5
 30
0.0
  0
SEQEND
  5
BC
100
AcDbEntity
  8
一般
370
              15
  6
Continuous
 62
               7
  0
ARC
  5
BD
100
AcDbEntity
  8
一般
370
              15
  6
Continuous
 62
               7
100
AcDbCircle
 10
-335.24878929488227
 20
-367.0
 30
0.0
 40
19.999999999999993
100
AcDbArc
 50
63.078912747289223
 51
90.0
  0
ARC
  5
BE
100
AcDbEntity
  8
一般
370
              15
  6
Continuous
 62
               7
100
AcDbCircle
 10
-335.24878929488227
 20
-370.0
 30
0.0
 40
20.0
100
AcDbArc
 50
270.0
 51
272.86598398259906
  0
POLYLINE
  5
BF
100
AcDbEntity
  8
一般
370
               5
  6
Continuous
 62
               7
100
AcDb2dPolyline
 66
               1
 10
0.0
 20
0.0
 30
0.0
 75
               5
  0
VERTEX
  5
C0
100
AcDbEntity
  8
一般
370
               5
  6
Continuous
 62
               7
100
AcDbVertex
100
AcDb2dVertex
 10
-390.24878929488227
 20
-355.5
 30
0.0
  0
VERTEX
  5
C1
100
AcDbEntity
  8
一般
370
               5
  6
Continuous
 62
               7
100
AcDbVertex
100
AcDb2dVertex
 10
-380.24878929488227
 20
-355.5
 30
0.0
  0
VERTEX
  5
C2
100
AcDbEntity
  8
一般
370
               5
  6
Continuous
 62
               7
100
AcDbVertex
100
AcDb2dVertex
 10
-380.24878929488227
 20
-379.5
 30
0.0
  0
VERTEX
  5
C3
100
AcDbEntity
  8
一般
370
               5
  6
Continuous
 62
               7
100
AcDbVertex
100
AcDb2dVertex
 10
-397.03768674395599
 20
-379.5
 30
0.0
  0
SEQEND
  5
C4
100
AcDbEntity
  8
一般
370
               5
  6
Continuous
 62
               7
  0
LWPOLYLINE
  5
C5
100
AcDbEntity
  8
一般
370
               5
  6
Continuous
 62
               7
100
AcDbPolyline
 90
        6
 70
             128
 10
-390.24878929488227
 20
-366.76329052448273
 10
-390.24878929488227
 20
-367.5
 10
-418.24878929488227
 20
-367.5
 10
-418.24878929488227
 20
-337.5
 10
-390.24878929488227
 20
-337.5
 10
-390.24878929488227
 20
-355.5
  0
CIRCLE
  5
C6
100
AcDbEntity
  8
一般
370
               5
  6
Continuous
 62
               7
100
AcDbCircle
 10
-404.24878929488227
 20
-367.5
 30
0.0
 40
14.0
  0
CIRCLE
  5
C7
100
AcDbEntity
  8
一般
370
               5
  6
Continuous
 62
               7
100
AcDbCircle
 10
-404.24878929488227
 20
-367.5
 30
0.0
 40
9.5
  0
POLYLINE
  5
C8
100
AcDbEntity
  8
一般
370
               5
  6
Continuous
 62
               7
100
AcDb2dPolyline
 66
               1
 10
0.0
 20
0.0
 30
0.0
 75
               5
  0
VERTEX
  5
C9
100
AcDbEntity
  8
一般
370
               5
  6
Continuous
 62
               7
100
AcDbVertex
100
AcDb2dVertex
 10
-389.88313386838092
 20
-355.15216593888863
 30
0.0
  0
VERTEX
  5
CA
100
AcDbEntity
  8
一般
370
               5
  6
Continuous
 62
               7
100
AcDbVertex
100
AcDb2dVertex
 10
-390.61984396967864
 20
-356.13444607395218
 30
0.0
  0
VERTEX
  5
CB
100
AcDbEntity
  8
一般
370
               5
  6
Continuous
 62
               7
100
AcDbVertex
100
AcDb2dVertex
 10
-390.61984396967864
 20
-356.38001610771801
 30
0.0
  0
VERTEX
  5
CC
100
AcDbEntity
  8
一般
370
               5
  6
Continuous
 62
               7
100
AcDbVertex
100
AcDb2dVertex
 10
-390.61984396967864
 20
-356.62558614148384
 30
0.0
  0
VERTEX
  5
CD
100
AcDbEntity
  8
一般
370
               5
  6
Continuous
 62
               7
100
AcDbVertex
100
AcDb2dVertex
 10
-390.61984396967864
 20
-356.87115617524978
 30
0.0
  0
VERTEX
  5
CE
100
AcDbEntity
  8
一般
370
               5
  6
Continuous
 62
               7
100
AcDbVertex
100
AcDb2dVertex
 10
-390.61984396967864
 20
-357.36229624278144
 30
0.0
  0
VERTEX
  5
CF
100
AcDbEntity
  8
一般
370
               5
  6
Continuous
 62
               7
100
AcDbVertex
100
AcDb2dVertex
 10
-390.61984396967864
 20
-357.85343631031333
 30
0.0
  0
VERTEX
  5
D0
100
AcDbEntity
  8
一般
370
               5
  6
Continuous
 62
               7
100
AcDbVertex
100
AcDb2dVertex
 10
-390.61984396967864
 20
-358.09900634407916
 30
0.0
  0
VERTEX
  5
D1
100
AcDbEntity
  8
一般
370
               5
  6
Continuous
 62
               7
100
AcDbVertex
100
AcDb2dVertex
 10
-390.61984396967864
 20
-358.34457637784499
 30
0.0
  0
VERTEX
  5
D2
100
AcDbEntity
  8
一般
370
               5
  6
Continuous
 62
               7
100
AcDbVertex
100
AcDb2dVertex
 10
-390.61984396967864
 20
-358.59014641161093
 30
0.0
  0
VERTEX
  5
D3
100
AcDbEntity
  8
一般
370
               5
  6
Continuous
 62
               7
100
AcDbVertex
100
AcDb2dVertex
 10
-390.61984396967864
 20
-358.83571644537676
 30
0.0
  0
VERTEX
  5
D4
100
AcDbEntity
  8
一般
370
               5
  6
Continuous
 62
               7
100
AcDbVertex
100
AcDb2dVertex
 10
-390.61984396967864
 20
-359.08128647914259
 30
0.0
  0
VERTEX
  5
D5
100
AcDbEntity
  8
一般
370
               5
  6
Continuous
 62
               7
100
AcDbVertex
100
AcDb2dVertex
 10
-390.61984396967864
 20
-359.32685651290853
 30
0.0
  0
VERTEX
  5
D6
100
AcDbEntity
  8
一般
370
               5
  6
Continuous
 62
               7
100
AcDbVertex
100
AcDb2dVertex
 10
-390.61984396967864
 20
-359.57242654667436
 30
0.0
  0
VERTEX
  5
D7
100
AcDbEntity
  8
一般
370
               5
  6
Continuous
 62
               7
100
AcDbVertex
100
AcDb2dVertex
 10
-390.61984396967864
 20
-359.81799658044019
 30
0.0
  0
VERTEX
  5
D8
100
AcDbEntity
  8
一般
370
               5
  6
Continuous
 62
               7
100
AcDbVertex
100
AcDb2dVertex
 10
-390.61984396967864
 20
-360.06356661420614
 30
0.0
  0
VERTEX
  5
D9
100
AcDbEntity
  8
一般
370
               5
  6
Continuous
 62
               7
100
AcDbVertex
100
AcDb2dVertex
 10
-390.61984396967864
 20
-360.30913664797208
 30
0.0
  0
VERTEX
  5
DA
100
AcDbEntity
  8
一般
370
               5
  6
Continuous
 62
               7
100
AcDbVertex
100
AcDb2dVertex
 10
-390.61984396967864
 20
-360.55470668173791
 30
0.0
  0
VERTEX
  5
DB
100
AcDbEntity
  8
一般
370
               5
  6
Continuous
 62
               7
100
AcDbVertex
100
AcDb2dVertex
 10
-390.61984396967864
 20
-360.80027671550374
 30
0.0
  0
VERTEX
  5
DC
100
AcDbEntity
  8
一般
370
               5
  6
Continuous
 62
               7
100
AcDbVertex
100
AcDb2dVertex
 10
-390.61984396967864
 20
-361.04584674926969
 30
0.0
  0
VERTEX
  5
DD
100
AcDbEntity
  8
一般
370
               5
  6
Continuous
 62
               7
100
AcDbVertex
100
AcDb2dVertex
 10
-390.3742739359127
 20
-361.04584674926969
 30
0.0
  0
VERTEX
  5
DE
100
AcDbEntity
  8
一般
370
               5
  6
Continuous
 62
               7
100
AcDbVertex
100
AcDb2dVertex
 10
-390.3742739359127
 20
-361.29141678303552
 30
0.0
  0
VERTEX
  5
DF
100
AcDbEntity
  8
一般
370
               5
  6
Continuous
 62
               7
100
AcDbVertex
100
AcDb2dVertex
 10
-390.3742739359127
 20
-361.53698681680135
 30
0.0
  0
VERTEX
  5
E0
100
AcDbEntity
  8
一般
370
               5
  6
Continuous
 62
               7
100
AcDbVertex
100
AcDb2dVertex
 10
-390.12870390214675
 20
-361.53698681680135
 30
0.0
  0
VERTEX
  5
E1
100
AcDbEntity
  8
一般
370
               5
  6
Continuous
 62
               7
100
AcDbVertex
100
AcDb2dVertex
 10
-390.12870390214675
 20
-361.78255685056729
 30
0.0
  0
VERTEX
  5
E2
100
AcDbEntity
  8
一般
370
               5
  6
Continuous
 62
               7
100
AcDbVertex
100
AcDb2dVertex
 10
-389.88313386838092
 20
-362.02812688433312
 30
0.0
  0
VERTEX
  5
E3
100
AcDbEntity
  8
一般
370
               5
  6
Continuous
 62
               7
100
AcDbVertex
100
AcDb2dVertex
 10
-389.63756383461509
 20
-362.27369691809895
 30
0.0
  0
VERTEX
  5
E4
100
AcDbEntity
  8
一般
370
               5
  6
Continuous
 62
               7
100
AcDbVertex
100
AcDb2dVertex
 10
-389.39199380084915
 20
-362.51926695186489
 30
0.0
  0
VERTEX
  5
E5
100
AcDbEntity
  8
一般
370
               5
  6
Continuous
 62
               7
100
AcDbVertex
100
AcDb2dVertex
 10
-389.39199380084915
 20
-362.76483698563084
 30
0.0
  0
VERTEX
  5
E6
100
AcDbEntity
  8
一般
370
               5
  6
Continuous
 62
               7
100
AcDbVertex
100
AcDb2dVertex
 10
-389.39199380084915
 20
-363.01040701939667
 30
0.0
  0
VERTEX
  5
E7
100
AcDbEntity
  8
一般
370
               5
  6
Continuous
 62
               7
100
AcDbVertex
100
AcDb2dVertex
 10
-389.39199380084915
 20
-363.2559770531625
 30
0.0
  0
VERTEX
  5
E8
100
AcDbEntity
  8
一般
370
               5
  6
Continuous
 62
               7
100
AcDbVertex
100
AcDb2dVertex
 10
-389.39199380084915
 20
-363.50154708692844
 30
0.0
  0
VERTEX
  5
E9
100
AcDbEntity
  8
一般
370
               5
  6
Continuous
 62
               7
100
AcDbVertex
100
AcDb2dVertex
 10
-389.39199380084915
 20
-363.74711712069427
 30
0.0
  0
VERTEX
  5
EA
100
AcDbEntity
  8
一般
370
               5
  6
Continuous
 62
               7
100
AcDbVertex
100
AcDb2dVertex
 10
-389.39199380084915
 20
-363.9926871544601
 30
0.0
  0
VERTEX
  5
EB
100
AcDbEntity
  8
一般
370
               5
  6
Continuous
 62
               7
100
AcDbVertex
100
AcDb2dVertex
 10
-389.39199380084915
 20
-364.23825718822604
 30
0.0
  0
VERTEX
  5
EC
100
AcDbEntity
  8
一般
370
               5
  6
Continuous
 62
               7
100
AcDbVertex
100
AcDb2dVertex
 10
-389.39199380084915
 20
-364.48382722199187
 30
0.0
  0
VERTEX
  5
ED
100
AcDbEntity
  8
一般
370
               5
  6
Continuous
 62
               7
100
AcDbVertex
100
AcDb2dVertex
 10
-389.39199380084915
 20
-364.7293972557577
 30
0.0
  0
VERTEX
  5
EE
100
AcDbEntity
  8
一般
370
               5
  6
Continuous
 62
               7
100
AcDbVertex
100
AcDb2dVertex
 10
-389.39199380084915
 20
-364.97496728952365
 30
0.0
  0
VERTEX
  5
EF
100
AcDbEntity
  8
一般
370
               5
  6
Continuous
 62
               7
100
AcDbVertex
100
AcDb2dVertex
 10
-389.39199380084915
 20
-365.22053732328948
 30
0.0
  0
VERTEX
  5
F0
100
AcDbEntity
  8
一般
370
               5
  6
Continuous
 62
               7
100
AcDbVertex
100
AcDb2dVertex
 10
-389.39199380084915
 20
-365.46610735705531
 30
0.0
  0
VERTEX
  5
F1
100
AcDbEntity
  8
一般
370
               5
  6
Continuous
 62
               7
100
AcDbVertex
100
AcDb2dVertex
 10
-389.39199380084915
 20
-365.71167739082125
 30
0.0
  0
VERTEX
  5
F2
100
AcDbEntity
  8
一般
370
               5
  6
Continuous
 62
               7
100
AcDbVertex
100
AcDb2dVertex
 10
-389.39199380084915
 20
-365.95724742458719
 30
0.0
  0
VERTEX
  5
F3
100
AcDbEntity
  8
一般
370
               5
  6
Continuous
 62
               7
100
AcDbVertex
100
AcDb2dVertex
 10
-389.39199380084915
 20
-366.20281745835302
 30
0.0
  0
VERTEX
  5
F4
100
AcDbEntity
  8
一般
370
               5
  6
Continuous
 62
               7
100
AcDbVertex
100
AcDb2dVertex
 10
-389.39199380084915
 20
-366.44838749211885
 30
0.0
  0
VERTEX
  5
F5
100
AcDbEntity
  8
一般
370
               5
  6
Continuous
 62
               7
100
AcDbVertex
100
AcDb2dVertex
 10
-389.39199380084915
 20
-366.6939575258848
 30
0.0
  0
VERTEX
  5
F6
100
AcDbEntity
  8
一般
370
               5
  6
Continuous
 62
               7
100
AcDbVertex
100
AcDb2dVertex
 10
-389.39199380084915
 20
-366.93952755965063
 30
0.0
  0
VERTEX
  5
F7
100
AcDbEntity
  8
一般
370
               5
  6
Continuous
 62
               7
100
AcDbVertex
100
AcDb2dVertex
 10
-389.39199380084915
 20
-367.18509759341646
 30
0.0
  0
VERTEX
  5
F8
100
AcDbEntity
  8
一般
370
               5
  6
Continuous
 62
               7
100
AcDbVertex
100
AcDb2dVertex
 10
-389.39199380084915
 20
-367.4306676271824
 30
0.0
  0
VERTEX
  5
F9
100
AcDbEntity
  8
一般
370
               5
  6
Continuous
 62
               7
100
AcDbVertex
100
AcDb2dVertex
 10
-389.39199380084915
 20
-367.67623766094823
 30
0.0
  0
VERTEX
  5
FA
100
AcDbEntity
  8
一般
370
               5
  6
Continuous
 62
               7
100
AcDbVertex
100
AcDb2dVertex
 10
-389.39199380084915
 20
-367.92180769471406
 30
0.0
  0
VERTEX
  5
FB
100
AcDbEntity
  8
一般
370
               5
  6
Continuous
 62
               7
100
AcDbVertex
100
AcDb2dVertex
 10
-389.39199380084915
 20
-368.16737772848001
 30
0.0
  0
VERTEX
  5
FC
100
AcDbEntity
  8
一般
370
               5
  6
Continuous
 62
               7
100
AcDbVertex
100
AcDb2dVertex
 10
-389.39199380084915
 20
-368.41294776224595
 30
0.0
  0
VERTEX
  5
FD
100
AcDbEntity
  8
一般
370
               5
  6
Continuous
 62
               7
100
AcDbVertex
100
AcDb2dVertex
 10
-389.39199380084915
 20
-368.65851779601178
 30
0.0
  0
VERTEX
  5
FE
100
AcDbEntity
  8
一般
370
               5
  6
Continuous
 62
               7
100
AcDbVertex
100
AcDb2dVertex
 10
-389.63756383461509
 20
-368.90408782977761
 30
0.0
  0
VERTEX
  5
FF
100
AcDbEntity
  8
一般
370
               5
  6
Continuous
 62
               7
100
AcDbVertex
100
AcDb2dVertex
 10
-389.63756383461509
 20
-369.14965786354355
 30
0.0
  0
VERTEX
  5
100
100
AcDbEntity
  8
一般
370
               5
  6
Continuous
 62
               7
100
AcDbVertex
100
AcDb2dVertex
 10
-389.88313386838092
 20
-369.14965786354355
 30
0.0
  0
VERTEX
  5
101
100
AcDbEntity
  8
一般
370
               5
  6
Continuous
 62
               7
100
AcDbVertex
100
AcDb2dVertex
 10
-390.12870390214675
 20
-369.14965786354355
 30
0.0
  0
VERTEX
  5
102
100
AcDbEntity
  8
一般
370
               5
  6
Continuous
 62
               7
100
AcDbVertex
100
AcDb2dVertex
 10
-390.12870390214675
 20
-369.39522789730938
 30
0.0
  0
VERTEX
  5
103
100
AcDbEntity
  8
一般
370
               5
  6
Continuous
 62
               7
100
AcDbVertex
100
AcDb2dVertex
 10
-390.3742739359127
 20
-369.39522789730938
 30
0.0
  0
VERTEX
  5
104
100
AcDbEntity
  8
一般
370
               5
  6
Continuous
 62
               7
100
AcDbVertex
100
AcDb2dVertex
 10
-390.3742739359127
 20
-369.64079793107521
 30
0.0
  0
SEQEND
  5
105
100
AcDbEntity
  8
一般
370
               5
  6
Continuous
 62
               7
  0
LWPOLYLINE
  5
106
100
AcDbEntity
  8
一般
370
              15
  6
Continuous
 62
               7
100
AcDbPolyline
 90
        7
 70
             129
 10
-323.58212262821564
 20
-344.5
 42
0.3027756377320138
 10
-324.50519955129255
 20
-345.11538461538464
 10
-334.17186621795918
 20
-368.31538461538457
 42
0.0990195135927561
 10
-334.24878929488227
 20
-368.69999999999993
 10
-334.24878929488227
 20
-392.5
 10
-304.24878929488227
 20
-392.5
 10
-304.24878929488227
 20
-344.5
  0
LWPOLYLINE
  5
107
100
AcDbEntity
  8
一般
370
              15
  6
Continuous
 62
               7
100
AcDbPolyline
 90
        5
 70
             128
 10
-314.84878929488218
 20
-462.5
 10
-324.24878929488227
 20
-462.5
 10
-324.24878929488227
 20
-392.5
 10
-314.24878929488227
 20
-392.5
 10
-314.24878929488227
 20
-433.69999999999993
  0
LINE
  5
108
100
AcDbEntity
  8
一般
370
              15
  6
Continuous
 62
               7
100
AcDbLine
 10
-314.24878929488227
 20
-462.5
 30
0.0
 11
-314.84878929488218
 21
-462.5
 31
0.0
  0
LINE
  5
109
100
AcDbEntity
  8
一般
370
              15
  6
Continuous
 62
               7
100
AcDbLine
 10
-314.24878929488227
 20
-462.18813885297573
 30
0.0
 11
-314.24878929488227
 21
-462.5
 31
0.0
  0
LINE
  5
10A
100
AcDbEntity
  8
一般
370
              15
  6
Continuous
 62
               7
100
AcDbLine
 10
-314.24878929488227
 20
-433.69999999999993
 30
0.0
 11
-314.24878929488227
 21
-462.18813885297573
 31
0.0
  0
ARC
  5
10B
100
AcDbEntity
  8
一般
370
              15
  6
Continuous
 62
               7
100
AcDbCircle
 10
-319.24878929488227
 20
-401.16025403784431
 30
0.0
 40
9.9999999999999343
100
AcDbArc
 50
59.999999999999794
 51
120.00000000000023
  0
POLYLINE
  5
10C
100
AcDbEntity
  8
一般
370
              15
  6
Continuous
 62
               7
100
AcDb2dPolyline
 66
               1
 10
0.0
 20
0.0
 30
0.0
 70
               1
 75
               5
  0
VERTEX
  5
10D
100
AcDbEntity
  8
一般
370
              15
  6
Continuous
 62
               7
100
AcDbVertex
100
AcDb2dVertex
 10
-364.24878929488227
 20
-330.5
 30
0.0
  0
VERTEX
  5
10E
100
AcDbEntity
  8
一般
370
              15
  6
Continuous
 62
               7
100
AcDbVertex
100
AcDb2dVertex
 10
-355.24878929488227
 20
-330.5
 30
0.0
  0
VERTEX
  5
10F
100
AcDbEntity
  8
一般
370
              15
  6
Continuous
 62
               7
100
AcDbVertex
100
AcDb2dVertex
 10
-355.24878929488227
 20
-404.5
 30
0.0
  0
VERTEX
  5
110
100
AcDbEntity
  8
一般
370
              15
  6
Continuous
 62
               7
100
AcDbVertex
100
AcDb2dVertex
 10
-364.24878929488227
 20
-404.5
 30
0.0
  0
SEQEND
  5
111
100
AcDbEntity
  8
一般
370
              15
  6
Continuous
 62
               7
  0
ENDBLK
  5
112
100
AcDbEntity
  8
DEFAULT_1
100
AcDbBlockEnd
  0
BLOCK
  5
113
100
AcDbEntity
  8
DEFAULT_1
100
AcDbBlockBegin
  2
グループ-2
 70
               0
 10
0.0
 20
0.0
 30
0.0
  3
グループ-2
  1

  0
LWPOLYLINE
  5
114
100
AcDbEntity
  8
一般
370
              15
  6
Continuous
 62
               7
100
AcDbPolyline
 90
        6
 70
             129
 10
-218.0682171415699
 20
311.23285928807104
 10
-213.43812412463453
 20
303.81272115554532
 42
-0.3441507314088995
 10
-213.69621079666251
 20
301.3646389940501
 10
-216.38932792521257
 20
298.57583456884805
 42
-0.3441507314089133
 10
-218.82691168624055
 20
298.23246828092488
 10
-226.40411758707796
 20
302.6007816840073
  0
LWPOLYLINE
  5
115
100
AcDbEntity
  8
一般
370
              15
  6
Continuous
 62
               7
100
AcDbPolyline
 90
        6
 70
             129
 10
-176.38687483767504
 20
353.67537449342262
 42
0.4142135623730364
 10
-175.67987575227613
 20
353.68771520836253
 10
-174.98521738181717
 20
354.40705500870121
 42
0.4142135623731417
 10
-174.99755809675696
 20
355.11405409409997
 10
-175.3572279969263
 20
355.46138327932954
 10
-176.74654473784435
 20
354.02270367865219
  0
LWPOLYLINE
  5
116
100
AcDbEntity
  8
一般
370
              15
  6
Continuous
 62
               7
100
AcDbPolyline
 90
        6
 70
             128
 10
-235.21628151069342
 20
272.05265469834728
 10
-279.67890014303032
 20
149.89261399617919
 10
-306.92998614582172
 20
159.8111981526236
 10
-262.46736751348482
 20
281.97123885479164
 10
-257.12256847454074
 20
296.65595352581323
 10
-244.07303607997653
 20
320.29299446335904
  0
LINE
  5
117
100
AcDbEntity
  8
一般
370
              15
  6
Continuous
 62
               7
100
AcDbLine
 10
-227.82618699765777
 20
301.12818570103752
 30
0.0
 11
-235.21628151069342
 21
272.05265469834728
 31
0.0
  0
POLYLINE
  5
118
100
AcDbEntity
  8
一般
370
              15
  6
Continuous
 62
               7
100
AcDb2dPolyline
 66
               1
 10
0.0
 20
0.0
 30
0.0
 70
               1
 75
               5
  0
VERTEX
  5
119
100
AcDbEntity
  8
一般
370
              15
  6
Continuous
 62
               7
100
AcDbVertex
100
AcDb2dVertex
 10
-302.23152304189216
 20
158.10109743599526
 30
0.0
  0
VERTEX
  5
11A
100
AcDbEntity
  8
一般
370
              15
  6
Continuous
 62
               7
100
AcDbVertex
100
AcDb2dVertex
 10
-284.37736324695987
 20
151.60271471280754
 30
0.0
  0
VERTEX
  5
11B
100
AcDbEntity
  8
一般
370
              15
  6
Continuous
 62
               7
100
AcDbVertex
100
AcDb2dVertex
 10
-287.79756468021657
 20
142.20578850494843
 30
0.0
  0
VERTEX
  5
11C
100
AcDbEntity
  8
一般
370
              15
  6
Continuous
 62
               7
100
AcDbVertex
100
AcDb2dVertex
 10
-305.65172447514885
 20
148.70417122813615
 30
0.0
  0
SEQEND
  5
11D
100
AcDbEntity
  8
一般
370
              15
  6
Continuous
 62
               7
  0
POLYLINE
  5
11E
100
AcDbEntity
  8
一般
370
              15
  6
Continuous
 62
               7
100
AcDb2dPolyline
 66
               1
 10
0.0
 20
0.0
 30
0.0
 70
               1
 75
               5
  0
VERTEX
  5
11F
100
AcDbEntity
  8
一般
370
              15
  6
Continuous
 62
               7
100
AcDbVertex
100
AcDb2dVertex
 10
-303.38540963893644
 20
156.39272226608625
 30
0.0
  0
VERTEX
  5
120
100
AcDbEntity
  8
一般
370
              15
  6
Continuous
 62
               7
100
AcDbVertex
100
AcDb2dVertex
 10
-284.59155722321827
 20
149.55231939957287
 30
0.0
  0
VERTEX
  5
121
100
AcDbEntity
  8
一般
370
              15
  6
Continuous
 62
               7
100
AcDbVertex
100
AcDb2dVertex
 10
-284.93357736654394
 20
148.61262677878696
 30
0.0
  0
VERTEX
  5
122
100
AcDbEntity
  8
一般
370
              15
  6
Continuous
 62
               7
100
AcDbVertex
100
AcDb2dVertex
 10
-303.72742978226211
 20
155.45302964530032
 30
0.0
  0
SEQEND
  5
123
100
AcDbEntity
  8
一般
370
              15
  6
Continuous
 62
               7
  0
POLYLINE
  5
124
100
AcDbEntity
  8
一般
370
              15
  6
Continuous
 62
               7
100
AcDb2dPolyline
 66
               1
 10
0.0
 20
0.0
 30
0.0
 70
               1
 75
               5
  0
VERTEX
  5
125
100
AcDbEntity
  8
一般
370
              15
  6
Continuous
 62
               7
100
AcDbVertex
100
AcDb2dVertex
 10
-304.06944992558778
 20
154.51333702451444
 30
0.0
  0
VERTEX
  5
126
100
AcDbEntity
  8
一般
370
              15
  6
Continuous
 62
               7
100
AcDbVertex
100
AcDb2dVertex
 10
-285.27559750986961
 20
147.67293415800106
 30
0.0
  0
VERTEX
  5
127
100
AcDbEntity
  8
一般
370
              15
  6
Continuous
 62
               7
100
AcDbVertex
100
AcDb2dVertex
 10
-285.61761765319528
 20
146.73324153721515
 30
0.0
  0
VERTEX
  5
128
100
AcDbEntity
  8
一般
370
              15
  6
Continuous
 62
               7
100
AcDbVertex
100
AcDb2dVertex
 10
-304.41147006891345
 20
153.57364440372851
 30
0.0
  0
SEQEND
  5
129
100
AcDbEntity
  8
一般
370
              15
  6
Continuous
 62
               7
  0
POLYLINE
  5
12A
100
AcDbEntity
  8
一般
370
              15
  6
Continuous
 62
               7
100
AcDb2dPolyline
 66
               1
 10
0.0
 20
0.0
 30
0.0
 70
               1
 75
               5
  0
VERTEX
  5
12B
100
AcDbEntity
  8
一般
370
              15
  6
Continuous
 62
               7
100
AcDbVertex
100
AcDb2dVertex
 10
-304.75349021223911
 20
152.63395178294263
 30
0.0
  0
VERTEX
  5
12C
100
AcDbEntity
  8
一般
370
              15
  6
Continuous
 62
               7
100
AcDbVertex
100
AcDb2dVertex
 10
-285.95963779652095
 20
145.79354891642924
 30
0.0
  0
VERTEX
  5
12D
100
AcDbEntity
  8
一般
370
              15
  6
Continuous
 62
               7
100
AcDbVertex
100
AcDb2dVertex
 10
-286.30165793984662
 20
144.85385629564334
 30
0.0
  0
VERTEX
  5
12E
100
AcDbEntity
  8
一般
370
              15
  6
Continuous
 62
               7
100
AcDbVertex
100
AcDb2dVertex
 10
-305.09551035556478
 20
151.6942591621567
 30
0.0
  0
SEQEND
  5
12F
100
AcDbEntity
  8
一般
370
              15
  6
Continuous
 62
               7
  0
POLYLINE
  5
130
100
AcDbEntity
  8
一般
370
              15
  6
Continuous
 62
               7
100
AcDb2dPolyline
 66
               1
 10
0.0
 20
0.0
 30
0.0
 70
               1
 75
               5
  0
VERTEX
  5
131
100
AcDbEntity
  8
一般
370
              15
  6
Continuous
 62
               7
100
AcDbVertex
100
AcDb2dVertex
 10
-305.43753049889045
 20
150.75456654137082
 30
0.0
  0
VERTEX
  5
132
100
AcDbEntity
  8
一般
370
              15
  6
Continuous
 62
               7
100
AcDbVertex
100
AcDb2dVertex
 10
-286.64367808317229
 20
143.91416367485743
 30
0.0
  0
VERTEX
  5
133
100
AcDbEntity
  8
一般
370
              15
  6
Continuous
 62
               7
100
AcDbVertex
100
AcDb2dVertex
 10
-286.98569822649796
 20
142.97447105407153
 30
0.0
  0
VERTEX
  5
134
100
AcDbEntity
  8
一般
370
              15
  6
Continuous
 62
               7
100
AcDbVertex
100
AcDb2dVertex
 10
-305.77955064221612
 20
149.81487392058489
 30
0.0
  0
SEQEND
  5
135
100
AcDbEntity
  8
一般
370
              15
  6
Continuous
 62
               7
  0
LWPOLYLINE
  5
136
100
AcDbEntity
  8
一般
370
              15
  6
Continuous
 62
               7
100
AcDbPolyline
 90
        4
 70
             129
 10
-244.07303607997665
 20
320.29299446335915
 10
-174.60719903407696
 20
392.22697449722426
 42
0.0990195135927854
 10
-154.88705809946308
 20
376.65886473659589
 10
-227.82618699765777
 20
301.12818570103752
 42
0.0990195135927812
  0
POLYLINE
  5
137
100
AcDbEntity
  8
一般
370
              15
  6
Continuous
 62
               7
100
AcDb2dPolyline
 66
               1
 10
0.0
 20
0.0
 30
0.0
 75
               5
  0
VERTEX
  5
138
100
AcDbEntity
  8
一般
370
              15
  6
Continuous
 62
               7
100
AcDbVertex
100
AcDb2dVertex
 10
-176.62281450675005
 20
351.99149527424407
 30
0.0
  0
VERTEX
  5
139
100
AcDbEntity
  8
一般
370
              15
  6
Continuous
 62
               7
100
AcDbVertex
100
AcDb2dVertex
 10
-176.98248440691935
 20
352.33882445947359
 30
0.0
  0
VERTEX
  5
13A
100
AcDbEntity
  8
一般
370
              15
  6
Continuous
 62
               7
100
AcDbVertex
100
AcDb2dVertex
 10
-179.76111788875534
 20
349.46146525811895
 30
0.0
  0
VERTEX
  5
13B
100
AcDbEntity
  8
一般
370
              15
  6
Continuous
 62
               7
100
AcDbVertex
100
AcDb2dVertex
 10
-179.40144798858603
 20
349.11413607288944
 30
0.0
  0
SEQEND
  5
13C
100
AcDbEntity
  8
一般
370
              15
  6
Continuous
 62
               7
  0
LINE
  5
13D
100
AcDbEntity
  8
一般
370
              15
  6
Continuous
 62
               7
100
AcDbLine
 10
-176.59813307687037
 20
350.57749710344632
 30
0.0
 11
-177.98744981778836
 21
349.13881750276914
 31
0.0
  0
ARC
  5
13E
100
AcDbEntity
  8
一般
370
              15
  6
Continuous
 62
               7
100
AcDbCircle
 10
-177.31747287720901
 20
351.2721554739054
 30
0.0
 40
1.0000000000000535
100
AcDbArc
 50
315.99999999999631
 51
46.000000000002103
  0
ARC
  5
13F
100
AcDbEntity
  8
一般
370
              15
  6
Continuous
 62
               7
100
AcDbCircle
 10
-178.70678961812703
 20
349.83347587322805
 30
0.0
 40
0.9999999999999738
100
AcDbArc
 50
225.99999999999869
 51
316.00000000000443
  0
LWPOLYLINE
  5
140
100
AcDbEntity
  8
一般
370
              15
  6
Continuous
 62
               7
100
AcDbPolyline
 90
        6
 70
             129
 10
-183.33102914346253
 20
345.04493566651468
 42
0.4142135623730949
 10
-181.91703097266478
 20
345.06961709639438
 10
-180.52771423174684
 20
346.50829669707173
 42
0.4142135623731186
 10
-180.55239566162643
 20
347.92229486786937
 10
-180.91206556179577
 20
348.26962405309882
 10
-183.69069904363184
 20
345.39226485174424
  0
POLYLINE
  5
141
100
AcDbEntity
  8
一般
370
              15
  6
Continuous
 62
               7
100
AcDb2dPolyline
 66
               1
 10
0.0
 20
0.0
 30
0.0
 75
               5
  0
VERTEX
  5
142
100
AcDbEntity
  8
一般
370
              15
  6
Continuous
 62
               7
100
AcDbVertex
100
AcDb2dVertex
 10
-184.72034588438044
 20
343.60625606583733
 30
0.0
  0
VERTEX
  5
143
100
AcDbEntity
  8
一般
370
              15
  6
Continuous
 62
               7
100
AcDbVertex
100
AcDb2dVertex
 10
-185.08001578454977
 20
343.9535852510669
 30
0.0
  0
VERTEX
  5
144
100
AcDbEntity
  8
一般
370
              15
  6
Continuous
 62
               7
100
AcDbVertex
100
AcDb2dVertex
 10
-187.85864926638584
 20
341.07622604971226
 30
0.0
  0
VERTEX
  5
145
100
AcDbEntity
  8
一般
370
              15
  6
Continuous
 62
               7
100
AcDbVertex
100
AcDb2dVertex
 10
-187.49897936621647
 20
340.72889686448286
 30
0.0
  0
SEQEND
  5
146
100
AcDbEntity
  8
一般
370
              15
  6
Continuous
 62
               7
  0
LINE
  5
147
100
AcDbEntity
  8
一般
370
              15
  6
Continuous
 62
               7
100
AcDbLine
 10
-184.69566445450084
 20
342.19225789503975
 30
0.0
 11
-186.08498119541883
 21
340.75357829436251
 31
0.0
  0
ARC
  5
148
100
AcDbEntity
  8
一般
370
              15
  6
Continuous
 62
               7
100
AcDbCircle
 10
-185.41500425483952
 20
342.88691626549871
 30
0.0
 40
0.9999999999999949
100
AcDbArc
 50
316.0000000000021
 51
45.999999999995168
  0
ARC
  5
149
100
AcDbEntity
  8
一般
370
              15
  6
Continuous
 62
               7
100
AcDbCircle
 10
-186.80432099575751
 20
341.44823666482148
 30
0.0
 40
0.999999999999954
100
AcDbArc
 50
225.99999999999986
 51
316.0000000000021
  0
LWPOLYLINE
  5
14A
100
AcDbEntity
  8
一般
370
              15
  6
Continuous
 62
               7
100
AcDbPolyline
 90
        6
 70
             129
 10
-193.05624632988849
 20
334.97417846177365
 42
0.4142135623731126
 10
-191.64224815909077
 20
334.99885989165324
 10
-190.25293141817284
 20
336.43753949233053
 42
0.4142135623731124
 10
-190.2776128480524
 20
337.85153766312823
 10
-190.63728274822174
 20
338.19886684835768
 10
-193.4159162300578
 20
335.32150764700316
  0
LWPOLYLINE
  5
14B
100
AcDbEntity
  8
一般
370
              15
  6
Continuous
 62
               7
100
AcDbPolyline
 90
        6
 70
             129
 10
-195.83487981172442
 20
332.09681926041901
 42
0.4142135623731068
 10
-194.42088164092678
 20
332.12150069029866
 10
-193.03156490000876
 20
333.56018029097595
 42
0.4142135623731244
 10
-193.05624632988849
 20
334.97417846177365
 10
-193.4159162300578
 20
335.32150764700316
 10
-196.19454971189373
 20
332.44414844564852
  0
LWPOLYLINE
  5
14C
100
AcDbEntity
  8
一般
370
              15
  6
Continuous
 62
               7
100
AcDbPolyline
 90
        6
 70
             129
 10
-200.00283003447839
 20
327.78078045838708
 42
0.4142135623730244
 10
-198.58883186368075
 20
327.80546188826679
 10
-197.19951512276276
 20
329.24414148894402
 42
0.4142135623730773
 10
-197.22419655264244
 20
330.65813965974166
 10
-197.58386645281178
 20
331.00546884497123
 10
-200.36249993464776
 20
328.12810964361654
  0
LWPOLYLINE
  5
14D
100
AcDbEntity
  8
一般
370
              15
  6
Continuous
 62
               7
100
AcDbPolyline
 90
        6
 70
             129
 10
-201.39214677539641
 20
326.34210085770974
 42
0.4142135623731129
 10
-199.97814860459869
 20
326.36678228758944
 10
-198.58883186368075
 20
327.80546188826679
 42
0.4142135623731013
 10
-198.61351329356037
 20
329.21946005906437
 10
-198.97318319372968
 20
329.56678924429383
 10
-201.75181667556575
 20
326.68943004293931
  0
LWPOLYLINE
  5
14E
100
AcDbEntity
  8
一般
370
              15
  6
Continuous
 62
               7
100
AcDbPolyline
 90
        6
 70
             129
 10
-173.42767648324389
 20
356.73971409395517
 42
0.414213562373048
 10
-172.72067739784501
 20
356.75205480889514
 10
-172.02601902738604
 20
357.47139460923381
 42
0.4142135623731777
 10
-172.03835974232587
 20
358.17839369463252
 10
-172.39802964249517
 20
358.52572287986209
 10
-173.78734638341319
 20
357.0870432791848
  0
LWPOLYLINE
  5
14F
100
AcDbEntity
  8
一般
370
              15
  6
Continuous
 62
               7
100
AcDbPolyline
 90
        6
 70
             129
 10
-182.28175978405002
 20
347.57104243514368
 42
0.4142135623731186
 10
-181.57476069865126
 20
347.58338315008348
 10
-180.88010232819218
 20
348.30272295042215
 42
0.4142135623731421
 10
-180.89244304313198
 20
349.00972203582097
 10
-181.25211294330134
 20
349.35705122105037
 10
-182.64142968421936
 20
347.91837162037308
  0
LWPOLYLINE
  5
150
100
AcDbEntity
  8
一般
370
              15
  6
Continuous
 62
               7
100
AcDbPolyline
 90
        6
 70
             129
 10
-210.51131348845018
 20
318.33848382945837
 42
0.4142135623731421
 10
-209.80431440305148
 20
318.35082454439817
 10
-209.10965603259234
 20
319.0701643447369
 42
0.4142135623731661
 10
-209.12199674753231
 20
319.77716343013572
 10
-209.48166664770162
 20
320.12449261536517
 10
-210.87098338861955
 20
318.68581301468782
  0
LWPOLYLINE
  5
151
100
AcDbEntity
  8
一般
370
              15
  6
Continuous
 62
               7
100
AcDbPolyline
 90
        6
 70
             129
 10
-189.72441644054834
 20
339.86394585220444
 42
0.4142135623730249
 10
-189.01741735514958
 20
339.87628656714423
 10
-188.32275898469049
 20
340.59562636748296
 42
0.4142135623731186
 10
-188.33509969963029
 20
341.30262545288178
 10
-188.6947695997996
 20
341.6499546381113
 10
-190.08408634071765
 20
340.21127503743401
  0
LWPOLYLINE
  5
152
100
AcDbEntity
  8
一般
370
              15
  6
Continuous
 62
               7
100
AcDbPolyline
 90
        6
 70
             129
 10
-192.38626938930912
 20
337.1075164329099
 42
0.4142135623730716
 10
-191.67927030391024
 20
337.1198571478497
 10
-190.98461193345128
 20
337.83919694818837
 42
0.4142135623731421
 10
-190.99695264839107
 20
338.54619603358719
 10
-191.35662254856044
 20
338.89352521881665
 10
-192.74593928947849
 20
337.45484561813936
  0
LWPOLYLINE
  5
153
100
AcDbEntity
  8
一般
370
              15
  6
Continuous
 62
               7
100
AcDbPolyline
 90
        6
 70
             129
 10
-204.28444994382698
 20
324.78658978975324
 42
0.4142135623730013
 10
-203.57745085842811
 20
324.79893050469298
 10
-202.88279248796914
 20
325.51827030503171
 42
0.4142135623731421
 10
-202.89513320290894
 20
326.22526939043053
 10
-203.25480310307819
 20
326.57259857566009
 10
-204.64411984399624
 20
325.13391897498275
  0
LWPOLYLINE
  5
154
100
AcDbEntity
  8
一般
370
              15
  6
Continuous
 62
               7
100
AcDbPolyline
 90
        6
 70
             129
 10
-197.50721891103672
 20
331.80461796776962
 42
0.4142135623730834
 10
-196.80021982563792
 20
331.81695868270953
 10
-196.10556145517887
 20
332.5362984830482
 42
0.4142135623731892
 10
-196.11790217011867
 20
333.24329756844691
 10
-196.47757207028801
 20
333.59062675367642
 10
-197.86688881120602
 20
332.15194715299913
  0
LWPOLYLINE
  5
155
100
AcDbEntity
  8
一般
370
              15
  6
Continuous
 62
               7
100
AcDbPolyline
 90
        6
 70
             129
 10
-208.88426472413852
 20
320.02334214691859
 42
0.4142135623731661
 10
-208.17726563873964
 20
320.03568286185839
 10
-207.48260726828073
 20
320.75502266219701
 42
0.4142135623731182
 10
-207.49494798322053
 20
321.46202174759588
 10
-207.85461788338984
 20
321.80935093282545
 10
-209.24393462430788
 20
320.37067133214816
  0
POLYLINE
  5
156
100
AcDbEntity
  8
一般
370
              15
  6
Continuous
 62
               7
100
AcDb2dPolyline
 66
               1
 10
0.0
 20
0.0
 30
0.0
 70
               1
 75
               5
  0
VERTEX
  5
157
100
AcDbEntity
  8
一般
370
              15
  6
Continuous
 62
               7
100
AcDbVertex
100
AcDb2dVertex
 10
-163.91761691543007
 20
367.30744733219342
 30
0.0
  0
VERTEX
  5
158
100
AcDbEntity
  8
一般
370
              15
  6
Continuous
 62
               7
100
AcDbVertex
100
AcDb2dVertex
 10
-163.55794701526077
 20
366.96011814696385
 30
0.0
  0
VERTEX
  5
159
100
AcDbEntity
  8
一般
370
              15
  6
Continuous
 62
               7
100
AcDbVertex
100
AcDb2dVertex
 10
-218.43595828152155
 20
310.13227392021054
 30
0.0
  0
VERTEX
  5
15A
100
AcDbEntity
  8
一般
370
              15
  6
Continuous
 62
               7
100
AcDbVertex
100
AcDb2dVertex
 10
-218.79562818169086
 20
310.47960310543994
 30
0.0
  0
SEQEND
  5
15B
100
AcDbEntity
  8
一般
370
              15
  6
Continuous
 62
               7
  0
POLYLINE
  5
15C
100
AcDbEntity
  8
一般
370
              15
  6
Continuous
 62
               7
100
AcDb2dPolyline
 66
               1
 10
0.0
 20
0.0
 30
0.0
 70
               1
 75
               5
  0
VERTEX
  5
15D
100
AcDbEntity
  8
一般
370
              15
  6
Continuous
 62
               7
100
AcDbVertex
100
AcDb2dVertex
 10
-176.40912686875222
 20
353.65233184069882
 30
0.0
  0
VERTEX
  5
15E
100
AcDbEntity
  8
一般
370
              15
  6
Continuous
 62
               7
100
AcDbVertex
100
AcDb2dVertex
 10
-176.04945696858283
 20
353.30500265546937
 30
0.0
  0
VERTEX
  5
15F
100
AcDbEntity
  8
一般
370
              15
  6
Continuous
 62
               7
100
AcDbVertex
100
AcDb2dVertex
 10
-205.22510852786075
 20
323.09273104124611
 30
0.0
  0
VERTEX
  5
160
100
AcDbEntity
  8
一般
370
              15
  6
Continuous
 62
               7
100
AcDbVertex
100
AcDb2dVertex
 10
-205.58477842803006
 20
323.44006022647557
 30
0.0
  0
SEQEND
  5
161
100
AcDbEntity
  8
一般
370
              15
  6
Continuous
 62
               7
  0
LWPOLYLINE
  5
162
100
AcDbEntity
  8
一般
370
              15
  6
Continuous
 62
               7
100
AcDbPolyline
 90
        6
 70
             129
 10
-199.65514616773942
 20
328.86059591182419
 42
0.4142135623731417
 10
-198.94814708234054
 20
328.87293662676393
 10
-198.25348871188157
 20
329.59227642710266
 42
0.4142135623731888
 10
-198.26582942682137
 20
330.29927551250154
 10
-198.62549932699068
 20
330.64660469773094
 10
-200.01481606790878
 20
329.20792509705359
  0
LWPOLYLINE
  5
163
100
AcDbEntity
  8
一般
370
              15
  6
Continuous
 62
               7
100
AcDbPolyline
 90
        6
 70
             129
 10
-167.3662273378454
 20
362.29675015970247
 42
0.4142135623731186
 10
-166.65922825244664
 20
362.30909087464227
 10
-165.96456988198759
 20
363.02843067498088
 42
0.4142135623731062
 10
-165.97691059692735
 20
363.73542976037976
 10
-166.33658049709672
 20
364.08275894560921
 10
-167.72589723801477
 20
362.64407934493192
  0
LWPOLYLINE
  5
164
100
AcDbEntity
  8
一般
370
              15
  6
Continuous
 62
               7
100
AcDbPolyline
 90
        6
 70
             129
 10
-170.25684611607988
 20
359.30342678922847
 42
0.4142135623730595
 10
-169.54984703068104
 20
359.31576750416826
 10
-168.85518866022198
 20
360.03510730450688
 42
0.41421356237306
 10
-168.86752937516187
 20
360.74210638990576
 10
-169.2271992753312
 20
361.08943557513521
 10
-170.61651601624928
 20
359.65075597445787
  0
LWPOLYLINE
  5
165
100
AcDbEntity
  8
一般
370
              15
  6
Continuous
 62
               7
100
AcDbPolyline
 90
        6
 70
             129
 10
-175.68943238690395
 20
353.6778190235076
 42
0.4142135623731066
 10
-174.98243330150521
 20
353.69015973844739
 10
-174.28777493104616
 20
354.40949953878606
 42
0.4142135623731071
 10
-174.30011564598604
 20
355.11649862418494
 10
-174.65978554615538
 20
355.4638278094144
 10
-176.04910228707334
 20
354.02514820873705
  0
LWPOLYLINE
  5
166
100
AcDbEntity
  8
一般
370
              15
  6
Continuous
 62
               7
100
AcDbPolyline
 90
        6
 70
             129
 10
-183.00873606962224
 20
346.09845818421388
 42
0.4142135623729893
 10
-182.3017369842234
 20
346.11079889915374
 10
-181.60707861376429
 20
346.83013869949247
 42
0.4142135623730595
 10
-181.61941932870423
 20
347.53713778489123
 10
-181.97908922887356
 20
347.88446697012074
 10
-183.36840596979158
 20
346.44578736944345
  0
LWPOLYLINE
  5
167
100
AcDbEntity
  8
一般
370
              15
  6
Continuous
 62
               7
100
AcDbPolyline
 90
        6
 70
             129
 10
-191.33194111868082
 20
337.47952704801901
 42
0.4142135623731781
 10
-190.62494203328197
 20
337.49186776295886
 10
-189.930283662823
 20
338.21120756329748
 42
0.4142135623730249
 10
-189.9426243777628
 20
338.91820664869635
 10
-190.30229427793216
 20
339.26553583392581
 10
-191.69161101885018
 20
337.82685623324846
  0
LWPOLYLINE
  5
168
100
AcDbEntity
  8
一般
370
              15
  6
Continuous
 62
               7
100
AcDbPolyline
 90
        6
 70
             129
 10
-206.97444985045757
 20
321.28123507253048
 42
0.4142135623730719
 10
-206.2674507650587
 20
321.29357578747027
 10
-205.57279239459973
 20
322.01291558780906
 42
0.4142135623731657
 10
-205.58513310953953
 20
322.71991467320777
 10
-205.94480300970883
 20
323.06724385843728
 10
-207.33411975062688
 20
321.62856425775999
  0
LWPOLYLINE
  5
169
100
AcDbEntity
  8
一般
370
              15
  6
Continuous
 62
               7
100
AcDbPolyline
 90
        6
 70
             129
 10
-212.40703612128175
 20
315.65562730680966
 42
0.4142135623731892
 10
-211.70003703588287
 20
315.6679680217494
 10
-211.00537866542396
 20
316.38730782208813
 42
0.4142135623731661
 10
-211.0177193803637
 20
317.09430690748695
 10
-211.37738928053307
 20
317.44163609271635
 10
-212.76670602145111
 20
316.00295649203906
  0
LWPOLYLINE
  5
16A
100
AcDbEntity
  8
一般
370
              15
  6
Continuous
 62
               7
100
AcDbPolyline
 90
        6
 70
             129
 10
-215.29765489951615
 20
312.66230393633555
 42
0.4142135623730711
 10
-214.59065581411721
 20
312.67464465127551
 10
-213.8959974436583
 20
313.39398445161419
 42
0.4142135623731186
 10
-213.9083381585981
 20
314.10098353701289
 10
-214.26800805876746
 20
314.44831272224235
 10
-215.65732479968551
 20
313.00963312156506
  0
LWPOLYLINE
  5
16B
100
AcDbEntity
  8
一般
370
              15
  6
Continuous
 62
               7
100
AcDbPolyline
 90
        6
 70
             129
 10
-184.50079822997367
 20
345.27316085692308
 42
0.414213562373083
 10
-183.79379914457482
 20
345.28550157186282
 10
-183.09914077411585
 20
346.00484137220155
 42
0.4142135623731892
 10
-183.11148148905565
 20
346.71184045760037
 10
-183.47115138922496
 20
347.05916964282994
 10
-184.86046813014298
 20
345.6204900421526
  0
LWPOLYLINE
  5
16C
100
AcDbEntity
  8
一般
370
              15
  6
Continuous
 62
               7
100
AcDbPolyline
 90
        6
 70
             129
 10
-168.00287899196306
 20
362.3572563423516
 42
0.4142135623731541
 10
-167.29587990656432
 20
362.3695970572914
 10
-166.60122153610524
 20
363.08893685763007
 42
0.4142135623731888
 10
-166.61356225104504
 20
363.79593594302895
 10
-166.97323215121435
 20
364.14326512825846
 10
-168.36254889213237
 20
362.70458552758112
  0
LWPOLYLINE
  5
16D
100
AcDbEntity
  8
一般
370
              15
  6
Continuous
 62
               7
100
AcDbPolyline
 90
        6
 70
             129
 10
-175.53400134809397
 20
354.55855084571226
 42
0.4142135623731537
 10
-174.82700226269512
 20
354.57089156065206
 10
-174.13234389223612
 20
355.29023136099073
 42
0.4142135623730955
 10
-174.14468460717592
 20
355.99723044638961
 10
-174.50435450734525
 20
356.34455963161912
 10
-175.89367124826327
 20
354.90588003094183
  0
LWPOLYLINE
  5
16E
100
AcDbEntity
  8
一般
370
              15
  6
Continuous
 62
               7
100
AcDbPolyline
 90
        6
 70
             129
 10
-192.38626938930912
 20
337.1075164329099
 42
0.4142135623730716
 10
-191.67927030391024
 20
337.1198571478497
 10
-190.98461193345128
 20
337.83919694818837
 42
0.4142135623731421
 10
-190.99695264839107
 20
338.54619603358719
 10
-191.35662254856044
 20
338.89352521881665
 10
-192.74593928947849
 20
337.45484561813936
  0
LWPOLYLINE
  5
16F
100
AcDbEntity
  8
一般
370
              15
  6
Continuous
 62
               7
100
AcDbPolyline
 90
        6
 70
             129
 10
-194.10653038450715
 20
335.32613402475067
 42
0.4142135623729774
 10
-193.39953129910839
 20
335.33847473969058
 10
-192.70487292864931
 20
336.05781454002926
 42
0.4142135623731182
 10
-192.71721364358922
 20
336.76481362542802
 10
-193.07688354375858
 20
337.11214281065759
 10
-194.46620028467649
 20
335.67346320998018
  0
LWPOLYLINE
  5
170
100
AcDbEntity
  8
一般
370
              15
  6
Continuous
 62
               7
100
AcDbPolyline
 90
        6
 70
             129
 10
-211.83982072311119
 20
316.96277431587686
 42
0.4142135623729071
 10
-211.13282163771237
 20
316.97511503081665
 10
-210.43816326725329
 20
317.69445483115538
 42
0.4142135623730947
 10
-210.4505039821932
 20
318.40145391655415
 10
-210.81017388236251
 20
318.74878310178372
 10
-212.19949062328055
 20
317.31010350110643
  0
LWPOLYLINE
  5
171
100
AcDbEntity
  8
一般
370
              15
  6
Continuous
 62
               7
100
AcDbPolyline
 90
        6
 70
             129
 10
-203.49768635570297
 20
325.60130733504218
 42
0.4142135623731656
 10
-202.7906872703042
 20
325.61364804998209
 10
-202.09602889984512
 20
326.33298785032076
 42
0.4142135623731657
 10
-202.10836961478492
 20
327.03998693571947
 10
-202.46803951495428
 20
327.38731612094898
 10
-203.85735625587233
 20
325.94863652027158
  0
LWPOLYLINE
  5
172
100
AcDbEntity
  8
一般
370
              15
  6
Continuous
 62
               7
100
AcDbPolyline
 90
        6
 70
             129
 10
-159.73732597773619
 20
370.91648704882653
 42
0.4142135623730124
 10
-159.03032689233746
 20
370.92882776376632
 10
-158.33566852187835
 20
371.64816756410505
 42
0.4142135623730839
 10
-158.34800923681817
 20
372.35516664950381
 10
-158.70767913698748
 20
372.70249583473333
 10
-160.09699587790553
 20
371.26381623405598
  0
LWPOLYLINE
  5
173
100
AcDbEntity
  8
一般
370
              15
  6
Continuous
 62
               7
100
AcDbPolyline
 90
        6
 70
             129
 10
-162.57660443270942
 20
367.9763281394093
 42
0.4142135623729897
 10
-161.86960534731051
 20
367.98866885434921
 10
-161.17494697685157
 20
368.70800865468789
 42
0.4142135623731777
 10
-161.1872876917914
 20
369.41500774008659
 10
-161.54695759196071
 20
369.76233692531616
 10
-162.93627433287875
 20
368.32365732463882
  0
POLYLINE
  5
174
100
AcDbEntity
  8
一般
370
              15
  6
Continuous
 62
               7
100
AcDb2dPolyline
 66
               1
 10
0.0
 20
0.0
 30
0.0
 70
               1
 75
               5
  0
VERTEX
  5
175
100
AcDbEntity
  8
一般
370
              15
  6
Continuous
 62
               7
100
AcDbVertex
100
AcDb2dVertex
 10
-317.01454386105434
 20
683.161510280465
 30
0.0
  0
VERTEX
  5
176
100
AcDbEntity
  8
一般
370
              15
  6
Continuous
 62
               7
100
AcDbVertex
100
AcDb2dVertex
 10
-297.01454386105434
 20
683.161510280465
 30
0.0
  0
VERTEX
  5
177
100
AcDbEntity
  8
一般
370
              15
  6
Continuous
 62
               7
100
AcDbVertex
100
AcDb2dVertex
 10
-297.01454386105434
 20
-276.61645527989049
 30
0.0
  0
VERTEX
  5
178
100
AcDbEntity
  8
一般
370
              15
  6
Continuous
 62
               7
100
AcDbVertex
100
AcDb2dVertex
 10
-317.01454386105434
 20
-276.61645527989049
 30
0.0
  0
SEQEND
  5
179
100
AcDbEntity
  8
一般
370
              15
  6
Continuous
 62
               7
  0
POLYLINE
  5
17A
100
AcDbEntity
  8
一般
370
              15
  6
Continuous
 62
               7
100
AcDb2dPolyline
 66
               1
 10
0.0
 20
0.0
 30
0.0
 70
               1
 75
               5
  0
VERTEX
  5
17B
100
AcDbEntity
  8
一般
370
              15
  6
Continuous
 62
               7
100
AcDbVertex
100
AcDb2dVertex
 10
-364.2487892948825
 20
685.16151028046431
 30
0.0
  0
VERTEX
  5
17C
100
AcDbEntity
  8
一般
370
              15
  6
Continuous
 62
               7
100
AcDbVertex
100
AcDb2dVertex
 10
-354.2487892948825
 20
685.16151028046431
 30
0.0
  0
VERTEX
  5
17D
100
AcDbEntity
  8
一般
370
              15
  6
Continuous
 62
               7
100
AcDbVertex
100
AcDb2dVertex
 10
-354.2487892948825
 20
621.16151028046431
 30
0.0
  0
VERTEX
  5
17E
100
AcDbEntity
  8
一般
370
              15
  6
Continuous
 62
               7
100
AcDbVertex
100
AcDb2dVertex
 10
-364.2487892948825
 20
621.16151028046431
 30
0.0
  0
SEQEND
  5
17F
100
AcDbEntity
  8
一般
370
              15
  6
Continuous
 62
               7
  0
POLYLINE
  5
180
100
AcDbEntity
  8
一般
370
              15
  6
Continuous
 62
               7
100
AcDb2dPolyline
 66
               1
 10
0.0
 20
0.0
 30
0.0
 70
               1
 75
               5
  0
VERTEX
  5
181
100
AcDbEntity
  8
一般
370
              15
  6
Continuous
 62
               7
100
AcDbVertex
100
AcDb2dVertex
 10
-364.24878929488227
 20
-214.8384897195358
 30
0.0
  0
VERTEX
  5
182
100
AcDbEntity
  8
一般
370
              15
  6
Continuous
 62
               7
100
AcDbVertex
100
AcDb2dVertex
 10
-354.24878929488227
 20
-214.8384897195358
 30
0.0
  0
VERTEX
  5
183
100
AcDbEntity
  8
一般
370
              15
  6
Continuous
 62
               7
100
AcDbVertex
100
AcDb2dVertex
 10
-354.24878929488227
 20
-278.83848971953557
 30
0.0
  0
VERTEX
  5
184
100
AcDbEntity
  8
一般
370
              15
  6
Continuous
 62
               7
100
AcDbVertex
100
AcDb2dVertex
 10
-364.24878929488227
 20
-278.83848971953557
 30
0.0
  0
SEQEND
  5
185
100
AcDbEntity
  8
一般
370
              15
  6
Continuous
 62
               7
  0
POLYLINE
  5
186
100
AcDbEntity
  8
一般
370
              15
  6
Continuous
 62
               7
100
AcDb2dPolyline
 66
               1
 10
0.0
 20
0.0
 30
0.0
 70
               1
 75
               5
  0
VERTEX
  5
187
100
AcDbEntity
  8
一般
370
              15
  6
Continuous
 62
               7
100
AcDbVertex
100
AcDb2dVertex
 10
-354.73143270936202
 20
662.72806668188002
 30
0.0
  0
VERTEX
  5
188
100
AcDbEntity
  8
一般
370
              15
  6
Continuous
 62
               7
100
AcDbVertex
100
AcDb2dVertex
 10
-316.73143270936202
 20
662.72806668188002
 30
0.0
  0
VERTEX
  5
189
100
AcDbEntity
  8
一般
370
              15
  6
Continuous
 62
               7
100
AcDbVertex
100
AcDb2dVertex
 10
-316.73143270936202
 20
643.7280666818782
 30
0.0
  0
VERTEX
  5
18A
100
AcDbEntity
  8
一般
370
              15
  6
Continuous
 62
               7
100
AcDbVertex
100
AcDb2dVertex
 10
-354.73143270936202
 20
643.7280666818782
 30
0.0
  0
SEQEND
  5
18B
100
AcDbEntity
  8
一般
370
              15
  6
Continuous
 62
               7
  0
POLYLINE
  5
18C
100
AcDbEntity
  8
一般
370
              15
  6
Continuous
 62
               7
100
AcDb2dPolyline
 66
               1
 10
0.0
 20
0.0
 30
0.0
 70
               1
 75
               5
  0
VERTEX
  5
18D
100
AcDbEntity
  8
一般
370
              15
  6
Continuous
 62
               7
100
AcDbVertex
100
AcDb2dVertex
 10
-354.58009796842089
 20
-237.27166225554743
 30
0.0
  0
VERTEX
  5
18E
100
AcDbEntity
  8
一般
370
              15
  6
Continuous
 62
               7
100
AcDbVertex
100
AcDb2dVertex
 10
-316.58009796842089
 20
-237.27166225554743
 30
0.0
  0
VERTEX
  5
18F
100
AcDbEntity
  8
一般
370
              15
  6
Continuous
 62
               7
100
AcDbVertex
100
AcDb2dVertex
 10
-316.58009796842089
 20
-256.27166225554663
 30
0.0
  0
VERTEX
  5
190
100
AcDbEntity
  8
一般
370
              15
  6
Continuous
 62
               7
100
AcDbVertex
100
AcDb2dVertex
 10
-354.58009796842089
 20
-256.27166225554663
 30
0.0
  0
SEQEND
  5
191
100
AcDbEntity
  8
一般
370
              15
  6
Continuous
 62
               7
  0
CIRCLE
  5
192
100
AcDbEntity
  8
一般
370
              15
  6
Continuous
 62
               7
100
AcDbCircle
 10
-305.62136631305748
 20
141.38354472010951
 30
0.0
 40
16.99999999999994
  0
LINE
  5
193
100
AcDbEntity
  8
一般
370
              15
  6
Continuous
 62
               7
100
AcDbLine
 10
-294.36220539101896
 20
153.85303827582061
 30
0.0
 11
-299.34682475089971
 21
125.58385712241443
 31
0.0
  0
LINE
  5
194
100
AcDbEntity
  8
一般
370
              15
  6
Continuous
 62
               7
100
AcDbLine
 10
-312.08874494523866
 20
156.97870547382536
 30
0.0
 11
-317.05663361929646
 21
128.80440875475597
 31
0.0
  0
POLYLINE
  5
195
100
AcDbEntity
  8
一般
370
              15
  6
Continuous
 62
               7
100
AcDb2dPolyline
 66
               1
 10
0.0
 20
0.0
 30
0.0
 70
               1
 75
               5
  0
VERTEX
  5
196
100
AcDbEntity
  8
一般
370
              15
  6
Continuous
 62
               7
100
AcDbVertex
100
AcDb2dVertex
 10
-292.27413151132782
 20
131.13881789388915
 30
0.0
  0
VERTEX
  5
197
100
AcDbEntity
  8
一般
370
              15
  6
Continuous
 62
               7
100
AcDbVertex
100
AcDb2dVertex
 10
-289.27413151132782
 20
136.33497031659567
 30
0.0
  0
VERTEX
  5
198
100
AcDbEntity
  8
一般
370
              15
  6
Continuous
 62
               7
100
AcDbVertex
100
AcDb2dVertex
 10
-273.68567424320781
 20
127.33497031659567
 30
0.0
  0
VERTEX
  5
199
100
AcDbEntity
  8
一般
370
              15
  6
Continuous
 62
               7
100
AcDbVertex
100
AcDb2dVertex
 10
-276.68567424320781
 20
122.13881789388915
 30
0.0
  0
SEQEND
  5
19A
100
AcDbEntity
  8
一般
370
              15
  6
Continuous
 62
               7
  0
ENDBLK
  5
19B
100
AcDbEntity
  8
DEFAULT_1
100
AcDbBlockEnd
  0
BLOCK
  5
19C
100
AcDbEntity
  8
DEFAULT_1
100
AcDbBlockBegin
  2
グループ-3
 70
               0
 10
0.0
 20
0.0
 30
0.0
  3
グループ-3
  1

  0
CIRCLE
  5
19D
100
AcDbEntity
  8
一般
370
              15
  6
Continuous
 62
               7
100
AcDbCircle
 10
-851.00609921130672
 20
-367.5
 30
0.0
 40
26.25
  0
CIRCLE
  5
19E
100
AcDbEntity
  8
一般
370
               5
  6
Continuous
 62
               7
100
AcDbCircle
 10
-851.00609921130672
 20
-367.5
 30
0.0
 40
25.75
  0
POLYLINE
  5
19F
100
AcDbEntity
  8
一般
370
              15
  6
Continuous
 62
               7
100
AcDb2dPolyline
 66
               1
 10
0.0
 20
0.0
 30
0.0
 75
               5
  0
VERTEX
  5
1A0
100
AcDbEntity
  8
一般
370
              15
  6
Continuous
 62
               7
100
AcDbVertex
100
AcDb2dVertex
 10
-857.00609921130672
 20
-393.05508755610117
 30
0.0
  0
VERTEX
  5
1A1
100
AcDbEntity
  8
一般
370
              15
  6
Continuous
 62
               7
100
AcDbVertex
100
AcDb2dVertex
 10
-857.00609921130672
 20
-394.75
 30
0.0
  0
VERTEX
  5
1A2
100
AcDbEntity
  8
一般
370
              15
  6
Continuous
 62
               7
100
AcDbVertex
100
AcDb2dVertex
 10
-845.00609921130672
 20
-394.75
 30
0.0
  0
VERTEX
  5
1A3
100
AcDbEntity
  8
一般
370
              15
  6
Continuous
 62
               7
100
AcDbVertex
100
AcDb2dVertex
 10
-845.00609921130672
 20
-393.05508755610117
 30
0.0
  0
SEQEND
  5
1A4
100
AcDbEntity
  8
一般
370
              15
  6
Continuous
 62
               7
  0
POLYLINE
  5
1A5
100
AcDbEntity
  8
一般
370
              15
  6
Continuous
 62
               7
100
AcDb2dPolyline
 66
               1
 10
0.0
 20
0.0
 30
0.0
 70
               1
 75
               5
  0
VERTEX
  5
1A6
100
AcDbEntity
  8
一般
370
              15
  6
Continuous
 62
               7
100
AcDbVertex
100
AcDb2dVertex
 10
-861.00609921130672
 20
-394.75
 30
0.0
  0
VERTEX
  5
1A7
100
AcDbEntity
  8
一般
370
              15
  6
Continuous
 62
               7
100
AcDbVertex
100
AcDb2dVertex
 10
-841.00609921130672
 20
-394.75
 30
0.0
  0
VERTEX
  5
1A8
100
AcDbEntity
  8
一般
370
              15
  6
Continuous
 62
               7
100
AcDbVertex
100
AcDb2dVertex
 10
-841.00609921130672
 20
-402.75
 30
0.0
  0
VERTEX
  5
1A9
100
AcDbEntity
  8
一般
370
              15
  6
Continuous
 62
               7
100
AcDbVertex
100
AcDb2dVertex
 10
-861.00609921130672
 20
-402.75
 30
0.0
  0
SEQEND
  5
1AA
100
AcDbEntity
  8
一般
370
              15
  6
Continuous
 62
               7
  0
POLYLINE
  5
1AB
100
AcDbEntity
  8
一般
370
              15
  6
Continuous
 62
               7
100
AcDb2dPolyline
 66
               1
 10
0.0
 20
0.0
 30
0.0
 70
               1
 75
               5
  0
VERTEX
  5
1AC
100
AcDbEntity
  8
一般
370
              15
  6
Continuous
 62
               7
100
AcDbVertex
100
AcDb2dVertex
 10
-861.50609921130672
 20
-395.75
 30
0.0
  0
VERTEX
  5
1AD
100
AcDbEntity
  8
一般
370
              15
  6
Continuous
 62
               7
100
AcDbVertex
100
AcDb2dVertex
 10
-840.50609921130672
 20
-395.75
 30
0.0
  0
VERTEX
  5
1AE
100
AcDbEntity
  8
一般
370
              15
  6
Continuous
 62
               7
100
AcDbVertex
100
AcDb2dVertex
 10
-840.50609921130672
 20
-396.75
 30
0.0
  0
VERTEX
  5
1AF
100
AcDbEntity
  8
一般
370
              15
  6
Continuous
 62
               7
100
AcDbVertex
100
AcDb2dVertex
 10
-861.50609921130672
 20
-396.75
 30
0.0
  0
SEQEND
  5
1B0
100
AcDbEntity
  8
一般
370
              15
  6
Continuous
 62
               7
  0
POLYLINE
  5
1B1
100
AcDbEntity
  8
一般
370
              15
  6
Continuous
 62
               7
100
AcDb2dPolyline
 66
               1
 10
0.0
 20
0.0
 30
0.0
 70
               1
 75
               5
  0
VERTEX
  5
1B2
100
AcDbEntity
  8
一般
370
              15
  6
Continuous
 62
               7
100
AcDbVertex
100
AcDb2dVertex
 10
-861.50609921130672
 20
-397.75
 30
0.0
  0
VERTEX
  5
1B3
100
AcDbEntity
  8
一般
370
              15
  6
Continuous
 62
               7
100
AcDbVertex
100
AcDb2dVertex
 10
-840.50609921130672
 20
-397.75
 30
0.0
  0
VERTEX
  5
1B4
100
AcDbEntity
  8
一般
370
              15
  6
Continuous
 62
               7
100
AcDbVertex
100
AcDb2dVertex
 10
-840.50609921130672
 20
-398.75
 30
0.0
  0
VERTEX
  5
1B5
100
AcDbEntity
  8
一般
370
              15
  6
Continuous
 62
               7
100
AcDbVertex
100
AcDb2dVertex
 10
-861.50609921130672
 20
-398.75
 30
0.0
  0
SEQEND
  5
1B6
100
AcDbEntity
  8
一般
370
              15
  6
Continuous
 62
               7
  0
POLYLINE
  5
1B7
100
AcDbEntity
  8
一般
370
              15
  6
Continuous
 62
               7
100
AcDb2dPolyline
 66
               1
 10
0.0
 20
0.0
 30
0.0
 70
               1
 75
               5
  0
VERTEX
  5
1B8
100
AcDbEntity
  8
一般
370
              15
  6
Continuous
 62
               7
100
AcDbVertex
100
AcDb2dVertex
 10
-861.50609921130672
 20
-399.75
 30
0.0
  0
VERTEX
  5
1B9
100
AcDbEntity
  8
一般
370
              15
  6
Continuous
 62
               7
100
AcDbVertex
100
AcDb2dVertex
 10
-840.50609921130672
 20
-399.75
 30
0.0
  0
VERTEX
  5
1BA
100
AcDbEntity
  8
一般
370
              15
  6
Continuous
 62
               7
100
AcDbVertex
100
AcDb2dVertex
 10
-840.50609921130672
 20
-400.75
 30
0.0
  0
VERTEX
  5
1BB
100
AcDbEntity
  8
一般
370
              15
  6
Continuous
 62
               7
100
AcDbVertex
100
AcDb2dVertex
 10
-861.50609921130672
 20
-400.75
 30
0.0
  0
SEQEND
  5
1BC
100
AcDbEntity
  8
一般
370
              15
  6
Continuous
 62
               7
  0
POLYLINE
  5
1BD
100
AcDbEntity
  8
一般
370
              15
  6
Continuous
 62
               7
100
AcDb2dPolyline
 66
               1
 10
0.0
 20
0.0
 30
0.0
 70
               1
 75
               5
  0
VERTEX
  5
1BE
100
AcDbEntity
  8
一般
370
              15
  6
Continuous
 62
               7
100
AcDbVertex
100
AcDb2dVertex
 10
-861.50609921130672
 20
-401.75
 30
0.0
  0
VERTEX
  5
1BF
100
AcDbEntity
  8
一般
370
              15
  6
Continuous
 62
               7
100
AcDbVertex
100
AcDb2dVertex
 10
-840.50609921130672
 20
-401.75
 30
0.0
  0
VERTEX
  5
1C0
100
AcDbEntity
  8
一般
370
              15
  6
Continuous
 62
               7
100
AcDbVertex
100
AcDb2dVertex
 10
-840.50609921130672
 20
-402.75
 30
0.0
  0
VERTEX
  5
1C1
100
AcDbEntity
  8
一般
370
              15
  6
Continuous
 62
               7
100
AcDbVertex
100
AcDb2dVertex
 10
-861.50609921130672
 20
-402.75
 30
0.0
  0
SEQEND
  5
1C2
100
AcDbEntity
  8
一般
370
              15
  6
Continuous
 62
               7
  0
LWPOLYLINE
  5
1C3
100
AcDbEntity
  8
DEFAULT_1
370
               5
  6
STYLE_06
 62
               7
100
AcDbPolyline
 90
        5
 70
             128
 10
-851.00609921130672
 20
-406.89679905575042
 10
-851.00609921130672
 20
-624.33887658266519
 42
0.414213562373095
 10
-828.34497579397191
 20
-647.0
 42
0.414213562373095
 10
-805.68385237663711
 20
-624.33887658266519
 10
-805.68385237663711
 20
134.66151028046431
  0
ARC
  5
1C4
100
AcDbEntity
  8
一般
370
              15
  6
Continuous
 62
               7
100
AcDbCircle
 10
-850.95296398849962
 20
653.16151028046431
 30
0.0
 40
31.999999999999858
100
AcDbArc
 50
287.96827812781288
 51
251.54802856500103
  0
ARC
  5
1C5
100
AcDbEntity
  8
一般
370
              15
  6
Continuous
 62
               7
100
AcDbCircle
 10
-851.08127139521412
 20
-246.83848971953569
 30
0.0
 40
31.999999999999304
100
AcDbArc
 50
108.20995686428343
 51
71.790043135716587
  0
LINE
  5
1C6
100
AcDbEntity
  8
一般
370
              15
  6
Continuous
 62
               7
100
AcDbLine
 10
-861.08127139521412
 20
355.17662835179078
 30
0.0
 11
-861.08127139521412
 21
158.87502814238633
 31
0.0
  0
POLYLINE
  5
1C7
100
AcDbEntity
  8
一般
370
              15
  6
Continuous
 62
               7
100
AcDb2dPolyline
 66
               1
 10
0.0
 20
0.0
 30
0.0
 75
               5
  0
VERTEX
  5
1C8
100
AcDbEntity
  8
一般
370
              15
  6
Continuous
 62
               7
100
AcDbVertex
100
AcDb2dVertex
 10
-841.08127139521412
 20
125.56065645887031
 30
0.0
  0
VERTEX
  5
1C9
100
AcDbEntity
  8
一般
370
              15
  6
Continuous
 62
               7
100
AcDbVertex
100
AcDb2dVertex
 10
-841.08127139521412
 20
-278.83848971953506
 30
0.0
  0
VERTEX
  5
1CA
100
AcDbEntity
  8
一般
370
              15
  6
Continuous
 62
               7
100
AcDbVertex
100
AcDb2dVertex
 10
-861.08127139521412
 20
-278.83848971953512
 30
0.0
  0
VERTEX
  5
1CB
100
AcDbEntity
  8
一般
370
              15
  6
Continuous
 62
               7
100
AcDbVertex
100
AcDb2dVertex
 10
-861.08127139521412
 20
124.87502814238633
 30
0.0
  0
SEQEND
  5
1CC
100
AcDbEntity
  8
一般
370
              15
  6
Continuous
 62
               7
  0
LINE
  5
1CD
100
AcDbEntity
  8
一般
370
              15
  6
Continuous
 62
               7
100
AcDbLine
 10
-841.08127139521412
 20
158.87502814238633
 30
0.0
 11
-841.08127139521412
 21
330.82821481127047
 31
0.0
  0
POLYLINE
  5
1CE
100
AcDbEntity
  8
一般
370
              15
  6
Continuous
 62
               7
100
AcDb2dPolyline
 66
               1
 10
0.0
 20
0.0
 30
0.0
 75
               5
  0
VERTEX
  5
1CF
100
AcDbEntity
  8
一般
370
              15
  6
Continuous
 62
               7
100
AcDbVertex
100
AcDb2dVertex
 10
-861.08127139521412
 20
393.25583602409768
 30
0.0
  0
VERTEX
  5
1D0
100
AcDbEntity
  8
一般
370
              15
  6
Continuous
 62
               7
100
AcDbVertex
100
AcDb2dVertex
 10
-861.08127139521412
 20
683.161510280465
 30
0.0
  0
VERTEX
  5
1D1
100
AcDbEntity
  8
一般
370
              15
  6
Continuous
 62
               7
100
AcDbVertex
100
AcDb2dVertex
 10
-841.08127139521412
 20
683.161510280465
 30
0.0
  0
VERTEX
  5
1D2
100
AcDbEntity
  8
一般
370
              15
  6
Continuous
 62
               7
100
AcDbVertex
100
AcDb2dVertex
 10
-841.08127139521412
 20
417.60959622680951
 30
0.0
  0
SEQEND
  5
1D3
100
AcDbEntity
  8
一般
370
              15
  6
Continuous
 62
               7
  0
SPLINE
  5
1D4
100
AcDbEntity
  8
一般
370
              15
  6
Continuous
 62
               7
100
AcDbSpline
210
0.0
220
0.0
230
1.0
 70
               9
 71
               2
 72
              34
 73
              31
 74
               0
 42
0.000001
 43
0.000001
 40
0.0
 40
0.0
 40
0.0
 40
1.0
 40
1.0
 40
2.0
 40
2.0
 40
3.0
 40
4.0
 40
5.0
 40
6.0
 40
6.0
 40
7.0
 40
7.0
 40
8.0
 40
8.0
 40
9.0
 40
9.0
 40
10.0
 40
10.0
 40
11.0
 40
11.0
 40
12.0
 40
13.0
 40
14.0
 40
15.0
 40
15.0
 40
16.0
 40
16.0
 40
17.0
 40
17.0
 40
18.0
 40
18.0
 40
18.0
 10
-869.1739213531813
 20
158.87502814238633
 30
0.0
 10
-865.01614764442138
 20
158.87502814238633
 30
0.0
 10
-860.85837393566146
 20
158.87502814238633
 30
0.0
 10
-860.58092919104013
 20
157.96837010202171
 30
0.0
 10
-859.63501296763366
 20
157.14918262269998
 30
0.0
 10
-858.29526700547797
 20
155.98892858485578
 30
0.0
 10
-853.65425085409993
 20
154.64918262269998
 30
0.0
 10
-848.29526700547683
 20
154.64918262269998
 30
0.0
 10
-843.65425085409879
 20
155.98892858485578
 30
0.0
 10
-842.3145048919431
 20
157.14918262269998
 30
0.0
 10
-841.37067629240198
 20
157.96656216672091
 30
0.0
 10
-841.09113187359617
 20
158.87502814238633
 30
0.0
 10
-836.63252661338674
 20
158.87502814238633
 30
0.0
 10
-832.17392135317732
 20
158.87502814238633
 30
0.0
 10
-832.17392135317732
 20
141.87502814238633
 30
0.0
 10
-832.17392135317732
 20
124.87502814238633
 30
0.0
 10
-836.48542827473261
 20
124.87502814238633
 30
0.0
 10
-840.79693519628802
 20
124.87502814238633
 30
0.0
 10
-841.05273568903363
 20
125.83309309466586
 30
0.0
 10
-842.04714634142931
 20
126.69427798143442
 30
0.0
 10
-843.386892303585
 20
127.85453201927862
 30
0.0
 10
-848.02790845496304
 20
129.19427798143442
 30
0.0
 10
-853.38689230358602
 20
129.19427798143442
 30
0.0
 10
-858.02790845496406
 20
127.85453201927862
 30
0.0
 10
-859.36765441711987
 20
126.69427798143442
 30
0.0
 10
-860.35998793389194
 20
125.83489194688309
 30
0.0
 10
-860.61787206027032
 20
124.87502814238633
 30
0.0
 10
-864.89589670672581
 20
124.87502814238633
 30
0.0
 10
-869.1739213531813
 20
124.87502814238633
 30
0.0
 10
-869.1739213531813
 20
141.87502814238633
 30
0.0
 10
-869.1739213531813
 20
158.87502814238633
 30
0.0
  0
POLYLINE
  5
1D5
100
AcDbEntity
  8
一般
370
              15
  6
Continuous
 62
               7
100
AcDb2dPolyline
 66
               1
 10
0.0
 20
0.0
 30
0.0
 70
               1
 75
               5
  0
VERTEX
  5
1D6
100
AcDbEntity
  8
一般
370
              15
  6
Continuous
 62
               7
100
AcDbVertex
100
AcDb2dVertex
 10
-892.72597742179437
 20
158.92691943092063
 30
0.0
  0
VERTEX
  5
1D7
100
AcDbEntity
  8
一般
370
              15
  6
Continuous
 62
               7
100
AcDbVertex
100
AcDb2dVertex
 10
-870.72597742179209
 20
158.92691943092063
 30
0.0
  0
VERTEX
  5
1D8
100
AcDbEntity
  8
一般
370
              15
  6
Continuous
 62
               7
100
AcDbVertex
100
AcDb2dVertex
 10
-870.72597742179209
 20
124.92691943092041
 30
0.0
  0
VERTEX
  5
1D9
100
AcDbEntity
  8
一般
370
              15
  6
Continuous
 62
               7
100
AcDbVertex
100
AcDb2dVertex
 10
-892.72597742179437
 20
124.92691943092041
 30
0.0
  0
SEQEND
  5
1DA
100
AcDbEntity
  8
一般
370
              15
  6
Continuous
 62
               7
  0
SPLINE
  5
1DB
100
AcDbEntity
  8
一般
370
              15
  6
Continuous
 62
               7
100
AcDbSpline
210
0.0
220
0.0
230
1.0
 70
               9
 71
               2
 72
              30
 73
              27
 74
               0
 42
0.000001
 43
0.000001
 40
0.0
 40
0.0
 40
0.0
 40
1.0
 40
1.0
 40
2.0
 40
2.0
 40
3.0
 40
4.0
 40
5.0
 40
6.0
 40
6.0
 40
7.0
 40
7.0
 40
8.0
 40
8.0
 40
9.0
 40
9.0
 40
10.0
 40
11.0
 40
12.0
 40
13.0
 40
13.0
 40
14.0
 40
14.0
 40
15.0
 40
15.0
 40
16.0
 40
16.0
 40
16.0
 10
-830.65550909073806
 20
158.6336152361398
 30
0.0
 10
-826.16772409057194
 20
158.6336152361398
 30
0.0
 10
-821.6799390904057
 20
158.6336152361398
 30
0.0
 10
-821.5791713581732
 20
157.37201024554543
 30
0.0
 10
-820.46138019391367
 20
156.16178712933333
 30
0.0
 10
-819.1100341416203
 20
154.69869609517673
 30
0.0
 10
-814.15917329274225
 20
152.71263720316824
 30
0.0
 10
-808.28672286586891
 20
152.19886436369893
 30
0.0
 10
-803.06620121047285
 20
153.29504259419764
 30
0.0
 10
-801.48132204932961
 20
154.50124720861959
 30
0.0
 10
-801.00335071735844
 20
154.86501704061675
 30
0.0
 10
-800.65550909073488
 20
155.26125309432177
 30
0.0
 10
-800.65550909073488
 20
141.876717019539
 30
0.0
 10
-800.65550909073488
 20
128.49218094475623
 30
0.0
 10
-800.72425738821551
 20
128.54753184149968
 30
0.0
 10
-800.79816412432365
 20
128.60378007058625
 30
0.0
 10
-802.38304328546678
 20
129.8099846850082
 30
0.0
 10
-807.60356494086284
 20
130.90616291550668
 30
0.0
 10
-813.4760153677363
 20
130.39239007603737
 30
0.0
 10
-818.42687621661423
 20
128.40633118402911
 30
0.0
 10
-819.77822226890771
 20
126.94324014987251
 30
0.0
 10
-820.82239463954886
 20
125.81272348391076
 30
0.0
 10
-820.97949735556665
 20
124.63361523613958
 30
0.0
 10
-825.81750322315236
 20
124.63361523613958
 30
0.0
 10
-830.65550909073806
 20
124.63361523613958
 30
0.0
 10
-830.65550909073806
 20
141.63361523613969
 30
0.0
 10
-830.65550909073806
 20
158.6336152361398
 30
0.0
  0
POLYLINE
  5
1DC
100
AcDbEntity
  8
一般
370
              15
  6
Continuous
 62
               7
100
AcDb2dPolyline
 66
               1
 10
0.0
 20
0.0
 30
0.0
 70
               1
 75
               5
  0
VERTEX
  5
1DD
100
AcDbEntity
  8
一般
370
              15
  6
Continuous
 62
               7
100
AcDbVertex
100
AcDb2dVertex
 10
-885.01666736193818
 20
124.36947028751865
 30
0.0
  0
VERTEX
  5
1DE
100
AcDbEntity
  8
一般
370
              15
  6
Continuous
 62
               7
100
AcDbVertex
100
AcDb2dVertex
 10
-879.01666736193761
 20
124.36947028751865
 30
0.0
  0
VERTEX
  5
1DF
100
AcDbEntity
  8
一般
370
              15
  6
Continuous
 62
               7
100
AcDbVertex
100
AcDb2dVertex
 10
-879.01666736193761
 20
106.36947028751865
 30
0.0
  0
VERTEX
  5
1E0
100
AcDbEntity
  8
一般
370
              15
  6
Continuous
 62
               7
100
AcDbVertex
100
AcDb2dVertex
 10
-885.01666736193818
 20
106.36947028751865
 30
0.0
  0
SEQEND
  5
1E1
100
AcDbEntity
  8
一般
370
              15
  6
Continuous
 62
               7
  0
LINE
  5
1E2
100
AcDbEntity
  8
一般
370
              15
  6
Continuous
 62
               7
100
AcDbLine
 10
-796.72294807930552
 20
325.12220324727718
 30
0.0
 11
-796.72294807930552
 21
162.45575078343359
 31
0.0
  0
LINE
  5
1E3
100
AcDbEntity
  8
一般
370
              15
  6
Continuous
 62
               7
100
AcDbLine
 10
-825.72294807930552
 20
325.12220324727718
 30
0.0
 11
-825.72294807930552
 21
162.45575078343359
 31
0.0
  0
SPLINE
  5
1E4
100
AcDbEntity
  8
一般
370
              15
  6
Continuous
 62
               7
100
AcDbSpline
210
0.0
220
0.0
230
1.0
 70
               8
 71
               2
 72
              15
 73
              12
 74
               0
 42
0.000001
 43
0.000001
 40
0.0
 40
0.0
 40
0.0
 40
1.0
 40
1.0
 40
2.0
 40
3.0
 40
4.0
 40
5.0
 40
6.0
 40
7.0
 40
7.0
 40
8.0
 40
8.0
 40
8.0
 10
-863.5539818395996
 20
374.20877461859521
 30
0.0
 10
-863.72294807930552
 20
376.1592386407483
 30
0.0
 10
-863.72294807930552
 20
378.1510628556573
 30
0.0
 10
-863.72294807930552
 20
391.00221065594116
 30
0.0
 10
-849.65561547667153
 20
413.26105158160988
 30
0.0
 10
-825.29028068193941
 20
426.11219938189379
 30
0.0
 10
-797.15561547667153
 20
426.11219938189379
 30
0.0
 10
-772.79028068193952
 20
413.26105158160988
 30
0.0
 10
-758.72294807930552
 20
391.00221065594116
 30
0.0
 10
-758.72294807930552
 20
378.15106285565724
 30
0.0
 10
-758.72294807930552
 20
376.15923241643577
 30
0.0
 10
-758.89191537502847
 20
374.20876242846856
 30
0.0
  0
SPLINE
  5
1E5
100
AcDbEntity
  8
一般
370
              15
  6
Continuous
 62
               7
100
AcDbSpline
210
0.0
220
0.0
230
1.0
 70
               9
 71
               2
 72
              17
 73
              14
 74
               0
 42
0.000001
 43
0.000001
 40
0.0
 40
0.0
 40
0.0
 40
1.0
 40
2.0
 40
3.0
 40
4.0
 40
5.0
 40
6.0
 40
7.0
 40
8.0
 40
9.0
 40
10.0
 40
11.0
 40
12.0
 40
12.0
 40
12.0
 10
-837.47294807930552
 20
411.80207304896334
 30
0.0
 10
-825.29028068193952
 20
418.22764694910529
 30
0.0
 10
-797.15561547667153
 20
418.22764694910529
 30
0.0
 10
-772.79028068193952
 20
405.37649914882138
 30
0.0
 10
-758.72294807930552
 20
383.11765822315266
 30
0.0
 10
-758.72294807930552
 20
357.41536262258484
 30
0.0
 10
-772.79028068193952
 20
335.15652169691612
 30
0.0
 10
-797.15561547667153
 20
322.3053738966322
 30
0.0
 10
-825.29028068193952
 20
322.3053738966322
 30
0.0
 10
-849.65561547667153
 20
335.15652169691612
 30
0.0
 10
-863.72294807930552
 20
357.41536262258484
 30
0.0
 10
-863.72294807930552
 20
383.11765822315266
 30
0.0
 10
-849.65561547667153
 20
405.37649914882138
 30
0.0
 10
-837.47294807930552
 20
411.80207304896334
 30
0.0
  0
LINE
  5
1E6
100
AcDbEntity
  8
一般
370
              15
  6
Continuous
 62
               7
100
AcDbLine
 10
-825.72294807930552
 20
162.45575078343359
 30
0.0
 11
-796.72294807930552
 21
162.45575078343359
 31
0.0
  0
POLYLINE
  5
1E7
100
AcDbEntity
  8
一般
370
              15
  6
Continuous
 62
               7
100
AcDb2dPolyline
 66
               1
 10
0.0
 20
0.0
 30
0.0
 70
               1
 75
               5
  0
VERTEX
  5
1E8
100
AcDbEntity
  8
一般
370
              15
  6
Continuous
 62
               7
100
AcDbVertex
100
AcDb2dVertex
 10
-820.72294807930552
 20
162.45575078343359
 30
0.0
  0
VERTEX
  5
1E9
100
AcDbEntity
  8
一般
370
              15
  6
Continuous
 62
               7
100
AcDbVertex
100
AcDb2dVertex
 10
-801.72294807930552
 20
162.45575078343359
 30
0.0
  0
VERTEX
  5
1EA
100
AcDbEntity
  8
一般
370
              15
  6
Continuous
 62
               7
100
AcDbVertex
100
AcDb2dVertex
 10
-801.72294807930552
 20
152.45575078343359
 30
0.0
  0
VERTEX
  5
1EB
100
AcDbEntity
  8
一般
370
              15
  6
Continuous
 62
               7
100
AcDbVertex
100
AcDb2dVertex
 10
-820.72294807930552
 20
152.45575078343359
 30
0.0
  0
SEQEND
  5
1EC
100
AcDbEntity
  8
一般
370
              15
  6
Continuous
 62
               7
  0
POLYLINE
  5
1ED
100
AcDbEntity
  8
一般
370
              15
  6
Continuous
 62
               7
100
AcDb2dPolyline
 66
               1
 10
0.0
 20
0.0
 30
0.0
 70
               1
 75
               5
  0
VERTEX
  5
1EE
100
AcDbEntity
  8
一般
370
              15
  6
Continuous
 62
               7
100
AcDbVertex
100
AcDb2dVertex
 10
-821.22294807930552
 20
160.45575078343359
 30
0.0
  0
VERTEX
  5
1EF
100
AcDbEntity
  8
一般
370
              15
  6
Continuous
 62
               7
100
AcDbVertex
100
AcDb2dVertex
 10
-801.22294807930552
 20
160.45575078343359
 30
0.0
  0
VERTEX
  5
1F0
100
AcDbEntity
  8
一般
370
              15
  6
Continuous
 62
               7
100
AcDbVertex
100
AcDb2dVertex
 10
-801.22294807930552
 20
159.45575078343359
 30
0.0
  0
VERTEX
  5
1F1
100
AcDbEntity
  8
一般
370
              15
  6
Continuous
 62
               7
100
AcDbVertex
100
AcDb2dVertex
 10
-821.22294807930552
 20
159.45575078343359
 30
0.0
  0
SEQEND
  5
1F2
100
AcDbEntity
  8
一般
370
              15
  6
Continuous
 62
               7
  0
POLYLINE
  5
1F3
100
AcDbEntity
  8
一般
370
              15
  6
Continuous
 62
               7
100
AcDb2dPolyline
 66
               1
 10
0.0
 20
0.0
 30
0.0
 70
               1
 75
               5
  0
VERTEX
  5
1F4
100
AcDbEntity
  8
一般
370
              15
  6
Continuous
 62
               7
100
AcDbVertex
100
AcDb2dVertex
 10
-821.22294807930552
 20
158.45575078343359
 30
0.0
  0
VERTEX
  5
1F5
100
AcDbEntity
  8
一般
370
              15
  6
Continuous
 62
               7
100
AcDbVertex
100
AcDb2dVertex
 10
-801.22294807930552
 20
158.45575078343359
 30
0.0
  0
VERTEX
  5
1F6
100
AcDbEntity
  8
一般
370
              15
  6
Continuous
 62
               7
100
AcDbVertex
100
AcDb2dVertex
 10
-801.22294807930552
 20
157.45575078343359
 30
0.0
  0
VERTEX
  5
1F7
100
AcDbEntity
  8
一般
370
              15
  6
Continuous
 62
               7
100
AcDbVertex
100
AcDb2dVertex
 10
-821.22294807930552
 20
157.45575078343359
 30
0.0
  0
SEQEND
  5
1F8
100
AcDbEntity
  8
一般
370
              15
  6
Continuous
 62
               7
  0
POLYLINE
  5
1F9
100
AcDbEntity
  8
一般
370
              15
  6
Continuous
 62
               7
100
AcDb2dPolyline
 66
               1
 10
0.0
 20
0.0
 30
0.0
 70
               1
 75
               5
  0
VERTEX
  5
1FA
100
AcDbEntity
  8
一般
370
              15
  6
Continuous
 62
               7
100
AcDbVertex
100
AcDb2dVertex
 10
-821.22294807930552
 20
156.45575078343359
 30
0.0
  0
VERTEX
  5
1FB
100
AcDbEntity
  8
一般
370
              15
  6
Continuous
 62
               7
100
AcDbVertex
100
AcDb2dVertex
 10
-801.22294807930552
 20
156.45575078343359
 30
0.0
  0
VERTEX
  5
1FC
100
AcDbEntity
  8
一般
370
              15
  6
Continuous
 62
               7
100
AcDbVertex
100
AcDb2dVertex
 10
-801.22294807930552
 20
155.45575078343359
 30
0.0
  0
VERTEX
  5
1FD
100
AcDbEntity
  8
一般
370
              15
  6
Continuous
 62
               7
100
AcDbVertex
100
AcDb2dVertex
 10
-821.22294807930552
 20
155.45575078343359
 30
0.0
  0
SEQEND
  5
1FE
100
AcDbEntity
  8
一般
370
              15
  6
Continuous
 62
               7
  0
POLYLINE
  5
1FF
100
AcDbEntity
  8
一般
370
              15
  6
Continuous
 62
               7
100
AcDb2dPolyline
 66
               1
 10
0.0
 20
0.0
 30
0.0
 70
               1
 75
               5
  0
VERTEX
  5
200
100
AcDbEntity
  8
一般
370
              15
  6
Continuous
 62
               7
100
AcDbVertex
100
AcDb2dVertex
 10
-821.22294807930552
 20
154.45575078343359
 30
0.0
  0
VERTEX
  5
201
100
AcDbEntity
  8
一般
370
              15
  6
Continuous
 62
               7
100
AcDbVertex
100
AcDb2dVertex
 10
-801.22294807930552
 20
154.45575078343359
 30
0.0
  0
VERTEX
  5
202
100
AcDbEntity
  8
一般
370
              15
  6
Continuous
 62
               7
100
AcDbVertex
100
AcDb2dVertex
 10
-801.22294807930552
 20
153.45575078343359
 30
0.0
  0
VERTEX
  5
203
100
AcDbEntity
  8
一般
370
              15
  6
Continuous
 62
               7
100
AcDbVertex
100
AcDb2dVertex
 10
-821.22294807930552
 20
153.45575078343359
 30
0.0
  0
SEQEND
  5
204
100
AcDbEntity
  8
一般
370
              15
  6
Continuous
 62
               7
  0
ARC
  5
205
100
AcDbEntity
  8
一般
370
               5
  6
Continuous
 62
               7
100
AcDbCircle
 10
-887.06258851352641
 20
330.47752926968877
 30
0.0
 40
86.139193009211695
100
AcDbArc
 50
334.75789782380741
 51
355.14132501249895
  0
ARC
  5
206
100
AcDbEntity
  8
一般
370
               5
  6
Continuous
 62
               7
100
AcDbCircle
 10
-735.38330764508464
 20
330.47752926968877
 30
0.0
 40
86.139193009211681
100
AcDbArc
 50
184.85867498750102
 51
205.24210217619262
  0
ARC
  5
207
100
AcDbEntity
  8
一般
370
               5
  6
Continuous
 62
               7
100
AcDbCircle
 10
-811.14453733316725
 20
294.89640145687656
 30
0.0
 40
2.4419098990108452
100
AcDbArc
 50
208.15989229545642
 51
331.84010770454364
  0
SPLINE
  5
208
100
AcDbEntity
  8
一般
370
              15
  6
Continuous
 62
               7
100
AcDbSpline
210
0.0
220
0.0
230
1.0
 70
               9
 71
               2
 72
              17
 73
              14
 74
               0
 42
0.000001
 43
0.000001
 40
0.0
 40
0.0
 40
0.0
 40
1.0
 40
2.0
 40
3.0
 40
4.0
 40
5.0
 40
6.0
 40
7.0
 40
8.0
 40
9.0
 40
10.0
 40
11.0
 40
12.0
 40
12.0
 40
12.0
 10
-758.72294807930552
 20
370.27764694910513
 30
0.0
 10
-758.72294807930552
 20
383.12581072617758
 30
0.0
 10
-772.79028068193941
 20
405.37948317203296
 30
0.0
 10
-797.15561547667153
 20
418.22764694910529
 30
0.0
 10
-825.29028068193941
 20
418.22764694910529
 30
0.0
 10
-849.65561547667153
 20
405.37948317203302
 30
0.0
 10
-863.72294807930552
 20
383.12581072617775
 30
0.0
 10
-863.72294807930552
 20
357.42948317203309
 30
0.0
 10
-849.65561547667164
 20
335.1758107261777
 30
0.0
 10
-825.29028068193963
 20
322.32764694910531
 30
0.0
 10
-797.15561547667176
 20
322.3276469491052
 30
0.0
 10
-772.79028068193963
 20
335.17581072617747
 30
0.0
 10
-758.72294807930564
 20
357.42948317203269
 30
0.0
 10
-758.72294807930552
 20
370.27764694910513
 30
0.0
  0
SPLINE
  5
209
100
AcDbEntity
  8
一般
370
              15
  6
Continuous
 62
               7
100
AcDbSpline
210
0.0
220
0.0
230
1.0
 70
               9
 71
               2
 72
              17
 73
              14
 74
               0
 42
0.000001
 43
0.000001
 40
0.0
 40
0.0
 40
0.0
 40
1.0
 40
2.0
 40
3.0
 40
4.0
 40
5.0
 40
6.0
 40
7.0
 40
8.0
 40
9.0
 40
10.0
 40
11.0
 40
12.0
 40
12.0
 40
12.0
 10
-760.72294807930552
 20
370.27764694910513
 30
0.0
 10
-760.72294807930552
 20
382.63635686800342
 30
0.0
 10
-774.2543822970772
 20
404.04227036354047
 30
0.0
 10
-797.69151386153385
 20
416.40098028243864
 30
0.0
 10
-824.7543822970772
 20
416.40098028243864
 30
0.0
 10
-848.19151386153374
 20
404.04227036354052
 30
0.0
 10
-861.72294807930552
 20
382.63635686800353
 30
0.0
 10
-861.72294807930552
 20
357.91893703020725
 30
0.0
 10
-848.19151386153396
 20
336.5130235346702
 30
0.0
 10
-824.75438229707743
 20
324.15431361577203
 30
0.0
 10
-797.69151386153408
 20
324.15431361577191
 30
0.0
 10
-774.25438229707743
 20
336.51302353466997
 30
0.0
 10
-760.72294807930564
 20
357.91893703020691
 30
0.0
 10
-760.72294807930552
 20
370.27764694910513
 30
0.0
  0
SPLINE
  5
20A
100
AcDbEntity
  8
一般
370
               5
  6
Continuous
 62
               7
100
AcDbSpline
210
0.0
220
0.0
230
1.0
 70
               9
 71
               2
 72
              17
 73
              14
 74
               0
 42
0.000001
 43
0.000001
 40
0.0
 40
0.0
 40
0.0
 40
1.0
 40
2.0
 40
3.0
 40
4.0
 40
5.0
 40
6.0
 40
7.0
 40
8.0
 40
9.0
 40
10.0
 40
11.0
 40
12.0
 40
12.0
 40
12.0
 10
-771.72294807930552
 20
370.27764694910519
 30
0.0
 10
-771.72294807930552
 20
379.9443606480454
 30
0.0
 10
-782.30694118033489
 20
396.6875999168318
 30
0.0
 10
-800.63895497827616
 20
406.35431361577196
 30
0.0
 10
-821.80694118033489
 20
406.35431361577196
 30
0.0
 10
-840.13895497827616
 20
396.68759991683186
 30
0.0
 10
-850.72294807930552
 20
379.94436064804552
 30
0.0
 10
-850.72294807930552
 20
360.61093325016526
 30
0.0
 10
-840.13895497827627
 20
343.86769398137886
 30
0.0
 10
-821.806941180335
 20
334.20098028243865
 30
0.0
 10
-800.63895497827639
 20
334.20098028243859
 30
0.0
 10
-782.306941180335
 20
343.86769398137864
 30
0.0
 10
-771.72294807930552
 20
360.61093325016498
 30
0.0
 10
-771.72294807930552
 20
370.27764694910519
 30
0.0
  0
SPLINE
  5
20B
100
AcDbEntity
  8
一般
370
               5
  6
Continuous
 62
               7
100
AcDbSpline
210
0.0
220
0.0
230
1.0
 70
               9
 71
               2
 72
              17
 73
              14
 74
               0
 42
0.000001
 43
0.000001
 40
0.0
 40
0.0
 40
0.0
 40
1.0
 40
2.0
 40
3.0
 40
4.0
 40
5.0
 40
6.0
 40
7.0
 40
8.0
 40
9.0
 40
10.0
 40
11.0
 40
12.0
 40
12.0
 40
12.0
 10
-780.72294807930552
 20
370.27764694910525
 30
0.0
 10
-780.72294807930552
 20
377.7418182862616
 30
0.0
 10
-788.89539844845478
 20
390.67014227861563
 30
0.0
 10
-803.05049771015626
 20
398.13431361577193
 30
0.0
 10
-819.39539844845478
 20
398.13431361577193
 30
0.0
 10
-833.55049771015626
 20
390.67014227861569
 30
0.0
 10
-841.72294807930552
 20
377.74181828626166
 30
0.0
 10
-841.72294807930552
 20
362.81347561194906
 30
0.0
 10
-833.55049771015638
 20
349.88515161959498
 30
0.0
 10
-819.3953984484549
 20
342.42098028243862
 30
0.0
 10
-803.05049771015638
 20
342.42098028243856
 30
0.0
 10
-788.8953984484549
 20
349.88515161959481
 30
0.0
 10
-780.72294807930552
 20
362.81347561194883
 30
0.0
 10
-780.72294807930552
 20
370.27764694910525
 30
0.0
  0
SPLINE
  5
20C
100
AcDbEntity
  8
一般
370
               5
  6
Continuous
 62
               7
100
AcDbSpline
210
0.0
220
0.0
230
1.0
 70
               9
 71
               2
 72
              17
 73
              14
 74
               0
 42
0.000001
 43
0.000001
 40
0.0
 40
0.0
 40
0.0
 40
1.0
 40
2.0
 40
3.0
 40
4.0
 40
5.0
 40
6.0
 40
7.0
 40
8.0
 40
9.0
 40
10.0
 40
11.0
 40
12.0
 40
12.0
 40
12.0
 10
-789.72294807930552
 20
370.27764694910525
 30
0.0
 10
-789.72294807930552
 20
375.53927592447775
 30
0.0
 10
-795.48385571657468
 20
384.65268464039946
 30
0.0
 10
-805.46204044203637
 20
389.91431361577196
 30
0.0
 10
-816.98385571657468
 20
389.91431361577196
 30
0.0
 10
-826.96204044203637
 20
384.65268464039946
 30
0.0
 10
-832.72294807930552
 20
375.53927592447781
 30
0.0
 10
-832.72294807930552
 20
365.01601797373286
 30
0.0
 10
-826.96204044203637
 20
355.90260925781115
 30
0.0
 10
-816.98385571657468
 20
350.64098028243865
 30
0.0
 10
-805.46204044203648
 20
350.64098028243859
 30
0.0
 10
-795.48385571657468
 20
355.90260925781104
 30
0.0
 10
-789.72294807930552
 20
365.01601797373269
 30
0.0
 10
-789.72294807930552
 20
370.27764694910525
 30
0.0
  0
SPLINE
  5
20D
100
AcDbEntity
  8
一般
370
              15
  6
Continuous
 62
               7
100
AcDbSpline
210
0.0
220
0.0
230
1.0
 70
               9
 71
               2
 72
              17
 73
              14
 74
               0
 42
0.000001
 43
0.000001
 40
0.0
 40
0.0
 40
0.0
 40
1.0
 40
2.0
 40
3.0
 40
4.0
 40
5.0
 40
6.0
 40
7.0
 40
8.0
 40
9.0
 40
10.0
 40
11.0
 40
12.0
 40
12.0
 40
12.0
 10
-809.22294807930552
 20
381.23764694910528
 30
0.0
 10
-809.22294807930552
 20
381.7271008072795
 30
0.0
 10
-809.75884646416773
 20
382.57485975759778
 30
0.0
 10
-810.68704969444332
 20
383.06431361577194
 30
0.0
 10
-811.75884646416773
 20
383.06431361577194
 30
0.0
 10
-812.68704969444332
 20
382.57485975759778
 30
0.0
 10
-813.22294807930552
 20
381.7271008072795
 30
0.0
 10
-813.22294807930552
 20
380.74819309093112
 30
0.0
 10
-812.68704969444332
 20
379.90043414061279
 30
0.0
 10
-811.75884646416773
 20
379.41098028243863
 30
0.0
 10
-810.68704969444332
 20
379.41098028243863
 30
0.0
 10
-809.75884646416773
 20
379.90043414061279
 30
0.0
 10
-809.22294807930552
 20
380.74819309093107
 30
0.0
 10
-809.22294807930552
 20
381.23764694910528
 30
0.0
  0
SPLINE
  5
20E
100
AcDbEntity
  8
一般
370
              15
  6
Continuous
 62
               7
100
AcDbSpline
210
0.0
220
0.0
230
1.0
 70
               9
 71
               2
 72
              17
 73
              14
 74
               0
 42
0.000001
 43
0.000001
 40
0.0
 40
0.0
 40
0.0
 40
1.0
 40
2.0
 40
3.0
 40
4.0
 40
5.0
 40
6.0
 40
7.0
 40
8.0
 40
9.0
 40
10.0
 40
11.0
 40
12.0
 40
12.0
 40
12.0
 10
-810.22294807930552
 20
381.23764694910528
 30
0.0
 10
-810.22294807930552
 20
381.48237387819239
 30
0.0
 10
-810.49089727173669
 20
381.90625335335153
 30
0.0
 10
-810.95499888687436
 20
382.15098028243864
 30
0.0
 10
-811.49089727173669
 20
382.15098028243864
 30
0.0
 10
-811.95499888687436
 20
381.90625335335153
 30
0.0
 10
-812.22294807930552
 20
381.48237387819239
 30
0.0
 10
-812.22294807930552
 20
380.99292002001823
 30
0.0
 10
-811.95499888687436
 20
380.56904054485904
 30
0.0
 10
-811.49089727173669
 20
380.32431361577198
 30
0.0
 10
-810.95499888687436
 20
380.32431361577198
 30
0.0
 10
-810.49089727173669
 20
380.56904054485904
 30
0.0
 10
-810.22294807930552
 20
380.99292002001818
 30
0.0
 10
-810.22294807930552
 20
381.23764694910528
 30
0.0
  0
SPLINE
  5
20F
100
AcDbEntity
  8
一般
370
              15
  6
Continuous
 62
               7
100
AcDbSpline
210
0.0
220
0.0
230
1.0
 70
               9
 71
               2
 72
              17
 73
              14
 74
               0
 42
0.000001
 43
0.000001
 40
0.0
 40
0.0
 40
0.0
 40
1.0
 40
2.0
 40
3.0
 40
4.0
 40
5.0
 40
6.0
 40
7.0
 40
8.0
 40
9.0
 40
10.0
 40
11.0
 40
12.0
 40
12.0
 40
12.0
 10
-798.83064323389226
 20
375.75764694910526
 30
0.0
 10
-798.83064323389226
 20
376.24710080727948
 30
0.0
 10
-799.36654161875447
 20
377.09485975759776
 30
0.0
 10
-800.29474484903005
 20
377.58431361577198
 30
0.0
 10
-801.36654161875447
 20
377.58431361577198
 30
0.0
 10
-802.29474484903005
 20
377.09485975759776
 30
0.0
 10
-802.83064323389226
 20
376.24710080727948
 30
0.0
 10
-802.83064323389226
 20
375.26819309093111
 30
0.0
 10
-802.29474484903005
 20
374.42043414061283
 30
0.0
 10
-801.36654161875447
 20
373.93098028243861
 30
0.0
 10
-800.29474484903005
 20
373.93098028243861
 30
0.0
 10
-799.36654161875447
 20
374.42043414061277
 30
0.0
 10
-798.83064323389226
 20
375.26819309093111
 30
0.0
 10
-798.83064323389226
 20
375.75764694910526
 30
0.0
  0
SPLINE
  5
210
100
AcDbEntity
  8
一般
370
              15
  6
Continuous
 62
               7
100
AcDbSpline
210
0.0
220
0.0
230
1.0
 70
               9
 71
               2
 72
              17
 73
              14
 74
               0
 42
0.000001
 43
0.000001
 40
0.0
 40
0.0
 40
0.0
 40
1.0
 40
2.0
 40
3.0
 40
4.0
 40
5.0
 40
6.0
 40
7.0
 40
8.0
 40
9.0
 40
10.0
 40
11.0
 40
12.0
 40
12.0
 40
12.0
 10
-799.83064323389226
 20
375.75764694910526
 30
0.0
 10
-799.83064323389226
 20
376.00237387819237
 30
0.0
 10
-800.09859242632342
 20
376.42625335335151
 30
0.0
 10
-800.5626940414611
 20
376.67098028243862
 30
0.0
 10
-801.09859242632342
 20
376.67098028243862
 30
0.0
 10
-801.5626940414611
 20
376.42625335335151
 30
0.0
 10
-801.83064323389226
 20
376.00237387819237
 30
0.0
 10
-801.83064323389226
 20
375.51292002001821
 30
0.0
 10
-801.5626940414611
 20
375.08904054485907
 30
0.0
 10
-801.09859242632342
 20
374.84431361577197
 30
0.0
 10
-800.5626940414611
 20
374.84431361577197
 30
0.0
 10
-800.09859242632342
 20
375.08904054485902
 30
0.0
 10
-799.83064323389226
 20
375.51292002001821
 30
0.0
 10
-799.83064323389226
 20
375.75764694910526
 30
0.0
  0
SPLINE
  5
211
100
AcDbEntity
  8
一般
370
              15
  6
Continuous
 62
               7
100
AcDbSpline
210
0.0
220
0.0
230
1.0
 70
               9
 71
               2
 72
              17
 73
              14
 74
               0
 42
0.000001
 43
0.000001
 40
0.0
 40
0.0
 40
0.0
 40
1.0
 40
2.0
 40
3.0
 40
4.0
 40
5.0
 40
6.0
 40
7.0
 40
8.0
 40
9.0
 40
10.0
 40
11.0
 40
12.0
 40
12.0
 40
12.0
 10
-798.83064323389226
 20
364.79764694910523
 30
0.0
 10
-798.83064323389226
 20
365.28710080727944
 30
0.0
 10
-799.36654161875447
 20
366.13485975759778
 30
0.0
 10
-800.29474484903005
 20
366.62431361577194
 30
0.0
 10
-801.36654161875447
 20
366.62431361577194
 30
0.0
 10
-802.29474484903005
 20
366.13485975759778
 30
0.0
 10
-802.83064323389226
 20
365.2871008072795
 30
0.0
 10
-802.83064323389226
 20
364.30819309093113
 30
0.0
 10
-802.29474484903005
 20
363.46043414061279
 30
0.0
 10
-801.36654161875447
 20
362.97098028243863
 30
0.0
 10
-800.29474484903005
 20
362.97098028243863
 30
0.0
 10
-799.36654161875447
 20
363.46043414061279
 30
0.0
 10
-798.83064323389226
 20
364.30819309093107
 30
0.0
 10
-798.83064323389226
 20
364.79764694910523
 30
0.0
  0
SPLINE
  5
212
100
AcDbEntity
  8
一般
370
              15
  6
Continuous
 62
               7
100
AcDbSpline
210
0.0
220
0.0
230
1.0
 70
               9
 71
               2
 72
              17
 73
              14
 74
               0
 42
0.000001
 43
0.000001
 40
0.0
 40
0.0
 40
0.0
 40
1.0
 40
2.0
 40
3.0
 40
4.0
 40
5.0
 40
6.0
 40
7.0
 40
8.0
 40
9.0
 40
10.0
 40
11.0
 40
12.0
 40
12.0
 40
12.0
 10
-799.83064323389226
 20
364.79764694910529
 30
0.0
 10
-799.83064323389226
 20
365.04237387819239
 30
0.0
 10
-800.09859242632342
 20
365.46625335335153
 30
0.0
 10
-800.5626940414611
 20
365.71098028243864
 30
0.0
 10
-801.09859242632342
 20
365.71098028243864
 30
0.0
 10
-801.5626940414611
 20
365.46625335335153
 30
0.0
 10
-801.83064323389226
 20
365.04237387819239
 30
0.0
 10
-801.83064323389226
 20
364.55292002001818
 30
0.0
 10
-801.5626940414611
 20
364.12904054485904
 30
0.0
 10
-801.09859242632342
 20
363.88431361577193
 30
0.0
 10
-800.5626940414611
 20
363.88431361577193
 30
0.0
 10
-800.09859242632342
 20
364.12904054485904
 30
0.0
 10
-799.83064323389226
 20
364.55292002001818
 30
0.0
 10
-799.83064323389226
 20
364.79764694910529
 30
0.0
  0
SPLINE
  5
213
100
AcDbEntity
  8
一般
370
              15
  6
Continuous
 62
               7
100
AcDbSpline
210
0.0
220
0.0
230
1.0
 70
               9
 71
               2
 72
              17
 73
              14
 74
               0
 42
0.000001
 43
0.000001
 40
0.0
 40
0.0
 40
0.0
 40
1.0
 40
2.0
 40
3.0
 40
4.0
 40
5.0
 40
6.0
 40
7.0
 40
8.0
 40
9.0
 40
10.0
 40
11.0
 40
12.0
 40
12.0
 40
12.0
 10
-809.22294807930552
 20
359.31764694910532
 30
0.0
 10
-809.22294807930552
 20
359.80710080727948
 30
0.0
 10
-809.75884646416773
 20
360.65485975759776
 30
0.0
 10
-810.68704969444332
 20
361.14431361577198
 30
0.0
 10
-811.75884646416773
 20
361.14431361577198
 30
0.0
 10
-812.68704969444332
 20
360.65485975759776
 30
0.0
 10
-813.22294807930552
 20
359.80710080727948
 30
0.0
 10
-813.22294807930552
 20
358.82819309093111
 30
0.0
 10
-812.68704969444332
 20
357.98043414061283
 30
0.0
 10
-811.75884646416773
 20
357.49098028243861
 30
0.0
 10
-810.68704969444332
 20
357.49098028243861
 30
0.0
 10
-809.75884646416773
 20
357.98043414061283
 30
0.0
 10
-809.22294807930552
 20
358.82819309093111
 30
0.0
 10
-809.22294807930552
 20
359.31764694910532
 30
0.0
  0
SPLINE
  5
214
100
AcDbEntity
  8
一般
370
              15
  6
Continuous
 62
               7
100
AcDbSpline
210
0.0
220
0.0
230
1.0
 70
               9
 71
               2
 72
              17
 73
              14
 74
               0
 42
0.000001
 43
0.000001
 40
0.0
 40
0.0
 40
0.0
 40
1.0
 40
2.0
 40
3.0
 40
4.0
 40
5.0
 40
6.0
 40
7.0
 40
8.0
 40
9.0
 40
10.0
 40
11.0
 40
12.0
 40
12.0
 40
12.0
 10
-810.22294807930552
 20
359.31764694910532
 30
0.0
 10
-810.22294807930552
 20
359.56237387819237
 30
0.0
 10
-810.49089727173669
 20
359.98625335335151
 30
0.0
 10
-810.95499888687436
 20
360.23098028243862
 30
0.0
 10
-811.49089727173669
 20
360.23098028243862
 30
0.0
 10
-811.95499888687436
 20
359.98625335335151
 30
0.0
 10
-812.22294807930552
 20
359.56237387819237
 30
0.0
 10
-812.22294807930552
 20
359.07292002001822
 30
0.0
 10
-811.95499888687436
 20
358.64904054485908
 30
0.0
 10
-811.49089727173669
 20
358.40431361577197
 30
0.0
 10
-810.95499888687436
 20
358.40431361577197
 30
0.0
 10
-810.49089727173669
 20
358.64904054485902
 30
0.0
 10
-810.22294807930552
 20
359.07292002001822
 30
0.0
 10
-810.22294807930552
 20
359.31764694910532
 30
0.0
  0
SPLINE
  5
215
100
AcDbEntity
  8
一般
370
              15
  6
Continuous
 62
               7
100
AcDbSpline
210
0.0
220
0.0
230
1.0
 70
               9
 71
               2
 72
              17
 73
              14
 74
               0
 42
0.000001
 43
0.000001
 40
0.0
 40
0.0
 40
0.0
 40
1.0
 40
2.0
 40
3.0
 40
4.0
 40
5.0
 40
6.0
 40
7.0
 40
8.0
 40
9.0
 40
10.0
 40
11.0
 40
12.0
 40
12.0
 40
12.0
 10
-819.61525292471879
 20
364.79764694910523
 30
0.0
 10
-819.61525292471879
 20
365.28710080727944
 30
0.0
 10
-820.151151309581
 20
366.13485975759778
 30
0.0
 10
-821.07935453985658
 20
366.62431361577194
 30
0.0
 10
-822.151151309581
 20
366.62431361577194
 30
0.0
 10
-823.07935453985658
 20
366.13485975759778
 30
0.0
 10
-823.61525292471879
 20
365.2871008072795
 30
0.0
 10
-823.61525292471879
 20
364.30819309093113
 30
0.0
 10
-823.07935453985658
 20
363.46043414061279
 30
0.0
 10
-822.151151309581
 20
362.97098028243863
 30
0.0
 10
-821.07935453985658
 20
362.97098028243863
 30
0.0
 10
-820.151151309581
 20
363.46043414061279
 30
0.0
 10
-819.61525292471879
 20
364.30819309093107
 30
0.0
 10
-819.61525292471879
 20
364.79764694910523
 30
0.0
  0
SPLINE
  5
216
100
AcDbEntity
  8
一般
370
              15
  6
Continuous
 62
               7
100
AcDbSpline
210
0.0
220
0.0
230
1.0
 70
               9
 71
               2
 72
              17
 73
              14
 74
               0
 42
0.000001
 43
0.000001
 40
0.0
 40
0.0
 40
0.0
 40
1.0
 40
2.0
 40
3.0
 40
4.0
 40
5.0
 40
6.0
 40
7.0
 40
8.0
 40
9.0
 40
10.0
 40
11.0
 40
12.0
 40
12.0
 40
12.0
 10
-820.61525292471879
 20
364.79764694910529
 30
0.0
 10
-820.61525292471879
 20
365.04237387819239
 30
0.0
 10
-820.88320211714995
 20
365.46625335335153
 30
0.0
 10
-821.34730373228763
 20
365.71098028243864
 30
0.0
 10
-821.88320211714995
 20
365.71098028243864
 30
0.0
 10
-822.34730373228763
 20
365.46625335335153
 30
0.0
 10
-822.61525292471879
 20
365.04237387819239
 30
0.0
 10
-822.61525292471879
 20
364.55292002001818
 30
0.0
 10
-822.34730373228763
 20
364.12904054485904
 30
0.0
 10
-821.88320211714995
 20
363.88431361577193
 30
0.0
 10
-821.34730373228763
 20
363.88431361577193
 30
0.0
 10
-820.88320211714995
 20
364.12904054485904
 30
0.0
 10
-820.61525292471879
 20
364.55292002001818
 30
0.0
 10
-820.61525292471879
 20
364.79764694910529
 30
0.0
  0
SPLINE
  5
217
100
AcDbEntity
  8
一般
370
              15
  6
Continuous
 62
               7
100
AcDbSpline
210
0.0
220
0.0
230
1.0
 70
               9
 71
               2
 72
              17
 73
              14
 74
               0
 42
0.000001
 43
0.000001
 40
0.0
 40
0.0
 40
0.0
 40
1.0
 40
2.0
 40
3.0
 40
4.0
 40
5.0
 40
6.0
 40
7.0
 40
8.0
 40
9.0
 40
10.0
 40
11.0
 40
12.0
 40
12.0
 40
12.0
 10
-819.61525292471879
 20
383.06431361577199
 30
0.0
 10
-819.61525292471879
 20
383.55376747394615
 30
0.0
 10
-820.151151309581
 20
384.40152642426443
 30
0.0
 10
-821.07935453985658
 20
384.89098028243859
 30
0.0
 10
-822.151151309581
 20
384.89098028243859
 30
0.0
 10
-823.07935453985658
 20
384.40152642426443
 30
0.0
 10
-823.61525292471879
 20
383.55376747394615
 30
0.0
 10
-823.61525292471879
 20
382.57485975759778
 30
0.0
 10
-823.07935453985658
 20
381.7271008072795
 30
0.0
 10
-822.151151309581
 20
381.23764694910528
 30
0.0
 10
-821.07935453985658
 20
381.23764694910528
 30
0.0
 10
-820.151151309581
 20
381.7271008072795
 30
0.0
 10
-819.61525292471879
 20
382.57485975759778
 30
0.0
 10
-819.61525292471879
 20
383.06431361577199
 30
0.0
  0
SPLINE
  5
218
100
AcDbEntity
  8
一般
370
              15
  6
Continuous
 62
               7
100
AcDbSpline
210
0.0
220
0.0
230
1.0
 70
               9
 71
               2
 72
              17
 73
              14
 74
               0
 42
0.000001
 43
0.000001
 40
0.0
 40
0.0
 40
0.0
 40
1.0
 40
2.0
 40
3.0
 40
4.0
 40
5.0
 40
6.0
 40
7.0
 40
8.0
 40
9.0
 40
10.0
 40
11.0
 40
12.0
 40
12.0
 40
12.0
 10
-820.61525292471879
 20
383.06431361577194
 30
0.0
 10
-820.61525292471879
 20
383.30904054485904
 30
0.0
 10
-820.88320211714995
 20
383.73292002001818
 30
0.0
 10
-821.34730373228763
 20
383.97764694910529
 30
0.0
 10
-821.88320211714995
 20
383.97764694910529
 30
0.0
 10
-822.34730373228763
 20
383.73292002001818
 30
0.0
 10
-822.61525292471879
 20
383.30904054485904
 30
0.0
 10
-822.61525292471879
 20
382.81958668668489
 30
0.0
 10
-822.34730373228763
 20
382.39570721152575
 30
0.0
 10
-821.88320211714995
 20
382.15098028243864
 30
0.0
 10
-821.34730373228763
 20
382.15098028243864
 30
0.0
 10
-820.88320211714995
 20
382.39570721152575
 30
0.0
 10
-820.61525292471879
 20
382.81958668668483
 30
0.0
 10
-820.61525292471879
 20
383.06431361577194
 30
0.0
  0
SPLINE
  5
219
100
AcDbEntity
  8
一般
370
              15
  6
Continuous
 62
               7
100
AcDbSpline
210
0.0
220
0.0
230
1.0
 70
               9
 71
               2
 72
              17
 73
              14
 74
               0
 42
0.000001
 43
0.000001
 40
0.0
 40
0.0
 40
0.0
 40
1.0
 40
2.0
 40
3.0
 40
4.0
 40
5.0
 40
6.0
 40
7.0
 40
8.0
 40
9.0
 40
10.0
 40
11.0
 40
12.0
 40
12.0
 40
12.0
 10
-803.5660938298131
 20
386.40424049697504
 30
0.0
 10
-803.5660938298131
 20
386.89369435514919
 30
0.0
 10
-804.10199221467542
 20
387.74145330546747
 30
0.0
 10
-805.03019544495089
 20
388.23090716364169
 30
0.0
 10
-806.10199221467542
 20
388.23090716364169
 30
0.0
 10
-807.03019544495089
 20
387.74145330546747
 30
0.0
 10
-807.5660938298131
 20
386.89369435514919
 30
0.0
 10
-807.5660938298131
 20
385.91478663880082
 30
0.0
 10
-807.03019544495089
 20
385.06702768848254
 30
0.0
 10
-806.10199221467542
 20
384.57757383030832
 30
0.0
 10
-805.03019544495089
 20
384.57757383030832
 30
0.0
 10
-804.10199221467542
 20
385.06702768848254
 30
0.0
 10
-803.5660938298131
 20
385.91478663880082
 30
0.0
 10
-803.5660938298131
 20
386.40424049697504
 30
0.0
  0
SPLINE
  5
21A
100
AcDbEntity
  8
一般
370
              15
  6
Continuous
 62
               7
100
AcDbSpline
210
0.0
220
0.0
230
1.0
 70
               9
 71
               2
 72
              17
 73
              14
 74
               0
 42
0.000001
 43
0.000001
 40
0.0
 40
0.0
 40
0.0
 40
1.0
 40
2.0
 40
3.0
 40
4.0
 40
5.0
 40
6.0
 40
7.0
 40
8.0
 40
9.0
 40
10.0
 40
11.0
 40
12.0
 40
12.0
 40
12.0
 10
-804.5660938298131
 20
386.40424049697504
 30
0.0
 10
-804.5660938298131
 20
386.64896742606209
 30
0.0
 10
-804.83404302224426
 20
387.07284690122128
 30
0.0
 10
-805.29814463738205
 20
387.31757383030833
 30
0.0
 10
-805.83404302224426
 20
387.31757383030833
 30
0.0
 10
-806.29814463738205
 20
387.07284690122128
 30
0.0
 10
-806.5660938298131
 20
386.64896742606209
 30
0.0
 10
-806.5660938298131
 20
386.15951356788793
 30
0.0
 10
-806.29814463738205
 20
385.73563409272879
 30
0.0
 10
-805.83404302224426
 20
385.49090716364168
 30
0.0
 10
-805.29814463738205
 20
385.49090716364168
 30
0.0
 10
-804.83404302224426
 20
385.73563409272879
 30
0.0
 10
-804.5660938298131
 20
386.15951356788793
 30
0.0
 10
-804.5660938298131
 20
386.40424049697504
 30
0.0
  0
SPLINE
  5
21B
100
AcDbEntity
  8
一般
370
              15
  6
Continuous
 62
               7
100
AcDbSpline
210
0.0
220
0.0
230
1.0
 70
               9
 71
               2
 72
              17
 73
              14
 74
               0
 42
0.000001
 43
0.000001
 40
0.0
 40
0.0
 40
0.0
 40
1.0
 40
2.0
 40
3.0
 40
4.0
 40
5.0
 40
6.0
 40
7.0
 40
8.0
 40
9.0
 40
10.0
 40
11.0
 40
12.0
 40
12.0
 40
12.0
 10
-798.83064323389226
 20
357.49098028243861
 30
0.0
 10
-798.83064323389226
 20
357.98043414061283
 30
0.0
 10
-799.36654161875447
 20
358.82819309093111
 30
0.0
 10
-800.29474484903005
 20
359.31764694910527
 30
0.0
 10
-801.36654161875447
 20
359.31764694910527
 30
0.0
 10
-802.29474484903005
 20
358.82819309093111
 30
0.0
 10
-802.83064323389226
 20
357.98043414061283
 30
0.0
 10
-802.83064323389226
 20
357.00152642426445
 30
0.0
 10
-802.29474484903005
 20
356.15376747394612
 30
0.0
 10
-801.36654161875447
 20
355.66431361577196
 30
0.0
 10
-800.29474484903005
 20
355.66431361577196
 30
0.0
 10
-799.36654161875447
 20
356.15376747394612
 30
0.0
 10
-798.83064323389226
 20
357.0015264242644
 30
0.0
 10
-798.83064323389226
 20
357.49098028243861
 30
0.0
  0
SPLINE
  5
21C
100
AcDbEntity
  8
一般
370
              15
  6
Continuous
 62
               7
100
AcDbSpline
210
0.0
220
0.0
230
1.0
 70
               9
 71
               2
 72
              17
 73
              14
 74
               0
 42
0.000001
 43
0.000001
 40
0.0
 40
0.0
 40
0.0
 40
1.0
 40
2.0
 40
3.0
 40
4.0
 40
5.0
 40
6.0
 40
7.0
 40
8.0
 40
9.0
 40
10.0
 40
11.0
 40
12.0
 40
12.0
 40
12.0
 10
-799.83064323389226
 20
357.49098028243861
 30
0.0
 10
-799.83064323389226
 20
357.73570721152572
 30
0.0
 10
-800.09859242632342
 20
358.15958668668486
 30
0.0
 10
-800.5626940414611
 20
358.40431361577197
 30
0.0
 10
-801.09859242632342
 20
358.40431361577197
 30
0.0
 10
-801.5626940414611
 20
358.15958668668486
 30
0.0
 10
-801.83064323389226
 20
357.73570721152572
 30
0.0
 10
-801.83064323389226
 20
357.24625335335156
 30
0.0
 10
-801.5626940414611
 20
356.82237387819237
 30
0.0
 10
-801.09859242632342
 20
356.57764694910531
 30
0.0
 10
-800.5626940414611
 20
356.57764694910531
 30
0.0
 10
-800.09859242632342
 20
356.82237387819237
 30
0.0
 10
-799.83064323389226
 20
357.24625335335151
 30
0.0
 10
-799.83064323389226
 20
357.49098028243861
 30
0.0
  0
SPLINE
  5
21D
100
AcDbEntity
  8
一般
370
              15
  6
Continuous
 62
               7
100
AcDbSpline
210
0.0
220
0.0
230
1.0
 70
               9
 71
               2
 72
              17
 73
              14
 74
               0
 42
0.000001
 43
0.000001
 40
0.0
 40
0.0
 40
0.0
 40
1.0
 40
2.0
 40
3.0
 40
4.0
 40
5.0
 40
6.0
 40
7.0
 40
8.0
 40
9.0
 40
10.0
 40
11.0
 40
12.0
 40
12.0
 40
12.0
 10
-791.90244000361668
 20
372.10431361577196
 30
0.0
 10
-791.90244000361668
 20
372.59376747394617
 30
0.0
 10
-792.438338388479
 20
373.44152642426445
 30
0.0
 10
-793.36654161875447
 20
373.93098028243867
 30
0.0
 10
-794.438338388479
 20
373.93098028243867
 30
0.0
 10
-795.36654161875447
 20
373.44152642426445
 30
0.0
 10
-795.90244000361668
 20
372.59376747394617
 30
0.0
 10
-795.90244000361668
 20
371.6148597575978
 30
0.0
 10
-795.36654161875447
 20
370.76710080727952
 30
0.0
 10
-794.438338388479
 20
370.2776469491053
 30
0.0
 10
-793.36654161875447
 20
370.2776469491053
 30
0.0
 10
-792.438338388479
 20
370.76710080727946
 30
0.0
 10
-791.90244000361668
 20
371.6148597575978
 30
0.0
 10
-791.90244000361668
 20
372.10431361577196
 30
0.0
  0
SPLINE
  5
21E
100
AcDbEntity
  8
一般
370
              15
  6
Continuous
 62
               7
100
AcDbSpline
210
0.0
220
0.0
230
1.0
 70
               9
 71
               2
 72
              17
 73
              14
 74
               0
 42
0.000001
 43
0.000001
 40
0.0
 40
0.0
 40
0.0
 40
1.0
 40
2.0
 40
3.0
 40
4.0
 40
5.0
 40
6.0
 40
7.0
 40
8.0
 40
9.0
 40
10.0
 40
11.0
 40
12.0
 40
12.0
 40
12.0
 10
-792.90244000361668
 20
372.10431361577196
 30
0.0
 10
-792.90244000361668
 20
372.34904054485906
 30
0.0
 10
-793.17038919604784
 20
372.7729200200182
 30
0.0
 10
-793.63449081118563
 20
373.01764694910531
 30
0.0
 10
-794.17038919604784
 20
373.01764694910531
 30
0.0
 10
-794.63449081118563
 20
372.7729200200182
 30
0.0
 10
-794.90244000361668
 20
372.34904054485906
 30
0.0
 10
-794.90244000361668
 20
371.85958668668491
 30
0.0
 10
-794.63449081118563
 20
371.43570721152577
 30
0.0
 10
-794.17038919604784
 20
371.19098028243866
 30
0.0
 10
-793.63449081118563
 20
371.19098028243866
 30
0.0
 10
-793.17038919604784
 20
371.43570721152571
 30
0.0
 10
-792.90244000361668
 20
371.85958668668491
 30
0.0
 10
-792.90244000361668
 20
372.10431361577196
 30
0.0
  0
SPLINE
  5
21F
100
AcDbEntity
  8
一般
370
              15
  6
Continuous
 62
               7
100
AcDbSpline
210
0.0
220
0.0
230
1.0
 70
               9
 71
               2
 72
              17
 73
              14
 74
               0
 42
0.000001
 43
0.000001
 40
0.0
 40
0.0
 40
0.0
 40
1.0
 40
2.0
 40
3.0
 40
4.0
 40
5.0
 40
6.0
 40
7.0
 40
8.0
 40
9.0
 40
10.0
 40
11.0
 40
12.0
 40
12.0
 40
12.0
 10
-826.54345615499449
 20
368.45098028243865
 30
0.0
 10
-826.54345615499449
 20
368.94043414061287
 30
0.0
 10
-827.07935453985669
 20
369.78819309093114
 30
0.0
 10
-828.00755777013217
 20
370.27764694910536
 30
0.0
 10
-829.07935453985669
 20
370.27764694910536
 30
0.0
 10
-830.00755777013217
 20
369.78819309093114
 30
0.0
 10
-830.54345615499449
 20
368.94043414061287
 30
0.0
 10
-830.54345615499449
 20
367.96152642426449
 30
0.0
 10
-830.00755777013217
 20
367.11376747394621
 30
0.0
 10
-829.07935453985669
 20
366.624313615772
 30
0.0
 10
-828.00755777013217
 20
366.624313615772
 30
0.0
 10
-827.07935453985669
 20
367.11376747394615
 30
0.0
 10
-826.54345615499449
 20
367.96152642426449
 30
0.0
 10
-826.54345615499449
 20
368.45098028243865
 30
0.0
  0
SPLINE
  5
220
100
AcDbEntity
  8
一般
370
              15
  6
Continuous
 62
               7
100
AcDbSpline
210
0.0
220
0.0
230
1.0
 70
               9
 71
               2
 72
              17
 73
              14
 74
               0
 42
0.000001
 43
0.000001
 40
0.0
 40
0.0
 40
0.0
 40
1.0
 40
2.0
 40
3.0
 40
4.0
 40
5.0
 40
6.0
 40
7.0
 40
8.0
 40
9.0
 40
10.0
 40
11.0
 40
12.0
 40
12.0
 40
12.0
 10
-827.54345615499449
 20
368.45098028243865
 30
0.0
 10
-827.54345615499449
 20
368.69570721152576
 30
0.0
 10
-827.81140534742553
 20
369.1195866866849
 30
0.0
 10
-828.27550696256333
 20
369.36431361577201
 30
0.0
 10
-828.81140534742553
 20
369.36431361577201
 30
0.0
 10
-829.27550696256333
 20
369.1195866866849
 30
0.0
 10
-829.54345615499449
 20
368.69570721152576
 30
0.0
 10
-829.54345615499449
 20
368.2062533533516
 30
0.0
 10
-829.27550696256333
 20
367.78237387819246
 30
0.0
 10
-828.81140534742553
 20
367.53764694910535
 30
0.0
 10
-828.27550696256333
 20
367.53764694910535
 30
0.0
 10
-827.81140534742553
 20
367.7823738781924
 30
0.0
 10
-827.54345615499449
 20
368.2062533533516
 30
0.0
 10
-827.54345615499449
 20
368.45098028243865
 30
0.0
  0
SPLINE
  5
221
100
AcDbEntity
  8
一般
370
              15
  6
Continuous
 62
               7
100
AcDbSpline
210
0.0
220
0.0
230
1.0
 70
               9
 71
               2
 72
              17
 73
              14
 74
               0
 42
0.000001
 43
0.000001
 40
0.0
 40
0.0
 40
0.0
 40
1.0
 40
2.0
 40
3.0
 40
4.0
 40
5.0
 40
6.0
 40
7.0
 40
8.0
 40
9.0
 40
10.0
 40
11.0
 40
12.0
 40
12.0
 40
12.0
 10
-816.151151309581
 20
355.6643136157719
 30
0.0
 10
-816.151151309581
 20
356.15376747394612
 30
0.0
 10
-816.68704969444332
 20
357.00152642426445
 30
0.0
 10
-817.61525292471879
 20
357.49098028243861
 30
0.0
 10
-818.68704969444332
 20
357.49098028243861
 30
0.0
 10
-819.61525292471879
 20
357.00152642426445
 30
0.0
 10
-820.151151309581
 20
356.15376747394612
 30
0.0
 10
-820.151151309581
 20
355.1748597575978
 30
0.0
 10
-819.61525292471879
 20
354.32710080727946
 30
0.0
 10
-818.68704969444332
 20
353.83764694910531
 30
0.0
 10
-817.61525292471879
 20
353.83764694910531
 30
0.0
 10
-816.68704969444332
 20
354.32710080727946
 30
0.0
 10
-816.151151309581
 20
355.17485975759774
 30
0.0
 10
-816.151151309581
 20
355.6643136157719
 30
0.0
  0
SPLINE
  5
222
100
AcDbEntity
  8
一般
370
              15
  6
Continuous
 62
               7
100
AcDbSpline
210
0.0
220
0.0
230
1.0
 70
               9
 71
               2
 72
              17
 73
              14
 74
               0
 42
0.000001
 43
0.000001
 40
0.0
 40
0.0
 40
0.0
 40
1.0
 40
2.0
 40
3.0
 40
4.0
 40
5.0
 40
6.0
 40
7.0
 40
8.0
 40
9.0
 40
10.0
 40
11.0
 40
12.0
 40
12.0
 40
12.0
 10
-817.151151309581
 20
355.66431361577196
 30
0.0
 10
-817.151151309581
 20
355.90904054485907
 30
0.0
 10
-817.41910050201216
 20
356.33292002001821
 30
0.0
 10
-817.88320211714995
 20
356.57764694910531
 30
0.0
 10
-818.41910050201216
 20
356.57764694910531
 30
0.0
 10
-818.88320211714995
 20
356.33292002001821
 30
0.0
 10
-819.151151309581
 20
355.90904054485907
 30
0.0
 10
-819.151151309581
 20
355.41958668668485
 30
0.0
 10
-818.88320211714995
 20
354.99570721152571
 30
0.0
 10
-818.41910050201216
 20
354.7509802824386
 30
0.0
 10
-817.88320211714995
 20
354.7509802824386
 30
0.0
 10
-817.41910050201216
 20
354.99570721152571
 30
0.0
 10
-817.151151309581
 20
355.41958668668485
 30
0.0
 10
-817.151151309581
 20
355.66431361577196
 30
0.0
  0
SPLINE
  5
223
100
AcDbEntity
  8
一般
370
              15
  6
Continuous
 62
               7
100
AcDbSpline
210
0.0
220
0.0
230
1.0
 70
               9
 71
               2
 72
              17
 73
              14
 74
               0
 42
0.000001
 43
0.000001
 40
0.0
 40
0.0
 40
0.0
 40
1.0
 40
2.0
 40
3.0
 40
4.0
 40
5.0
 40
6.0
 40
7.0
 40
8.0
 40
9.0
 40
10.0
 40
11.0
 40
12.0
 40
12.0
 40
12.0
 10
-819.61525292471879
 20
375.75764694910526
 30
0.0
 10
-819.61525292471879
 20
376.24710080727948
 30
0.0
 10
-820.151151309581
 20
377.09485975759776
 30
0.0
 10
-821.07935453985658
 20
377.58431361577198
 30
0.0
 10
-822.151151309581
 20
377.58431361577198
 30
0.0
 10
-823.07935453985658
 20
377.09485975759776
 30
0.0
 10
-823.61525292471879
 20
376.24710080727948
 30
0.0
 10
-823.61525292471879
 20
375.26819309093111
 30
0.0
 10
-823.07935453985658
 20
374.42043414061283
 30
0.0
 10
-822.151151309581
 20
373.93098028243861
 30
0.0
 10
-821.07935453985658
 20
373.93098028243861
 30
0.0
 10
-820.151151309581
 20
374.42043414061277
 30
0.0
 10
-819.61525292471879
 20
375.26819309093111
 30
0.0
 10
-819.61525292471879
 20
375.75764694910526
 30
0.0
  0
SPLINE
  5
224
100
AcDbEntity
  8
一般
370
              15
  6
Continuous
 62
               7
100
AcDbSpline
210
0.0
220
0.0
230
1.0
 70
               9
 71
               2
 72
              17
 73
              14
 74
               0
 42
0.000001
 43
0.000001
 40
0.0
 40
0.0
 40
0.0
 40
1.0
 40
2.0
 40
3.0
 40
4.0
 40
5.0
 40
6.0
 40
7.0
 40
8.0
 40
9.0
 40
10.0
 40
11.0
 40
12.0
 40
12.0
 40
12.0
 10
-820.61525292471879
 20
375.75764694910526
 30
0.0
 10
-820.61525292471879
 20
376.00237387819237
 30
0.0
 10
-820.88320211714995
 20
376.42625335335151
 30
0.0
 10
-821.34730373228763
 20
376.67098028243862
 30
0.0
 10
-821.88320211714995
 20
376.67098028243862
 30
0.0
 10
-822.34730373228763
 20
376.42625335335151
 30
0.0
 10
-822.61525292471879
 20
376.00237387819237
 30
0.0
 10
-822.61525292471879
 20
375.51292002001821
 30
0.0
 10
-822.34730373228763
 20
375.08904054485907
 30
0.0
 10
-821.88320211714995
 20
374.84431361577197
 30
0.0
 10
-821.34730373228763
 20
374.84431361577197
 30
0.0
 10
-820.88320211714995
 20
375.08904054485902
 30
0.0
 10
-820.61525292471879
 20
375.51292002001821
 30
0.0
 10
-820.61525292471879
 20
375.75764694910526
 30
0.0
  0
SPLINE
  5
225
100
AcDbEntity
  8
一般
370
              15
  6
Continuous
 62
               7
100
AcDbSpline
210
0.0
220
0.0
230
1.0
 70
               9
 71
               2
 72
              17
 73
              14
 74
               0
 42
0.000001
 43
0.000001
 40
0.0
 40
0.0
 40
0.0
 40
1.0
 40
2.0
 40
3.0
 40
4.0
 40
5.0
 40
6.0
 40
7.0
 40
8.0
 40
9.0
 40
10.0
 40
11.0
 40
12.0
 40
12.0
 40
12.0
 10
-790.08964932114566
 20
353.72064563653316
 30
0.0
 10
-790.08964932114566
 20
353.96537256562027
 30
0.0
 10
-790.35759851357682
 20
354.38925204077941
 30
0.0
 10
-790.82170012871461
 20
354.63397896986646
 30
0.0
 10
-791.35759851357682
 20
354.63397896986646
 30
0.0
 10
-791.82170012871461
 20
354.38925204077941
 30
0.0
 10
-792.08964932114566
 20
353.96537256562027
 30
0.0
 10
-792.08964932114566
 20
353.47591870744606
 30
0.0
 10
-791.82170012871461
 20
353.05203923228692
 30
0.0
 10
-791.35759851357682
 20
352.80731230319981
 30
0.0
 10
-790.82170012871461
 20
352.80731230319981
 30
0.0
 10
-790.35759851357682
 20
353.05203923228692
 30
0.0
 10
-790.08964932114566
 20
353.47591870744606
 30
0.0
 10
-790.08964932114566
 20
353.72064563653316
 30
0.0
  0
SPLINE
  5
226
100
AcDbEntity
  8
一般
370
              15
  6
Continuous
 62
               7
100
AcDbSpline
210
0.0
220
0.0
230
1.0
 70
               9
 71
               2
 72
              17
 73
              14
 74
               0
 42
0.000001
 43
0.000001
 40
0.0
 40
0.0
 40
0.0
 40
1.0
 40
2.0
 40
3.0
 40
4.0
 40
5.0
 40
6.0
 40
7.0
 40
8.0
 40
9.0
 40
10.0
 40
11.0
 40
12.0
 40
12.0
 40
12.0
 10
-790.58964932114566
 20
353.72064563653316
 30
0.0
 10
-790.58964932114566
 20
353.84300910107669
 30
0.0
 10
-790.72362391736124
 20
354.05494883865629
 30
0.0
 10
-790.95567472493019
 20
354.17731230319981
 30
0.0
 10
-791.22362391736124
 20
354.17731230319981
 30
0.0
 10
-791.45567472493019
 20
354.05494883865629
 30
0.0
 10
-791.58964932114566
 20
353.84300910107669
 30
0.0
 10
-791.58964932114566
 20
353.59828217198958
 30
0.0
 10
-791.45567472493019
 20
353.38634243441004
 30
0.0
 10
-791.22362391736124
 20
353.26397896986646
 30
0.0
 10
-790.95567472493019
 20
353.26397896986646
 30
0.0
 10
-790.72362391736124
 20
353.38634243441004
 30
0.0
 10
-790.58964932114566
 20
353.59828217198958
 30
0.0
 10
-790.58964932114566
 20
353.72064563653316
 30
0.0
  0
SPLINE
  5
227
100
AcDbEntity
  8
一般
370
               5
  6
Continuous
 62
               7
100
AcDbSpline
210
0.0
220
0.0
230
1.0
 70
               9
 71
               2
 72
              17
 73
              14
 74
               0
 42
0.000001
 43
0.000001
 40
0.0
 40
0.0
 40
0.0
 40
1.0
 40
2.0
 40
3.0
 40
4.0
 40
5.0
 40
6.0
 40
7.0
 40
8.0
 40
9.0
 40
10.0
 40
11.0
 40
12.0
 40
12.0
 40
12.0
 10
-789.08964932114566
 20
353.72064563653316
 30
0.0
 10
-789.08964932114566
 20
354.21009949470732
 30
0.0
 10
-789.62554770600798
 20
355.05785844502566
 30
0.0
 10
-790.55375093628345
 20
355.54731230319982
 30
0.0
 10
-791.62554770600798
 20
355.54731230319982
 30
0.0
 10
-792.55375093628345
 20
355.05785844502566
 30
0.0
 10
-793.08964932114566
 20
354.21009949470732
 30
0.0
 10
-793.08964932114566
 20
353.23119177835895
 30
0.0
 10
-792.55375093628345
 20
352.38343282804067
 30
0.0
 10
-791.62554770600798
 20
351.89397896986651
 30
0.0
 10
-790.55375093628345
 20
351.89397896986651
 30
0.0
 10
-789.62554770600798
 20
352.38343282804067
 30
0.0
 10
-789.08964932114566
 20
353.23119177835895
 30
0.0
 10
-789.08964932114566
 20
353.72064563653316
 30
0.0
  0
SPLINE
  5
228
100
AcDbEntity
  8
一般
370
              15
  6
Continuous
 62
               7
100
AcDbSpline
210
0.0
220
0.0
230
1.0
 70
               9
 71
               2
 72
              17
 73
              14
 74
               0
 42
0.000001
 43
0.000001
 40
0.0
 40
0.0
 40
0.0
 40
1.0
 40
2.0
 40
3.0
 40
4.0
 40
5.0
 40
6.0
 40
7.0
 40
8.0
 40
9.0
 40
10.0
 40
11.0
 40
12.0
 40
12.0
 40
12.0
 10
-804.12294807930539
 20
394.29097626113094
 30
0.0
 10
-804.12294807930539
 20
394.53570319021804
 30
0.0
 10
-804.39089727173655
 20
394.95958266537718
 30
0.0
 10
-804.85499888687434
 20
395.20430959446429
 30
0.0
 10
-805.39089727173655
 20
395.20430959446429
 30
0.0
 10
-805.85499888687434
 20
394.95958266537718
 30
0.0
 10
-806.12294807930539
 20
394.53570319021804
 30
0.0
 10
-806.12294807930539
 20
394.04624933204389
 30
0.0
 10
-805.85499888687434
 20
393.62236985688475
 30
0.0
 10
-805.39089727173655
 20
393.37764292779764
 30
0.0
 10
-804.85499888687434
 20
393.37764292779764
 30
0.0
 10
-804.39089727173655
 20
393.62236985688475
 30
0.0
 10
-804.12294807930539
 20
394.04624933204389
 30
0.0
 10
-804.12294807930539
 20
394.29097626113094
 30
0.0
  0
SPLINE
  5
229
100
AcDbEntity
  8
一般
370
              15
  6
Continuous
 62
               7
100
AcDbSpline
210
0.0
220
0.0
230
1.0
 70
               9
 71
               2
 72
              17
 73
              14
 74
               0
 42
0.000001
 43
0.000001
 40
0.0
 40
0.0
 40
0.0
 40
1.0
 40
2.0
 40
3.0
 40
4.0
 40
5.0
 40
6.0
 40
7.0
 40
8.0
 40
9.0
 40
10.0
 40
11.0
 40
12.0
 40
12.0
 40
12.0
 10
-804.62294807930539
 20
394.29097626113094
 30
0.0
 10
-804.62294807930539
 20
394.41333972567452
 30
0.0
 10
-804.75692267552097
 20
394.62527946325406
 30
0.0
 10
-804.98897348308992
 20
394.74764292779764
 30
0.0
 10
-805.25692267552097
 20
394.74764292779764
 30
0.0
 10
-805.48897348308992
 20
394.62527946325406
 30
0.0
 10
-805.62294807930539
 20
394.41333972567452
 30
0.0
 10
-805.62294807930539
 20
394.16861279658741
 30
0.0
 10
-805.48897348308992
 20
393.95667305900787
 30
0.0
 10
-805.25692267552097
 20
393.83430959446429
 30
0.0
 10
-804.98897348308992
 20
393.83430959446429
 30
0.0
 10
-804.75692267552097
 20
393.95667305900787
 30
0.0
 10
-804.62294807930539
 20
394.16861279658741
 30
0.0
 10
-804.62294807930539
 20
394.29097626113094
 30
0.0
  0
SPLINE
  5
22A
100
AcDbEntity
  8
一般
370
               5
  6
Continuous
 62
               7
100
AcDbSpline
210
0.0
220
0.0
230
1.0
 70
               9
 71
               2
 72
              17
 73
              14
 74
               0
 42
0.000001
 43
0.000001
 40
0.0
 40
0.0
 40
0.0
 40
1.0
 40
2.0
 40
3.0
 40
4.0
 40
5.0
 40
6.0
 40
7.0
 40
8.0
 40
9.0
 40
10.0
 40
11.0
 40
12.0
 40
12.0
 40
12.0
 10
-803.12294807930539
 20
394.29097626113094
 30
0.0
 10
-803.12294807930539
 20
394.78043011930515
 30
0.0
 10
-803.65884646416771
 20
395.62818906962343
 30
0.0
 10
-804.58704969444318
 20
396.11764292779765
 30
0.0
 10
-805.65884646416771
 20
396.11764292779765
 30
0.0
 10
-806.58704969444318
 20
395.62818906962343
 30
0.0
 10
-807.12294807930539
 20
394.78043011930515
 30
0.0
 10
-807.12294807930539
 20
393.80152240295678
 30
0.0
 10
-806.58704969444318
 20
392.9537634526385
 30
0.0
 10
-805.65884646416771
 20
392.46430959446428
 30
0.0
 10
-804.58704969444318
 20
392.46430959446428
 30
0.0
 10
-803.65884646416771
 20
392.9537634526385
 30
0.0
 10
-803.12294807930539
 20
393.80152240295678
 30
0.0
 10
-803.12294807930539
 20
394.29097626113094
 30
0.0
  0
SPLINE
  5
22B
100
AcDbEntity
  8
一般
370
              15
  6
Continuous
 62
               7
100
AcDbSpline
210
0.0
220
0.0
230
1.0
 70
               9
 71
               2
 72
              17
 73
              14
 74
               0
 42
0.000001
 43
0.000001
 40
0.0
 40
0.0
 40
0.0
 40
1.0
 40
2.0
 40
3.0
 40
4.0
 40
5.0
 40
6.0
 40
7.0
 40
8.0
 40
9.0
 40
10.0
 40
11.0
 40
12.0
 40
12.0
 40
12.0
 10
-794.55498113616261
 20
390.40023714103478
 30
0.0
 10
-794.55498113616261
 20
390.64496407012189
 30
0.0
 10
-794.82293032859377
 20
391.06884354528108
 30
0.0
 10
-795.28703194373145
 20
391.31357047436813
 30
0.0
 10
-795.82293032859377
 20
391.31357047436813
 30
0.0
 10
-796.28703194373145
 20
391.06884354528108
 30
0.0
 10
-796.55498113616261
 20
390.64496407012189
 30
0.0
 10
-796.55498113616261
 20
390.15551021194773
 30
0.0
 10
-796.28703194373145
 20
389.73163073678859
 30
0.0
 10
-795.82293032859377
 20
389.48690380770148
 30
0.0
 10
-795.28703194373145
 20
389.48690380770148
 30
0.0
 10
-794.82293032859377
 20
389.73163073678859
 30
0.0
 10
-794.55498113616261
 20
390.15551021194767
 30
0.0
 10
-794.55498113616261
 20
390.40023714103478
 30
0.0
  0
SPLINE
  5
22C
100
AcDbEntity
  8
一般
370
              15
  6
Continuous
 62
               7
100
AcDbSpline
210
0.0
220
0.0
230
1.0
 70
               9
 71
               2
 72
              17
 73
              14
 74
               0
 42
0.000001
 43
0.000001
 40
0.0
 40
0.0
 40
0.0
 40
1.0
 40
2.0
 40
3.0
 40
4.0
 40
5.0
 40
6.0
 40
7.0
 40
8.0
 40
9.0
 40
10.0
 40
11.0
 40
12.0
 40
12.0
 40
12.0
 10
-795.05498113616261
 20
390.40023714103484
 30
0.0
 10
-795.05498113616261
 20
390.52260060557836
 30
0.0
 10
-795.18895573237819
 20
390.7345403431579
 30
0.0
 10
-795.42100653994703
 20
390.85690380770149
 30
0.0
 10
-795.68895573237819
 20
390.85690380770149
 30
0.0
 10
-795.92100653994703
 20
390.7345403431579
 30
0.0
 10
-796.05498113616261
 20
390.52260060557836
 30
0.0
 10
-796.05498113616261
 20
390.27787367649125
 30
0.0
 10
-795.92100653994703
 20
390.06593393891171
 30
0.0
 10
-795.68895573237819
 20
389.94357047436813
 30
0.0
 10
-795.42100653994703
 20
389.94357047436813
 30
0.0
 10
-795.18895573237819
 20
390.06593393891171
 30
0.0
 10
-795.05498113616261
 20
390.27787367649125
 30
0.0
 10
-795.05498113616261
 20
390.40023714103484
 30
0.0
  0
SPLINE
  5
22D
100
AcDbEntity
  8
一般
370
               5
  6
Continuous
 62
               7
100
AcDbSpline
210
0.0
220
0.0
230
1.0
 70
               9
 71
               2
 72
              17
 73
              14
 74
               0
 42
0.000001
 43
0.000001
 40
0.0
 40
0.0
 40
0.0
 40
1.0
 40
2.0
 40
3.0
 40
4.0
 40
5.0
 40
6.0
 40
7.0
 40
8.0
 40
9.0
 40
10.0
 40
11.0
 40
12.0
 40
12.0
 40
12.0
 10
-793.55498113616261
 20
390.40023714103484
 30
0.0
 10
-793.55498113616261
 20
390.88969099920899
 30
0.0
 10
-794.09087952102482
 20
391.73744994952727
 30
0.0
 10
-795.0190827513004
 20
392.22690380770149
 30
0.0
 10
-796.09087952102482
 20
392.22690380770149
 30
0.0
 10
-797.0190827513004
 20
391.73744994952727
 30
0.0
 10
-797.55498113616261
 20
390.88969099920899
 30
0.0
 10
-797.55498113616261
 20
389.91078328286062
 30
0.0
 10
-797.0190827513004
 20
389.06302433254234
 30
0.0
 10
-796.09087952102493
 20
388.57357047436813
 30
0.0
 10
-795.0190827513004
 20
388.57357047436813
 30
0.0
 10
-794.09087952102493
 20
389.06302433254234
 30
0.0
 10
-793.55498113616261
 20
389.91078328286062
 30
0.0
 10
-793.55498113616261
 20
390.40023714103484
 30
0.0
  0
SPLINE
  5
22E
100
AcDbEntity
  8
一般
370
              15
  6
Continuous
 62
               7
100
AcDbSpline
210
0.0
220
0.0
230
1.0
 70
               9
 71
               2
 72
              17
 73
              14
 74
               0
 42
0.000001
 43
0.000001
 40
0.0
 40
0.0
 40
0.0
 40
1.0
 40
2.0
 40
3.0
 40
4.0
 40
5.0
 40
6.0
 40
7.0
 40
8.0
 40
9.0
 40
10.0
 40
11.0
 40
12.0
 40
12.0
 40
12.0
 10
-816.35569696356106
 20
394.48098028243862
 30
0.0
 10
-816.35569696356106
 20
394.72570721152573
 30
0.0
 10
-816.62364615599222
 20
395.14958668668487
 30
0.0
 10
-817.08774777113001
 20
395.39431361577198
 30
0.0
 10
-817.62364615599222
 20
395.39431361577198
 30
0.0
 10
-818.08774777113001
 20
395.14958668668487
 30
0.0
 10
-818.35569696356106
 20
394.72570721152573
 30
0.0
 10
-818.35569696356106
 20
394.23625335335151
 30
0.0
 10
-818.08774777113001
 20
393.81237387819237
 30
0.0
 10
-817.62364615599222
 20
393.56764694910532
 30
0.0
 10
-817.08774777113001
 20
393.56764694910532
 30
0.0
 10
-816.62364615599222
 20
393.81237387819237
 30
0.0
 10
-816.35569696356106
 20
394.23625335335151
 30
0.0
 10
-816.35569696356106
 20
394.48098028243862
 30
0.0
  0
SPLINE
  5
22F
100
AcDbEntity
  8
一般
370
              15
  6
Continuous
 62
               7
100
AcDbSpline
210
0.0
220
0.0
230
1.0
 70
               9
 71
               2
 72
              17
 73
              14
 74
               0
 42
0.000001
 43
0.000001
 40
0.0
 40
0.0
 40
0.0
 40
1.0
 40
2.0
 40
3.0
 40
4.0
 40
5.0
 40
6.0
 40
7.0
 40
8.0
 40
9.0
 40
10.0
 40
11.0
 40
12.0
 40
12.0
 40
12.0
 10
-816.85569696356106
 20
394.48098028243862
 30
0.0
 10
-816.85569696356106
 20
394.6033437469822
 30
0.0
 10
-816.98967155977664
 20
394.81528348456175
 30
0.0
 10
-817.22172236734559
 20
394.93764694910527
 30
0.0
 10
-817.48967155977664
 20
394.93764694910527
 30
0.0
 10
-817.72172236734559
 20
394.81528348456175
 30
0.0
 10
-817.85569696356106
 20
394.6033437469822
 30
0.0
 10
-817.85569696356106
 20
394.3586168178951
 30
0.0
 10
-817.72172236734559
 20
394.1466770803155
 30
0.0
 10
-817.48967155977664
 20
394.02431361577197
 30
0.0
 10
-817.22172236734559
 20
394.02431361577197
 30
0.0
 10
-816.98967155977664
 20
394.1466770803155
 30
0.0
 10
-816.85569696356106
 20
394.3586168178951
 30
0.0
 10
-816.85569696356106
 20
394.48098028243862
 30
0.0
  0
SPLINE
  5
230
100
AcDbEntity
  8
一般
370
               5
  6
Continuous
 62
               7
100
AcDbSpline
210
0.0
220
0.0
230
1.0
 70
               9
 71
               2
 72
              17
 73
              14
 74
               0
 42
0.000001
 43
0.000001
 40
0.0
 40
0.0
 40
0.0
 40
1.0
 40
2.0
 40
3.0
 40
4.0
 40
5.0
 40
6.0
 40
7.0
 40
8.0
 40
9.0
 40
10.0
 40
11.0
 40
12.0
 40
12.0
 40
12.0
 10
-815.35569696356106
 20
394.48098028243862
 30
0.0
 10
-815.35569696356106
 20
394.97043414061284
 30
0.0
 10
-815.89159534842338
 20
395.81819309093112
 30
0.0
 10
-816.81979857869885
 20
396.30764694910528
 30
0.0
 10
-817.89159534842338
 20
396.30764694910528
 30
0.0
 10
-818.81979857869885
 20
395.81819309093112
 30
0.0
 10
-819.35569696356106
 20
394.97043414061284
 30
0.0
 10
-819.35569696356106
 20
393.99152642426446
 30
0.0
 10
-818.81979857869885
 20
393.14376747394613
 30
0.0
 10
-817.89159534842338
 20
392.65431361577197
 30
0.0
 10
-816.81979857869885
 20
392.65431361577197
 30
0.0
 10
-815.89159534842338
 20
393.14376747394613
 30
0.0
 10
-815.35569696356106
 20
393.99152642426441
 30
0.0
 10
-815.35569696356106
 20
394.48098028243862
 30
0.0
  0
SPLINE
  5
231
100
AcDbEntity
  8
一般
370
              15
  6
Continuous
 62
               7
100
AcDbSpline
210
0.0
220
0.0
230
1.0
 70
               9
 71
               2
 72
              17
 73
              14
 74
               0
 42
0.000001
 43
0.000001
 40
0.0
 40
0.0
 40
0.0
 40
1.0
 40
2.0
 40
3.0
 40
4.0
 40
5.0
 40
6.0
 40
7.0
 40
8.0
 40
9.0
 40
10.0
 40
11.0
 40
12.0
 40
12.0
 40
12.0
 10
-826.14724127806733
 20
390.29600406872476
 30
0.0
 10
-826.14724127806733
 20
390.54073099781186
 30
0.0
 10
-826.41519047049849
 20
390.96461047297106
 30
0.0
 10
-826.87929208563617
 20
391.20933740205811
 30
0.0
 10
-827.41519047049849
 20
391.20933740205811
 30
0.0
 10
-827.87929208563617
 20
390.96461047297106
 30
0.0
 10
-828.14724127806733
 20
390.54073099781186
 30
0.0
 10
-828.14724127806733
 20
390.0512771396377
 30
0.0
 10
-827.87929208563617
 20
389.62739766447856
 30
0.0
 10
-827.41519047049849
 20
389.38267073539146
 30
0.0
 10
-826.87929208563617
 20
389.38267073539146
 30
0.0
 10
-826.41519047049849
 20
389.62739766447856
 30
0.0
 10
-826.14724127806733
 20
390.0512771396377
 30
0.0
 10
-826.14724127806733
 20
390.29600406872476
 30
0.0
  0
SPLINE
  5
232
100
AcDbEntity
  8
一般
370
              15
  6
Continuous
 62
               7
100
AcDbSpline
210
0.0
220
0.0
230
1.0
 70
               9
 71
               2
 72
              17
 73
              14
 74
               0
 42
0.000001
 43
0.000001
 40
0.0
 40
0.0
 40
0.0
 40
1.0
 40
2.0
 40
3.0
 40
4.0
 40
5.0
 40
6.0
 40
7.0
 40
8.0
 40
9.0
 40
10.0
 40
11.0
 40
12.0
 40
12.0
 40
12.0
 10
-826.64724127806733
 20
390.29600406872476
 30
0.0
 10
-826.64724127806733
 20
390.41836753326834
 30
0.0
 10
-826.78121587428291
 20
390.63030727084788
 30
0.0
 10
-827.01326668185175
 20
390.75267073539146
 30
0.0
 10
-827.28121587428291
 20
390.75267073539146
 30
0.0
 10
-827.51326668185175
 20
390.63030727084788
 30
0.0
 10
-827.64724127806733
 20
390.41836753326834
 30
0.0
 10
-827.64724127806733
 20
390.17364060418123
 30
0.0
 10
-827.51326668185175
 20
389.96170086660169
 30
0.0
 10
-827.28121587428291
 20
389.83933740205811
 30
0.0
 10
-827.01326668185175
 20
389.83933740205811
 30
0.0
 10
-826.78121587428291
 20
389.96170086660169
 30
0.0
 10
-826.64724127806733
 20
390.17364060418123
 30
0.0
 10
-826.64724127806733
 20
390.29600406872476
 30
0.0
  0
SPLINE
  5
233
100
AcDbEntity
  8
一般
370
               5
  6
Continuous
 62
               7
100
AcDbSpline
210
0.0
220
0.0
230
1.0
 70
               9
 71
               2
 72
              17
 73
              14
 74
               0
 42
0.000001
 43
0.000001
 40
0.0
 40
0.0
 40
0.0
 40
1.0
 40
2.0
 40
3.0
 40
4.0
 40
5.0
 40
6.0
 40
7.0
 40
8.0
 40
9.0
 40
10.0
 40
11.0
 40
12.0
 40
12.0
 40
12.0
 10
-825.14724127806733
 20
390.29600406872476
 30
0.0
 10
-825.14724127806733
 20
390.78545792689897
 30
0.0
 10
-825.68313966292953
 20
391.63321687721725
 30
0.0
 10
-826.61134289320512
 20
392.12267073539147
 30
0.0
 10
-827.68313966292953
 20
392.12267073539147
 30
0.0
 10
-828.61134289320512
 20
391.63321687721725
 30
0.0
 10
-829.14724127806733
 20
390.78545792689897
 30
0.0
 10
-829.14724127806733
 20
389.8065502105506
 30
0.0
 10
-828.61134289320512
 20
388.95879126023232
 30
0.0
 10
-827.68313966292953
 20
388.46933740205816
 30
0.0
 10
-826.61134289320512
 20
388.46933740205816
 30
0.0
 10
-825.68313966292953
 20
388.95879126023232
 30
0.0
 10
-825.14724127806733
 20
389.8065502105506
 30
0.0
 10
-825.14724127806733
 20
390.29600406872476
 30
0.0
  0
SPLINE
  5
234
100
AcDbEntity
  8
一般
370
              15
  6
Continuous
 62
               7
100
AcDbSpline
210
0.0
220
0.0
230
1.0
 70
               9
 71
               2
 72
              17
 73
              14
 74
               0
 42
0.000001
 43
0.000001
 40
0.0
 40
0.0
 40
0.0
 40
1.0
 40
2.0
 40
3.0
 40
4.0
 40
5.0
 40
6.0
 40
7.0
 40
8.0
 40
9.0
 40
10.0
 40
11.0
 40
12.0
 40
12.0
 40
12.0
 10
-786.76056552776538
 20
382.64967204796358
 30
0.0
 10
-786.76056552776538
 20
382.89439897705068
 30
0.0
 10
-787.02851472019654
 20
383.31827845220982
 30
0.0
 10
-787.49261633533433
 20
383.56300538129693
 30
0.0
 10
-788.02851472019654
 20
383.56300538129693
 30
0.0
 10
-788.49261633533433
 20
383.31827845220982
 30
0.0
 10
-788.76056552776538
 20
382.89439897705068
 30
0.0
 10
-788.76056552776538
 20
382.40494511887653
 30
0.0
 10
-788.49261633533433
 20
381.98106564371733
 30
0.0
 10
-788.02851472019654
 20
381.73633871463028
 30
0.0
 10
-787.49261633533433
 20
381.73633871463028
 30
0.0
 10
-787.02851472019654
 20
381.98106564371733
 30
0.0
 10
-786.76056552776538
 20
382.40494511887653
 30
0.0
 10
-786.76056552776538
 20
382.64967204796358
 30
0.0
  0
SPLINE
  5
235
100
AcDbEntity
  8
一般
370
              15
  6
Continuous
 62
               7
100
AcDbSpline
210
0.0
220
0.0
230
1.0
 70
               9
 71
               2
 72
              17
 73
              14
 74
               0
 42
0.000001
 43
0.000001
 40
0.0
 40
0.0
 40
0.0
 40
1.0
 40
2.0
 40
3.0
 40
4.0
 40
5.0
 40
6.0
 40
7.0
 40
8.0
 40
9.0
 40
10.0
 40
11.0
 40
12.0
 40
12.0
 40
12.0
 10
-787.26056552776538
 20
382.64967204796358
 30
0.0
 10
-787.26056552776538
 20
382.77203551250716
 30
0.0
 10
-787.39454012398096
 20
382.9839752500867
 30
0.0
 10
-787.62659093154991
 20
383.10633871463028
 30
0.0
 10
-787.89454012398096
 20
383.10633871463028
 30
0.0
 10
-788.12659093154991
 20
382.9839752500867
 30
0.0
 10
-788.26056552776538
 20
382.77203551250716
 30
0.0
 10
-788.26056552776538
 20
382.52730858342005
 30
0.0
 10
-788.12659093154991
 20
382.31536884584045
 30
0.0
 10
-787.89454012398096
 20
382.19300538129693
 30
0.0
 10
-787.62659093154991
 20
382.19300538129693
 30
0.0
 10
-787.39454012398096
 20
382.31536884584045
 30
0.0
 10
-787.26056552776538
 20
382.52730858342005
 30
0.0
 10
-787.26056552776538
 20
382.64967204796358
 30
0.0
  0
SPLINE
  5
236
100
AcDbEntity
  8
一般
370
               5
  6
Continuous
 62
               7
100
AcDbSpline
210
0.0
220
0.0
230
1.0
 70
               9
 71
               2
 72
              17
 73
              14
 74
               0
 42
0.000001
 43
0.000001
 40
0.0
 40
0.0
 40
0.0
 40
1.0
 40
2.0
 40
3.0
 40
4.0
 40
5.0
 40
6.0
 40
7.0
 40
8.0
 40
9.0
 40
10.0
 40
11.0
 40
12.0
 40
12.0
 40
12.0
 10
-785.76056552776538
 20
382.64967204796358
 30
0.0
 10
-785.76056552776538
 20
383.13912590613779
 30
0.0
 10
-786.2964639126277
 20
383.98688485645607
 30
0.0
 10
-787.22466714290317
 20
384.47633871463029
 30
0.0
 10
-788.2964639126277
 20
384.47633871463029
 30
0.0
 10
-789.22466714290317
 20
383.98688485645607
 30
0.0
 10
-789.76056552776538
 20
383.13912590613779
 30
0.0
 10
-789.76056552776538
 20
382.16021818978942
 30
0.0
 10
-789.22466714290317
 20
381.31245923947108
 30
0.0
 10
-788.2964639126277
 20
380.82300538129692
 30
0.0
 10
-787.22466714290317
 20
380.82300538129692
 30
0.0
 10
-786.2964639126277
 20
381.31245923947108
 30
0.0
 10
-785.76056552776538
 20
382.16021818978942
 30
0.0
 10
-785.76056552776538
 20
382.64967204796358
 30
0.0
  0
SPLINE
  5
237
100
AcDbEntity
  8
一般
370
              15
  6
Continuous
 62
               7
100
AcDbSpline
210
0.0
220
0.0
230
1.0
 70
               9
 71
               2
 72
              17
 73
              14
 74
               0
 42
0.000001
 43
0.000001
 40
0.0
 40
0.0
 40
0.0
 40
1.0
 40
2.0
 40
3.0
 40
4.0
 40
5.0
 40
6.0
 40
7.0
 40
8.0
 40
9.0
 40
10.0
 40
11.0
 40
12.0
 40
12.0
 40
12.0
 10
-783.27933526720244
 20
372.86410449129028
 30
0.0
 10
-783.27933526720244
 20
373.10883142037738
 30
0.0
 10
-783.5472844596336
 20
373.53271089553652
 30
0.0
 10
-784.01138607477128
 20
373.77743782462363
 30
0.0
 10
-784.5472844596336
 20
373.77743782462363
 30
0.0
 10
-785.01138607477128
 20
373.53271089553652
 30
0.0
 10
-785.27933526720244
 20
373.10883142037738
 30
0.0
 10
-785.27933526720244
 20
372.61937756220323
 30
0.0
 10
-785.01138607477128
 20
372.19549808704403
 30
0.0
 10
-784.5472844596336
 20
371.95077115795698
 30
0.0
 10
-784.01138607477128
 20
371.95077115795698
 30
0.0
 10
-783.5472844596336
 20
372.19549808704403
 30
0.0
 10
-783.27933526720244
 20
372.61937756220317
 30
0.0
 10
-783.27933526720244
 20
372.86410449129028
 30
0.0
  0
SPLINE
  5
238
100
AcDbEntity
  8
一般
370
              15
  6
Continuous
 62
               7
100
AcDbSpline
210
0.0
220
0.0
230
1.0
 70
               9
 71
               2
 72
              17
 73
              14
 74
               0
 42
0.000001
 43
0.000001
 40
0.0
 40
0.0
 40
0.0
 40
1.0
 40
2.0
 40
3.0
 40
4.0
 40
5.0
 40
6.0
 40
7.0
 40
8.0
 40
9.0
 40
10.0
 40
11.0
 40
12.0
 40
12.0
 40
12.0
 10
-783.77933526720244
 20
372.86410449129028
 30
0.0
 10
-783.77933526720244
 20
372.9864679558338
 30
0.0
 10
-783.91330986341802
 20
373.1984076934134
 30
0.0
 10
-784.14536067098686
 20
373.32077115795693
 30
0.0
 10
-784.41330986341802
 20
373.32077115795693
 30
0.0
 10
-784.64536067098686
 20
373.1984076934134
 30
0.0
 10
-784.77933526720244
 20
372.9864679558338
 30
0.0
 10
-784.77933526720244
 20
372.74174102674675
 30
0.0
 10
-784.64536067098686
 20
372.52980128916715
 30
0.0
 10
-784.41330986341802
 20
372.40743782462363
 30
0.0
 10
-784.14536067098686
 20
372.40743782462363
 30
0.0
 10
-783.91330986341802
 20
372.52980128916715
 30
0.0
 10
-783.77933526720244
 20
372.74174102674675
 30
0.0
 10
-783.77933526720244
 20
372.86410449129028
 30
0.0
  0
SPLINE
  5
239
100
AcDbEntity
  8
一般
370
               5
  6
Continuous
 62
               7
100
AcDbSpline
210
0.0
220
0.0
230
1.0
 70
               9
 71
               2
 72
              17
 73
              14
 74
               0
 42
0.000001
 43
0.000001
 40
0.0
 40
0.0
 40
0.0
 40
1.0
 40
2.0
 40
3.0
 40
4.0
 40
5.0
 40
6.0
 40
7.0
 40
8.0
 40
9.0
 40
10.0
 40
11.0
 40
12.0
 40
12.0
 40
12.0
 10
-782.27933526720244
 20
372.86410449129028
 30
0.0
 10
-782.27933526720244
 20
373.35355834946449
 30
0.0
 10
-782.81523365206465
 20
374.20131729978277
 30
0.0
 10
-783.74343688234023
 20
374.69077115795693
 30
0.0
 10
-784.81523365206465
 20
374.69077115795693
 30
0.0
 10
-785.74343688234023
 20
374.20131729978277
 30
0.0
 10
-786.27933526720244
 20
373.35355834946449
 30
0.0
 10
-786.27933526720244
 20
372.37465063311612
 30
0.0
 10
-785.74343688234023
 20
371.52689168279778
 30
0.0
 10
-784.81523365206465
 20
371.03743782462362
 30
0.0
 10
-783.74343688234023
 20
371.03743782462362
 30
0.0
 10
-782.81523365206465
 20
371.52689168279778
 30
0.0
 10
-782.27933526720244
 20
372.37465063311606
 30
0.0
 10
-782.27933526720244
 20
372.86410449129028
 30
0.0
  0
SPLINE
  5
23A
100
AcDbEntity
  8
一般
370
              15
  6
Continuous
 62
               7
100
AcDbSpline
210
0.0
220
0.0
230
1.0
 70
               9
 71
               2
 72
              17
 73
              14
 74
               0
 42
0.000001
 43
0.000001
 40
0.0
 40
0.0
 40
0.0
 40
1.0
 40
2.0
 40
3.0
 40
4.0
 40
5.0
 40
6.0
 40
7.0
 40
8.0
 40
9.0
 40
10.0
 40
11.0
 40
12.0
 40
12.0
 40
12.0
 10
-833.68533063084556
 20
382.64967204796358
 30
0.0
 10
-833.68533063084556
 20
382.89439897705063
 30
0.0
 10
-833.95327982327672
 20
383.31827845220982
 30
0.0
 10
-834.41738143841451
 20
383.56300538129688
 30
0.0
 10
-834.95327982327672
 20
383.56300538129688
 30
0.0
 10
-835.41738143841451
 20
383.31827845220982
 30
0.0
 10
-835.68533063084556
 20
382.89439897705063
 30
0.0
 10
-835.68533063084556
 20
382.40494511887647
 30
0.0
 10
-835.41738143841451
 20
381.98106564371733
 30
0.0
 10
-834.95327982327672
 20
381.73633871463022
 30
0.0
 10
-834.41738143841451
 20
381.73633871463022
 30
0.0
 10
-833.95327982327672
 20
381.98106564371733
 30
0.0
 10
-833.68533063084556
 20
382.40494511887647
 30
0.0
 10
-833.68533063084556
 20
382.64967204796358
 30
0.0
  0
SPLINE
  5
23B
100
AcDbEntity
  8
一般
370
              15
  6
Continuous
 62
               7
100
AcDbSpline
210
0.0
220
0.0
230
1.0
 70
               9
 71
               2
 72
              17
 73
              14
 74
               0
 42
0.000001
 43
0.000001
 40
0.0
 40
0.0
 40
0.0
 40
1.0
 40
2.0
 40
3.0
 40
4.0
 40
5.0
 40
6.0
 40
7.0
 40
8.0
 40
9.0
 40
10.0
 40
11.0
 40
12.0
 40
12.0
 40
12.0
 10
-834.18533063084556
 20
382.64967204796358
 30
0.0
 10
-834.18533063084556
 20
382.7720355125071
 30
0.0
 10
-834.31930522706114
 20
382.9839752500867
 30
0.0
 10
-834.55135603463009
 20
383.10633871463023
 30
0.0
 10
-834.81930522706114
 20
383.10633871463023
 30
0.0
 10
-835.05135603463009
 20
382.9839752500867
 30
0.0
 10
-835.18533063084556
 20
382.7720355125071
 30
0.0
 10
-835.18533063084556
 20
382.52730858341999
 30
0.0
 10
-835.05135603463009
 20
382.31536884584045
 30
0.0
 10
-834.81930522706114
 20
382.19300538129687
 30
0.0
 10
-834.55135603463009
 20
382.19300538129687
 30
0.0
 10
-834.31930522706114
 20
382.31536884584045
 30
0.0
 10
-834.18533063084556
 20
382.52730858341999
 30
0.0
 10
-834.18533063084556
 20
382.64967204796358
 30
0.0
  0
SPLINE
  5
23C
100
AcDbEntity
  8
一般
370
               5
  6
Continuous
 62
               7
100
AcDbSpline
210
0.0
220
0.0
230
1.0
 70
               9
 71
               2
 72
              17
 73
              14
 74
               0
 42
0.000001
 43
0.000001
 40
0.0
 40
0.0
 40
0.0
 40
1.0
 40
2.0
 40
3.0
 40
4.0
 40
5.0
 40
6.0
 40
7.0
 40
8.0
 40
9.0
 40
10.0
 40
11.0
 40
12.0
 40
12.0
 40
12.0
 10
-832.68533063084556
 20
382.64967204796358
 30
0.0
 10
-832.68533063084556
 20
383.13912590613774
 30
0.0
 10
-833.22122901570788
 20
383.98688485645607
 30
0.0
 10
-834.14943224598335
 20
384.47633871463023
 30
0.0
 10
-835.22122901570788
 20
384.47633871463023
 30
0.0
 10
-836.14943224598335
 20
383.98688485645607
 30
0.0
 10
-836.68533063084556
 20
383.13912590613774
 30
0.0
 10
-836.68533063084556
 20
382.16021818978936
 30
0.0
 10
-836.14943224598335
 20
381.31245923947108
 30
0.0
 10
-835.22122901570788
 20
380.82300538129687
 30
0.0
 10
-834.14943224598335
 20
380.82300538129687
 30
0.0
 10
-833.22122901570788
 20
381.31245923947108
 30
0.0
 10
-832.68533063084556
 20
382.16021818978936
 30
0.0
 10
-832.68533063084556
 20
382.64967204796358
 30
0.0
  0
SPLINE
  5
23D
100
AcDbEntity
  8
一般
370
              15
  6
Continuous
 62
               7
100
AcDbSpline
210
0.0
220
0.0
230
1.0
 70
               9
 71
               2
 72
              17
 73
              14
 74
               0
 42
0.000001
 43
0.000001
 40
0.0
 40
0.0
 40
0.0
 40
1.0
 40
2.0
 40
3.0
 40
4.0
 40
5.0
 40
6.0
 40
7.0
 40
8.0
 40
9.0
 40
10.0
 40
11.0
 40
12.0
 40
12.0
 40
12.0
 10
-837.16656089140861
 20
372.86410449129028
 30
0.0
 10
-837.16656089140861
 20
373.10883142037738
 30
0.0
 10
-837.43451008383977
 20
373.53271089553652
 30
0.0
 10
-837.89861169897745
 20
373.77743782462363
 30
0.0
 10
-838.43451008383977
 20
373.77743782462363
 30
0.0
 10
-838.89861169897745
 20
373.53271089553652
 30
0.0
 10
-839.16656089140861
 20
373.10883142037738
 30
0.0
 10
-839.16656089140861
 20
372.61937756220323
 30
0.0
 10
-838.89861169897745
 20
372.19549808704409
 30
0.0
 10
-838.43451008383977
 20
371.95077115795698
 30
0.0
 10
-837.89861169897745
 20
371.95077115795698
 30
0.0
 10
-837.43451008383977
 20
372.19549808704409
 30
0.0
 10
-837.16656089140861
 20
372.61937756220323
 30
0.0
 10
-837.16656089140861
 20
372.86410449129028
 30
0.0
  0
SPLINE
  5
23E
100
AcDbEntity
  8
一般
370
              15
  6
Continuous
 62
               7
100
AcDbSpline
210
0.0
220
0.0
230
1.0
 70
               9
 71
               2
 72
              17
 73
              14
 74
               0
 42
0.000001
 43
0.000001
 40
0.0
 40
0.0
 40
0.0
 40
1.0
 40
2.0
 40
3.0
 40
4.0
 40
5.0
 40
6.0
 40
7.0
 40
8.0
 40
9.0
 40
10.0
 40
11.0
 40
12.0
 40
12.0
 40
12.0
 10
-837.66656089140861
 20
372.86410449129028
 30
0.0
 10
-837.66656089140861
 20
372.98646795583386
 30
0.0
 10
-837.80053548762419
 20
373.1984076934134
 30
0.0
 10
-838.03258629519303
 20
373.32077115795698
 30
0.0
 10
-838.30053548762419
 20
373.32077115795698
 30
0.0
 10
-838.53258629519303
 20
373.1984076934134
 30
0.0
 10
-838.66656089140861
 20
372.98646795583386
 30
0.0
 10
-838.66656089140861
 20
372.74174102674675
 30
0.0
 10
-838.53258629519303
 20
372.52980128916721
 30
0.0
 10
-838.30053548762419
 20
372.40743782462363
 30
0.0
 10
-838.03258629519303
 20
372.40743782462363
 30
0.0
 10
-837.80053548762419
 20
372.52980128916721
 30
0.0
 10
-837.66656089140861
 20
372.74174102674675
 30
0.0
 10
-837.66656089140861
 20
372.86410449129028
 30
0.0
  0
SPLINE
  5
23F
100
AcDbEntity
  8
一般
370
               5
  6
Continuous
 62
               7
100
AcDbSpline
210
0.0
220
0.0
230
1.0
 70
               9
 71
               2
 72
              17
 73
              14
 74
               0
 42
0.000001
 43
0.000001
 40
0.0
 40
0.0
 40
0.0
 40
1.0
 40
2.0
 40
3.0
 40
4.0
 40
5.0
 40
6.0
 40
7.0
 40
8.0
 40
9.0
 40
10.0
 40
11.0
 40
12.0
 40
12.0
 40
12.0
 10
-836.16656089140861
 20
372.86410449129028
 30
0.0
 10
-836.16656089140861
 20
373.35355834946449
 30
0.0
 10
-836.70245927627082
 20
374.20131729978277
 30
0.0
 10
-837.6306625065464
 20
374.69077115795699
 30
0.0
 10
-838.70245927627082
 20
374.69077115795699
 30
0.0
 10
-839.6306625065464
 20
374.20131729978277
 30
0.0
 10
-840.16656089140861
 20
373.35355834946449
 30
0.0
 10
-840.16656089140861
 20
372.37465063311612
 30
0.0
 10
-839.6306625065464
 20
371.52689168279784
 30
0.0
 10
-838.70245927627082
 20
371.03743782462362
 30
0.0
 10
-837.6306625065464
 20
371.03743782462362
 30
0.0
 10
-836.70245927627082
 20
371.52689168279784
 30
0.0
 10
-836.16656089140861
 20
372.37465063311612
 30
0.0
 10
-836.16656089140861
 20
372.86410449129028
 30
0.0
  0
SPLINE
  5
240
100
AcDbEntity
  8
一般
370
              15
  6
Continuous
 62
               7
100
AcDbSpline
210
0.0
220
0.0
230
1.0
 70
               9
 71
               2
 72
              17
 73
              14
 74
               0
 42
0.000001
 43
0.000001
 40
0.0
 40
0.0
 40
0.0
 40
1.0
 40
2.0
 40
3.0
 40
4.0
 40
5.0
 40
6.0
 40
7.0
 40
8.0
 40
9.0
 40
10.0
 40
11.0
 40
12.0
 40
12.0
 40
12.0
 10
-784.45690043689012
 20
362.63131492834407
 30
0.0
 10
-784.45690043689012
 20
362.87604185743118
 30
0.0
 10
-784.72484962932128
 20
363.29992133259032
 30
0.0
 10
-785.18895124445896
 20
363.54464826167742
 30
0.0
 10
-785.72484962932128
 20
363.54464826167742
 30
0.0
 10
-786.18895124445896
 20
363.29992133259032
 30
0.0
 10
-786.45690043689012
 20
362.87604185743118
 30
0.0
 10
-786.45690043689012
 20
362.38658799925702
 30
0.0
 10
-786.18895124445896
 20
361.96270852409782
 30
0.0
 10
-785.72484962932128
 20
361.71798159501077
 30
0.0
 10
-785.18895124445896
 20
361.71798159501077
 30
0.0
 10
-784.72484962932128
 20
361.96270852409782
 30
0.0
 10
-784.45690043689012
 20
362.38658799925702
 30
0.0
 10
-784.45690043689012
 20
362.63131492834407
 30
0.0
  0
SPLINE
  5
241
100
AcDbEntity
  8
一般
370
              15
  6
Continuous
 62
               7
100
AcDbSpline
210
0.0
220
0.0
230
1.0
 70
               9
 71
               2
 72
              17
 73
              14
 74
               0
 42
0.000001
 43
0.000001
 40
0.0
 40
0.0
 40
0.0
 40
1.0
 40
2.0
 40
3.0
 40
4.0
 40
5.0
 40
6.0
 40
7.0
 40
8.0
 40
9.0
 40
10.0
 40
11.0
 40
12.0
 40
12.0
 40
12.0
 10
-784.95690043689012
 20
362.63131492834407
 30
0.0
 10
-784.95690043689012
 20
362.75367839288765
 30
0.0
 10
-785.0908750331057
 20
362.96561813046719
 30
0.0
 10
-785.32292584067454
 20
363.08798159501077
 30
0.0
 10
-785.5908750331057
 20
363.08798159501077
 30
0.0
 10
-785.82292584067454
 20
362.96561813046719
 30
0.0
 10
-785.95690043689012
 20
362.75367839288765
 30
0.0
 10
-785.95690043689012
 20
362.50895146380054
 30
0.0
 10
-785.82292584067454
 20
362.29701172622094
 30
0.0
 10
-785.5908750331057
 20
362.17464826167742
 30
0.0
 10
-785.32292584067454
 20
362.17464826167742
 30
0.0
 10
-785.0908750331057
 20
362.29701172622094
 30
0.0
 10
-784.95690043689012
 20
362.50895146380054
 30
0.0
 10
-784.95690043689012
 20
362.63131492834407
 30
0.0
  0
SPLINE
  5
242
100
AcDbEntity
  8
一般
370
               5
  6
Continuous
 62
               7
100
AcDbSpline
210
0.0
220
0.0
230
1.0
 70
               9
 71
               2
 72
              17
 73
              14
 74
               0
 42
0.000001
 43
0.000001
 40
0.0
 40
0.0
 40
0.0
 40
1.0
 40
2.0
 40
3.0
 40
4.0
 40
5.0
 40
6.0
 40
7.0
 40
8.0
 40
9.0
 40
10.0
 40
11.0
 40
12.0
 40
12.0
 40
12.0
 10
-783.45690043689012
 20
362.63131492834407
 30
0.0
 10
-783.45690043689012
 20
363.12076878651828
 30
0.0
 10
-783.99279882175233
 20
363.96852773683656
 30
0.0
 10
-784.92100205202792
 20
364.45798159501078
 30
0.0
 10
-785.99279882175233
 20
364.45798159501078
 30
0.0
 10
-786.92100205202792
 20
363.96852773683656
 30
0.0
 10
-787.45690043689012
 20
363.12076878651828
 30
0.0
 10
-787.45690043689012
 20
362.14186107016991
 30
0.0
 10
-786.92100205202792
 20
361.29410211985163
 30
0.0
 10
-785.99279882175233
 20
360.80464826167741
 30
0.0
 10
-784.92100205202792
 20
360.80464826167741
 30
0.0
 10
-783.99279882175233
 20
361.29410211985157
 30
0.0
 10
-783.45690043689012
 20
362.14186107016991
 30
0.0
 10
-783.45690043689012
 20
362.63131492834407
 30
0.0
  0
SPLINE
  5
243
100
AcDbEntity
  8
一般
370
              15
  6
Continuous
 62
               7
100
AcDbSpline
210
0.0
220
0.0
230
1.0
 70
               9
 71
               2
 72
              17
 73
              14
 74
               0
 42
0.000001
 43
0.000001
 40
0.0
 40
0.0
 40
0.0
 40
1.0
 40
2.0
 40
3.0
 40
4.0
 40
5.0
 40
6.0
 40
7.0
 40
8.0
 40
9.0
 40
10.0
 40
11.0
 40
12.0
 40
12.0
 40
12.0
 10
-835.98899572172093
 20
362.63131492834407
 30
0.0
 10
-835.98899572172093
 20
362.87604185743118
 30
0.0
 10
-836.25694491415209
 20
363.29992133259032
 30
0.0
 10
-836.72104652928977
 20
363.54464826167742
 30
0.0
 10
-837.25694491415209
 20
363.54464826167742
 30
0.0
 10
-837.72104652928977
 20
363.29992133259032
 30
0.0
 10
-837.98899572172093
 20
362.87604185743118
 30
0.0
 10
-837.98899572172093
 20
362.38658799925702
 30
0.0
 10
-837.72104652928977
 20
361.96270852409782
 30
0.0
 10
-837.25694491415209
 20
361.71798159501077
 30
0.0
 10
-836.72104652928977
 20
361.71798159501077
 30
0.0
 10
-836.25694491415209
 20
361.96270852409782
 30
0.0
 10
-835.98899572172093
 20
362.38658799925702
 30
0.0
 10
-835.98899572172093
 20
362.63131492834407
 30
0.0
  0
SPLINE
  5
244
100
AcDbEntity
  8
一般
370
              15
  6
Continuous
 62
               7
100
AcDbSpline
210
0.0
220
0.0
230
1.0
 70
               9
 71
               2
 72
              17
 73
              14
 74
               0
 42
0.000001
 43
0.000001
 40
0.0
 40
0.0
 40
0.0
 40
1.0
 40
2.0
 40
3.0
 40
4.0
 40
5.0
 40
6.0
 40
7.0
 40
8.0
 40
9.0
 40
10.0
 40
11.0
 40
12.0
 40
12.0
 40
12.0
 10
-836.48899572172093
 20
362.63131492834407
 30
0.0
 10
-836.48899572172093
 20
362.75367839288765
 30
0.0
 10
-836.62297031793651
 20
362.96561813046719
 30
0.0
 10
-836.85502112550535
 20
363.08798159501077
 30
0.0
 10
-837.12297031793651
 20
363.08798159501077
 30
0.0
 10
-837.35502112550535
 20
362.96561813046719
 30
0.0
 10
-837.48899572172093
 20
362.75367839288765
 30
0.0
 10
-837.48899572172093
 20
362.50895146380054
 30
0.0
 10
-837.35502112550535
 20
362.29701172622094
 30
0.0
 10
-837.12297031793651
 20
362.17464826167742
 30
0.0
 10
-836.85502112550535
 20
362.17464826167742
 30
0.0
 10
-836.62297031793651
 20
362.29701172622094
 30
0.0
 10
-836.48899572172093
 20
362.50895146380054
 30
0.0
 10
-836.48899572172093
 20
362.63131492834407
 30
0.0
  0
SPLINE
  5
245
100
AcDbEntity
  8
一般
370
               5
  6
Continuous
 62
               7
100
AcDbSpline
210
0.0
220
0.0
230
1.0
 70
               9
 71
               2
 72
              17
 73
              14
 74
               0
 42
0.000001
 43
0.000001
 40
0.0
 40
0.0
 40
0.0
 40
1.0
 40
2.0
 40
3.0
 40
4.0
 40
5.0
 40
6.0
 40
7.0
 40
8.0
 40
9.0
 40
10.0
 40
11.0
 40
12.0
 40
12.0
 40
12.0
 10
-834.98899572172093
 20
362.63131492834407
 30
0.0
 10
-834.98899572172093
 20
363.12076878651828
 30
0.0
 10
-835.52489410658313
 20
363.96852773683656
 30
0.0
 10
-836.45309733685872
 20
364.45798159501078
 30
0.0
 10
-837.52489410658313
 20
364.45798159501078
 30
0.0
 10
-838.45309733685872
 20
363.96852773683656
 30
0.0
 10
-838.98899572172093
 20
363.12076878651828
 30
0.0
 10
-838.98899572172093
 20
362.14186107016991
 30
0.0
 10
-838.45309733685872
 20
361.29410211985163
 30
0.0
 10
-837.52489410658313
 20
360.80464826167741
 30
0.0
 10
-836.45309733685872
 20
360.80464826167741
 30
0.0
 10
-835.52489410658313
 20
361.29410211985157
 30
0.0
 10
-834.98899572172093
 20
362.14186107016991
 30
0.0
 10
-834.98899572172093
 20
362.63131492834407
 30
0.0
  0
SPLINE
  5
246
100
AcDbEntity
  8
一般
370
              15
  6
Continuous
 62
               7
100
AcDbSpline
210
0.0
220
0.0
230
1.0
 70
               9
 71
               2
 72
              17
 73
              14
 74
               0
 42
0.000001
 43
0.000001
 40
0.0
 40
0.0
 40
0.0
 40
1.0
 40
2.0
 40
3.0
 40
4.0
 40
5.0
 40
6.0
 40
7.0
 40
8.0
 40
9.0
 40
10.0
 40
11.0
 40
12.0
 40
12.0
 40
12.0
 10
-821.24226769264681
 20
347.67283228730082
 30
0.0
 10
-821.24226769264681
 20
347.91755921638787
 30
0.0
 10
-821.51021688507785
 20
348.34143869154701
 30
0.0
 10
-821.97431850021565
 20
348.58616562063412
 30
0.0
 10
-822.51021688507785
 20
348.58616562063412
 30
0.0
 10
-822.97431850021565
 20
348.34143869154701
 30
0.0
 10
-823.24226769264681
 20
347.91755921638787
 30
0.0
 10
-823.24226769264681
 20
347.42810535821371
 30
0.0
 10
-822.97431850021565
 20
347.00422588305457
 30
0.0
 10
-822.51021688507785
 20
346.75949895396747
 30
0.0
 10
-821.97431850021565
 20
346.75949895396747
 30
0.0
 10
-821.51021688507785
 20
347.00422588305457
 30
0.0
 10
-821.24226769264681
 20
347.42810535821371
 30
0.0
 10
-821.24226769264681
 20
347.67283228730082
 30
0.0
  0
SPLINE
  5
247
100
AcDbEntity
  8
一般
370
              15
  6
Continuous
 62
               7
100
AcDbSpline
210
0.0
220
0.0
230
1.0
 70
               9
 71
               2
 72
              17
 73
              14
 74
               0
 42
0.000001
 43
0.000001
 40
0.0
 40
0.0
 40
0.0
 40
1.0
 40
2.0
 40
3.0
 40
4.0
 40
5.0
 40
6.0
 40
7.0
 40
8.0
 40
9.0
 40
10.0
 40
11.0
 40
12.0
 40
12.0
 40
12.0
 10
-821.74226769264681
 20
347.67283228730082
 30
0.0
 10
-821.74226769264681
 20
347.79519575184435
 30
0.0
 10
-821.87624228886227
 20
348.00713548942389
 30
0.0
 10
-822.10829309643123
 20
348.12949895396747
 30
0.0
 10
-822.37624228886227
 20
348.12949895396747
 30
0.0
 10
-822.60829309643123
 20
348.00713548942389
 30
0.0
 10
-822.74226769264681
 20
347.79519575184435
 30
0.0
 10
-822.74226769264681
 20
347.55046882275724
 30
0.0
 10
-822.60829309643123
 20
347.3385290851777
 30
0.0
 10
-822.37624228886227
 20
347.21616562063411
 30
0.0
 10
-822.10829309643123
 20
347.21616562063411
 30
0.0
 10
-821.87624228886227
 20
347.3385290851777
 30
0.0
 10
-821.74226769264681
 20
347.55046882275724
 30
0.0
 10
-821.74226769264681
 20
347.67283228730082
 30
0.0
  0
SPLINE
  5
248
100
AcDbEntity
  8
一般
370
               5
  6
Continuous
 62
               7
100
AcDbSpline
210
0.0
220
0.0
230
1.0
 70
               9
 71
               2
 72
              17
 73
              14
 74
               0
 42
0.000001
 43
0.000001
 40
0.0
 40
0.0
 40
0.0
 40
1.0
 40
2.0
 40
3.0
 40
4.0
 40
5.0
 40
6.0
 40
7.0
 40
8.0
 40
9.0
 40
10.0
 40
11.0
 40
12.0
 40
12.0
 40
12.0
 10
-820.24226769264681
 20
347.67283228730082
 30
0.0
 10
-820.24226769264681
 20
348.16228614547498
 30
0.0
 10
-820.77816607750901
 20
349.01004509579326
 30
0.0
 10
-821.70636930778448
 20
349.49949895396747
 30
0.0
 10
-822.77816607750901
 20
349.49949895396747
 30
0.0
 10
-823.70636930778448
 20
349.01004509579326
 30
0.0
 10
-824.24226769264681
 20
348.16228614547498
 30
0.0
 10
-824.24226769264681
 20
347.18337842912661
 30
0.0
 10
-823.70636930778448
 20
346.33561947880833
 30
0.0
 10
-822.77816607750901
 20
345.84616562063411
 30
0.0
 10
-821.70636930778448
 20
345.84616562063411
 30
0.0
 10
-820.77816607750901
 20
346.33561947880833
 30
0.0
 10
-820.24226769264681
 20
347.18337842912661
 30
0.0
 10
-820.24226769264681
 20
347.67283228730082
 30
0.0
  0
SPLINE
  5
249
100
AcDbEntity
  8
一般
370
              15
  6
Continuous
 62
               7
100
AcDbSpline
210
0.0
220
0.0
230
1.0
 70
               9
 71
               2
 72
              17
 73
              14
 74
               0
 42
0.000001
 43
0.000001
 40
0.0
 40
0.0
 40
0.0
 40
1.0
 40
2.0
 40
3.0
 40
4.0
 40
5.0
 40
6.0
 40
7.0
 40
8.0
 40
9.0
 40
10.0
 40
11.0
 40
12.0
 40
12.0
 40
12.0
 10
-830.35624683746528
 20
353.72064563653316
 30
0.0
 10
-830.35624683746528
 20
353.96537256562027
 30
0.0
 10
-830.62419602989644
 20
354.38925204077941
 30
0.0
 10
-831.08829764503423
 20
354.63397896986646
 30
0.0
 10
-831.62419602989644
 20
354.63397896986646
 30
0.0
 10
-832.08829764503423
 20
354.38925204077941
 30
0.0
 10
-832.35624683746528
 20
353.96537256562027
 30
0.0
 10
-832.35624683746528
 20
353.47591870744606
 30
0.0
 10
-832.08829764503423
 20
353.05203923228692
 30
0.0
 10
-831.62419602989644
 20
352.80731230319981
 30
0.0
 10
-831.08829764503423
 20
352.80731230319981
 30
0.0
 10
-830.62419602989644
 20
353.05203923228692
 30
0.0
 10
-830.35624683746528
 20
353.47591870744606
 30
0.0
 10
-830.35624683746528
 20
353.72064563653316
 30
0.0
  0
SPLINE
  5
24A
100
AcDbEntity
  8
一般
370
              15
  6
Continuous
 62
               7
100
AcDbSpline
210
0.0
220
0.0
230
1.0
 70
               9
 71
               2
 72
              17
 73
              14
 74
               0
 42
0.000001
 43
0.000001
 40
0.0
 40
0.0
 40
0.0
 40
1.0
 40
2.0
 40
3.0
 40
4.0
 40
5.0
 40
6.0
 40
7.0
 40
8.0
 40
9.0
 40
10.0
 40
11.0
 40
12.0
 40
12.0
 40
12.0
 10
-830.85624683746528
 20
353.72064563653316
 30
0.0
 10
-830.85624683746528
 20
353.84300910107669
 30
0.0
 10
-830.99022143368086
 20
354.05494883865629
 30
0.0
 10
-831.22227224124981
 20
354.17731230319981
 30
0.0
 10
-831.49022143368086
 20
354.17731230319981
 30
0.0
 10
-831.72227224124981
 20
354.05494883865629
 30
0.0
 10
-831.85624683746528
 20
353.84300910107669
 30
0.0
 10
-831.85624683746528
 20
353.59828217198958
 30
0.0
 10
-831.72227224124981
 20
353.38634243441004
 30
0.0
 10
-831.49022143368086
 20
353.26397896986646
 30
0.0
 10
-831.22227224124981
 20
353.26397896986646
 30
0.0
 10
-830.99022143368086
 20
353.38634243441004
 30
0.0
 10
-830.85624683746528
 20
353.59828217198958
 30
0.0
 10
-830.85624683746528
 20
353.72064563653316
 30
0.0
  0
SPLINE
  5
24B
100
AcDbEntity
  8
一般
370
               5
  6
Continuous
 62
               7
100
AcDbSpline
210
0.0
220
0.0
230
1.0
 70
               9
 71
               2
 72
              17
 73
              14
 74
               0
 42
0.000001
 43
0.000001
 40
0.0
 40
0.0
 40
0.0
 40
1.0
 40
2.0
 40
3.0
 40
4.0
 40
5.0
 40
6.0
 40
7.0
 40
8.0
 40
9.0
 40
10.0
 40
11.0
 40
12.0
 40
12.0
 40
12.0
 10
-829.35624683746528
 20
353.72064563653316
 30
0.0
 10
-829.35624683746528
 20
354.21009949470732
 30
0.0
 10
-829.8921452223276
 20
355.05785844502566
 30
0.0
 10
-830.82034845260307
 20
355.54731230319982
 30
0.0
 10
-831.8921452223276
 20
355.54731230319982
 30
0.0
 10
-832.82034845260307
 20
355.05785844502566
 30
0.0
 10
-833.35624683746528
 20
354.21009949470732
 30
0.0
 10
-833.35624683746528
 20
353.23119177835895
 30
0.0
 10
-832.82034845260307
 20
352.38343282804067
 30
0.0
 10
-831.8921452223276
 20
351.89397896986651
 30
0.0
 10
-830.82034845260307
 20
351.89397896986651
 30
0.0
 10
-829.8921452223276
 20
352.38343282804067
 30
0.0
 10
-829.35624683746528
 20
353.23119177835895
 30
0.0
 10
-829.35624683746528
 20
353.72064563653316
 30
0.0
  0
SPLINE
  5
24C
100
AcDbEntity
  8
一般
370
              15
  6
Continuous
 62
               7
100
AcDbSpline
210
0.0
220
0.0
230
1.0
 70
               9
 71
               2
 72
              17
 73
              14
 74
               0
 42
0.000001
 43
0.000001
 40
0.0
 40
0.0
 40
0.0
 40
1.0
 40
2.0
 40
3.0
 40
4.0
 40
5.0
 40
6.0
 40
7.0
 40
8.0
 40
9.0
 40
10.0
 40
11.0
 40
12.0
 40
12.0
 40
12.0
 10
-810.22294807930552
 20
345.5335967513887
 30
0.0
 10
-810.22294807930552
 20
345.77832368047575
 30
0.0
 10
-810.49089727173669
 20
346.20220315563495
 30
0.0
 10
-810.95499888687436
 20
346.446930084722
 30
0.0
 10
-811.49089727173669
 20
346.446930084722
 30
0.0
 10
-811.95499888687436
 20
346.20220315563495
 30
0.0
 10
-812.22294807930552
 20
345.77832368047575
 30
0.0
 10
-812.22294807930552
 20
345.28886982230159
 30
0.0
 10
-811.95499888687436
 20
344.86499034714245
 30
0.0
 10
-811.49089727173669
 20
344.62026341805534
 30
0.0
 10
-810.95499888687436
 20
344.62026341805534
 30
0.0
 10
-810.49089727173669
 20
344.86499034714245
 30
0.0
 10
-810.22294807930552
 20
345.28886982230159
 30
0.0
 10
-810.22294807930552
 20
345.5335967513887
 30
0.0
  0
SPLINE
  5
24D
100
AcDbEntity
  8
一般
370
              15
  6
Continuous
 62
               7
100
AcDbSpline
210
0.0
220
0.0
230
1.0
 70
               9
 71
               2
 72
              17
 73
              14
 74
               0
 42
0.000001
 43
0.000001
 40
0.0
 40
0.0
 40
0.0
 40
1.0
 40
2.0
 40
3.0
 40
4.0
 40
5.0
 40
6.0
 40
7.0
 40
8.0
 40
9.0
 40
10.0
 40
11.0
 40
12.0
 40
12.0
 40
12.0
 10
-810.72294807930552
 20
345.5335967513887
 30
0.0
 10
-810.72294807930552
 20
345.65596021593223
 30
0.0
 10
-810.8569226755211
 20
345.86789995351182
 30
0.0
 10
-811.08897348308994
 20
345.99026341805535
 30
0.0
 10
-811.3569226755211
 20
345.99026341805535
 30
0.0
 10
-811.58897348308994
 20
345.86789995351182
 30
0.0
 10
-811.72294807930552
 20
345.65596021593223
 30
0.0
 10
-811.72294807930552
 20
345.41123328684512
 30
0.0
 10
-811.58897348308994
 20
345.19929354926558
 30
0.0
 10
-811.3569226755211
 20
345.07693008472199
 30
0.0
 10
-811.08897348308994
 20
345.07693008472199
 30
0.0
 10
-810.8569226755211
 20
345.19929354926558
 30
0.0
 10
-810.72294807930552
 20
345.41123328684512
 30
0.0
 10
-810.72294807930552
 20
345.5335967513887
 30
0.0
  0
SPLINE
  5
24E
100
AcDbEntity
  8
一般
370
               5
  6
Continuous
 62
               7
100
AcDbSpline
210
0.0
220
0.0
230
1.0
 70
               9
 71
               2
 72
              17
 73
              14
 74
               0
 42
0.000001
 43
0.000001
 40
0.0
 40
0.0
 40
0.0
 40
1.0
 40
2.0
 40
3.0
 40
4.0
 40
5.0
 40
6.0
 40
7.0
 40
8.0
 40
9.0
 40
10.0
 40
11.0
 40
12.0
 40
12.0
 40
12.0
 10
-809.22294807930552
 20
345.5335967513887
 30
0.0
 10
-809.22294807930552
 20
346.02305060956286
 30
0.0
 10
-809.75884646416773
 20
346.87080955988114
 30
0.0
 10
-810.68704969444332
 20
347.36026341805535
 30
0.0
 10
-811.75884646416773
 20
347.36026341805535
 30
0.0
 10
-812.68704969444332
 20
346.8708095598812
 30
0.0
 10
-813.22294807930552
 20
346.02305060956286
 30
0.0
 10
-813.22294807930552
 20
345.04414289321448
 30
0.0
 10
-812.68704969444332
 20
344.1963839428962
 30
0.0
 10
-811.75884646416773
 20
343.70693008472199
 30
0.0
 10
-810.68704969444332
 20
343.70693008472199
 30
0.0
 10
-809.75884646416773
 20
344.1963839428962
 30
0.0
 10
-809.22294807930552
 20
345.04414289321448
 30
0.0
 10
-809.22294807930552
 20
345.5335967513887
 30
0.0
  0
SPLINE
  5
24F
100
AcDbEntity
  8
一般
370
              15
  6
Continuous
 62
               7
100
AcDbSpline
210
0.0
220
0.0
230
1.0
 70
               9
 71
               2
 72
              17
 73
              14
 74
               0
 42
0.000001
 43
0.000001
 40
0.0
 40
0.0
 40
0.0
 40
1.0
 40
2.0
 40
3.0
 40
4.0
 40
5.0
 40
6.0
 40
7.0
 40
8.0
 40
9.0
 40
10.0
 40
11.0
 40
12.0
 40
12.0
 40
12.0
 10
-799.20362846596424
 20
347.67283228730082
 30
0.0
 10
-799.20362846596424
 20
347.91755921638787
 30
0.0
 10
-799.4715776583954
 20
348.34143869154701
 30
0.0
 10
-799.93567927353308
 20
348.58616562063412
 30
0.0
 10
-800.4715776583954
 20
348.58616562063412
 30
0.0
 10
-800.93567927353308
 20
348.34143869154701
 30
0.0
 10
-801.20362846596424
 20
347.91755921638787
 30
0.0
 10
-801.20362846596424
 20
347.42810535821371
 30
0.0
 10
-800.93567927353308
 20
347.00422588305457
 30
0.0
 10
-800.4715776583954
 20
346.75949895396747
 30
0.0
 10
-799.93567927353308
 20
346.75949895396747
 30
0.0
 10
-799.4715776583954
 20
347.00422588305457
 30
0.0
 10
-799.20362846596424
 20
347.42810535821371
 30
0.0
 10
-799.20362846596424
 20
347.67283228730082
 30
0.0
  0
SPLINE
  5
250
100
AcDbEntity
  8
一般
370
              15
  6
Continuous
 62
               7
100
AcDbSpline
210
0.0
220
0.0
230
1.0
 70
               9
 71
               2
 72
              17
 73
              14
 74
               0
 42
0.000001
 43
0.000001
 40
0.0
 40
0.0
 40
0.0
 40
1.0
 40
2.0
 40
3.0
 40
4.0
 40
5.0
 40
6.0
 40
7.0
 40
8.0
 40
9.0
 40
10.0
 40
11.0
 40
12.0
 40
12.0
 40
12.0
 10
-799.70362846596424
 20
347.67283228730082
 30
0.0
 10
-799.70362846596424
 20
347.79519575184435
 30
0.0
 10
-799.83760306217982
 20
348.00713548942389
 30
0.0
 10
-800.06965386974866
 20
348.12949895396747
 30
0.0
 10
-800.33760306217982
 20
348.12949895396747
 30
0.0
 10
-800.56965386974866
 20
348.00713548942389
 30
0.0
 10
-800.70362846596424
 20
347.79519575184435
 30
0.0
 10
-800.70362846596424
 20
347.55046882275724
 30
0.0
 10
-800.56965386974866
 20
347.3385290851777
 30
0.0
 10
-800.33760306217982
 20
347.21616562063411
 30
0.0
 10
-800.06965386974866
 20
347.21616562063411
 30
0.0
 10
-799.83760306217982
 20
347.3385290851777
 30
0.0
 10
-799.70362846596424
 20
347.55046882275724
 30
0.0
 10
-799.70362846596424
 20
347.67283228730082
 30
0.0
  0
SPLINE
  5
251
100
AcDbEntity
  8
一般
370
               5
  6
Continuous
 62
               7
100
AcDbSpline
210
0.0
220
0.0
230
1.0
 70
               9
 71
               2
 72
              17
 73
              14
 74
               0
 42
0.000001
 43
0.000001
 40
0.0
 40
0.0
 40
0.0
 40
1.0
 40
2.0
 40
3.0
 40
4.0
 40
5.0
 40
6.0
 40
7.0
 40
8.0
 40
9.0
 40
10.0
 40
11.0
 40
12.0
 40
12.0
 40
12.0
 10
-798.20362846596424
 20
347.67283228730082
 30
0.0
 10
-798.20362846596424
 20
348.16228614547498
 30
0.0
 10
-798.73952685082645
 20
349.01004509579326
 30
0.0
 10
-799.66773008110204
 20
349.49949895396747
 30
0.0
 10
-800.73952685082645
 20
349.49949895396747
 30
0.0
 10
-801.66773008110204
 20
349.01004509579326
 30
0.0
 10
-802.20362846596424
 20
348.16228614547498
 30
0.0
 10
-802.20362846596424
 20
347.18337842912661
 30
0.0
 10
-801.66773008110204
 20
346.33561947880833
 30
0.0
 10
-800.73952685082656
 20
345.84616562063411
 30
0.0
 10
-799.66773008110204
 20
345.84616562063411
 30
0.0
 10
-798.73952685082656
 20
346.33561947880833
 30
0.0
 10
-798.20362846596424
 20
347.18337842912661
 30
0.0
 10
-798.20362846596424
 20
347.67283228730082
 30
0.0
  0
SPLINE
  5
252
100
AcDbEntity
  8
一般
370
              15
  6
Continuous
 62
               7
100
AcDbSpline
210
0.0
220
0.0
230
1.0
 70
               9
 71
               2
 72
              17
 73
              14
 74
               0
 42
0.000001
 43
0.000001
 40
0.0
 40
0.0
 40
0.0
 40
1.0
 40
2.0
 40
3.0
 40
4.0
 40
5.0
 40
6.0
 40
7.0
 40
8.0
 40
9.0
 40
10.0
 40
11.0
 40
12.0
 40
12.0
 40
12.0
 10
-816.30622891374753
 20
338.76764694910537
 30
0.0
 10
-816.30622891374753
 20
339.01237387819242
 30
0.0
 10
-816.57417810617869
 20
339.43625335335156
 30
0.0
 10
-817.03827972131637
 20
339.68098028243867
 30
0.0
 10
-817.57417810617869
 20
339.68098028243867
 30
0.0
 10
-818.03827972131637
 20
339.43625335335156
 30
0.0
 10
-818.30622891374753
 20
339.01237387819242
 30
0.0
 10
-818.30622891374753
 20
338.52292002001826
 30
0.0
 10
-818.03827972131637
 20
338.09904054485912
 30
0.0
 10
-817.57417810617869
 20
337.85431361577201
 30
0.0
 10
-817.03827972131637
 20
337.85431361577201
 30
0.0
 10
-816.57417810617869
 20
338.09904054485912
 30
0.0
 10
-816.30622891374753
 20
338.52292002001826
 30
0.0
 10
-816.30622891374753
 20
338.76764694910537
 30
0.0
  0
SPLINE
  5
253
100
AcDbEntity
  8
一般
370
              15
  6
Continuous
 62
               7
100
AcDbSpline
210
0.0
220
0.0
230
1.0
 70
               9
 71
               2
 72
              17
 73
              14
 74
               0
 42
0.000001
 43
0.000001
 40
0.0
 40
0.0
 40
0.0
 40
1.0
 40
2.0
 40
3.0
 40
4.0
 40
5.0
 40
6.0
 40
7.0
 40
8.0
 40
9.0
 40
10.0
 40
11.0
 40
12.0
 40
12.0
 40
12.0
 10
-816.80622891374753
 20
338.76764694910537
 30
0.0
 10
-816.80622891374753
 20
338.89001041364889
 30
0.0
 10
-816.94020350996311
 20
339.10195015122844
 30
0.0
 10
-817.17225431753195
 20
339.22431361577202
 30
0.0
 10
-817.44020350996311
 20
339.22431361577202
 30
0.0
 10
-817.67225431753195
 20
339.10195015122844
 30
0.0
 10
-817.80622891374753
 20
338.89001041364889
 30
0.0
 10
-817.80622891374753
 20
338.64528348456179
 30
0.0
 10
-817.67225431753195
 20
338.43334374698225
 30
0.0
 10
-817.44020350996311
 20
338.31098028243866
 30
0.0
 10
-817.17225431753195
 20
338.31098028243866
 30
0.0
 10
-816.94020350996311
 20
338.43334374698219
 30
0.0
 10
-816.80622891374753
 20
338.64528348456179
 30
0.0
 10
-816.80622891374753
 20
338.76764694910537
 30
0.0
  0
SPLINE
  5
254
100
AcDbEntity
  8
一般
370
               5
  6
Continuous
 62
               7
100
AcDbSpline
210
0.0
220
0.0
230
1.0
 70
               9
 71
               2
 72
              17
 73
              14
 74
               0
 42
0.000001
 43
0.000001
 40
0.0
 40
0.0
 40
0.0
 40
1.0
 40
2.0
 40
3.0
 40
4.0
 40
5.0
 40
6.0
 40
7.0
 40
8.0
 40
9.0
 40
10.0
 40
11.0
 40
12.0
 40
12.0
 40
12.0
 10
-815.30622891374753
 20
338.76764694910537
 30
0.0
 10
-815.30622891374753
 20
339.25710080727953
 30
0.0
 10
-815.84212729860974
 20
340.10485975759781
 30
0.0
 10
-816.77033052888532
 20
340.59431361577202
 30
0.0
 10
-817.84212729860974
 20
340.59431361577202
 30
0.0
 10
-818.77033052888532
 20
340.10485975759781
 30
0.0
 10
-819.30622891374753
 20
339.25710080727953
 30
0.0
 10
-819.30622891374753
 20
338.27819309093115
 30
0.0
 10
-818.77033052888532
 20
337.43043414061287
 30
0.0
 10
-817.84212729860985
 20
336.94098028243866
 30
0.0
 10
-816.77033052888532
 20
336.94098028243866
 30
0.0
 10
-815.84212729860985
 20
337.43043414061287
 30
0.0
 10
-815.30622891374753
 20
338.27819309093115
 30
0.0
 10
-815.30622891374753
 20
338.76764694910537
 30
0.0
  0
SPLINE
  5
255
100
AcDbEntity
  8
一般
370
              15
  6
Continuous
 62
               7
100
AcDbSpline
210
0.0
220
0.0
230
1.0
 70
               9
 71
               2
 72
              17
 73
              14
 74
               0
 42
0.000001
 43
0.000001
 40
0.0
 40
0.0
 40
0.0
 40
1.0
 40
2.0
 40
3.0
 40
4.0
 40
5.0
 40
6.0
 40
7.0
 40
8.0
 40
9.0
 40
10.0
 40
11.0
 40
12.0
 40
12.0
 40
12.0
 10
-804.13966724486352
 20
338.76764694910537
 30
0.0
 10
-804.13966724486352
 20
339.01237387819242
 30
0.0
 10
-804.40761643729468
 20
339.43625335335156
 30
0.0
 10
-804.87171805243236
 20
339.68098028243867
 30
0.0
 10
-805.40761643729468
 20
339.68098028243867
 30
0.0
 10
-805.87171805243236
 20
339.43625335335156
 30
0.0
 10
-806.13966724486352
 20
339.01237387819242
 30
0.0
 10
-806.13966724486352
 20
338.52292002001826
 30
0.0
 10
-805.87171805243236
 20
338.09904054485912
 30
0.0
 10
-805.40761643729468
 20
337.85431361577201
 30
0.0
 10
-804.87171805243236
 20
337.85431361577201
 30
0.0
 10
-804.40761643729468
 20
338.09904054485912
 30
0.0
 10
-804.13966724486352
 20
338.52292002001826
 30
0.0
 10
-804.13966724486352
 20
338.76764694910537
 30
0.0
  0
SPLINE
  5
256
100
AcDbEntity
  8
一般
370
              15
  6
Continuous
 62
               7
100
AcDbSpline
210
0.0
220
0.0
230
1.0
 70
               9
 71
               2
 72
              17
 73
              14
 74
               0
 42
0.000001
 43
0.000001
 40
0.0
 40
0.0
 40
0.0
 40
1.0
 40
2.0
 40
3.0
 40
4.0
 40
5.0
 40
6.0
 40
7.0
 40
8.0
 40
9.0
 40
10.0
 40
11.0
 40
12.0
 40
12.0
 40
12.0
 10
-804.63966724486352
 20
338.76764694910537
 30
0.0
 10
-804.63966724486352
 20
338.89001041364889
 30
0.0
 10
-804.7736418410791
 20
339.10195015122844
 30
0.0
 10
-805.00569264864794
 20
339.22431361577202
 30
0.0
 10
-805.2736418410791
 20
339.22431361577202
 30
0.0
 10
-805.50569264864794
 20
339.10195015122844
 30
0.0
 10
-805.63966724486352
 20
338.89001041364889
 30
0.0
 10
-805.63966724486352
 20
338.64528348456179
 30
0.0
 10
-805.50569264864794
 20
338.43334374698225
 30
0.0
 10
-805.2736418410791
 20
338.31098028243866
 30
0.0
 10
-805.00569264864794
 20
338.31098028243866
 30
0.0
 10
-804.7736418410791
 20
338.43334374698219
 30
0.0
 10
-804.63966724486352
 20
338.64528348456179
 30
0.0
 10
-804.63966724486352
 20
338.76764694910537
 30
0.0
  0
SPLINE
  5
257
100
AcDbEntity
  8
一般
370
               5
  6
Continuous
 62
               7
100
AcDbSpline
210
0.0
220
0.0
230
1.0
 70
               9
 71
               2
 72
              17
 73
              14
 74
               0
 42
0.000001
 43
0.000001
 40
0.0
 40
0.0
 40
0.0
 40
1.0
 40
2.0
 40
3.0
 40
4.0
 40
5.0
 40
6.0
 40
7.0
 40
8.0
 40
9.0
 40
10.0
 40
11.0
 40
12.0
 40
12.0
 40
12.0
 10
-803.13966724486352
 20
338.76764694910537
 30
0.0
 10
-803.13966724486352
 20
339.25710080727953
 30
0.0
 10
-803.67556562972572
 20
340.10485975759781
 30
0.0
 10
-804.60376886000131
 20
340.59431361577202
 30
0.0
 10
-805.67556562972572
 20
340.59431361577202
 30
0.0
 10
-806.60376886000131
 20
340.10485975759781
 30
0.0
 10
-807.13966724486352
 20
339.25710080727953
 30
0.0
 10
-807.13966724486352
 20
338.27819309093115
 30
0.0
 10
-806.60376886000131
 20
337.43043414061287
 30
0.0
 10
-805.67556562972572
 20
336.94098028243866
 30
0.0
 10
-804.60376886000131
 20
336.94098028243866
 30
0.0
 10
-803.67556562972572
 20
337.43043414061287
 30
0.0
 10
-803.13966724486352
 20
338.27819309093115
 30
0.0
 10
-803.13966724486352
 20
338.76764694910537
 30
0.0
  0
SPLINE
  5
258
100
AcDbEntity
  8
一般
370
              15
  6
Continuous
 62
               7
100
AcDbSpline
210
0.0
220
0.0
230
1.0
 70
               9
 71
               2
 72
              17
 73
              14
 74
               0
 42
0.000001
 43
0.000001
 40
0.0
 40
0.0
 40
0.0
 40
1.0
 40
2.0
 40
3.0
 40
4.0
 40
5.0
 40
6.0
 40
7.0
 40
8.0
 40
9.0
 40
10.0
 40
11.0
 40
12.0
 40
12.0
 40
12.0
 10
-827.73905713433464
 20
342.56821798717738
 30
0.0
 10
-827.73905713433464
 20
342.81294491626448
 30
0.0
 10
-828.0070063267658
 20
343.23682439142362
 30
0.0
 10
-828.47110794190348
 20
343.48155132051073
 30
0.0
 10
-829.0070063267658
 20
343.48155132051073
 30
0.0
 10
-829.47110794190348
 20
343.23682439142362
 30
0.0
 10
-829.73905713433464
 20
342.81294491626448
 30
0.0
 10
-829.73905713433464
 20
342.32349105809033
 30
0.0
 10
-829.47110794190348
 20
341.89961158293119
 30
0.0
 10
-829.0070063267658
 20
341.65488465384408
 30
0.0
 10
-828.47110794190348
 20
341.65488465384408
 30
0.0
 10
-828.0070063267658
 20
341.89961158293113
 30
0.0
 10
-827.73905713433464
 20
342.32349105809033
 30
0.0
 10
-827.73905713433464
 20
342.56821798717738
 30
0.0
  0
SPLINE
  5
259
100
AcDbEntity
  8
一般
370
              15
  6
Continuous
 62
               7
100
AcDbSpline
210
0.0
220
0.0
230
1.0
 70
               9
 71
               2
 72
              17
 73
              14
 74
               0
 42
0.000001
 43
0.000001
 40
0.0
 40
0.0
 40
0.0
 40
1.0
 40
2.0
 40
3.0
 40
4.0
 40
5.0
 40
6.0
 40
7.0
 40
8.0
 40
9.0
 40
10.0
 40
11.0
 40
12.0
 40
12.0
 40
12.0
 10
-828.23905713433464
 20
342.56821798717738
 30
0.0
 10
-828.23905713433464
 20
342.69058145172096
 30
0.0
 10
-828.37303173055022
 20
342.9025211893005
 30
0.0
 10
-828.60508253811906
 20
343.02488465384408
 30
0.0
 10
-828.87303173055022
 20
343.02488465384408
 30
0.0
 10
-829.10508253811906
 20
342.9025211893005
 30
0.0
 10
-829.23905713433464
 20
342.69058145172096
 30
0.0
 10
-829.23905713433464
 20
342.44585452263385
 30
0.0
 10
-829.10508253811906
 20
342.23391478505431
 30
0.0
 10
-828.87303173055022
 20
342.11155132051073
 30
0.0
 10
-828.60508253811906
 20
342.11155132051073
 30
0.0
 10
-828.37303173055022
 20
342.23391478505425
 30
0.0
 10
-828.23905713433464
 20
342.44585452263385
 30
0.0
 10
-828.23905713433464
 20
342.56821798717738
 30
0.0
  0
SPLINE
  5
25A
100
AcDbEntity
  8
一般
370
               5
  6
Continuous
 62
               7
100
AcDbSpline
210
0.0
220
0.0
230
1.0
 70
               9
 71
               2
 72
              17
 73
              14
 74
               0
 42
0.000001
 43
0.000001
 40
0.0
 40
0.0
 40
0.0
 40
1.0
 40
2.0
 40
3.0
 40
4.0
 40
5.0
 40
6.0
 40
7.0
 40
8.0
 40
9.0
 40
10.0
 40
11.0
 40
12.0
 40
12.0
 40
12.0
 10
-826.73905713433464
 20
342.56821798717738
 30
0.0
 10
-826.73905713433464
 20
343.05767184535159
 30
0.0
 10
-827.27495551919685
 20
343.90543079566987
 30
0.0
 10
-828.20315874947244
 20
344.39488465384409
 30
0.0
 10
-829.27495551919685
 20
344.39488465384409
 30
0.0
 10
-830.20315874947244
 20
343.90543079566987
 30
0.0
 10
-830.73905713433464
 20
343.05767184535159
 30
0.0
 10
-830.73905713433464
 20
342.07876412900322
 30
0.0
 10
-830.20315874947244
 20
341.23100517868494
 30
0.0
 10
-829.27495551919685
 20
340.74155132051072
 30
0.0
 10
-828.20315874947244
 20
340.74155132051072
 30
0.0
 10
-827.27495551919685
 20
341.23100517868494
 30
0.0
 10
-826.73905713433464
 20
342.07876412900322
 30
0.0
 10
-826.73905713433464
 20
342.56821798717738
 30
0.0
  0
SPLINE
  5
25B
100
AcDbEntity
  8
一般
370
              15
  6
Continuous
 62
               7
100
AcDbSpline
210
0.0
220
0.0
230
1.0
 70
               9
 71
               2
 72
              17
 73
              14
 74
               0
 42
0.000001
 43
0.000001
 40
0.0
 40
0.0
 40
0.0
 40
1.0
 40
2.0
 40
3.0
 40
4.0
 40
5.0
 40
6.0
 40
7.0
 40
8.0
 40
9.0
 40
10.0
 40
11.0
 40
12.0
 40
12.0
 40
12.0
 10
-837.05918409264757
 20
349.71095510567534
 30
0.0
 10
-837.05918409264757
 20
349.95568203476239
 30
0.0
 10
-837.32713328507873
 20
350.37956150992159
 30
0.0
 10
-837.79123490021652
 20
350.62428843900864
 30
0.0
 10
-838.32713328507873
 20
350.62428843900864
 30
0.0
 10
-838.79123490021652
 20
350.37956150992159
 30
0.0
 10
-839.05918409264757
 20
349.95568203476239
 30
0.0
 10
-839.05918409264757
 20
349.46622817658823
 30
0.0
 10
-838.79123490021652
 20
349.04234870142909
 30
0.0
 10
-838.32713328507873
 20
348.79762177234198
 30
0.0
 10
-837.79123490021652
 20
348.79762177234198
 30
0.0
 10
-837.32713328507873
 20
349.04234870142909
 30
0.0
 10
-837.05918409264757
 20
349.46622817658823
 30
0.0
 10
-837.05918409264757
 20
349.71095510567534
 30
0.0
  0
SPLINE
  5
25C
100
AcDbEntity
  8
一般
370
              15
  6
Continuous
 62
               7
100
AcDbSpline
210
0.0
220
0.0
230
1.0
 70
               9
 71
               2
 72
              17
 73
              14
 74
               0
 42
0.000001
 43
0.000001
 40
0.0
 40
0.0
 40
0.0
 40
1.0
 40
2.0
 40
3.0
 40
4.0
 40
5.0
 40
6.0
 40
7.0
 40
8.0
 40
9.0
 40
10.0
 40
11.0
 40
12.0
 40
12.0
 40
12.0
 10
-837.55918409264757
 20
349.71095510567534
 30
0.0
 10
-837.55918409264757
 20
349.83331857021886
 30
0.0
 10
-837.69315868886315
 20
350.04525830779846
 30
0.0
 10
-837.9252094964321
 20
350.16762177234199
 30
0.0
 10
-838.19315868886315
 20
350.16762177234199
 30
0.0
 10
-838.4252094964321
 20
350.04525830779846
 30
0.0
 10
-838.55918409264757
 20
349.83331857021886
 30
0.0
 10
-838.55918409264757
 20
349.58859164113176
 30
0.0
 10
-838.4252094964321
 20
349.37665190355222
 30
0.0
 10
-838.19315868886315
 20
349.25428843900863
 30
0.0
 10
-837.9252094964321
 20
349.25428843900863
 30
0.0
 10
-837.69315868886315
 20
349.37665190355222
 30
0.0
 10
-837.55918409264757
 20
349.58859164113176
 30
0.0
 10
-837.55918409264757
 20
349.71095510567534
 30
0.0
  0
SPLINE
  5
25D
100
AcDbEntity
  8
一般
370
               5
  6
Continuous
 62
               7
100
AcDbSpline
210
0.0
220
0.0
230
1.0
 70
               9
 71
               2
 72
              17
 73
              14
 74
               0
 42
0.000001
 43
0.000001
 40
0.0
 40
0.0
 40
0.0
 40
1.0
 40
2.0
 40
3.0
 40
4.0
 40
5.0
 40
6.0
 40
7.0
 40
8.0
 40
9.0
 40
10.0
 40
11.0
 40
12.0
 40
12.0
 40
12.0
 10
-836.05918409264757
 20
349.71095510567534
 30
0.0
 10
-836.05918409264757
 20
350.2004089638495
 30
0.0
 10
-836.59508247750989
 20
351.04816791416778
 30
0.0
 10
-837.52328570778536
 20
351.53762177234199
 30
0.0
 10
-838.59508247750989
 20
351.53762177234199
 30
0.0
 10
-839.52328570778536
 20
351.04816791416778
 30
0.0
 10
-840.05918409264757
 20
350.2004089638495
 30
0.0
 10
-840.05918409264757
 20
349.22150124750112
 30
0.0
 10
-839.52328570778536
 20
348.37374229718284
 30
0.0
 10
-838.59508247750989
 20
347.88428843900863
 30
0.0
 10
-837.52328570778536
 20
347.88428843900863
 30
0.0
 10
-836.59508247750989
 20
348.37374229718284
 30
0.0
 10
-836.05918409264757
 20
349.22150124750112
 30
0.0
 10
-836.05918409264757
 20
349.71095510567534
 30
0.0
  0
SPLINE
  5
25E
100
AcDbEntity
  8
一般
370
              15
  6
Continuous
 62
               7
100
AcDbSpline
210
0.0
220
0.0
230
1.0
 70
               9
 71
               2
 72
              17
 73
              14
 74
               0
 42
0.000001
 43
0.000001
 40
0.0
 40
0.0
 40
0.0
 40
1.0
 40
2.0
 40
3.0
 40
4.0
 40
5.0
 40
6.0
 40
7.0
 40
8.0
 40
9.0
 40
10.0
 40
11.0
 40
12.0
 40
12.0
 40
12.0
 10
-845.25516618936365
 20
370.2776469491053
 30
0.0
 10
-845.25516618936365
 20
370.52237387819241
 30
0.0
 10
-845.52311538179481
 20
370.94625335335155
 30
0.0
 10
-845.98721699693249
 20
371.1909802824386
 30
0.0
 10
-846.52311538179481
 20
371.1909802824386
 30
0.0
 10
-846.98721699693249
 20
370.94625335335155
 30
0.0
 10
-847.25516618936365
 20
370.52237387819241
 30
0.0
 10
-847.25516618936365
 20
370.0329200200182
 30
0.0
 10
-846.98721699693249
 20
369.60904054485906
 30
0.0
 10
-846.52311538179481
 20
369.36431361577195
 30
0.0
 10
-845.98721699693249
 20
369.36431361577195
 30
0.0
 10
-845.52311538179481
 20
369.60904054485906
 30
0.0
 10
-845.25516618936365
 20
370.0329200200182
 30
0.0
 10
-845.25516618936365
 20
370.2776469491053
 30
0.0
  0
SPLINE
  5
25F
100
AcDbEntity
  8
一般
370
              15
  6
Continuous
 62
               7
100
AcDbSpline
210
0.0
220
0.0
230
1.0
 70
               9
 71
               2
 72
              17
 73
              14
 74
               0
 42
0.000001
 43
0.000001
 40
0.0
 40
0.0
 40
0.0
 40
1.0
 40
2.0
 40
3.0
 40
4.0
 40
5.0
 40
6.0
 40
7.0
 40
8.0
 40
9.0
 40
10.0
 40
11.0
 40
12.0
 40
12.0
 40
12.0
 10
-845.75516618936365
 20
370.27764694910525
 30
0.0
 10
-845.75516618936365
 20
370.40001041364883
 30
0.0
 10
-845.88914078557923
 20
370.61195015122843
 30
0.0
 10
-846.12119159314807
 20
370.73431361577195
 30
0.0
 10
-846.38914078557923
 20
370.73431361577195
 30
0.0
 10
-846.62119159314807
 20
370.61195015122843
 30
0.0
 10
-846.75516618936365
 20
370.40001041364883
 30
0.0
 10
-846.75516618936365
 20
370.15528348456172
 30
0.0
 10
-846.62119159314807
 20
369.94334374698218
 30
0.0
 10
-846.38914078557923
 20
369.82098028243865
 30
0.0
 10
-846.12119159314807
 20
369.82098028243865
 30
0.0
 10
-845.88914078557923
 20
369.94334374698218
 30
0.0
 10
-845.75516618936365
 20
370.15528348456172
 30
0.0
 10
-845.75516618936365
 20
370.27764694910525
 30
0.0
  0
SPLINE
  5
260
100
AcDbEntity
  8
一般
370
               5
  6
Continuous
 62
               7
100
AcDbSpline
210
0.0
220
0.0
230
1.0
 70
               9
 71
               2
 72
              17
 73
              14
 74
               0
 42
0.000001
 43
0.000001
 40
0.0
 40
0.0
 40
0.0
 40
1.0
 40
2.0
 40
3.0
 40
4.0
 40
5.0
 40
6.0
 40
7.0
 40
8.0
 40
9.0
 40
10.0
 40
11.0
 40
12.0
 40
12.0
 40
12.0
 10
-844.25516618936365
 20
370.27764694910525
 30
0.0
 10
-844.25516618936365
 20
370.76710080727946
 30
0.0
 10
-844.79106457422586
 20
371.6148597575978
 30
0.0
 10
-845.71926780450144
 20
372.10431361577196
 30
0.0
 10
-846.79106457422586
 20
372.10431361577196
 30
0.0
 10
-847.71926780450144
 20
371.6148597575978
 30
0.0
 10
-848.25516618936365
 20
370.76710080727946
 30
0.0
 10
-848.25516618936365
 20
369.78819309093109
 30
0.0
 10
-847.71926780450144
 20
368.94043414061281
 30
0.0
 10
-846.79106457422597
 20
368.45098028243865
 30
0.0
 10
-845.71926780450144
 20
368.45098028243865
 30
0.0
 10
-844.79106457422597
 20
368.94043414061281
 30
0.0
 10
-844.25516618936365
 20
369.78819309093109
 30
0.0
 10
-844.25516618936365
 20
370.27764694910525
 30
0.0
  0
SPLINE
  5
261
100
AcDbEntity
  8
一般
370
              15
  6
Continuous
 62
               7
100
AcDbSpline
210
0.0
220
0.0
230
1.0
 70
               9
 71
               2
 72
              17
 73
              14
 74
               0
 42
0.000001
 43
0.000001
 40
0.0
 40
0.0
 40
0.0
 40
1.0
 40
2.0
 40
3.0
 40
4.0
 40
5.0
 40
6.0
 40
7.0
 40
8.0
 40
9.0
 40
10.0
 40
11.0
 40
12.0
 40
12.0
 40
12.0
 10
-843.14246492708958
 20
359.33433879253539
 30
0.0
 10
-843.14246492708958
 20
359.57906572162244
 30
0.0
 10
-843.41041411952074
 20
360.00294519678158
 30
0.0
 10
-843.87451573465853
 20
360.24767212586869
 30
0.0
 10
-844.41041411952074
 20
360.24767212586869
 30
0.0
 10
-844.87451573465853
 20
360.00294519678158
 30
0.0
 10
-845.14246492708958
 20
359.57906572162244
 30
0.0
 10
-845.14246492708958
 20
359.08961186344828
 30
0.0
 10
-844.87451573465853
 20
358.66573238828914
 30
0.0
 10
-844.41041411952074
 20
358.42100545920204
 30
0.0
 10
-843.87451573465853
 20
358.42100545920204
 30
0.0
 10
-843.41041411952074
 20
358.66573238828914
 30
0.0
 10
-843.14246492708958
 20
359.08961186344828
 30
0.0
 10
-843.14246492708958
 20
359.33433879253539
 30
0.0
  0
SPLINE
  5
262
100
AcDbEntity
  8
一般
370
              15
  6
Continuous
 62
               7
100
AcDbSpline
210
0.0
220
0.0
230
1.0
 70
               9
 71
               2
 72
              17
 73
              14
 74
               0
 42
0.000001
 43
0.000001
 40
0.0
 40
0.0
 40
0.0
 40
1.0
 40
2.0
 40
3.0
 40
4.0
 40
5.0
 40
6.0
 40
7.0
 40
8.0
 40
9.0
 40
10.0
 40
11.0
 40
12.0
 40
12.0
 40
12.0
 10
-843.64246492708958
 20
359.33433879253539
 30
0.0
 10
-843.64246492708958
 20
359.45670225707892
 30
0.0
 10
-843.77643952330516
 20
359.66864199465851
 30
0.0
 10
-844.00849033087411
 20
359.79100545920204
 30
0.0
 10
-844.27643952330516
 20
359.79100545920204
 30
0.0
 10
-844.50849033087411
 20
359.66864199465851
 30
0.0
 10
-844.64246492708958
 20
359.45670225707892
 30
0.0
 10
-844.64246492708958
 20
359.21197532799181
 30
0.0
 10
-844.50849033087411
 20
359.00003559041227
 30
0.0
 10
-844.27643952330516
 20
358.87767212586868
 30
0.0
 10
-844.00849033087411
 20
358.87767212586868
 30
0.0
 10
-843.77643952330516
 20
359.00003559041227
 30
0.0
 10
-843.64246492708958
 20
359.21197532799181
 30
0.0
 10
-843.64246492708958
 20
359.33433879253539
 30
0.0
  0
SPLINE
  5
263
100
AcDbEntity
  8
一般
370
               5
  6
Continuous
 62
               7
100
AcDbSpline
210
0.0
220
0.0
230
1.0
 70
               9
 71
               2
 72
              17
 73
              14
 74
               0
 42
0.000001
 43
0.000001
 40
0.0
 40
0.0
 40
0.0
 40
1.0
 40
2.0
 40
3.0
 40
4.0
 40
5.0
 40
6.0
 40
7.0
 40
8.0
 40
9.0
 40
10.0
 40
11.0
 40
12.0
 40
12.0
 40
12.0
 10
-842.14246492708958
 20
359.33433879253539
 30
0.0
 10
-842.14246492708958
 20
359.82379265070955
 30
0.0
 10
-842.6783633119519
 20
360.67155160102783
 30
0.0
 10
-843.60656654222737
 20
361.16100545920204
 30
0.0
 10
-844.6783633119519
 20
361.16100545920204
 30
0.0
 10
-845.60656654222737
 20
360.67155160102783
 30
0.0
 10
-846.14246492708958
 20
359.82379265070955
 30
0.0
 10
-846.14246492708958
 20
358.84488493436118
 30
0.0
 10
-845.60656654222737
 20
357.9971259840429
 30
0.0
 10
-844.6783633119519
 20
357.50767212586868
 30
0.0
 10
-843.60656654222737
 20
357.50767212586868
 30
0.0
 10
-842.6783633119519
 20
357.9971259840429
 30
0.0
 10
-842.14246492708958
 20
358.84488493436118
 30
0.0
 10
-842.14246492708958
 20
359.33433879253539
 30
0.0
  0
SPLINE
  5
264
100
AcDbEntity
  8
一般
370
              15
  6
Continuous
 62
               7
100
AcDbSpline
210
0.0
220
0.0
230
1.0
 70
               9
 71
               2
 72
              17
 73
              14
 74
               0
 42
0.000001
 43
0.000001
 40
0.0
 40
0.0
 40
0.0
 40
1.0
 40
2.0
 40
3.0
 40
4.0
 40
5.0
 40
6.0
 40
7.0
 40
8.0
 40
9.0
 40
10.0
 40
11.0
 40
12.0
 40
12.0
 40
12.0
 10
-792.70683902427641
 20
342.56821798717738
 30
0.0
 10
-792.70683902427641
 20
342.81294491626448
 30
0.0
 10
-792.97478821670757
 20
343.23682439142362
 30
0.0
 10
-793.43888983184536
 20
343.48155132051073
 30
0.0
 10
-793.97478821670757
 20
343.48155132051073
 30
0.0
 10
-794.43888983184536
 20
343.23682439142362
 30
0.0
 10
-794.70683902427641
 20
342.81294491626448
 30
0.0
 10
-794.70683902427641
 20
342.32349105809027
 30
0.0
 10
-794.43888983184536
 20
341.89961158293113
 30
0.0
 10
-793.97478821670757
 20
341.65488465384402
 30
0.0
 10
-793.43888983184536
 20
341.65488465384402
 30
0.0
 10
-792.97478821670757
 20
341.89961158293113
 30
0.0
 10
-792.70683902427641
 20
342.32349105809027
 30
0.0
 10
-792.70683902427641
 20
342.56821798717738
 30
0.0
  0
SPLINE
  5
265
100
AcDbEntity
  8
一般
370
              15
  6
Continuous
 62
               7
100
AcDbSpline
210
0.0
220
0.0
230
1.0
 70
               9
 71
               2
 72
              17
 73
              14
 74
               0
 42
0.000001
 43
0.000001
 40
0.0
 40
0.0
 40
0.0
 40
1.0
 40
2.0
 40
3.0
 40
4.0
 40
5.0
 40
6.0
 40
7.0
 40
8.0
 40
9.0
 40
10.0
 40
11.0
 40
12.0
 40
12.0
 40
12.0
 10
-793.20683902427641
 20
342.56821798717738
 30
0.0
 10
-793.20683902427641
 20
342.6905814517209
 30
0.0
 10
-793.34081362049199
 20
342.9025211893005
 30
0.0
 10
-793.57286442806094
 20
343.02488465384403
 30
0.0
 10
-793.84081362049199
 20
343.02488465384403
 30
0.0
 10
-794.07286442806094
 20
342.9025211893005
 30
0.0
 10
-794.20683902427641
 20
342.6905814517209
 30
0.0
 10
-794.20683902427641
 20
342.44585452263385
 30
0.0
 10
-794.07286442806094
 20
342.23391478505425
 30
0.0
 10
-793.84081362049199
 20
342.11155132051073
 30
0.0
 10
-793.57286442806094
 20
342.11155132051073
 30
0.0
 10
-793.34081362049199
 20
342.23391478505425
 30
0.0
 10
-793.20683902427641
 20
342.44585452263385
 30
0.0
 10
-793.20683902427641
 20
342.56821798717738
 30
0.0
  0
SPLINE
  5
266
100
AcDbEntity
  8
一般
370
               5
  6
Continuous
 62
               7
100
AcDbSpline
210
0.0
220
0.0
230
1.0
 70
               9
 71
               2
 72
              17
 73
              14
 74
               0
 42
0.000001
 43
0.000001
 40
0.0
 40
0.0
 40
0.0
 40
1.0
 40
2.0
 40
3.0
 40
4.0
 40
5.0
 40
6.0
 40
7.0
 40
8.0
 40
9.0
 40
10.0
 40
11.0
 40
12.0
 40
12.0
 40
12.0
 10
-791.70683902427641
 20
342.56821798717738
 30
0.0
 10
-791.70683902427641
 20
343.05767184535154
 30
0.0
 10
-792.24273740913873
 20
343.90543079566987
 30
0.0
 10
-793.1709406394142
 20
344.39488465384403
 30
0.0
 10
-794.24273740913873
 20
344.39488465384403
 30
0.0
 10
-795.1709406394142
 20
343.90543079566987
 30
0.0
 10
-795.70683902427641
 20
343.05767184535159
 30
0.0
 10
-795.70683902427641
 20
342.07876412900322
 30
0.0
 10
-795.1709406394142
 20
341.23100517868488
 30
0.0
 10
-794.24273740913873
 20
340.74155132051072
 30
0.0
 10
-793.1709406394142
 20
340.74155132051072
 30
0.0
 10
-792.24273740913873
 20
341.23100517868488
 30
0.0
 10
-791.70683902427641
 20
342.07876412900316
 30
0.0
 10
-791.70683902427641
 20
342.56821798717738
 30
0.0
  0
SPLINE
  5
267
100
AcDbEntity
  8
一般
370
              15
  6
Continuous
 62
               7
100
AcDbSpline
210
0.0
220
0.0
230
1.0
 70
               9
 71
               2
 72
              17
 73
              14
 74
               0
 42
0.000001
 43
0.000001
 40
0.0
 40
0.0
 40
0.0
 40
1.0
 40
2.0
 40
3.0
 40
4.0
 40
5.0
 40
6.0
 40
7.0
 40
8.0
 40
9.0
 40
10.0
 40
11.0
 40
12.0
 40
12.0
 40
12.0
 10
-783.38671206596348
 20
349.71095510567528
 30
0.0
 10
-783.38671206596348
 20
349.95568203476239
 30
0.0
 10
-783.65466125839464
 20
350.37956150992147
 30
0.0
 10
-784.11876287353232
 20
350.62428843900858
 30
0.0
 10
-784.65466125839464
 20
350.62428843900858
 30
0.0
 10
-785.11876287353232
 20
350.37956150992147
 30
0.0
 10
-785.38671206596348
 20
349.95568203476239
 30
0.0
 10
-785.38671206596348
 20
349.46622817658817
 30
0.0
 10
-785.11876287353232
 20
349.04234870142903
 30
0.0
 10
-784.65466125839464
 20
348.79762177234193
 30
0.0
 10
-784.11876287353232
 20
348.79762177234193
 30
0.0
 10
-783.65466125839464
 20
349.04234870142903
 30
0.0
 10
-783.38671206596348
 20
349.46622817658817
 30
0.0
 10
-783.38671206596348
 20
349.71095510567528
 30
0.0
  0
SPLINE
  5
268
100
AcDbEntity
  8
一般
370
              15
  6
Continuous
 62
               7
100
AcDbSpline
210
0.0
220
0.0
230
1.0
 70
               9
 71
               2
 72
              17
 73
              14
 74
               0
 42
0.000001
 43
0.000001
 40
0.0
 40
0.0
 40
0.0
 40
1.0
 40
2.0
 40
3.0
 40
4.0
 40
5.0
 40
6.0
 40
7.0
 40
8.0
 40
9.0
 40
10.0
 40
11.0
 40
12.0
 40
12.0
 40
12.0
 10
-783.88671206596348
 20
349.71095510567523
 30
0.0
 10
-783.88671206596348
 20
349.83331857021881
 30
0.0
 10
-784.02068666217906
 20
350.04525830779841
 30
0.0
 10
-784.2527374697479
 20
350.16762177234193
 30
0.0
 10
-784.52068666217906
 20
350.16762177234193
 30
0.0
 10
-784.7527374697479
 20
350.04525830779841
 30
0.0
 10
-784.88671206596348
 20
349.83331857021881
 30
0.0
 10
-784.88671206596348
 20
349.5885916411317
 30
0.0
 10
-784.7527374697479
 20
349.37665190355216
 30
0.0
 10
-784.52068666217906
 20
349.25428843900858
 30
0.0
 10
-784.2527374697479
 20
349.25428843900858
 30
0.0
 10
-784.02068666217906
 20
349.37665190355216
 30
0.0
 10
-783.88671206596348
 20
349.5885916411317
 30
0.0
 10
-783.88671206596348
 20
349.71095510567523
 30
0.0
  0
SPLINE
  5
269
100
AcDbEntity
  8
一般
370
               5
  6
Continuous
 62
               7
100
AcDbSpline
210
0.0
220
0.0
230
1.0
 70
               9
 71
               2
 72
              17
 73
              14
 74
               0
 42
0.000001
 43
0.000001
 40
0.0
 40
0.0
 40
0.0
 40
1.0
 40
2.0
 40
3.0
 40
4.0
 40
5.0
 40
6.0
 40
7.0
 40
8.0
 40
9.0
 40
10.0
 40
11.0
 40
12.0
 40
12.0
 40
12.0
 10
-782.38671206596348
 20
349.71095510567523
 30
0.0
 10
-782.38671206596348
 20
350.20040896384944
 30
0.0
 10
-782.92261045082569
 20
351.04816791416772
 30
0.0
 10
-783.85081368110127
 20
351.53762177234194
 30
0.0
 10
-784.92261045082569
 20
351.53762177234194
 30
0.0
 10
-785.85081368110127
 20
351.04816791416772
 30
0.0
 10
-786.38671206596348
 20
350.20040896384944
 30
0.0
 10
-786.38671206596348
 20
349.22150124750107
 30
0.0
 10
-785.85081368110127
 20
348.37374229718279
 30
0.0
 10
-784.92261045082569
 20
347.88428843900863
 30
0.0
 10
-783.85081368110127
 20
347.88428843900857
 30
0.0
 10
-782.92261045082569
 20
348.37374229718279
 30
0.0
 10
-782.38671206596348
 20
349.22150124750107
 30
0.0
 10
-782.38671206596348
 20
349.71095510567523
 30
0.0
  0
SPLINE
  5
26A
100
AcDbEntity
  8
一般
370
              15
  6
Continuous
 62
               7
100
AcDbSpline
210
0.0
220
0.0
230
1.0
 70
               9
 71
               2
 72
              17
 73
              14
 74
               0
 42
0.000001
 43
0.000001
 40
0.0
 40
0.0
 40
0.0
 40
1.0
 40
2.0
 40
3.0
 40
4.0
 40
5.0
 40
6.0
 40
7.0
 40
8.0
 40
9.0
 40
10.0
 40
11.0
 40
12.0
 40
12.0
 40
12.0
 10
-843.14246492708958
 20
381.22095510567522
 30
0.0
 10
-843.14246492708958
 20
381.46568203476232
 30
0.0
 10
-843.41041411952074
 20
381.88956150992146
 30
0.0
 10
-843.87451573465853
 20
382.13428843900851
 30
0.0
 10
-844.41041411952074
 20
382.13428843900851
 30
0.0
 10
-844.87451573465853
 20
381.88956150992146
 30
0.0
 10
-845.14246492708958
 20
381.46568203476232
 30
0.0
 10
-845.14246492708958
 20
380.97622817658811
 30
0.0
 10
-844.87451573465853
 20
380.55234870142897
 30
0.0
 10
-844.41041411952074
 20
380.30762177234186
 30
0.0
 10
-843.87451573465853
 20
380.30762177234186
 30
0.0
 10
-843.41041411952074
 20
380.55234870142897
 30
0.0
 10
-843.14246492708958
 20
380.97622817658811
 30
0.0
 10
-843.14246492708958
 20
381.22095510567522
 30
0.0
  0
SPLINE
  5
26B
100
AcDbEntity
  8
一般
370
              15
  6
Continuous
 62
               7
100
AcDbSpline
210
0.0
220
0.0
230
1.0
 70
               9
 71
               2
 72
              17
 73
              14
 74
               0
 42
0.000001
 43
0.000001
 40
0.0
 40
0.0
 40
0.0
 40
1.0
 40
2.0
 40
3.0
 40
4.0
 40
5.0
 40
6.0
 40
7.0
 40
8.0
 40
9.0
 40
10.0
 40
11.0
 40
12.0
 40
12.0
 40
12.0
 10
-843.64246492708958
 20
381.22095510567522
 30
0.0
 10
-843.64246492708958
 20
381.3433185702188
 30
0.0
 10
-843.77643952330516
 20
381.55525830779834
 30
0.0
 10
-844.00849033087411
 20
381.67762177234187
 30
0.0
 10
-844.27643952330516
 20
381.67762177234187
 30
0.0
 10
-844.50849033087411
 20
381.55525830779834
 30
0.0
 10
-844.64246492708958
 20
381.3433185702188
 30
0.0
 10
-844.64246492708958
 20
381.09859164113163
 30
0.0
 10
-844.50849033087411
 20
380.88665190355209
 30
0.0
 10
-844.27643952330516
 20
380.76428843900857
 30
0.0
 10
-844.00849033087411
 20
380.76428843900857
 30
0.0
 10
-843.77643952330516
 20
380.88665190355209
 30
0.0
 10
-843.64246492708958
 20
381.09859164113163
 30
0.0
 10
-843.64246492708958
 20
381.22095510567522
 30
0.0
  0
SPLINE
  5
26C
100
AcDbEntity
  8
一般
370
               5
  6
Continuous
 62
               7
100
AcDbSpline
210
0.0
220
0.0
230
1.0
 70
               9
 71
               2
 72
              17
 73
              14
 74
               0
 42
0.000001
 43
0.000001
 40
0.0
 40
0.0
 40
0.0
 40
1.0
 40
2.0
 40
3.0
 40
4.0
 40
5.0
 40
6.0
 40
7.0
 40
8.0
 40
9.0
 40
10.0
 40
11.0
 40
12.0
 40
12.0
 40
12.0
 10
-842.14246492708958
 20
381.22095510567522
 30
0.0
 10
-842.14246492708958
 20
381.71040896384943
 30
0.0
 10
-842.6783633119519
 20
382.55816791416771
 30
0.0
 10
-843.60656654222737
 20
383.04762177234187
 30
0.0
 10
-844.6783633119519
 20
383.04762177234187
 30
0.0
 10
-845.60656654222737
 20
382.55816791416771
 30
0.0
 10
-846.14246492708958
 20
381.71040896384943
 30
0.0
 10
-846.14246492708958
 20
380.73150124750106
 30
0.0
 10
-845.60656654222737
 20
379.88374229718272
 30
0.0
 10
-844.6783633119519
 20
379.39428843900856
 30
0.0
 10
-843.60656654222737
 20
379.39428843900856
 30
0.0
 10
-842.6783633119519
 20
379.88374229718272
 30
0.0
 10
-842.14246492708958
 20
380.731501247501
 30
0.0
 10
-842.14246492708958
 20
381.22095510567522
 30
0.0
  0
SPLINE
  5
26D
100
AcDbEntity
  8
一般
370
              15
  6
Continuous
 62
               7
100
AcDbSpline
210
0.0
220
0.0
230
1.0
 70
               9
 71
               2
 72
              17
 73
              14
 74
               0
 42
0.000001
 43
0.000001
 40
0.0
 40
0.0
 40
0.0
 40
1.0
 40
2.0
 40
3.0
 40
4.0
 40
5.0
 40
6.0
 40
7.0
 40
8.0
 40
9.0
 40
10.0
 40
11.0
 40
12.0
 40
12.0
 40
12.0
 10
-777.30343123152136
 20
359.33433879253533
 30
0.0
 10
-777.30343123152136
 20
359.57906572162244
 30
0.0
 10
-777.57138042395252
 20
360.00294519678158
 30
0.0
 10
-778.03548203909031
 20
360.24767212586869
 30
0.0
 10
-778.57138042395252
 20
360.24767212586869
 30
0.0
 10
-779.03548203909031
 20
360.00294519678158
 30
0.0
 10
-779.30343123152136
 20
359.57906572162244
 30
0.0
 10
-779.30343123152136
 20
359.08961186344823
 30
0.0
 10
-779.03548203909031
 20
358.66573238828909
 30
0.0
 10
-778.57138042395252
 20
358.42100545920198
 30
0.0
 10
-778.03548203909031
 20
358.42100545920198
 30
0.0
 10
-777.57138042395252
 20
358.66573238828909
 30
0.0
 10
-777.30343123152136
 20
359.08961186344823
 30
0.0
 10
-777.30343123152136
 20
359.33433879253533
 30
0.0
  0
SPLINE
  5
26E
100
AcDbEntity
  8
一般
370
              15
  6
Continuous
 62
               7
100
AcDbSpline
210
0.0
220
0.0
230
1.0
 70
               9
 71
               2
 72
              17
 73
              14
 74
               0
 42
0.000001
 43
0.000001
 40
0.0
 40
0.0
 40
0.0
 40
1.0
 40
2.0
 40
3.0
 40
4.0
 40
5.0
 40
6.0
 40
7.0
 40
8.0
 40
9.0
 40
10.0
 40
11.0
 40
12.0
 40
12.0
 40
12.0
 10
-777.80343123152136
 20
359.33433879253533
 30
0.0
 10
-777.80343123152136
 20
359.45670225707886
 30
0.0
 10
-777.93740582773694
 20
359.66864199465846
 30
0.0
 10
-778.16945663530589
 20
359.79100545920198
 30
0.0
 10
-778.43740582773694
 20
359.79100545920198
 30
0.0
 10
-778.66945663530589
 20
359.66864199465846
 30
0.0
 10
-778.80343123152136
 20
359.45670225707886
 30
0.0
 10
-778.80343123152136
 20
359.21197532799181
 30
0.0
 10
-778.66945663530589
 20
359.00003559041221
 30
0.0
 10
-778.43740582773694
 20
358.87767212586868
 30
0.0
 10
-778.16945663530589
 20
358.87767212586868
 30
0.0
 10
-777.93740582773694
 20
359.00003559041221
 30
0.0
 10
-777.80343123152136
 20
359.21197532799181
 30
0.0
 10
-777.80343123152136
 20
359.33433879253533
 30
0.0
  0
SPLINE
  5
26F
100
AcDbEntity
  8
一般
370
               5
  6
Continuous
 62
               7
100
AcDbSpline
210
0.0
220
0.0
230
1.0
 70
               9
 71
               2
 72
              17
 73
              14
 74
               0
 42
0.000001
 43
0.000001
 40
0.0
 40
0.0
 40
0.0
 40
1.0
 40
2.0
 40
3.0
 40
4.0
 40
5.0
 40
6.0
 40
7.0
 40
8.0
 40
9.0
 40
10.0
 40
11.0
 40
12.0
 40
12.0
 40
12.0
 10
-776.30343123152136
 20
359.33433879253533
 30
0.0
 10
-776.30343123152136
 20
359.82379265070949
 30
0.0
 10
-776.83932961638368
 20
360.67155160102783
 30
0.0
 10
-777.76753284665915
 20
361.16100545920199
 30
0.0
 10
-778.83932961638368
 20
361.16100545920199
 30
0.0
 10
-779.76753284665915
 20
360.67155160102783
 30
0.0
 10
-780.30343123152136
 20
359.82379265070955
 30
0.0
 10
-780.30343123152136
 20
358.84488493436118
 30
0.0
 10
-779.76753284665915
 20
357.99712598404284
 30
0.0
 10
-778.83932961638368
 20
357.50767212586868
 30
0.0
 10
-777.76753284665915
 20
357.50767212586868
 30
0.0
 10
-776.83932961638368
 20
357.99712598404284
 30
0.0
 10
-776.30343123152136
 20
358.84488493436118
 30
0.0
 10
-776.30343123152136
 20
359.33433879253533
 30
0.0
  0
SPLINE
  5
270
100
AcDbEntity
  8
一般
370
              15
  6
Continuous
 62
               7
100
AcDbSpline
210
0.0
220
0.0
230
1.0
 70
               9
 71
               2
 72
              17
 73
              14
 74
               0
 42
0.000001
 43
0.000001
 40
0.0
 40
0.0
 40
0.0
 40
1.0
 40
2.0
 40
3.0
 40
4.0
 40
5.0
 40
6.0
 40
7.0
 40
8.0
 40
9.0
 40
10.0
 40
11.0
 40
12.0
 40
12.0
 40
12.0
 10
-775.1907299692474
 20
370.2776469491053
 30
0.0
 10
-775.1907299692474
 20
370.52237387819241
 30
0.0
 10
-775.45867916167845
 20
370.94625335335155
 30
0.0
 10
-775.92278077681624
 20
371.1909802824386
 30
0.0
 10
-776.45867916167845
 20
371.1909802824386
 30
0.0
 10
-776.92278077681624
 20
370.94625335335155
 30
0.0
 10
-777.1907299692474
 20
370.52237387819241
 30
0.0
 10
-777.1907299692474
 20
370.0329200200182
 30
0.0
 10
-776.92278077681624
 20
369.60904054485906
 30
0.0
 10
-776.45867916167845
 20
369.36431361577195
 30
0.0
 10
-775.92278077681624
 20
369.36431361577195
 30
0.0
 10
-775.45867916167845
 20
369.60904054485906
 30
0.0
 10
-775.1907299692474
 20
370.0329200200182
 30
0.0
 10
-775.1907299692474
 20
370.2776469491053
 30
0.0
  0
SPLINE
  5
271
100
AcDbEntity
  8
一般
370
              15
  6
Continuous
 62
               7
100
AcDbSpline
210
0.0
220
0.0
230
1.0
 70
               9
 71
               2
 72
              17
 73
              14
 74
               0
 42
0.000001
 43
0.000001
 40
0.0
 40
0.0
 40
0.0
 40
1.0
 40
2.0
 40
3.0
 40
4.0
 40
5.0
 40
6.0
 40
7.0
 40
8.0
 40
9.0
 40
10.0
 40
11.0
 40
12.0
 40
12.0
 40
12.0
 10
-775.6907299692474
 20
370.27764694910525
 30
0.0
 10
-775.6907299692474
 20
370.40001041364883
 30
0.0
 10
-775.82470456546287
 20
370.61195015122843
 30
0.0
 10
-776.05675537303182
 20
370.73431361577195
 30
0.0
 10
-776.32470456546287
 20
370.73431361577195
 30
0.0
 10
-776.55675537303182
 20
370.61195015122843
 30
0.0
 10
-776.6907299692474
 20
370.40001041364883
 30
0.0
 10
-776.6907299692474
 20
370.15528348456172
 30
0.0
 10
-776.55675537303182
 20
369.94334374698218
 30
0.0
 10
-776.32470456546287
 20
369.82098028243865
 30
0.0
 10
-776.05675537303182
 20
369.82098028243865
 30
0.0
 10
-775.82470456546287
 20
369.94334374698218
 30
0.0
 10
-775.6907299692474
 20
370.15528348456172
 30
0.0
 10
-775.6907299692474
 20
370.27764694910525
 30
0.0
  0
SPLINE
  5
272
100
AcDbEntity
  8
一般
370
               5
  6
Continuous
 62
               7
100
AcDbSpline
210
0.0
220
0.0
230
1.0
 70
               9
 71
               2
 72
              17
 73
              14
 74
               0
 42
0.000001
 43
0.000001
 40
0.0
 40
0.0
 40
0.0
 40
1.0
 40
2.0
 40
3.0
 40
4.0
 40
5.0
 40
6.0
 40
7.0
 40
8.0
 40
9.0
 40
10.0
 40
11.0
 40
12.0
 40
12.0
 40
12.0
 10
-774.1907299692474
 20
370.27764694910525
 30
0.0
 10
-774.1907299692474
 20
370.76710080727946
 30
0.0
 10
-774.72662835410961
 20
371.6148597575978
 30
0.0
 10
-775.65483158438508
 20
372.10431361577196
 30
0.0
 10
-776.72662835410961
 20
372.10431361577196
 30
0.0
 10
-777.65483158438508
 20
371.6148597575978
 30
0.0
 10
-778.1907299692474
 20
370.76710080727946
 30
0.0
 10
-778.1907299692474
 20
369.78819309093109
 30
0.0
 10
-777.65483158438508
 20
368.94043414061281
 30
0.0
 10
-776.72662835410961
 20
368.45098028243865
 30
0.0
 10
-775.65483158438508
 20
368.45098028243865
 30
0.0
 10
-774.72662835410961
 20
368.94043414061281
 30
0.0
 10
-774.1907299692474
 20
369.78819309093109
 30
0.0
 10
-774.1907299692474
 20
370.27764694910525
 30
0.0
  0
SPLINE
  5
273
100
AcDbEntity
  8
一般
370
              15
  6
Continuous
 62
               7
100
AcDbSpline
210
0.0
220
0.0
230
1.0
 70
               9
 71
               2
 72
              17
 73
              14
 74
               0
 42
0.000001
 43
0.000001
 40
0.0
 40
0.0
 40
0.0
 40
1.0
 40
2.0
 40
3.0
 40
4.0
 40
5.0
 40
6.0
 40
7.0
 40
8.0
 40
9.0
 40
10.0
 40
11.0
 40
12.0
 40
12.0
 40
12.0
 10
-777.30343123152136
 20
381.22095510567522
 30
0.0
 10
-777.30343123152136
 20
381.46568203476232
 30
0.0
 10
-777.57138042395252
 20
381.88956150992146
 30
0.0
 10
-778.03548203909031
 20
382.13428843900851
 30
0.0
 10
-778.57138042395252
 20
382.13428843900851
 30
0.0
 10
-779.03548203909031
 20
381.88956150992146
 30
0.0
 10
-779.30343123152136
 20
381.46568203476232
 30
0.0
 10
-779.30343123152136
 20
380.97622817658811
 30
0.0
 10
-779.03548203909031
 20
380.55234870142897
 30
0.0
 10
-778.57138042395252
 20
380.30762177234186
 30
0.0
 10
-778.03548203909031
 20
380.30762177234186
 30
0.0
 10
-777.57138042395252
 20
380.55234870142897
 30
0.0
 10
-777.30343123152136
 20
380.97622817658811
 30
0.0
 10
-777.30343123152136
 20
381.22095510567522
 30
0.0
  0
SPLINE
  5
274
100
AcDbEntity
  8
一般
370
              15
  6
Continuous
 62
               7
100
AcDbSpline
210
0.0
220
0.0
230
1.0
 70
               9
 71
               2
 72
              17
 73
              14
 74
               0
 42
0.000001
 43
0.000001
 40
0.0
 40
0.0
 40
0.0
 40
1.0
 40
2.0
 40
3.0
 40
4.0
 40
5.0
 40
6.0
 40
7.0
 40
8.0
 40
9.0
 40
10.0
 40
11.0
 40
12.0
 40
12.0
 40
12.0
 10
-777.80343123152136
 20
381.22095510567522
 30
0.0
 10
-777.80343123152136
 20
381.3433185702188
 30
0.0
 10
-777.93740582773694
 20
381.55525830779834
 30
0.0
 10
-778.16945663530589
 20
381.67762177234187
 30
0.0
 10
-778.43740582773694
 20
381.67762177234187
 30
0.0
 10
-778.66945663530589
 20
381.55525830779834
 30
0.0
 10
-778.80343123152136
 20
381.3433185702188
 30
0.0
 10
-778.80343123152136
 20
381.09859164113163
 30
0.0
 10
-778.66945663530589
 20
380.88665190355209
 30
0.0
 10
-778.43740582773694
 20
380.76428843900857
 30
0.0
 10
-778.16945663530589
 20
380.76428843900857
 30
0.0
 10
-777.93740582773694
 20
380.88665190355209
 30
0.0
 10
-777.80343123152136
 20
381.09859164113163
 30
0.0
 10
-777.80343123152136
 20
381.22095510567522
 30
0.0
  0
SPLINE
  5
275
100
AcDbEntity
  8
一般
370
               5
  6
Continuous
 62
               7
100
AcDbSpline
210
0.0
220
0.0
230
1.0
 70
               9
 71
               2
 72
              17
 73
              14
 74
               0
 42
0.000001
 43
0.000001
 40
0.0
 40
0.0
 40
0.0
 40
1.0
 40
2.0
 40
3.0
 40
4.0
 40
5.0
 40
6.0
 40
7.0
 40
8.0
 40
9.0
 40
10.0
 40
11.0
 40
12.0
 40
12.0
 40
12.0
 10
-776.30343123152136
 20
381.22095510567522
 30
0.0
 10
-776.30343123152136
 20
381.71040896384943
 30
0.0
 10
-776.83932961638368
 20
382.55816791416771
 30
0.0
 10
-777.76753284665915
 20
383.04762177234187
 30
0.0
 10
-778.83932961638368
 20
383.04762177234187
 30
0.0
 10
-779.76753284665915
 20
382.55816791416771
 30
0.0
 10
-780.30343123152136
 20
381.71040896384943
 30
0.0
 10
-780.30343123152136
 20
380.73150124750106
 30
0.0
 10
-779.76753284665915
 20
379.88374229718272
 30
0.0
 10
-778.83932961638368
 20
379.39428843900856
 30
0.0
 10
-777.76753284665915
 20
379.39428843900856
 30
0.0
 10
-776.83932961638368
 20
379.88374229718272
 30
0.0
 10
-776.30343123152136
 20
380.731501247501
 30
0.0
 10
-776.30343123152136
 20
381.22095510567522
 30
0.0
  0
SPLINE
  5
276
100
AcDbEntity
  8
一般
370
              15
  6
Continuous
 62
               7
100
AcDbSpline
210
0.0
220
0.0
230
1.0
 70
               9
 71
               2
 72
              17
 73
              14
 74
               0
 42
0.000001
 43
0.000001
 40
0.0
 40
0.0
 40
0.0
 40
1.0
 40
2.0
 40
3.0
 40
4.0
 40
5.0
 40
6.0
 40
7.0
 40
8.0
 40
9.0
 40
10.0
 40
11.0
 40
12.0
 40
12.0
 40
12.0
 10
-837.05918409264757
 20
390.84433879253532
 30
0.0
 10
-837.05918409264757
 20
391.08906572162243
 30
0.0
 10
-837.32713328507873
 20
391.51294519678157
 30
0.0
 10
-837.79123490021641
 20
391.75767212586868
 30
0.0
 10
-838.32713328507873
 20
391.75767212586868
 30
0.0
 10
-838.79123490021641
 20
391.51294519678157
 30
0.0
 10
-839.05918409264757
 20
391.08906572162243
 30
0.0
 10
-839.05918409264757
 20
390.59961186344827
 30
0.0
 10
-838.79123490021641
 20
390.17573238828913
 30
0.0
 10
-838.32713328507873
 20
389.93100545920203
 30
0.0
 10
-837.79123490021641
 20
389.93100545920203
 30
0.0
 10
-837.32713328507873
 20
390.17573238828908
 30
0.0
 10
-837.05918409264757
 20
390.59961186344822
 30
0.0
 10
-837.05918409264757
 20
390.84433879253532
 30
0.0
  0
SPLINE
  5
277
100
AcDbEntity
  8
一般
370
              15
  6
Continuous
 62
               7
100
AcDbSpline
210
0.0
220
0.0
230
1.0
 70
               9
 71
               2
 72
              17
 73
              14
 74
               0
 42
0.000001
 43
0.000001
 40
0.0
 40
0.0
 40
0.0
 40
1.0
 40
2.0
 40
3.0
 40
4.0
 40
5.0
 40
6.0
 40
7.0
 40
8.0
 40
9.0
 40
10.0
 40
11.0
 40
12.0
 40
12.0
 40
12.0
 10
-837.55918409264757
 20
390.84433879253538
 30
0.0
 10
-837.55918409264757
 20
390.96670225707891
 30
0.0
 10
-837.69315868886315
 20
391.17864199465845
 30
0.0
 10
-837.92520949643199
 20
391.30100545920203
 30
0.0
 10
-838.19315868886315
 20
391.30100545920203
 30
0.0
 10
-838.42520949643199
 20
391.17864199465845
 30
0.0
 10
-838.55918409264757
 20
390.96670225707891
 30
0.0
 10
-838.55918409264757
 20
390.7219753279918
 30
0.0
 10
-838.42520949643199
 20
390.51003559041226
 30
0.0
 10
-838.19315868886315
 20
390.38767212586868
 30
0.0
 10
-837.92520949643199
 20
390.38767212586868
 30
0.0
 10
-837.69315868886315
 20
390.51003559041226
 30
0.0
 10
-837.55918409264757
 20
390.7219753279918
 30
0.0
 10
-837.55918409264757
 20
390.84433879253538
 30
0.0
  0
SPLINE
  5
278
100
AcDbEntity
  8
一般
370
               5
  6
Continuous
 62
               7
100
AcDbSpline
210
0.0
220
0.0
230
1.0
 70
               9
 71
               2
 72
              17
 73
              14
 74
               0
 42
0.000001
 43
0.000001
 40
0.0
 40
0.0
 40
0.0
 40
1.0
 40
2.0
 40
3.0
 40
4.0
 40
5.0
 40
6.0
 40
7.0
 40
8.0
 40
9.0
 40
10.0
 40
11.0
 40
12.0
 40
12.0
 40
12.0
 10
-836.05918409264757
 20
390.84433879253538
 30
0.0
 10
-836.05918409264757
 20
391.33379265070954
 30
0.0
 10
-836.59508247750978
 20
392.18155160102782
 30
0.0
 10
-837.52328570778536
 20
392.67100545920198
 30
0.0
 10
-838.59508247750978
 20
392.67100545920198
 30
0.0
 10
-839.52328570778536
 20
392.18155160102782
 30
0.0
 10
-840.05918409264757
 20
391.33379265070954
 30
0.0
 10
-840.05918409264757
 20
390.35488493436117
 30
0.0
 10
-839.52328570778536
 20
389.50712598404289
 30
0.0
 10
-838.59508247750978
 20
389.01767212586867
 30
0.0
 10
-837.52328570778536
 20
389.01767212586867
 30
0.0
 10
-836.59508247750978
 20
389.50712598404283
 30
0.0
 10
-836.05918409264757
 20
390.35488493436117
 30
0.0
 10
-836.05918409264757
 20
390.84433879253538
 30
0.0
  0
SPLINE
  5
279
100
AcDbEntity
  8
一般
370
              15
  6
Continuous
 62
               7
100
AcDbSpline
210
0.0
220
0.0
230
1.0
 70
               9
 71
               2
 72
              17
 73
              14
 74
               0
 42
0.000001
 43
0.000001
 40
0.0
 40
0.0
 40
0.0
 40
1.0
 40
2.0
 40
3.0
 40
4.0
 40
5.0
 40
6.0
 40
7.0
 40
8.0
 40
9.0
 40
10.0
 40
11.0
 40
12.0
 40
12.0
 40
12.0
 10
-827.73905713433453
 20
397.98707591103323
 30
0.0
 10
-827.73905713433453
 20
398.23180284012028
 30
0.0
 10
-828.00700632676569
 20
398.65568231527948
 30
0.0
 10
-828.47110794190337
 20
398.90040924436653
 30
0.0
 10
-829.00700632676569
 20
398.90040924436653
 30
0.0
 10
-829.47110794190337
 20
398.65568231527948
 30
0.0
 10
-829.73905713433453
 20
398.23180284012028
 30
0.0
 10
-829.73905713433453
 20
397.74234898194612
 30
0.0
 10
-829.47110794190337
 20
397.31846950678698
 30
0.0
 10
-829.00700632676569
 20
397.07374257769987
 30
0.0
 10
-828.47110794190337
 20
397.07374257769987
 30
0.0
 10
-828.00700632676569
 20
397.31846950678698
 30
0.0
 10
-827.73905713433453
 20
397.74234898194612
 30
0.0
 10
-827.73905713433453
 20
397.98707591103323
 30
0.0
  0
SPLINE
  5
27A
100
AcDbEntity
  8
一般
370
              15
  6
Continuous
 62
               7
100
AcDbSpline
210
0.0
220
0.0
230
1.0
 70
               9
 71
               2
 72
              17
 73
              14
 74
               0
 42
0.000001
 43
0.000001
 40
0.0
 40
0.0
 40
0.0
 40
1.0
 40
2.0
 40
3.0
 40
4.0
 40
5.0
 40
6.0
 40
7.0
 40
8.0
 40
9.0
 40
10.0
 40
11.0
 40
12.0
 40
12.0
 40
12.0
 10
-828.23905713433453
 20
397.98707591103323
 30
0.0
 10
-828.23905713433453
 20
398.10943937557676
 30
0.0
 10
-828.37303173055011
 20
398.3213791131563
 30
0.0
 10
-828.60508253811895
 20
398.44374257769988
 30
0.0
 10
-828.87303173055011
 20
398.44374257769988
 30
0.0
 10
-829.10508253811895
 20
398.3213791131563
 30
0.0
 10
-829.23905713433453
 20
398.10943937557676
 30
0.0
 10
-829.23905713433453
 20
397.86471244648965
 30
0.0
 10
-829.10508253811895
 20
397.65277270891011
 30
0.0
 10
-828.87303173055011
 20
397.53040924436652
 30
0.0
 10
-828.60508253811895
 20
397.53040924436652
 30
0.0
 10
-828.37303173055011
 20
397.65277270891011
 30
0.0
 10
-828.23905713433453
 20
397.86471244648965
 30
0.0
 10
-828.23905713433453
 20
397.98707591103323
 30
0.0
  0
SPLINE
  5
27B
100
AcDbEntity
  8
一般
370
               5
  6
Continuous
 62
               7
100
AcDbSpline
210
0.0
220
0.0
230
1.0
 70
               9
 71
               2
 72
              17
 73
              14
 74
               0
 42
0.000001
 43
0.000001
 40
0.0
 40
0.0
 40
0.0
 40
1.0
 40
2.0
 40
3.0
 40
4.0
 40
5.0
 40
6.0
 40
7.0
 40
8.0
 40
9.0
 40
10.0
 40
11.0
 40
12.0
 40
12.0
 40
12.0
 10
-826.73905713433453
 20
397.98707591103323
 30
0.0
 10
-826.73905713433453
 20
398.47652976920739
 30
0.0
 10
-827.27495551919674
 20
399.32428871952567
 30
0.0
 10
-828.20315874947232
 20
399.81374257769988
 30
0.0
 10
-829.27495551919674
 20
399.81374257769988
 30
0.0
 10
-830.20315874947232
 20
399.32428871952567
 30
0.0
 10
-830.73905713433453
 20
398.47652976920739
 30
0.0
 10
-830.73905713433453
 20
397.49762205285901
 30
0.0
 10
-830.20315874947232
 20
396.64986310254073
 30
0.0
 10
-829.27495551919685
 20
396.16040924436652
 30
0.0
 10
-828.20315874947232
 20
396.16040924436652
 30
0.0
 10
-827.27495551919685
 20
396.64986310254073
 30
0.0
 10
-826.73905713433453
 20
397.49762205285901
 30
0.0
 10
-826.73905713433453
 20
397.98707591103323
 30
0.0
  0
SPLINE
  5
27C
100
AcDbEntity
  8
一般
370
              15
  6
Continuous
 62
               7
100
AcDbSpline
210
0.0
220
0.0
230
1.0
 70
               9
 71
               2
 72
              17
 73
              14
 74
               0
 42
0.000001
 43
0.000001
 40
0.0
 40
0.0
 40
0.0
 40
1.0
 40
2.0
 40
3.0
 40
4.0
 40
5.0
 40
6.0
 40
7.0
 40
8.0
 40
9.0
 40
10.0
 40
11.0
 40
12.0
 40
12.0
 40
12.0
 10
-816.30622891374753
 20
401.78764694910524
 30
0.0
 10
-816.30622891374753
 20
402.03237387819235
 30
0.0
 10
-816.57417810617869
 20
402.45625335335149
 30
0.0
 10
-817.03827972131637
 20
402.70098028243859
 30
0.0
 10
-817.57417810617869
 20
402.70098028243859
 30
0.0
 10
-818.03827972131637
 20
402.45625335335149
 30
0.0
 10
-818.30622891374753
 20
402.03237387819235
 30
0.0
 10
-818.30622891374753
 20
401.54292002001819
 30
0.0
 10
-818.03827972131637
 20
401.11904054485899
 30
0.0
 10
-817.57417810617869
 20
400.87431361577194
 30
0.0
 10
-817.03827972131637
 20
400.87431361577194
 30
0.0
 10
-816.57417810617869
 20
401.11904054485899
 30
0.0
 10
-816.30622891374753
 20
401.54292002001813
 30
0.0
 10
-816.30622891374753
 20
401.78764694910524
 30
0.0
  0
SPLINE
  5
27D
100
AcDbEntity
  8
一般
370
              15
  6
Continuous
 62
               7
100
AcDbSpline
210
0.0
220
0.0
230
1.0
 70
               9
 71
               2
 72
              17
 73
              14
 74
               0
 42
0.000001
 43
0.000001
 40
0.0
 40
0.0
 40
0.0
 40
1.0
 40
2.0
 40
3.0
 40
4.0
 40
5.0
 40
6.0
 40
7.0
 40
8.0
 40
9.0
 40
10.0
 40
11.0
 40
12.0
 40
12.0
 40
12.0
 10
-816.80622891374753
 20
401.78764694910524
 30
0.0
 10
-816.80622891374753
 20
401.91001041364882
 30
0.0
 10
-816.94020350996311
 20
402.12195015122836
 30
0.0
 10
-817.17225431753195
 20
402.24431361577189
 30
0.0
 10
-817.44020350996311
 20
402.24431361577189
 30
0.0
 10
-817.67225431753195
 20
402.12195015122836
 30
0.0
 10
-817.80622891374753
 20
401.91001041364882
 30
0.0
 10
-817.80622891374753
 20
401.66528348456171
 30
0.0
 10
-817.67225431753195
 20
401.45334374698211
 30
0.0
 10
-817.44020350996311
 20
401.33098028243859
 30
0.0
 10
-817.17225431753195
 20
401.33098028243859
 30
0.0
 10
-816.94020350996311
 20
401.45334374698211
 30
0.0
 10
-816.80622891374753
 20
401.66528348456171
 30
0.0
 10
-816.80622891374753
 20
401.78764694910524
 30
0.0
  0
SPLINE
  5
27E
100
AcDbEntity
  8
一般
370
               5
  6
Continuous
 62
               7
100
AcDbSpline
210
0.0
220
0.0
230
1.0
 70
               9
 71
               2
 72
              17
 73
              14
 74
               0
 42
0.000001
 43
0.000001
 40
0.0
 40
0.0
 40
0.0
 40
1.0
 40
2.0
 40
3.0
 40
4.0
 40
5.0
 40
6.0
 40
7.0
 40
8.0
 40
9.0
 40
10.0
 40
11.0
 40
12.0
 40
12.0
 40
12.0
 10
-815.30622891374753
 20
401.78764694910524
 30
0.0
 10
-815.30622891374753
 20
402.27710080727945
 30
0.0
 10
-815.84212729860974
 20
403.12485975759773
 30
0.0
 10
-816.77033052888532
 20
403.61431361577189
 30
0.0
 10
-817.84212729860974
 20
403.61431361577189
 30
0.0
 10
-818.77033052888532
 20
403.12485975759773
 30
0.0
 10
-819.30622891374753
 20
402.27710080727945
 30
0.0
 10
-819.30622891374753
 20
401.29819309093108
 30
0.0
 10
-818.77033052888532
 20
400.45043414061274
 30
0.0
 10
-817.84212729860974
 20
399.96098028243858
 30
0.0
 10
-816.77033052888532
 20
399.96098028243858
 30
0.0
 10
-815.84212729860974
 20
400.45043414061274
 30
0.0
 10
-815.30622891374753
 20
401.29819309093102
 30
0.0
 10
-815.30622891374753
 20
401.78764694910524
 30
0.0
  0
SPLINE
  5
27F
100
AcDbEntity
  8
一般
370
              15
  6
Continuous
 62
               7
100
AcDbSpline
210
0.0
220
0.0
230
1.0
 70
               9
 71
               2
 72
              17
 73
              14
 74
               0
 42
0.000001
 43
0.000001
 40
0.0
 40
0.0
 40
0.0
 40
1.0
 40
2.0
 40
3.0
 40
4.0
 40
5.0
 40
6.0
 40
7.0
 40
8.0
 40
9.0
 40
10.0
 40
11.0
 40
12.0
 40
12.0
 40
12.0
 10
-804.13966724486352
 20
401.78764694910524
 30
0.0
 10
-804.13966724486352
 20
402.03237387819235
 30
0.0
 10
-804.40761643729456
 20
402.45625335335149
 30
0.0
 10
-804.87171805243236
 20
402.70098028243859
 30
0.0
 10
-805.40761643729456
 20
402.70098028243859
 30
0.0
 10
-805.87171805243236
 20
402.45625335335149
 30
0.0
 10
-806.13966724486352
 20
402.03237387819235
 30
0.0
 10
-806.13966724486352
 20
401.54292002001819
 30
0.0
 10
-805.87171805243236
 20
401.11904054485899
 30
0.0
 10
-805.40761643729456
 20
400.87431361577194
 30
0.0
 10
-804.87171805243236
 20
400.87431361577194
 30
0.0
 10
-804.40761643729456
 20
401.11904054485899
 30
0.0
 10
-804.13966724486352
 20
401.54292002001813
 30
0.0
 10
-804.13966724486352
 20
401.78764694910524
 30
0.0
  0
SPLINE
  5
280
100
AcDbEntity
  8
一般
370
              15
  6
Continuous
 62
               7
100
AcDbSpline
210
0.0
220
0.0
230
1.0
 70
               9
 71
               2
 72
              17
 73
              14
 74
               0
 42
0.000001
 43
0.000001
 40
0.0
 40
0.0
 40
0.0
 40
1.0
 40
2.0
 40
3.0
 40
4.0
 40
5.0
 40
6.0
 40
7.0
 40
8.0
 40
9.0
 40
10.0
 40
11.0
 40
12.0
 40
12.0
 40
12.0
 10
-804.63966724486352
 20
401.78764694910524
 30
0.0
 10
-804.63966724486352
 20
401.91001041364882
 30
0.0
 10
-804.77364184107898
 20
402.12195015122836
 30
0.0
 10
-805.00569264864794
 20
402.24431361577189
 30
0.0
 10
-805.27364184107898
 20
402.24431361577189
 30
0.0
 10
-805.50569264864794
 20
402.12195015122836
 30
0.0
 10
-805.63966724486352
 20
401.91001041364882
 30
0.0
 10
-805.63966724486352
 20
401.66528348456171
 30
0.0
 10
-805.50569264864794
 20
401.45334374698211
 30
0.0
 10
-805.27364184107898
 20
401.33098028243859
 30
0.0
 10
-805.00569264864794
 20
401.33098028243859
 30
0.0
 10
-804.77364184107898
 20
401.45334374698211
 30
0.0
 10
-804.63966724486352
 20
401.66528348456171
 30
0.0
 10
-804.63966724486352
 20
401.78764694910524
 30
0.0
  0
SPLINE
  5
281
100
AcDbEntity
  8
一般
370
               5
  6
Continuous
 62
               7
100
AcDbSpline
210
0.0
220
0.0
230
1.0
 70
               9
 71
               2
 72
              17
 73
              14
 74
               0
 42
0.000001
 43
0.000001
 40
0.0
 40
0.0
 40
0.0
 40
1.0
 40
2.0
 40
3.0
 40
4.0
 40
5.0
 40
6.0
 40
7.0
 40
8.0
 40
9.0
 40
10.0
 40
11.0
 40
12.0
 40
12.0
 40
12.0
 10
-803.13966724486352
 20
401.78764694910524
 30
0.0
 10
-803.13966724486352
 20
402.27710080727945
 30
0.0
 10
-803.67556562972572
 20
403.12485975759773
 30
0.0
 10
-804.6037688600012
 20
403.61431361577189
 30
0.0
 10
-805.67556562972572
 20
403.61431361577189
 30
0.0
 10
-806.6037688600012
 20
403.12485975759773
 30
0.0
 10
-807.13966724486352
 20
402.27710080727945
 30
0.0
 10
-807.13966724486352
 20
401.29819309093108
 30
0.0
 10
-806.6037688600012
 20
400.45043414061274
 30
0.0
 10
-805.67556562972572
 20
399.96098028243858
 30
0.0
 10
-804.6037688600012
 20
399.96098028243858
 30
0.0
 10
-803.67556562972572
 20
400.45043414061274
 30
0.0
 10
-803.13966724486352
 20
401.29819309093102
 30
0.0
 10
-803.13966724486352
 20
401.78764694910524
 30
0.0
  0
SPLINE
  5
282
100
AcDbEntity
  8
一般
370
              15
  6
Continuous
 62
               7
100
AcDbSpline
210
0.0
220
0.0
230
1.0
 70
               9
 71
               2
 72
              17
 73
              14
 74
               0
 42
0.000001
 43
0.000001
 40
0.0
 40
0.0
 40
0.0
 40
1.0
 40
2.0
 40
3.0
 40
4.0
 40
5.0
 40
6.0
 40
7.0
 40
8.0
 40
9.0
 40
10.0
 40
11.0
 40
12.0
 40
12.0
 40
12.0
 10
-792.70683902427641
 20
397.98707591103317
 30
0.0
 10
-792.70683902427641
 20
398.23180284012028
 30
0.0
 10
-792.97478821670757
 20
398.65568231527942
 30
0.0
 10
-793.43888983184524
 20
398.90040924436653
 30
0.0
 10
-793.97478821670757
 20
398.90040924436653
 30
0.0
 10
-794.43888983184524
 20
398.65568231527942
 30
0.0
 10
-794.70683902427641
 20
398.23180284012028
 30
0.0
 10
-794.70683902427641
 20
397.74234898194607
 30
0.0
 10
-794.43888983184524
 20
397.31846950678693
 30
0.0
 10
-793.97478821670757
 20
397.07374257769982
 30
0.0
 10
-793.43888983184524
 20
397.07374257769982
 30
0.0
 10
-792.97478821670757
 20
397.31846950678693
 30
0.0
 10
-792.70683902427641
 20
397.74234898194607
 30
0.0
 10
-792.70683902427641
 20
397.98707591103317
 30
0.0
  0
SPLINE
  5
283
100
AcDbEntity
  8
一般
370
              15
  6
Continuous
 62
               7
100
AcDbSpline
210
0.0
220
0.0
230
1.0
 70
               9
 71
               2
 72
              17
 73
              14
 74
               0
 42
0.000001
 43
0.000001
 40
0.0
 40
0.0
 40
0.0
 40
1.0
 40
2.0
 40
3.0
 40
4.0
 40
5.0
 40
6.0
 40
7.0
 40
8.0
 40
9.0
 40
10.0
 40
11.0
 40
12.0
 40
12.0
 40
12.0
 10
-793.20683902427641
 20
397.98707591103317
 30
0.0
 10
-793.20683902427641
 20
398.1094393755767
 30
0.0
 10
-793.34081362049199
 20
398.3213791131563
 30
0.0
 10
-793.57286442806083
 20
398.44374257769982
 30
0.0
 10
-793.84081362049199
 20
398.44374257769982
 30
0.0
 10
-794.07286442806083
 20
398.3213791131563
 30
0.0
 10
-794.20683902427641
 20
398.1094393755767
 30
0.0
 10
-794.20683902427641
 20
397.86471244648965
 30
0.0
 10
-794.07286442806083
 20
397.65277270891005
 30
0.0
 10
-793.84081362049199
 20
397.53040924436652
 30
0.0
 10
-793.57286442806083
 20
397.53040924436652
 30
0.0
 10
-793.34081362049199
 20
397.65277270891005
 30
0.0
 10
-793.20683902427641
 20
397.86471244648965
 30
0.0
 10
-793.20683902427641
 20
397.98707591103317
 30
0.0
  0
SPLINE
  5
284
100
AcDbEntity
  8
一般
370
               5
  6
Continuous
 62
               7
100
AcDbSpline
210
0.0
220
0.0
230
1.0
 70
               9
 71
               2
 72
              17
 73
              14
 74
               0
 42
0.000001
 43
0.000001
 40
0.0
 40
0.0
 40
0.0
 40
1.0
 40
2.0
 40
3.0
 40
4.0
 40
5.0
 40
6.0
 40
7.0
 40
8.0
 40
9.0
 40
10.0
 40
11.0
 40
12.0
 40
12.0
 40
12.0
 10
-791.70683902427641
 20
397.98707591103317
 30
0.0
 10
-791.70683902427641
 20
398.47652976920733
 30
0.0
 10
-792.24273740913861
 20
399.32428871952567
 30
0.0
 10
-793.1709406394142
 20
399.81374257769983
 30
0.0
 10
-794.24273740913861
 20
399.81374257769983
 30
0.0
 10
-795.1709406394142
 20
399.32428871952567
 30
0.0
 10
-795.70683902427641
 20
398.47652976920733
 30
0.0
 10
-795.70683902427641
 20
397.49762205285901
 30
0.0
 10
-795.1709406394142
 20
396.64986310254068
 30
0.0
 10
-794.24273740913873
 20
396.16040924436652
 30
0.0
 10
-793.1709406394142
 20
396.16040924436652
 30
0.0
 10
-792.24273740913873
 20
396.64986310254068
 30
0.0
 10
-791.70683902427641
 20
397.49762205285901
 30
0.0
 10
-791.70683902427641
 20
397.98707591103317
 30
0.0
  0
SPLINE
  5
285
100
AcDbEntity
  8
一般
370
              15
  6
Continuous
 62
               7
100
AcDbSpline
210
0.0
220
0.0
230
1.0
 70
               9
 71
               2
 72
              17
 73
              14
 74
               0
 42
0.000001
 43
0.000001
 40
0.0
 40
0.0
 40
0.0
 40
1.0
 40
2.0
 40
3.0
 40
4.0
 40
5.0
 40
6.0
 40
7.0
 40
8.0
 40
9.0
 40
10.0
 40
11.0
 40
12.0
 40
12.0
 40
12.0
 10
-783.38671206596337
 20
390.84433879253527
 30
0.0
 10
-783.38671206596337
 20
391.08906572162238
 30
0.0
 10
-783.65466125839453
 20
391.51294519678152
 30
0.0
 10
-784.11876287353232
 20
391.75767212586862
 30
0.0
 10
-784.65466125839453
 20
391.75767212586862
 30
0.0
 10
-785.11876287353232
 20
391.51294519678152
 30
0.0
 10
-785.38671206596337
 20
391.08906572162238
 30
0.0
 10
-785.38671206596337
 20
390.59961186344822
 30
0.0
 10
-785.11876287353232
 20
390.17573238828908
 30
0.0
 10
-784.65466125839453
 20
389.93100545920197
 30
0.0
 10
-784.11876287353232
 20
389.93100545920197
 30
0.0
 10
-783.65466125839453
 20
390.17573238828902
 30
0.0
 10
-783.38671206596337
 20
390.59961186344822
 30
0.0
 10
-783.38671206596337
 20
390.84433879253527
 30
0.0
  0
SPLINE
  5
286
100
AcDbEntity
  8
一般
370
              15
  6
Continuous
 62
               7
100
AcDbSpline
210
0.0
220
0.0
230
1.0
 70
               9
 71
               2
 72
              17
 73
              14
 74
               0
 42
0.000001
 43
0.000001
 40
0.0
 40
0.0
 40
0.0
 40
1.0
 40
2.0
 40
3.0
 40
4.0
 40
5.0
 40
6.0
 40
7.0
 40
8.0
 40
9.0
 40
10.0
 40
11.0
 40
12.0
 40
12.0
 40
12.0
 10
-783.88671206596337
 20
390.84433879253527
 30
0.0
 10
-783.88671206596337
 20
390.96670225707885
 30
0.0
 10
-784.02068666217895
 20
391.17864199465839
 30
0.0
 10
-784.2527374697479
 20
391.30100545920197
 30
0.0
 10
-784.52068666217895
 20
391.30100545920197
 30
0.0
 10
-784.7527374697479
 20
391.17864199465839
 30
0.0
 10
-784.88671206596337
 20
390.96670225707885
 30
0.0
 10
-784.88671206596337
 20
390.72197532799174
 30
0.0
 10
-784.7527374697479
 20
390.51003559041214
 30
0.0
 10
-784.52068666217895
 20
390.38767212586862
 30
0.0
 10
-784.2527374697479
 20
390.38767212586862
 30
0.0
 10
-784.02068666217895
 20
390.51003559041214
 30
0.0
 10
-783.88671206596337
 20
390.72197532799174
 30
0.0
 10
-783.88671206596337
 20
390.84433879253527
 30
0.0
  0
SPLINE
  5
287
100
AcDbEntity
  8
一般
370
               5
  6
Continuous
 62
               7
100
AcDbSpline
210
0.0
220
0.0
230
1.0
 70
               9
 71
               2
 72
              17
 73
              14
 74
               0
 42
0.000001
 43
0.000001
 40
0.0
 40
0.0
 40
0.0
 40
1.0
 40
2.0
 40
3.0
 40
4.0
 40
5.0
 40
6.0
 40
7.0
 40
8.0
 40
9.0
 40
10.0
 40
11.0
 40
12.0
 40
12.0
 40
12.0
 10
-782.38671206596337
 20
390.84433879253527
 30
0.0
 10
-782.38671206596337
 20
391.33379265070948
 30
0.0
 10
-782.92261045082569
 20
392.18155160102776
 30
0.0
 10
-783.85081368110116
 20
392.67100545920198
 30
0.0
 10
-784.92261045082569
 20
392.67100545920198
 30
0.0
 10
-785.85081368110116
 20
392.18155160102776
 30
0.0
 10
-786.38671206596337
 20
391.33379265070948
 30
0.0
 10
-786.38671206596337
 20
390.35488493436111
 30
0.0
 10
-785.85081368110116
 20
389.50712598404283
 30
0.0
 10
-784.92261045082569
 20
389.01767212586861
 30
0.0
 10
-783.85081368110116
 20
389.01767212586861
 30
0.0
 10
-782.92261045082569
 20
389.50712598404277
 30
0.0
 10
-782.38671206596337
 20
390.35488493436111
 30
0.0
 10
-782.38671206596337
 20
390.84433879253527
 30
0.0
  0
SPLINE
  5
288
100
AcDbEntity
  8
一般
370
              15
  6
Continuous
 62
               7
100
AcDbSpline
210
0.0
220
0.0
230
1.0
 70
               9
 71
               2
 72
              17
 73
              14
 74
               0
 42
0.000001
 43
0.000001
 40
0.0
 40
0.0
 40
0.0
 40
1.0
 40
2.0
 40
3.0
 40
4.0
 40
5.0
 40
6.0
 40
7.0
 40
8.0
 40
9.0
 40
10.0
 40
11.0
 40
12.0
 40
12.0
 40
12.0
 10
-817.15633249883933
 20
412.29098028243868
 30
0.0
 10
-817.15633249883933
 20
412.53570721152579
 30
0.0
 10
-817.42428169127038
 20
412.95958668668493
 30
0.0
 10
-817.88838330640817
 20
413.20431361577204
 30
0.0
 10
-818.42428169127038
 20
413.20431361577204
 30
0.0
 10
-818.88838330640817
 20
412.95958668668493
 30
0.0
 10
-819.15633249883933
 20
412.53570721152579
 30
0.0
 10
-819.15633249883933
 20
412.04625335335157
 30
0.0
 10
-818.88838330640817
 20
411.62237387819243
 30
0.0
 10
-818.42428169127038
 20
411.37764694910533
 30
0.0
 10
-817.88838330640817
 20
411.37764694910533
 30
0.0
 10
-817.42428169127038
 20
411.62237387819243
 30
0.0
 10
-817.15633249883933
 20
412.04625335335157
 30
0.0
 10
-817.15633249883933
 20
412.29098028243868
 30
0.0
  0
SPLINE
  5
289
100
AcDbEntity
  8
一般
370
              15
  6
Continuous
 62
               7
100
AcDbSpline
210
0.0
220
0.0
230
1.0
 70
               9
 71
               2
 72
              17
 73
              14
 74
               0
 42
0.000001
 43
0.000001
 40
0.0
 40
0.0
 40
0.0
 40
1.0
 40
2.0
 40
3.0
 40
4.0
 40
5.0
 40
6.0
 40
7.0
 40
8.0
 40
9.0
 40
10.0
 40
11.0
 40
12.0
 40
12.0
 40
12.0
 10
-817.65633249883933
 20
412.29098028243868
 30
0.0
 10
-817.65633249883933
 20
412.41334374698221
 30
0.0
 10
-817.7903070950548
 20
412.62528348456181
 30
0.0
 10
-818.02235790262375
 20
412.74764694910533
 30
0.0
 10
-818.2903070950548
 20
412.74764694910533
 30
0.0
 10
-818.52235790262375
 20
412.62528348456181
 30
0.0
 10
-818.65633249883933
 20
412.41334374698221
 30
0.0
 10
-818.65633249883933
 20
412.1686168178951
 30
0.0
 10
-818.52235790262375
 20
411.95667708031556
 30
0.0
 10
-818.2903070950548
 20
411.83431361577203
 30
0.0
 10
-818.02235790262375
 20
411.83431361577203
 30
0.0
 10
-817.7903070950548
 20
411.95667708031556
 30
0.0
 10
-817.65633249883933
 20
412.1686168178951
 30
0.0
 10
-817.65633249883933
 20
412.29098028243868
 30
0.0
  0
SPLINE
  5
28A
100
AcDbEntity
  8
一般
370
               5
  6
Continuous
 62
               7
100
AcDbSpline
210
0.0
220
0.0
230
1.0
 70
               9
 71
               2
 72
              17
 73
              14
 74
               0
 42
0.000001
 43
0.000001
 40
0.0
 40
0.0
 40
0.0
 40
1.0
 40
2.0
 40
3.0
 40
4.0
 40
5.0
 40
6.0
 40
7.0
 40
8.0
 40
9.0
 40
10.0
 40
11.0
 40
12.0
 40
12.0
 40
12.0
 10
-816.15633249883933
 20
412.29098028243868
 30
0.0
 10
-816.15633249883933
 20
412.7804341406129
 30
0.0
 10
-816.69223088370154
 20
413.62819309093118
 30
0.0
 10
-817.62043411397701
 20
414.11764694910534
 30
0.0
 10
-818.69223088370154
 20
414.11764694910534
 30
0.0
 10
-819.62043411397701
 20
413.62819309093118
 30
0.0
 10
-820.15633249883933
 20
412.7804341406129
 30
0.0
 10
-820.15633249883933
 20
411.80152642426452
 30
0.0
 10
-819.62043411397701
 20
410.95376747394619
 30
0.0
 10
-818.69223088370154
 20
410.46431361577203
 30
0.0
 10
-817.62043411397701
 20
410.46431361577203
 30
0.0
 10
-816.69223088370154
 20
410.95376747394619
 30
0.0
 10
-816.15633249883933
 20
411.80152642426447
 30
0.0
 10
-816.15633249883933
 20
412.29098028243868
 30
0.0
  0
SPLINE
  5
28B
100
AcDbEntity
  8
一般
370
              15
  6
Continuous
 62
               7
100
AcDbSpline
210
0.0
220
0.0
230
1.0
 70
               9
 71
               2
 72
              17
 73
              14
 74
               0
 42
0.000001
 43
0.000001
 40
0.0
 40
0.0
 40
0.0
 40
1.0
 40
2.0
 40
3.0
 40
4.0
 40
5.0
 40
6.0
 40
7.0
 40
8.0
 40
9.0
 40
10.0
 40
11.0
 40
12.0
 40
12.0
 40
12.0
 10
-803.28956365977172
 20
412.29098028243868
 30
0.0
 10
-803.28956365977172
 20
412.53570721152579
 30
0.0
 10
-803.55751285220276
 20
412.95958668668493
 30
0.0
 10
-804.02161446734056
 20
413.20431361577204
 30
0.0
 10
-804.55751285220276
 20
413.20431361577204
 30
0.0
 10
-805.02161446734056
 20
412.95958668668493
 30
0.0
 10
-805.28956365977172
 20
412.53570721152579
 30
0.0
 10
-805.28956365977172
 20
412.04625335335157
 30
0.0
 10
-805.02161446734056
 20
411.62237387819243
 30
0.0
 10
-804.55751285220276
 20
411.37764694910533
 30
0.0
 10
-804.02161446734056
 20
411.37764694910533
 30
0.0
 10
-803.55751285220276
 20
411.62237387819243
 30
0.0
 10
-803.28956365977172
 20
412.04625335335157
 30
0.0
 10
-803.28956365977172
 20
412.29098028243868
 30
0.0
  0
SPLINE
  5
28C
100
AcDbEntity
  8
一般
370
              15
  6
Continuous
 62
               7
100
AcDbSpline
210
0.0
220
0.0
230
1.0
 70
               9
 71
               2
 72
              17
 73
              14
 74
               0
 42
0.000001
 43
0.000001
 40
0.0
 40
0.0
 40
0.0
 40
1.0
 40
2.0
 40
3.0
 40
4.0
 40
5.0
 40
6.0
 40
7.0
 40
8.0
 40
9.0
 40
10.0
 40
11.0
 40
12.0
 40
12.0
 40
12.0
 10
-803.78956365977172
 20
412.29098028243868
 30
0.0
 10
-803.78956365977172
 20
412.41334374698221
 30
0.0
 10
-803.92353825598718
 20
412.62528348456181
 30
0.0
 10
-804.15558906355614
 20
412.74764694910533
 30
0.0
 10
-804.42353825598718
 20
412.74764694910533
 30
0.0
 10
-804.65558906355614
 20
412.62528348456181
 30
0.0
 10
-804.78956365977172
 20
412.41334374698221
 30
0.0
 10
-804.78956365977172
 20
412.1686168178951
 30
0.0
 10
-804.65558906355614
 20
411.95667708031556
 30
0.0
 10
-804.42353825598718
 20
411.83431361577203
 30
0.0
 10
-804.15558906355614
 20
411.83431361577203
 30
0.0
 10
-803.92353825598718
 20
411.95667708031556
 30
0.0
 10
-803.78956365977172
 20
412.1686168178951
 30
0.0
 10
-803.78956365977172
 20
412.29098028243868
 30
0.0
  0
SPLINE
  5
28D
100
AcDbEntity
  8
一般
370
               5
  6
Continuous
 62
               7
100
AcDbSpline
210
0.0
220
0.0
230
1.0
 70
               9
 71
               2
 72
              17
 73
              14
 74
               0
 42
0.000001
 43
0.000001
 40
0.0
 40
0.0
 40
0.0
 40
1.0
 40
2.0
 40
3.0
 40
4.0
 40
5.0
 40
6.0
 40
7.0
 40
8.0
 40
9.0
 40
10.0
 40
11.0
 40
12.0
 40
12.0
 40
12.0
 10
-802.28956365977172
 20
412.29098028243868
 30
0.0
 10
-802.28956365977172
 20
412.7804341406129
 30
0.0
 10
-802.82546204463392
 20
413.62819309093118
 30
0.0
 10
-803.75366527490939
 20
414.11764694910534
 30
0.0
 10
-804.82546204463392
 20
414.11764694910534
 30
0.0
 10
-805.75366527490939
 20
413.62819309093118
 30
0.0
 10
-806.28956365977172
 20
412.7804341406129
 30
0.0
 10
-806.28956365977172
 20
411.80152642426452
 30
0.0
 10
-805.75366527490939
 20
410.95376747394619
 30
0.0
 10
-804.82546204463392
 20
410.46431361577203
 30
0.0
 10
-803.75366527490939
 20
410.46431361577203
 30
0.0
 10
-802.82546204463392
 20
410.95376747394619
 30
0.0
 10
-802.28956365977172
 20
411.80152642426447
 30
0.0
 10
-802.28956365977172
 20
412.29098028243868
 30
0.0
  0
SPLINE
  5
28E
100
AcDbEntity
  8
一般
370
              15
  6
Continuous
 62
               7
100
AcDbSpline
210
0.0
220
0.0
230
1.0
 70
               9
 71
               2
 72
              17
 73
              14
 74
               0
 42
0.000001
 43
0.000001
 40
0.0
 40
0.0
 40
0.0
 40
1.0
 40
2.0
 40
3.0
 40
4.0
 40
5.0
 40
6.0
 40
7.0
 40
8.0
 40
9.0
 40
10.0
 40
11.0
 40
12.0
 40
12.0
 40
12.0
 10
-830.4070397055749
 20
408.55791124329545
 30
0.0
 10
-830.4070397055749
 20
408.80263817238256
 30
0.0
 10
-830.67498889800606
 20
409.2265176475417
 30
0.0
 10
-831.13909051314386
 20
409.47124457662881
 30
0.0
 10
-831.67498889800606
 20
409.47124457662881
 30
0.0
 10
-832.13909051314386
 20
409.2265176475417
 30
0.0
 10
-832.4070397055749
 20
408.80263817238256
 30
0.0
 10
-832.4070397055749
 20
408.3131843142084
 30
0.0
 10
-832.13909051314386
 20
407.88930483904926
 30
0.0
 10
-831.67498889800606
 20
407.64457790996215
 30
0.0
 10
-831.13909051314386
 20
407.64457790996215
 30
0.0
 10
-830.67498889800606
 20
407.8893048390492
 30
0.0
 10
-830.4070397055749
 20
408.31318431420834
 30
0.0
 10
-830.4070397055749
 20
408.55791124329545
 30
0.0
  0
SPLINE
  5
28F
100
AcDbEntity
  8
一般
370
              15
  6
Continuous
 62
               7
100
AcDbSpline
210
0.0
220
0.0
230
1.0
 70
               9
 71
               2
 72
              17
 73
              14
 74
               0
 42
0.000001
 43
0.000001
 40
0.0
 40
0.0
 40
0.0
 40
1.0
 40
2.0
 40
3.0
 40
4.0
 40
5.0
 40
6.0
 40
7.0
 40
8.0
 40
9.0
 40
10.0
 40
11.0
 40
12.0
 40
12.0
 40
12.0
 10
-830.9070397055749
 20
408.55791124329551
 30
0.0
 10
-830.9070397055749
 20
408.68027470783903
 30
0.0
 10
-831.04101430179048
 20
408.89221444541857
 30
0.0
 10
-831.27306510935944
 20
409.01457790996216
 30
0.0
 10
-831.54101430179048
 20
409.01457790996216
 30
0.0
 10
-831.77306510935944
 20
408.89221444541857
 30
0.0
 10
-831.9070397055749
 20
408.68027470783903
 30
0.0
 10
-831.9070397055749
 20
408.43554777875192
 30
0.0
 10
-831.77306510935944
 20
408.22360804117233
 30
0.0
 10
-831.54101430179048
 20
408.1012445766288
 30
0.0
 10
-831.27306510935944
 20
408.1012445766288
 30
0.0
 10
-831.04101430179048
 20
408.22360804117233
 30
0.0
 10
-830.9070397055749
 20
408.43554777875192
 30
0.0
 10
-830.9070397055749
 20
408.55791124329551
 30
0.0
  0
SPLINE
  5
290
100
AcDbEntity
  8
一般
370
               5
  6
Continuous
 62
               7
100
AcDbSpline
210
0.0
220
0.0
230
1.0
 70
               9
 71
               2
 72
              17
 73
              14
 74
               0
 42
0.000001
 43
0.000001
 40
0.0
 40
0.0
 40
0.0
 40
1.0
 40
2.0
 40
3.0
 40
4.0
 40
5.0
 40
6.0
 40
7.0
 40
8.0
 40
9.0
 40
10.0
 40
11.0
 40
12.0
 40
12.0
 40
12.0
 10
-829.4070397055749
 20
408.55791124329551
 30
0.0
 10
-829.4070397055749
 20
409.04736510146967
 30
0.0
 10
-829.94293809043722
 20
409.89512405178795
 30
0.0
 10
-830.8711413207127
 20
410.3845779099621
 30
0.0
 10
-831.94293809043722
 20
410.3845779099621
 30
0.0
 10
-832.8711413207127
 20
409.89512405178795
 30
0.0
 10
-833.4070397055749
 20
409.04736510146967
 30
0.0
 10
-833.4070397055749
 20
408.06845738512129
 30
0.0
 10
-832.8711413207127
 20
407.22069843480301
 30
0.0
 10
-831.94293809043722
 20
406.7312445766288
 30
0.0
 10
-830.8711413207127
 20
406.7312445766288
 30
0.0
 10
-829.94293809043722
 20
407.22069843480296
 30
0.0
 10
-829.4070397055749
 20
408.06845738512129
 30
0.0
 10
-829.4070397055749
 20
408.55791124329551
 30
0.0
  0
SPLINE
  5
291
100
AcDbEntity
  8
一般
370
              15
  6
Continuous
 62
               7
100
AcDbSpline
210
0.0
220
0.0
230
1.0
 70
               9
 71
               2
 72
              17
 73
              14
 74
               0
 42
0.000001
 43
0.000001
 40
0.0
 40
0.0
 40
0.0
 40
1.0
 40
2.0
 40
3.0
 40
4.0
 40
5.0
 40
6.0
 40
7.0
 40
8.0
 40
9.0
 40
10.0
 40
11.0
 40
12.0
 40
12.0
 40
12.0
 10
-841.86430179488934
 20
401.42347273144054
 30
0.0
 10
-841.86430179488934
 20
401.66819966052765
 30
0.0
 10
-842.1322509873205
 20
402.09207913568679
 30
0.0
 10
-842.59635260245818
 20
402.3368060647739
 30
0.0
 10
-843.1322509873205
 20
402.3368060647739
 30
0.0
 10
-843.59635260245818
 20
402.09207913568679
 30
0.0
 10
-843.86430179488934
 20
401.66819966052765
 30
0.0
 10
-843.86430179488934
 20
401.17874580235343
 30
0.0
 10
-843.59635260245818
 20
400.75486632719429
 30
0.0
 10
-843.1322509873205
 20
400.51013939810719
 30
0.0
 10
-842.59635260245818
 20
400.51013939810719
 30
0.0
 10
-842.1322509873205
 20
400.75486632719429
 30
0.0
 10
-841.86430179488934
 20
401.17874580235343
 30
0.0
 10
-841.86430179488934
 20
401.42347273144054
 30
0.0
  0
SPLINE
  5
292
100
AcDbEntity
  8
一般
370
              15
  6
Continuous
 62
               7
100
AcDbSpline
210
0.0
220
0.0
230
1.0
 70
               9
 71
               2
 72
              17
 73
              14
 74
               0
 42
0.000001
 43
0.000001
 40
0.0
 40
0.0
 40
0.0
 40
1.0
 40
2.0
 40
3.0
 40
4.0
 40
5.0
 40
6.0
 40
7.0
 40
8.0
 40
9.0
 40
10.0
 40
11.0
 40
12.0
 40
12.0
 40
12.0
 10
-842.36430179488934
 20
401.42347273144054
 30
0.0
 10
-842.36430179488934
 20
401.54583619598407
 30
0.0
 10
-842.49827639110492
 20
401.75777593356366
 30
0.0
 10
-842.73032719867376
 20
401.88013939810719
 30
0.0
 10
-842.99827639110492
 20
401.88013939810719
 30
0.0
 10
-843.23032719867376
 20
401.75777593356366
 30
0.0
 10
-843.36430179488934
 20
401.54583619598407
 30
0.0
 10
-843.36430179488934
 20
401.30110926689702
 30
0.0
 10
-843.23032719867376
 20
401.08916952931742
 30
0.0
 10
-842.99827639110492
 20
400.96680606477389
 30
0.0
 10
-842.73032719867376
 20
400.96680606477389
 30
0.0
 10
-842.49827639110492
 20
401.08916952931742
 30
0.0
 10
-842.36430179488934
 20
401.30110926689702
 30
0.0
 10
-842.36430179488934
 20
401.42347273144054
 30
0.0
  0
SPLINE
  5
293
100
AcDbEntity
  8
一般
370
               5
  6
Continuous
 62
               7
100
AcDbSpline
210
0.0
220
0.0
230
1.0
 70
               9
 71
               2
 72
              17
 73
              14
 74
               0
 42
0.000001
 43
0.000001
 40
0.0
 40
0.0
 40
0.0
 40
1.0
 40
2.0
 40
3.0
 40
4.0
 40
5.0
 40
6.0
 40
7.0
 40
8.0
 40
9.0
 40
10.0
 40
11.0
 40
12.0
 40
12.0
 40
12.0
 10
-840.86430179488934
 20
401.42347273144054
 30
0.0
 10
-840.86430179488934
 20
401.9129265896147
 30
0.0
 10
-841.40020017975155
 20
402.76068553993304
 30
0.0
 10
-842.32840341002714
 20
403.25013939810719
 30
0.0
 10
-843.40020017975155
 20
403.25013939810719
 30
0.0
 10
-844.32840341002714
 20
402.76068553993304
 30
0.0
 10
-844.86430179488934
 20
401.9129265896147
 30
0.0
 10
-844.86430179488934
 20
400.93401887326638
 30
0.0
 10
-844.32840341002714
 20
400.08625992294805
 30
0.0
 10
-843.40020017975166
 20
399.59680606477389
 30
0.0
 10
-842.32840341002714
 20
399.59680606477389
 30
0.0
 10
-841.40020017975166
 20
400.08625992294805
 30
0.0
 10
-840.86430179488934
 20
400.93401887326638
 30
0.0
 10
-840.86430179488934
 20
401.42347273144054
 30
0.0
  0
SPLINE
  5
294
100
AcDbEntity
  8
一般
370
              15
  6
Continuous
 62
               7
100
AcDbSpline
210
0.0
220
0.0
230
1.0
 70
               9
 71
               2
 72
              17
 73
              14
 74
               0
 42
0.000001
 43
0.000001
 40
0.0
 40
0.0
 40
0.0
 40
1.0
 40
2.0
 40
3.0
 40
4.0
 40
5.0
 40
6.0
 40
7.0
 40
8.0
 40
9.0
 40
10.0
 40
11.0
 40
12.0
 40
12.0
 40
12.0
 10
-850.51009075078048
 20
391.52159091761996
 30
0.0
 10
-850.51009075078048
 20
391.76631784670707
 30
0.0
 10
-850.77803994321152
 20
392.19019732186621
 30
0.0
 10
-851.24214155834932
 20
392.43492425095332
 30
0.0
 10
-851.77803994321152
 20
392.43492425095332
 30
0.0
 10
-852.24214155834932
 20
392.19019732186621
 30
0.0
 10
-852.51009075078048
 20
391.76631784670707
 30
0.0
 10
-852.51009075078048
 20
391.27686398853291
 30
0.0
 10
-852.24214155834932
 20
390.85298451337371
 30
0.0
 10
-851.77803994321152
 20
390.60825758428666
 30
0.0
 10
-851.24214155834932
 20
390.60825758428666
 30
0.0
 10
-850.77803994321152
 20
390.85298451337371
 30
0.0
 10
-850.51009075078048
 20
391.27686398853285
 30
0.0
 10
-850.51009075078048
 20
391.52159091761996
 30
0.0
  0
SPLINE
  5
295
100
AcDbEntity
  8
一般
370
              15
  6
Continuous
 62
               7
100
AcDbSpline
210
0.0
220
0.0
230
1.0
 70
               9
 71
               2
 72
              17
 73
              14
 74
               0
 42
0.000001
 43
0.000001
 40
0.0
 40
0.0
 40
0.0
 40
1.0
 40
2.0
 40
3.0
 40
4.0
 40
5.0
 40
6.0
 40
7.0
 40
8.0
 40
9.0
 40
10.0
 40
11.0
 40
12.0
 40
12.0
 40
12.0
 10
-851.01009075078048
 20
391.52159091761996
 30
0.0
 10
-851.01009075078048
 20
391.64395438216354
 30
0.0
 10
-851.14406534699606
 20
391.85589411974308
 30
0.0
 10
-851.3761161545649
 20
391.97825758428661
 30
0.0
 10
-851.64406534699606
 20
391.97825758428661
 30
0.0
 10
-851.8761161545649
 20
391.85589411974308
 30
0.0
 10
-852.01009075078048
 20
391.64395438216354
 30
0.0
 10
-852.01009075078048
 20
391.39922745307643
 30
0.0
 10
-851.8761161545649
 20
391.18728771549684
 30
0.0
 10
-851.64406534699606
 20
391.06492425095331
 30
0.0
 10
-851.3761161545649
 20
391.06492425095331
 30
0.0
 10
-851.14406534699606
 20
391.18728771549684
 30
0.0
 10
-851.01009075078048
 20
391.39922745307643
 30
0.0
 10
-851.01009075078048
 20
391.52159091761996
 30
0.0
  0
SPLINE
  5
296
100
AcDbEntity
  8
一般
370
               5
  6
Continuous
 62
               7
100
AcDbSpline
210
0.0
220
0.0
230
1.0
 70
               9
 71
               2
 72
              17
 73
              14
 74
               0
 42
0.000001
 43
0.000001
 40
0.0
 40
0.0
 40
0.0
 40
1.0
 40
2.0
 40
3.0
 40
4.0
 40
5.0
 40
6.0
 40
7.0
 40
8.0
 40
9.0
 40
10.0
 40
11.0
 40
12.0
 40
12.0
 40
12.0
 10
-849.51009075078048
 20
391.52159091761996
 30
0.0
 10
-849.51009075078048
 20
392.01104477579418
 30
0.0
 10
-850.04598913564269
 20
392.85880372611246
 30
0.0
 10
-850.97419236591816
 20
393.34825758428661
 30
0.0
 10
-852.04598913564269
 20
393.34825758428661
 30
0.0
 10
-852.97419236591816
 20
392.85880372611246
 30
0.0
 10
-853.51009075078048
 20
392.01104477579418
 30
0.0
 10
-853.51009075078048
 20
391.0321370594458
 30
0.0
 10
-852.97419236591816
 20
390.18437810912746
 30
0.0
 10
-852.04598913564269
 20
389.69492425095331
 30
0.0
 10
-850.97419236591816
 20
389.69492425095331
 30
0.0
 10
-850.04598913564269
 20
390.18437810912746
 30
0.0
 10
-849.51009075078048
 20
391.03213705944574
 30
0.0
 10
-849.51009075078048
 20
391.52159091761996
 30
0.0
  0
SPLINE
  5
297
100
AcDbEntity
  8
一般
370
              15
  6
Continuous
 62
               7
100
AcDbSpline
210
0.0
220
0.0
230
1.0
 70
               9
 71
               2
 72
              17
 73
              14
 74
               0
 42
0.000001
 43
0.000001
 40
0.0
 40
0.0
 40
0.0
 40
1.0
 40
2.0
 40
3.0
 40
4.0
 40
5.0
 40
6.0
 40
7.0
 40
8.0
 40
9.0
 40
10.0
 40
11.0
 40
12.0
 40
12.0
 40
12.0
 10
-790.03885645303603
 20
408.55791124329545
 30
0.0
 10
-790.03885645303603
 20
408.80263817238256
 30
0.0
 10
-790.30680564546719
 20
409.2265176475417
 30
0.0
 10
-790.77090726060487
 20
409.47124457662875
 30
0.0
 10
-791.30680564546719
 20
409.47124457662875
 30
0.0
 10
-791.77090726060487
 20
409.2265176475417
 30
0.0
 10
-792.03885645303603
 20
408.80263817238256
 30
0.0
 10
-792.03885645303603
 20
408.31318431420834
 30
0.0
 10
-791.77090726060487
 20
407.8893048390492
 30
0.0
 10
-791.30680564546719
 20
407.64457790996209
 30
0.0
 10
-790.77090726060487
 20
407.64457790996209
 30
0.0
 10
-790.30680564546719
 20
407.8893048390492
 30
0.0
 10
-790.03885645303603
 20
408.31318431420834
 30
0.0
 10
-790.03885645303603
 20
408.55791124329545
 30
0.0
  0
SPLINE
  5
298
100
AcDbEntity
  8
一般
370
              15
  6
Continuous
 62
               7
100
AcDbSpline
210
0.0
220
0.0
230
1.0
 70
               9
 71
               2
 72
              17
 73
              14
 74
               0
 42
0.000001
 43
0.000001
 40
0.0
 40
0.0
 40
0.0
 40
1.0
 40
2.0
 40
3.0
 40
4.0
 40
5.0
 40
6.0
 40
7.0
 40
8.0
 40
9.0
 40
10.0
 40
11.0
 40
12.0
 40
12.0
 40
12.0
 10
-790.53885645303603
 20
408.55791124329539
 30
0.0
 10
-790.53885645303603
 20
408.68027470783898
 30
0.0
 10
-790.67283104925161
 20
408.89221444541857
 30
0.0
 10
-790.90488185682045
 20
409.0145779099621
 30
0.0
 10
-791.17283104925161
 20
409.0145779099621
 30
0.0
 10
-791.40488185682045
 20
408.89221444541857
 30
0.0
 10
-791.53885645303603
 20
408.68027470783898
 30
0.0
 10
-791.53885645303603
 20
408.43554777875187
 30
0.0
 10
-791.40488185682045
 20
408.22360804117233
 30
0.0
 10
-791.17283104925161
 20
408.1012445766288
 30
0.0
 10
-790.90488185682045
 20
408.1012445766288
 30
0.0
 10
-790.67283104925161
 20
408.22360804117233
 30
0.0
 10
-790.53885645303603
 20
408.43554777875187
 30
0.0
 10
-790.53885645303603
 20
408.55791124329539
 30
0.0
  0
SPLINE
  5
299
100
AcDbEntity
  8
一般
370
               5
  6
Continuous
 62
               7
100
AcDbSpline
210
0.0
220
0.0
230
1.0
 70
               9
 71
               2
 72
              17
 73
              14
 74
               0
 42
0.000001
 43
0.000001
 40
0.0
 40
0.0
 40
0.0
 40
1.0
 40
2.0
 40
3.0
 40
4.0
 40
5.0
 40
6.0
 40
7.0
 40
8.0
 40
9.0
 40
10.0
 40
11.0
 40
12.0
 40
12.0
 40
12.0
 10
-789.03885645303603
 20
408.55791124329539
 30
0.0
 10
-789.03885645303603
 20
409.04736510146961
 30
0.0
 10
-789.57475483789824
 20
409.89512405178789
 30
0.0
 10
-790.50295806817383
 20
410.3845779099621
 30
0.0
 10
-791.57475483789824
 20
410.3845779099621
 30
0.0
 10
-792.50295806817383
 20
409.89512405178789
 30
0.0
 10
-793.03885645303603
 20
409.04736510146961
 30
0.0
 10
-793.03885645303603
 20
408.06845738512129
 30
0.0
 10
-792.50295806817383
 20
407.22069843480296
 30
0.0
 10
-791.57475483789824
 20
406.7312445766288
 30
0.0
 10
-790.50295806817383
 20
406.7312445766288
 30
0.0
 10
-789.57475483789824
 20
407.22069843480296
 30
0.0
 10
-789.03885645303603
 20
408.06845738512123
 30
0.0
 10
-789.03885645303603
 20
408.55791124329539
 30
0.0
  0
SPLINE
  5
29A
100
AcDbEntity
  8
一般
370
              15
  6
Continuous
 62
               7
100
AcDbSpline
210
0.0
220
0.0
230
1.0
 70
               9
 71
               2
 72
              17
 73
              14
 74
               0
 42
0.000001
 43
0.000001
 40
0.0
 40
0.0
 40
0.0
 40
1.0
 40
2.0
 40
3.0
 40
4.0
 40
5.0
 40
6.0
 40
7.0
 40
8.0
 40
9.0
 40
10.0
 40
11.0
 40
12.0
 40
12.0
 40
12.0
 10
-778.58159436372159
 20
401.42347273144054
 30
0.0
 10
-778.58159436372159
 20
401.66819966052765
 30
0.0
 10
-778.84954355615275
 20
402.09207913568679
 30
0.0
 10
-779.31364517129055
 20
402.3368060647739
 30
0.0
 10
-779.84954355615275
 20
402.3368060647739
 30
0.0
 10
-780.31364517129055
 20
402.09207913568679
 30
0.0
 10
-780.58159436372159
 20
401.66819966052765
 30
0.0
 10
-780.58159436372159
 20
401.17874580235343
 30
0.0
 10
-780.31364517129055
 20
400.75486632719429
 30
0.0
 10
-779.84954355615275
 20
400.51013939810719
 30
0.0
 10
-779.31364517129055
 20
400.51013939810719
 30
0.0
 10
-778.84954355615275
 20
400.75486632719429
 30
0.0
 10
-778.58159436372159
 20
401.17874580235343
 30
0.0
 10
-778.58159436372159
 20
401.42347273144054
 30
0.0
  0
SPLINE
  5
29B
100
AcDbEntity
  8
一般
370
              15
  6
Continuous
 62
               7
100
AcDbSpline
210
0.0
220
0.0
230
1.0
 70
               9
 71
               2
 72
              17
 73
              14
 74
               0
 42
0.000001
 43
0.000001
 40
0.0
 40
0.0
 40
0.0
 40
1.0
 40
2.0
 40
3.0
 40
4.0
 40
5.0
 40
6.0
 40
7.0
 40
8.0
 40
9.0
 40
10.0
 40
11.0
 40
12.0
 40
12.0
 40
12.0
 10
-779.08159436372159
 20
401.42347273144054
 30
0.0
 10
-779.08159436372159
 20
401.54583619598407
 30
0.0
 10
-779.21556895993717
 20
401.75777593356366
 30
0.0
 10
-779.44761976750613
 20
401.88013939810719
 30
0.0
 10
-779.71556895993717
 20
401.88013939810719
 30
0.0
 10
-779.94761976750613
 20
401.75777593356366
 30
0.0
 10
-780.08159436372159
 20
401.54583619598407
 30
0.0
 10
-780.08159436372159
 20
401.30110926689702
 30
0.0
 10
-779.94761976750613
 20
401.08916952931742
 30
0.0
 10
-779.71556895993717
 20
400.96680606477389
 30
0.0
 10
-779.44761976750613
 20
400.96680606477389
 30
0.0
 10
-779.21556895993717
 20
401.08916952931742
 30
0.0
 10
-779.08159436372159
 20
401.30110926689702
 30
0.0
 10
-779.08159436372159
 20
401.42347273144054
 30
0.0
  0
SPLINE
  5
29C
100
AcDbEntity
  8
一般
370
               5
  6
Continuous
 62
               7
100
AcDbSpline
210
0.0
220
0.0
230
1.0
 70
               9
 71
               2
 72
              17
 73
              14
 74
               0
 42
0.000001
 43
0.000001
 40
0.0
 40
0.0
 40
0.0
 40
1.0
 40
2.0
 40
3.0
 40
4.0
 40
5.0
 40
6.0
 40
7.0
 40
8.0
 40
9.0
 40
10.0
 40
11.0
 40
12.0
 40
12.0
 40
12.0
 10
-777.58159436372159
 20
401.42347273144054
 30
0.0
 10
-777.58159436372159
 20
401.9129265896147
 30
0.0
 10
-778.11749274858391
 20
402.76068553993304
 30
0.0
 10
-779.04569597885938
 20
403.25013939810719
 30
0.0
 10
-780.11749274858391
 20
403.25013939810719
 30
0.0
 10
-781.04569597885938
 20
402.76068553993304
 30
0.0
 10
-781.58159436372159
 20
401.9129265896147
 30
0.0
 10
-781.58159436372159
 20
400.93401887326638
 30
0.0
 10
-781.04569597885938
 20
400.08625992294805
 30
0.0
 10
-780.11749274858391
 20
399.59680606477389
 30
0.0
 10
-779.04569597885938
 20
399.59680606477389
 30
0.0
 10
-778.11749274858391
 20
400.08625992294805
 30
0.0
 10
-777.58159436372159
 20
400.93401887326638
 30
0.0
 10
-777.58159436372159
 20
401.42347273144054
 30
0.0
  0
SPLINE
  5
29D
100
AcDbEntity
  8
一般
370
              15
  6
Continuous
 62
               7
100
AcDbSpline
210
0.0
220
0.0
230
1.0
 70
               9
 71
               2
 72
              17
 73
              14
 74
               0
 42
0.000001
 43
0.000001
 40
0.0
 40
0.0
 40
0.0
 40
1.0
 40
2.0
 40
3.0
 40
4.0
 40
5.0
 40
6.0
 40
7.0
 40
8.0
 40
9.0
 40
10.0
 40
11.0
 40
12.0
 40
12.0
 40
12.0
 10
-769.93580540783057
 20
391.52159091761996
 30
0.0
 10
-769.93580540783057
 20
391.76631784670707
 30
0.0
 10
-770.20375460026173
 20
392.19019732186621
 30
0.0
 10
-770.66785621539941
 20
392.43492425095332
 30
0.0
 10
-771.20375460026173
 20
392.43492425095332
 30
0.0
 10
-771.66785621539941
 20
392.19019732186621
 30
0.0
 10
-771.93580540783057
 20
391.76631784670707
 30
0.0
 10
-771.93580540783057
 20
391.27686398853291
 30
0.0
 10
-771.66785621539941
 20
390.85298451337371
 30
0.0
 10
-771.20375460026173
 20
390.60825758428666
 30
0.0
 10
-770.66785621539941
 20
390.60825758428666
 30
0.0
 10
-770.20375460026173
 20
390.85298451337371
 30
0.0
 10
-769.93580540783057
 20
391.27686398853285
 30
0.0
 10
-769.93580540783057
 20
391.52159091761996
 30
0.0
  0
SPLINE
  5
29E
100
AcDbEntity
  8
一般
370
              15
  6
Continuous
 62
               7
100
AcDbSpline
210
0.0
220
0.0
230
1.0
 70
               9
 71
               2
 72
              17
 73
              14
 74
               0
 42
0.000001
 43
0.000001
 40
0.0
 40
0.0
 40
0.0
 40
1.0
 40
2.0
 40
3.0
 40
4.0
 40
5.0
 40
6.0
 40
7.0
 40
8.0
 40
9.0
 40
10.0
 40
11.0
 40
12.0
 40
12.0
 40
12.0
 10
-770.43580540783057
 20
391.52159091761996
 30
0.0
 10
-770.43580540783057
 20
391.64395438216354
 30
0.0
 10
-770.56978000404615
 20
391.85589411974308
 30
0.0
 10
-770.80183081161499
 20
391.97825758428661
 30
0.0
 10
-771.06978000404615
 20
391.97825758428661
 30
0.0
 10
-771.30183081161499
 20
391.85589411974308
 30
0.0
 10
-771.43580540783057
 20
391.64395438216354
 30
0.0
 10
-771.43580540783057
 20
391.39922745307643
 30
0.0
 10
-771.30183081161499
 20
391.18728771549684
 30
0.0
 10
-771.06978000404615
 20
391.06492425095331
 30
0.0
 10
-770.80183081161499
 20
391.06492425095331
 30
0.0
 10
-770.56978000404615
 20
391.18728771549684
 30
0.0
 10
-770.43580540783057
 20
391.39922745307643
 30
0.0
 10
-770.43580540783057
 20
391.52159091761996
 30
0.0
  0
SPLINE
  5
29F
100
AcDbEntity
  8
一般
370
               5
  6
Continuous
 62
               7
100
AcDbSpline
210
0.0
220
0.0
230
1.0
 70
               9
 71
               2
 72
              17
 73
              14
 74
               0
 42
0.000001
 43
0.000001
 40
0.0
 40
0.0
 40
0.0
 40
1.0
 40
2.0
 40
3.0
 40
4.0
 40
5.0
 40
6.0
 40
7.0
 40
8.0
 40
9.0
 40
10.0
 40
11.0
 40
12.0
 40
12.0
 40
12.0
 10
-768.93580540783057
 20
391.52159091761996
 30
0.0
 10
-768.93580540783057
 20
392.01104477579418
 30
0.0
 10
-769.47170379269278
 20
392.85880372611246
 30
0.0
 10
-770.39990702296836
 20
393.34825758428661
 30
0.0
 10
-771.47170379269278
 20
393.34825758428661
 30
0.0
 10
-772.39990702296836
 20
392.85880372611246
 30
0.0
 10
-772.93580540783057
 20
392.01104477579418
 30
0.0
 10
-772.93580540783057
 20
391.0321370594458
 30
0.0
 10
-772.39990702296836
 20
390.18437810912746
 30
0.0
 10
-771.47170379269278
 20
389.69492425095331
 30
0.0
 10
-770.39990702296836
 20
389.69492425095331
 30
0.0
 10
-769.47170379269278
 20
390.18437810912746
 30
0.0
 10
-768.93580540783057
 20
391.03213705944574
 30
0.0
 10
-768.93580540783057
 20
391.52159091761996
 30
0.0
  0
SPLINE
  5
2A0
100
AcDbEntity
  8
一般
370
              15
  6
Continuous
 62
               7
100
AcDbSpline
210
0.0
220
0.0
230
1.0
 70
               9
 71
               2
 72
              17
 73
              14
 74
               0
 42
0.000001
 43
0.000001
 40
0.0
 40
0.0
 40
0.0
 40
1.0
 40
2.0
 40
3.0
 40
4.0
 40
5.0
 40
6.0
 40
7.0
 40
8.0
 40
9.0
 40
10.0
 40
11.0
 40
12.0
 40
12.0
 40
12.0
 10
-764.86970587551355
 20
379.73209145468428
 30
0.0
 10
-764.86970587551355
 20
379.97681838377139
 30
0.0
 10
-765.13765506794471
 20
380.40069785893053
 30
0.0
 10
-765.6017566830825
 20
380.64542478801758
 30
0.0
 10
-766.13765506794471
 20
380.64542478801758
 30
0.0
 10
-766.6017566830825
 20
380.40069785893053
 30
0.0
 10
-766.86970587551355
 20
379.97681838377139
 30
0.0
 10
-766.86970587551355
 20
379.48736452559717
 30
0.0
 10
-766.6017566830825
 20
379.06348505043803
 30
0.0
 10
-766.13765506794471
 20
378.81875812135092
 30
0.0
 10
-765.6017566830825
 20
378.81875812135092
 30
0.0
 10
-765.13765506794471
 20
379.06348505043803
 30
0.0
 10
-764.86970587551355
 20
379.48736452559717
 30
0.0
 10
-764.86970587551355
 20
379.73209145468428
 30
0.0
  0
SPLINE
  5
2A1
100
AcDbEntity
  8
一般
370
              15
  6
Continuous
 62
               7
100
AcDbSpline
210
0.0
220
0.0
230
1.0
 70
               9
 71
               2
 72
              17
 73
              14
 74
               0
 42
0.000001
 43
0.000001
 40
0.0
 40
0.0
 40
0.0
 40
1.0
 40
2.0
 40
3.0
 40
4.0
 40
5.0
 40
6.0
 40
7.0
 40
8.0
 40
9.0
 40
10.0
 40
11.0
 40
12.0
 40
12.0
 40
12.0
 10
-765.36970587551355
 20
379.73209145468422
 30
0.0
 10
-765.36970587551355
 20
379.85445491922781
 30
0.0
 10
-765.50368047172913
 20
380.0663946568074
 30
0.0
 10
-765.73573127929808
 20
380.18875812135093
 30
0.0
 10
-766.00368047172913
 20
380.18875812135093
 30
0.0
 10
-766.23573127929808
 20
380.0663946568074
 30
0.0
 10
-766.36970587551355
 20
379.85445491922781
 30
0.0
 10
-766.36970587551355
 20
379.6097279901407
 30
0.0
 10
-766.23573127929808
 20
379.39778825256116
 30
0.0
 10
-766.00368047172913
 20
379.27542478801763
 30
0.0
 10
-765.73573127929808
 20
379.27542478801763
 30
0.0
 10
-765.50368047172913
 20
379.39778825256116
 30
0.0
 10
-765.36970587551355
 20
379.6097279901407
 30
0.0
 10
-765.36970587551355
 20
379.73209145468422
 30
0.0
  0
SPLINE
  5
2A2
100
AcDbEntity
  8
一般
370
               5
  6
Continuous
 62
               7
100
AcDbSpline
210
0.0
220
0.0
230
1.0
 70
               9
 71
               2
 72
              17
 73
              14
 74
               0
 42
0.000001
 43
0.000001
 40
0.0
 40
0.0
 40
0.0
 40
1.0
 40
2.0
 40
3.0
 40
4.0
 40
5.0
 40
6.0
 40
7.0
 40
8.0
 40
9.0
 40
10.0
 40
11.0
 40
12.0
 40
12.0
 40
12.0
 10
-763.86970587551355
 20
379.73209145468422
 30
0.0
 10
-763.86970587551355
 20
380.22154531285844
 30
0.0
 10
-764.40560426037587
 20
381.06930426317672
 30
0.0
 10
-765.33380749065134
 20
381.55875812135093
 30
0.0
 10
-766.40560426037587
 20
381.55875812135093
 30
0.0
 10
-767.33380749065134
 20
381.06930426317672
 30
0.0
 10
-767.86970587551355
 20
380.22154531285844
 30
0.0
 10
-767.86970587551355
 20
379.24263759651012
 30
0.0
 10
-767.33380749065134
 20
378.39487864619178
 30
0.0
 10
-766.40560426037587
 20
377.90542478801763
 30
0.0
 10
-765.33380749065134
 20
377.90542478801763
 30
0.0
 10
-764.40560426037587
 20
378.39487864619178
 30
0.0
 10
-763.86970587551355
 20
379.24263759651006
 30
0.0
 10
-763.86970587551355
 20
379.73209145468422
 30
0.0
  0
SPLINE
  5
2A3
100
AcDbEntity
  8
一般
370
              15
  6
Continuous
 62
               7
100
AcDbSpline
210
0.0
220
0.0
230
1.0
 70
               9
 71
               2
 72
              17
 73
              14
 74
               0
 42
0.000001
 43
0.000001
 40
0.0
 40
0.0
 40
0.0
 40
1.0
 40
2.0
 40
3.0
 40
4.0
 40
5.0
 40
6.0
 40
7.0
 40
8.0
 40
9.0
 40
10.0
 40
11.0
 40
12.0
 40
12.0
 40
12.0
 10
-855.5761902830975
 20
379.73209145468428
 30
0.0
 10
-855.5761902830975
 20
379.97681838377139
 30
0.0
 10
-855.84413947552855
 20
380.40069785893053
 30
0.0
 10
-856.30824109066634
 20
380.64542478801764
 30
0.0
 10
-856.84413947552855
 20
380.64542478801764
 30
0.0
 10
-857.30824109066634
 20
380.40069785893053
 30
0.0
 10
-857.5761902830975
 20
379.97681838377139
 30
0.0
 10
-857.5761902830975
 20
379.48736452559717
 30
0.0
 10
-857.30824109066634
 20
379.06348505043809
 30
0.0
 10
-856.84413947552855
 20
378.81875812135098
 30
0.0
 10
-856.30824109066634
 20
378.81875812135098
 30
0.0
 10
-855.84413947552855
 20
379.06348505043803
 30
0.0
 10
-855.5761902830975
 20
379.48736452559717
 30
0.0
 10
-855.5761902830975
 20
379.73209145468428
 30
0.0
  0
SPLINE
  5
2A4
100
AcDbEntity
  8
一般
370
              15
  6
Continuous
 62
               7
100
AcDbSpline
210
0.0
220
0.0
230
1.0
 70
               9
 71
               2
 72
              17
 73
              14
 74
               0
 42
0.000001
 43
0.000001
 40
0.0
 40
0.0
 40
0.0
 40
1.0
 40
2.0
 40
3.0
 40
4.0
 40
5.0
 40
6.0
 40
7.0
 40
8.0
 40
9.0
 40
10.0
 40
11.0
 40
12.0
 40
12.0
 40
12.0
 10
-856.0761902830975
 20
379.73209145468434
 30
0.0
 10
-856.0761902830975
 20
379.85445491922786
 30
0.0
 10
-856.21016487931308
 20
380.0663946568074
 30
0.0
 10
-856.44221568688192
 20
380.18875812135093
 30
0.0
 10
-856.71016487931308
 20
380.18875812135093
 30
0.0
 10
-856.94221568688192
 20
380.0663946568074
 30
0.0
 10
-857.0761902830975
 20
379.85445491922786
 30
0.0
 10
-857.0761902830975
 20
379.60972799014075
 30
0.0
 10
-856.94221568688192
 20
379.39778825256116
 30
0.0
 10
-856.71016487931308
 20
379.27542478801763
 30
0.0
 10
-856.44221568688192
 20
379.27542478801763
 30
0.0
 10
-856.21016487931308
 20
379.39778825256116
 30
0.0
 10
-856.0761902830975
 20
379.60972799014075
 30
0.0
 10
-856.0761902830975
 20
379.73209145468434
 30
0.0
  0
SPLINE
  5
2A5
100
AcDbEntity
  8
一般
370
               5
  6
Continuous
 62
               7
100
AcDbSpline
210
0.0
220
0.0
230
1.0
 70
               9
 71
               2
 72
              17
 73
              14
 74
               0
 42
0.000001
 43
0.000001
 40
0.0
 40
0.0
 40
0.0
 40
1.0
 40
2.0
 40
3.0
 40
4.0
 40
5.0
 40
6.0
 40
7.0
 40
8.0
 40
9.0
 40
10.0
 40
11.0
 40
12.0
 40
12.0
 40
12.0
 10
-854.5761902830975
 20
379.73209145468434
 30
0.0
 10
-854.5761902830975
 20
380.2215453128585
 30
0.0
 10
-855.11208866795971
 20
381.06930426317678
 30
0.0
 10
-856.04029189823518
 20
381.55875812135093
 30
0.0
 10
-857.11208866795971
 20
381.55875812135093
 30
0.0
 10
-858.04029189823518
 20
381.06930426317678
 30
0.0
 10
-858.5761902830975
 20
380.2215453128585
 30
0.0
 10
-858.5761902830975
 20
379.24263759651012
 30
0.0
 10
-858.04029189823518
 20
378.39487864619184
 30
0.0
 10
-857.11208866795971
 20
377.90542478801763
 30
0.0
 10
-856.04029189823518
 20
377.90542478801763
 30
0.0
 10
-855.11208866795971
 20
378.39487864619178
 30
0.0
 10
-854.5761902830975
 20
379.24263759651012
 30
0.0
 10
-854.5761902830975
 20
379.73209145468434
 30
0.0
  0
SPLINE
  5
2A6
100
AcDbEntity
  8
一般
370
              15
  6
Continuous
 62
               7
100
AcDbSpline
210
0.0
220
0.0
230
1.0
 70
               9
 71
               2
 72
              17
 73
              14
 74
               0
 42
0.000001
 43
0.000001
 40
0.0
 40
0.0
 40
0.0
 40
1.0
 40
2.0
 40
3.0
 40
4.0
 40
5.0
 40
6.0
 40
7.0
 40
8.0
 40
9.0
 40
10.0
 40
11.0
 40
12.0
 40
12.0
 40
12.0
 10
-856.6124552161823
 20
367.10252310728163
 30
0.0
 10
-856.6124552161823
 20
367.34725003636868
 30
0.0
 10
-856.88040440861334
 20
367.77112951152782
 30
0.0
 10
-857.34450602375114
 20
368.01585644061493
 30
0.0
 10
-857.88040440861334
 20
368.01585644061493
 30
0.0
 10
-858.34450602375114
 20
367.77112951152782
 30
0.0
 10
-858.6124552161823
 20
367.34725003636868
 30
0.0
 10
-858.6124552161823
 20
366.85779617819452
 30
0.0
 10
-858.34450602375114
 20
366.43391670303538
 30
0.0
 10
-857.88040440861334
 20
366.18918977394827
 30
0.0
 10
-857.34450602375114
 20
366.18918977394827
 30
0.0
 10
-856.88040440861334
 20
366.43391670303532
 30
0.0
 10
-856.6124552161823
 20
366.85779617819452
 30
0.0
 10
-856.6124552161823
 20
367.10252310728163
 30
0.0
  0
SPLINE
  5
2A7
100
AcDbEntity
  8
一般
370
              15
  6
Continuous
 62
               7
100
AcDbSpline
210
0.0
220
0.0
230
1.0
 70
               9
 71
               2
 72
              17
 73
              14
 74
               0
 42
0.000001
 43
0.000001
 40
0.0
 40
0.0
 40
0.0
 40
1.0
 40
2.0
 40
3.0
 40
4.0
 40
5.0
 40
6.0
 40
7.0
 40
8.0
 40
9.0
 40
10.0
 40
11.0
 40
12.0
 40
12.0
 40
12.0
 10
-857.1124552161823
 20
367.10252310728163
 30
0.0
 10
-857.1124552161823
 20
367.22488657182515
 30
0.0
 10
-857.24642981239788
 20
367.43682630940469
 30
0.0
 10
-857.47848061996672
 20
367.55918977394828
 30
0.0
 10
-857.74642981239788
 20
367.55918977394828
 30
0.0
 10
-857.97848061996672
 20
367.43682630940469
 30
0.0
 10
-858.1124552161823
 20
367.22488657182515
 30
0.0
 10
-858.1124552161823
 20
366.98015964273804
 30
0.0
 10
-857.97848061996672
 20
366.7682199051585
 30
0.0
 10
-857.74642981239788
 20
366.64585644061492
 30
0.0
 10
-857.47848061996672
 20
366.64585644061492
 30
0.0
 10
-857.24642981239788
 20
366.76821990515845
 30
0.0
 10
-857.1124552161823
 20
366.98015964273804
 30
0.0
 10
-857.1124552161823
 20
367.10252310728163
 30
0.0
  0
SPLINE
  5
2A8
100
AcDbEntity
  8
一般
370
               5
  6
Continuous
 62
               7
100
AcDbSpline
210
0.0
220
0.0
230
1.0
 70
               9
 71
               2
 72
              17
 73
              14
 74
               0
 42
0.000001
 43
0.000001
 40
0.0
 40
0.0
 40
0.0
 40
1.0
 40
2.0
 40
3.0
 40
4.0
 40
5.0
 40
6.0
 40
7.0
 40
8.0
 40
9.0
 40
10.0
 40
11.0
 40
12.0
 40
12.0
 40
12.0
 10
-855.6124552161823
 20
367.10252310728163
 30
0.0
 10
-855.6124552161823
 20
367.59197696545579
 30
0.0
 10
-856.14835360104451
 20
368.43973591577407
 30
0.0
 10
-857.07655683131998
 20
368.92918977394828
 30
0.0
 10
-858.14835360104451
 20
368.92918977394828
 30
0.0
 10
-859.07655683131998
 20
368.43973591577407
 30
0.0
 10
-859.6124552161823
 20
367.59197696545579
 30
0.0
 10
-859.6124552161823
 20
366.61306924910741
 30
0.0
 10
-859.07655683131998
 20
365.76531029878913
 30
0.0
 10
-858.14835360104451
 20
365.27585644061492
 30
0.0
 10
-857.07655683131998
 20
365.27585644061492
 30
0.0
 10
-856.14835360104451
 20
365.76531029878907
 30
0.0
 10
-855.6124552161823
 20
366.61306924910741
 30
0.0
 10
-855.6124552161823
 20
367.10252310728163
 30
0.0
  0
SPLINE
  5
2A9
100
AcDbEntity
  8
一般
370
              15
  6
Continuous
 62
               7
100
AcDbSpline
210
0.0
220
0.0
230
1.0
 70
               9
 71
               2
 72
              17
 73
              14
 74
               0
 42
0.000001
 43
0.000001
 40
0.0
 40
0.0
 40
0.0
 40
1.0
 40
2.0
 40
3.0
 40
4.0
 40
5.0
 40
6.0
 40
7.0
 40
8.0
 40
9.0
 40
10.0
 40
11.0
 40
12.0
 40
12.0
 40
12.0
 10
-853.59425776752755
 20
355.02498028243872
 30
0.0
 10
-853.59425776752755
 20
355.26970721152577
 30
0.0
 10
-853.8622069599586
 20
355.69358668668491
 30
0.0
 10
-854.32630857509639
 20
355.93831361577202
 30
0.0
 10
-854.8622069599586
 20
355.93831361577202
 30
0.0
 10
-855.32630857509639
 20
355.69358668668491
 30
0.0
 10
-855.59425776752755
 20
355.26970721152577
 30
0.0
 10
-855.59425776752755
 20
354.78025335335161
 30
0.0
 10
-855.32630857509639
 20
354.35637387819247
 30
0.0
 10
-854.8622069599586
 20
354.11164694910536
 30
0.0
 10
-854.32630857509639
 20
354.11164694910536
 30
0.0
 10
-853.8622069599586
 20
354.35637387819241
 30
0.0
 10
-853.59425776752755
 20
354.78025335335161
 30
0.0
 10
-853.59425776752755
 20
355.02498028243872
 30
0.0
  0
SPLINE
  5
2AA
100
AcDbEntity
  8
一般
370
              15
  6
Continuous
 62
               7
100
AcDbSpline
210
0.0
220
0.0
230
1.0
 70
               9
 71
               2
 72
              17
 73
              14
 74
               0
 42
0.000001
 43
0.000001
 40
0.0
 40
0.0
 40
0.0
 40
1.0
 40
2.0
 40
3.0
 40
4.0
 40
5.0
 40
6.0
 40
7.0
 40
8.0
 40
9.0
 40
10.0
 40
11.0
 40
12.0
 40
12.0
 40
12.0
 10
-854.09425776752755
 20
355.02498028243872
 30
0.0
 10
-854.09425776752755
 20
355.14734374698224
 30
0.0
 10
-854.22823236374313
 20
355.35928348456179
 30
0.0
 10
-854.46028317131197
 20
355.48164694910537
 30
0.0
 10
-854.72823236374313
 20
355.48164694910537
 30
0.0
 10
-854.96028317131197
 20
355.35928348456179
 30
0.0
 10
-855.09425776752755
 20
355.14734374698224
 30
0.0
 10
-855.09425776752755
 20
354.90261681789514
 30
0.0
 10
-854.96028317131197
 20
354.6906770803156
 30
0.0
 10
-854.72823236374313
 20
354.56831361577201
 30
0.0
 10
-854.46028317131197
 20
354.56831361577201
 30
0.0
 10
-854.22823236374313
 20
354.69067708031554
 30
0.0
 10
-854.09425776752755
 20
354.90261681789514
 30
0.0
 10
-854.09425776752755
 20
355.02498028243872
 30
0.0
  0
SPLINE
  5
2AB
100
AcDbEntity
  8
一般
370
               5
  6
Continuous
 62
               7
100
AcDbSpline
210
0.0
220
0.0
230
1.0
 70
               9
 71
               2
 72
              17
 73
              14
 74
               0
 42
0.000001
 43
0.000001
 40
0.0
 40
0.0
 40
0.0
 40
1.0
 40
2.0
 40
3.0
 40
4.0
 40
5.0
 40
6.0
 40
7.0
 40
8.0
 40
9.0
 40
10.0
 40
11.0
 40
12.0
 40
12.0
 40
12.0
 10
-852.59425776752755
 20
355.02498028243872
 30
0.0
 10
-852.59425776752755
 20
355.51443414061288
 30
0.0
 10
-853.13015615238976
 20
356.36219309093116
 30
0.0
 10
-854.05835938266523
 20
356.85164694910537
 30
0.0
 10
-855.13015615238976
 20
356.85164694910537
 30
0.0
 10
-856.05835938266523
 20
356.36219309093116
 30
0.0
 10
-856.59425776752755
 20
355.51443414061288
 30
0.0
 10
-856.59425776752755
 20
354.5355264242645
 30
0.0
 10
-856.05835938266523
 20
353.68776747394622
 30
0.0
 10
-855.13015615238976
 20
353.19831361577201
 30
0.0
 10
-854.05835938266523
 20
353.19831361577201
 30
0.0
 10
-853.13015615238976
 20
353.68776747394622
 30
0.0
 10
-852.59425776752755
 20
354.5355264242645
 30
0.0
 10
-852.59425776752755
 20
355.02498028243872
 30
0.0
  0
SPLINE
  5
2AC
100
AcDbEntity
  8
一般
370
              15
  6
Continuous
 62
               7
100
AcDbSpline
210
0.0
220
0.0
230
1.0
 70
               9
 71
               2
 72
              17
 73
              14
 74
               0
 42
0.000001
 43
0.000001
 40
0.0
 40
0.0
 40
0.0
 40
1.0
 40
2.0
 40
3.0
 40
4.0
 40
5.0
 40
6.0
 40
7.0
 40
8.0
 40
9.0
 40
10.0
 40
11.0
 40
12.0
 40
12.0
 40
12.0
 10
-846.59342444362289
 20
343.78688211785084
 30
0.0
 10
-846.59342444362289
 20
344.03160904693789
 30
0.0
 10
-846.86137363605394
 20
344.45548852209708
 30
0.0
 10
-847.32547525119173
 20
344.70021545118419
 30
0.0
 10
-847.86137363605405
 20
344.70021545118419
 30
0.0
 10
-848.32547525119173
 20
344.45548852209708
 30
0.0
 10
-848.59342444362289
 20
344.03160904693789
 30
0.0
 10
-848.59342444362289
 20
343.54215518876373
 30
0.0
 10
-848.32547525119173
 20
343.11827571360453
 30
0.0
 10
-847.86137363605405
 20
342.87354878451742
 30
0.0
 10
-847.32547525119173
 20
342.87354878451742
 30
0.0
 10
-846.86137363605394
 20
343.11827571360453
 30
0.0
 10
-846.59342444362289
 20
343.54215518876373
 30
0.0
 10
-846.59342444362289
 20
343.78688211785084
 30
0.0
  0
SPLINE
  5
2AD
100
AcDbEntity
  8
一般
370
              15
  6
Continuous
 62
               7
100
AcDbSpline
210
0.0
220
0.0
230
1.0
 70
               9
 71
               2
 72
              17
 73
              14
 74
               0
 42
0.000001
 43
0.000001
 40
0.0
 40
0.0
 40
0.0
 40
1.0
 40
2.0
 40
3.0
 40
4.0
 40
5.0
 40
6.0
 40
7.0
 40
8.0
 40
9.0
 40
10.0
 40
11.0
 40
12.0
 40
12.0
 40
12.0
 10
-847.09342444362289
 20
343.78688211785084
 30
0.0
 10
-847.09342444362289
 20
343.90924558239436
 30
0.0
 10
-847.22739903983847
 20
344.12118531997396
 30
0.0
 10
-847.45944984740731
 20
344.24354878451749
 30
0.0
 10
-847.72739903983847
 20
344.24354878451749
 30
0.0
 10
-847.95944984740731
 20
344.12118531997396
 30
0.0
 10
-848.09342444362289
 20
343.90924558239436
 30
0.0
 10
-848.09342444362289
 20
343.66451865330725
 30
0.0
 10
-847.95944984740731
 20
343.45257891572771
 30
0.0
 10
-847.72739903983847
 20
343.33021545118413
 30
0.0
 10
-847.45944984740731
 20
343.33021545118413
 30
0.0
 10
-847.22739903983847
 20
343.45257891572771
 30
0.0
 10
-847.09342444362289
 20
343.66451865330725
 30
0.0
 10
-847.09342444362289
 20
343.78688211785084
 30
0.0
  0
SPLINE
  5
2AE
100
AcDbEntity
  8
一般
370
               5
  6
Continuous
 62
               7
100
AcDbSpline
210
0.0
220
0.0
230
1.0
 70
               9
 71
               2
 72
              17
 73
              14
 74
               0
 42
0.000001
 43
0.000001
 40
0.0
 40
0.0
 40
0.0
 40
1.0
 40
2.0
 40
3.0
 40
4.0
 40
5.0
 40
6.0
 40
7.0
 40
8.0
 40
9.0
 40
10.0
 40
11.0
 40
12.0
 40
12.0
 40
12.0
 10
-845.59342444362289
 20
343.78688211785084
 30
0.0
 10
-845.59342444362289
 20
344.276335976025
 30
0.0
 10
-846.1293228284851
 20
345.12409492634333
 30
0.0
 10
-847.05752605876057
 20
345.61354878451749
 30
0.0
 10
-848.1293228284851
 20
345.61354878451749
 30
0.0
 10
-849.05752605876069
 20
345.12409492634333
 30
0.0
 10
-849.59342444362289
 20
344.276335976025
 30
0.0
 10
-849.59342444362289
 20
343.29742825967662
 30
0.0
 10
-849.05752605876069
 20
342.44966930935834
 30
0.0
 10
-848.1293228284851
 20
341.96021545118413
 30
0.0
 10
-847.05752605876069
 20
341.96021545118413
 30
0.0
 10
-846.1293228284851
 20
342.44966930935828
 30
0.0
 10
-845.59342444362289
 20
343.29742825967662
 30
0.0
 10
-845.59342444362289
 20
343.78688211785084
 30
0.0
  0
SPLINE
  5
2AF
100
AcDbEntity
  8
一般
370
              15
  6
Continuous
 62
               7
100
AcDbSpline
210
0.0
220
0.0
230
1.0
 70
               9
 71
               2
 72
              17
 73
              14
 74
               0
 42
0.000001
 43
0.000001
 40
0.0
 40
0.0
 40
0.0
 40
1.0
 40
2.0
 40
3.0
 40
4.0
 40
5.0
 40
6.0
 40
7.0
 40
8.0
 40
9.0
 40
10.0
 40
11.0
 40
12.0
 40
12.0
 40
12.0
 10
-836.42836358991281
 20
335.17250649673883
 30
0.0
 10
-836.42836358991281
 20
335.41723342582588
 30
0.0
 10
-836.69631278234397
 20
335.84111290098508
 30
0.0
 10
-837.16041439748176
 20
336.08583983007213
 30
0.0
 10
-837.69631278234397
 20
336.08583983007213
 30
0.0
 10
-838.16041439748176
 20
335.84111290098508
 30
0.0
 10
-838.42836358991281
 20
335.41723342582594
 30
0.0
 10
-838.42836358991281
 20
334.92777956765173
 30
0.0
 10
-838.16041439748176
 20
334.50390009249259
 30
0.0
 10
-837.69631278234397
 20
334.25917316340548
 30
0.0
 10
-837.16041439748176
 20
334.25917316340548
 30
0.0
 10
-836.69631278234397
 20
334.50390009249259
 30
0.0
 10
-836.42836358991281
 20
334.92777956765173
 30
0.0
 10
-836.42836358991281
 20
335.17250649673883
 30
0.0
  0
SPLINE
  5
2B0
100
AcDbEntity
  8
一般
370
              15
  6
Continuous
 62
               7
100
AcDbSpline
210
0.0
220
0.0
230
1.0
 70
               9
 71
               2
 72
              17
 73
              14
 74
               0
 42
0.000001
 43
0.000001
 40
0.0
 40
0.0
 40
0.0
 40
1.0
 40
2.0
 40
3.0
 40
4.0
 40
5.0
 40
6.0
 40
7.0
 40
8.0
 40
9.0
 40
10.0
 40
11.0
 40
12.0
 40
12.0
 40
12.0
 10
-836.92836358991281
 20
335.17250649673883
 30
0.0
 10
-836.92836358991281
 20
335.29486996128236
 30
0.0
 10
-837.06233818612839
 20
335.50680969886196
 30
0.0
 10
-837.29438899369734
 20
335.62917316340548
 30
0.0
 10
-837.56233818612839
 20
335.62917316340548
 30
0.0
 10
-837.79438899369734
 20
335.50680969886196
 30
0.0
 10
-837.92836358991281
 20
335.29486996128236
 30
0.0
 10
-837.92836358991281
 20
335.05014303219525
 30
0.0
 10
-837.79438899369734
 20
334.83820329461571
 30
0.0
 10
-837.56233818612839
 20
334.71583983007218
 30
0.0
 10
-837.29438899369734
 20
334.71583983007218
 30
0.0
 10
-837.06233818612839
 20
334.83820329461571
 30
0.0
 10
-836.92836358991281
 20
335.05014303219525
 30
0.0
 10
-836.92836358991281
 20
335.17250649673883
 30
0.0
  0
SPLINE
  5
2B1
100
AcDbEntity
  8
一般
370
               5
  6
Continuous
 62
               7
100
AcDbSpline
210
0.0
220
0.0
230
1.0
 70
               9
 71
               2
 72
              17
 73
              14
 74
               0
 42
0.000001
 43
0.000001
 40
0.0
 40
0.0
 40
0.0
 40
1.0
 40
2.0
 40
3.0
 40
4.0
 40
5.0
 40
6.0
 40
7.0
 40
8.0
 40
9.0
 40
10.0
 40
11.0
 40
12.0
 40
12.0
 40
12.0
 10
-835.42836358991281
 20
335.17250649673883
 30
0.0
 10
-835.42836358991281
 20
335.66196035491299
 30
0.0
 10
-835.96426197477513
 20
336.50971930523133
 30
0.0
 10
-836.8924652050506
 20
336.99917316340549
 30
0.0
 10
-837.96426197477513
 20
336.99917316340549
 30
0.0
 10
-838.8924652050506
 20
336.50971930523133
 30
0.0
 10
-839.42836358991281
 20
335.66196035491299
 30
0.0
 10
-839.42836358991281
 20
334.68305263856462
 30
0.0
 10
-838.8924652050506
 20
333.83529368824634
 30
0.0
 10
-837.96426197477513
 20
333.34583983007218
 30
0.0
 10
-836.8924652050506
 20
333.34583983007218
 30
0.0
 10
-835.96426197477513
 20
333.83529368824634
 30
0.0
 10
-835.42836358991281
 20
334.68305263856462
 30
0.0
 10
-835.42836358991281
 20
335.17250649673883
 30
0.0
  0
SPLINE
  5
2B2
100
AcDbEntity
  8
一般
370
              15
  6
Continuous
 62
               7
100
AcDbSpline
210
0.0
220
0.0
230
1.0
 70
               9
 71
               2
 72
              17
 73
              14
 74
               0
 42
0.000001
 43
0.000001
 40
0.0
 40
0.0
 40
0.0
 40
1.0
 40
2.0
 40
3.0
 40
4.0
 40
5.0
 40
6.0
 40
7.0
 40
8.0
 40
9.0
 40
10.0
 40
11.0
 40
12.0
 40
12.0
 40
12.0
 10
-823.93483656751357
 20
329.67737666119103
 30
0.0
 10
-823.93483656751357
 20
329.92210359027814
 30
0.0
 10
-824.20278575994473
 20
330.34598306543728
 30
0.0
 10
-824.66688737508241
 20
330.59070999452439
 30
0.0
 10
-825.20278575994473
 20
330.59070999452439
 30
0.0
 10
-825.66688737508241
 20
330.34598306543728
 30
0.0
 10
-825.93483656751357
 20
329.92210359027814
 30
0.0
 10
-825.93483656751357
 20
329.43264973210398
 30
0.0
 10
-825.66688737508241
 20
329.00877025694484
 30
0.0
 10
-825.20278575994473
 20
328.76404332785773
 30
0.0
 10
-824.66688737508241
 20
328.76404332785773
 30
0.0
 10
-824.20278575994473
 20
329.00877025694479
 30
0.0
 10
-823.93483656751357
 20
329.43264973210398
 30
0.0
 10
-823.93483656751357
 20
329.67737666119103
 30
0.0
  0
SPLINE
  5
2B3
100
AcDbEntity
  8
一般
370
              15
  6
Continuous
 62
               7
100
AcDbSpline
210
0.0
220
0.0
230
1.0
 70
               9
 71
               2
 72
              17
 73
              14
 74
               0
 42
0.000001
 43
0.000001
 40
0.0
 40
0.0
 40
0.0
 40
1.0
 40
2.0
 40
3.0
 40
4.0
 40
5.0
 40
6.0
 40
7.0
 40
8.0
 40
9.0
 40
10.0
 40
11.0
 40
12.0
 40
12.0
 40
12.0
 10
-824.43483656751357
 20
329.67737666119103
 30
0.0
 10
-824.43483656751357
 20
329.79974012573462
 30
0.0
 10
-824.56881116372915
 20
330.01167986331416
 30
0.0
 10
-824.80086197129799
 20
330.13404332785774
 30
0.0
 10
-825.06881116372915
 20
330.13404332785774
 30
0.0
 10
-825.30086197129799
 20
330.01167986331416
 30
0.0
 10
-825.43483656751357
 20
329.79974012573462
 30
0.0
 10
-825.43483656751357
 20
329.55501319664751
 30
0.0
 10
-825.30086197129799
 20
329.34307345906797
 30
0.0
 10
-825.06881116372915
 20
329.22070999452438
 30
0.0
 10
-824.80086197129799
 20
329.22070999452438
 30
0.0
 10
-824.56881116372915
 20
329.34307345906791
 30
0.0
 10
-824.43483656751357
 20
329.55501319664751
 30
0.0
 10
-824.43483656751357
 20
329.67737666119103
 30
0.0
  0
SPLINE
  5
2B4
100
AcDbEntity
  8
一般
370
               5
  6
Continuous
 62
               7
100
AcDbSpline
210
0.0
220
0.0
230
1.0
 70
               9
 71
               2
 72
              17
 73
              14
 74
               0
 42
0.000001
 43
0.000001
 40
0.0
 40
0.0
 40
0.0
 40
1.0
 40
2.0
 40
3.0
 40
4.0
 40
5.0
 40
6.0
 40
7.0
 40
8.0
 40
9.0
 40
10.0
 40
11.0
 40
12.0
 40
12.0
 40
12.0
 10
-822.93483656751357
 20
329.67737666119103
 30
0.0
 10
-822.93483656751357
 20
330.16683051936525
 30
0.0
 10
-823.47073495237578
 20
331.01458946968353
 30
0.0
 10
-824.39893818265136
 20
331.50404332785774
 30
0.0
 10
-825.47073495237578
 20
331.50404332785774
 30
0.0
 10
-826.39893818265136
 20
331.01458946968353
 30
0.0
 10
-826.93483656751357
 20
330.16683051936525
 30
0.0
 10
-826.93483656751357
 20
329.18792280301687
 30
0.0
 10
-826.39893818265136
 20
328.34016385269859
 30
0.0
 10
-825.47073495237589
 20
327.85070999452438
 30
0.0
 10
-824.39893818265136
 20
327.85070999452438
 30
0.0
 10
-823.47073495237589
 20
328.34016385269859
 30
0.0
 10
-822.93483656751357
 20
329.18792280301687
 30
0.0
 10
-822.93483656751357
 20
329.67737666119103
 30
0.0
  0
SPLINE
  5
2B5
100
AcDbEntity
  8
一般
370
              15
  6
Continuous
 62
               7
100
AcDbSpline
210
0.0
220
0.0
230
1.0
 70
               9
 71
               2
 72
              17
 73
              14
 74
               0
 42
0.000001
 43
0.000001
 40
0.0
 40
0.0
 40
0.0
 40
1.0
 40
2.0
 40
3.0
 40
4.0
 40
5.0
 40
6.0
 40
7.0
 40
8.0
 40
9.0
 40
10.0
 40
11.0
 40
12.0
 40
12.0
 40
12.0
 10
-796.51105959109748
 20
329.67737666119103
 30
0.0
 10
-796.51105959109748
 20
329.92210359027814
 30
0.0
 10
-796.77900878352864
 20
330.34598306543728
 30
0.0
 10
-797.24311039866632
 20
330.59070999452439
 30
0.0
 10
-797.77900878352864
 20
330.59070999452439
 30
0.0
 10
-798.24311039866632
 20
330.34598306543728
 30
0.0
 10
-798.51105959109748
 20
329.92210359027814
 30
0.0
 10
-798.51105959109748
 20
329.43264973210393
 30
0.0
 10
-798.24311039866632
 20
329.00877025694479
 30
0.0
 10
-797.77900878352864
 20
328.76404332785768
 30
0.0
 10
-797.24311039866632
 20
328.76404332785768
 30
0.0
 10
-796.77900878352864
 20
329.00877025694479
 30
0.0
 10
-796.51105959109748
 20
329.43264973210393
 30
0.0
 10
-796.51105959109748
 20
329.67737666119103
 30
0.0
  0
SPLINE
  5
2B6
100
AcDbEntity
  8
一般
370
              15
  6
Continuous
 62
               7
100
AcDbSpline
210
0.0
220
0.0
230
1.0
 70
               9
 71
               2
 72
              17
 73
              14
 74
               0
 42
0.000001
 43
0.000001
 40
0.0
 40
0.0
 40
0.0
 40
1.0
 40
2.0
 40
3.0
 40
4.0
 40
5.0
 40
6.0
 40
7.0
 40
8.0
 40
9.0
 40
10.0
 40
11.0
 40
12.0
 40
12.0
 40
12.0
 10
-797.01105959109748
 20
329.67737666119103
 30
0.0
 10
-797.01105959109748
 20
329.79974012573456
 30
0.0
 10
-797.14503418731306
 20
330.01167986331416
 30
0.0
 10
-797.3770849948819
 20
330.13404332785768
 30
0.0
 10
-797.64503418731306
 20
330.13404332785768
 30
0.0
 10
-797.8770849948819
 20
330.01167986331416
 30
0.0
 10
-798.01105959109748
 20
329.79974012573462
 30
0.0
 10
-798.01105959109748
 20
329.55501319664751
 30
0.0
 10
-797.8770849948819
 20
329.34307345906791
 30
0.0
 10
-797.64503418731306
 20
329.22070999452438
 30
0.0
 10
-797.3770849948819
 20
329.22070999452438
 30
0.0
 10
-797.14503418731306
 20
329.34307345906791
 30
0.0
 10
-797.01105959109748
 20
329.55501319664751
 30
0.0
 10
-797.01105959109748
 20
329.67737666119103
 30
0.0
  0
SPLINE
  5
2B7
100
AcDbEntity
  8
一般
370
               5
  6
Continuous
 62
               7
100
AcDbSpline
210
0.0
220
0.0
230
1.0
 70
               9
 71
               2
 72
              17
 73
              14
 74
               0
 42
0.000001
 43
0.000001
 40
0.0
 40
0.0
 40
0.0
 40
1.0
 40
2.0
 40
3.0
 40
4.0
 40
5.0
 40
6.0
 40
7.0
 40
8.0
 40
9.0
 40
10.0
 40
11.0
 40
12.0
 40
12.0
 40
12.0
 10
-795.51105959109748
 20
329.67737666119103
 30
0.0
 10
-795.51105959109748
 20
330.16683051936525
 30
0.0
 10
-796.04695797595969
 20
331.01458946968353
 30
0.0
 10
-796.97516120623527
 20
331.50404332785769
 30
0.0
 10
-798.04695797595969
 20
331.50404332785769
 30
0.0
 10
-798.97516120623527
 20
331.01458946968353
 30
0.0
 10
-799.51105959109748
 20
330.16683051936525
 30
0.0
 10
-799.51105959109748
 20
329.18792280301687
 30
0.0
 10
-798.97516120623527
 20
328.34016385269854
 30
0.0
 10
-798.0469579759598
 20
327.85070999452438
 30
0.0
 10
-796.97516120623527
 20
327.85070999452438
 30
0.0
 10
-796.0469579759598
 20
328.34016385269854
 30
0.0
 10
-795.51105959109748
 20
329.18792280301682
 30
0.0
 10
-795.51105959109748
 20
329.67737666119103
 30
0.0
  0
SPLINE
  5
2B8
100
AcDbEntity
  8
一般
370
              15
  6
Continuous
 62
               7
100
AcDbSpline
210
0.0
220
0.0
230
1.0
 70
               9
 71
               2
 72
              17
 73
              14
 74
               0
 42
0.000001
 43
0.000001
 40
0.0
 40
0.0
 40
0.0
 40
1.0
 40
2.0
 40
3.0
 40
4.0
 40
5.0
 40
6.0
 40
7.0
 40
8.0
 40
9.0
 40
10.0
 40
11.0
 40
12.0
 40
12.0
 40
12.0
 10
-784.01753256869824
 20
335.17250649673883
 30
0.0
 10
-784.01753256869824
 20
335.41723342582588
 30
0.0
 10
-784.28548176112929
 20
335.84111290098508
 30
0.0
 10
-784.74958337626708
 20
336.08583983007213
 30
0.0
 10
-785.28548176112929
 20
336.08583983007213
 30
0.0
 10
-785.74958337626708
 20
335.84111290098508
 30
0.0
 10
-786.01753256869824
 20
335.41723342582588
 30
0.0
 10
-786.01753256869824
 20
334.92777956765173
 30
0.0
 10
-785.74958337626708
 20
334.50390009249259
 30
0.0
 10
-785.28548176112929
 20
334.25917316340548
 30
0.0
 10
-784.74958337626708
 20
334.25917316340548
 30
0.0
 10
-784.28548176112929
 20
334.50390009249259
 30
0.0
 10
-784.01753256869824
 20
334.92777956765173
 30
0.0
 10
-784.01753256869824
 20
335.17250649673883
 30
0.0
  0
SPLINE
  5
2B9
100
AcDbEntity
  8
一般
370
              15
  6
Continuous
 62
               7
100
AcDbSpline
210
0.0
220
0.0
230
1.0
 70
               9
 71
               2
 72
              17
 73
              14
 74
               0
 42
0.000001
 43
0.000001
 40
0.0
 40
0.0
 40
0.0
 40
1.0
 40
2.0
 40
3.0
 40
4.0
 40
5.0
 40
6.0
 40
7.0
 40
8.0
 40
9.0
 40
10.0
 40
11.0
 40
12.0
 40
12.0
 40
12.0
 10
-784.51753256869824
 20
335.17250649673883
 30
0.0
 10
-784.51753256869824
 20
335.29486996128236
 30
0.0
 10
-784.65150716491371
 20
335.50680969886196
 30
0.0
 10
-784.88355797248266
 20
335.62917316340548
 30
0.0
 10
-785.15150716491371
 20
335.62917316340548
 30
0.0
 10
-785.38355797248266
 20
335.50680969886196
 30
0.0
 10
-785.51753256869824
 20
335.29486996128236
 30
0.0
 10
-785.51753256869824
 20
335.05014303219525
 30
0.0
 10
-785.38355797248266
 20
334.83820329461571
 30
0.0
 10
-785.15150716491371
 20
334.71583983007213
 30
0.0
 10
-784.88355797248266
 20
334.71583983007213
 30
0.0
 10
-784.65150716491371
 20
334.83820329461571
 30
0.0
 10
-784.51753256869824
 20
335.05014303219525
 30
0.0
 10
-784.51753256869824
 20
335.17250649673883
 30
0.0
  0
SPLINE
  5
2BA
100
AcDbEntity
  8
一般
370
               5
  6
Continuous
 62
               7
100
AcDbSpline
210
0.0
220
0.0
230
1.0
 70
               9
 71
               2
 72
              17
 73
              14
 74
               0
 42
0.000001
 43
0.000001
 40
0.0
 40
0.0
 40
0.0
 40
1.0
 40
2.0
 40
3.0
 40
4.0
 40
5.0
 40
6.0
 40
7.0
 40
8.0
 40
9.0
 40
10.0
 40
11.0
 40
12.0
 40
12.0
 40
12.0
 10
-783.01753256869824
 20
335.17250649673883
 30
0.0
 10
-783.01753256869824
 20
335.66196035491299
 30
0.0
 10
-783.55343095356045
 20
336.50971930523127
 30
0.0
 10
-784.48163418383592
 20
336.99917316340549
 30
0.0
 10
-785.55343095356045
 20
336.99917316340549
 30
0.0
 10
-786.48163418383592
 20
336.50971930523133
 30
0.0
 10
-787.01753256869824
 20
335.66196035491299
 30
0.0
 10
-787.01753256869824
 20
334.68305263856462
 30
0.0
 10
-786.48163418383592
 20
333.83529368824634
 30
0.0
 10
-785.55343095356045
 20
333.34583983007212
 30
0.0
 10
-784.48163418383592
 20
333.34583983007212
 30
0.0
 10
-783.55343095356045
 20
333.83529368824634
 30
0.0
 10
-783.01753256869824
 20
334.68305263856462
 30
0.0
 10
-783.01753256869824
 20
335.17250649673883
 30
0.0
  0
SPLINE
  5
2BB
100
AcDbEntity
  8
一般
370
              15
  6
Continuous
 62
               7
100
AcDbSpline
210
0.0
220
0.0
230
1.0
 70
               9
 71
               2
 72
              17
 73
              14
 74
               0
 42
0.000001
 43
0.000001
 40
0.0
 40
0.0
 40
0.0
 40
1.0
 40
2.0
 40
3.0
 40
4.0
 40
5.0
 40
6.0
 40
7.0
 40
8.0
 40
9.0
 40
10.0
 40
11.0
 40
12.0
 40
12.0
 40
12.0
 10
-773.85247171498816
 20
343.78688211785078
 30
0.0
 10
-773.85247171498816
 20
344.03160904693789
 30
0.0
 10
-774.12042090741932
 20
344.45548852209703
 30
0.0
 10
-774.58452252255711
 20
344.70021545118414
 30
0.0
 10
-775.12042090741932
 20
344.70021545118414
 30
0.0
 10
-775.58452252255711
 20
344.45548852209703
 30
0.0
 10
-775.85247171498816
 20
344.03160904693789
 30
0.0
 10
-775.85247171498816
 20
343.54215518876367
 30
0.0
 10
-775.58452252255711
 20
343.11827571360453
 30
0.0
 10
-775.12042090741932
 20
342.87354878451742
 30
0.0
 10
-774.58452252255711
 20
342.87354878451742
 30
0.0
 10
-774.12042090741932
 20
343.11827571360453
 30
0.0
 10
-773.85247171498816
 20
343.54215518876367
 30
0.0
 10
-773.85247171498816
 20
343.78688211785078
 30
0.0
  0
SPLINE
  5
2BC
100
AcDbEntity
  8
一般
370
              15
  6
Continuous
 62
               7
100
AcDbSpline
210
0.0
220
0.0
230
1.0
 70
               9
 71
               2
 72
              17
 73
              14
 74
               0
 42
0.000001
 43
0.000001
 40
0.0
 40
0.0
 40
0.0
 40
1.0
 40
2.0
 40
3.0
 40
4.0
 40
5.0
 40
6.0
 40
7.0
 40
8.0
 40
9.0
 40
10.0
 40
11.0
 40
12.0
 40
12.0
 40
12.0
 10
-774.35247171498816
 20
343.78688211785078
 30
0.0
 10
-774.35247171498816
 20
343.90924558239431
 30
0.0
 10
-774.48644631120374
 20
344.1211853199739
 30
0.0
 10
-774.71849711877269
 20
344.24354878451743
 30
0.0
 10
-774.98644631120374
 20
344.24354878451743
 30
0.0
 10
-775.21849711877269
 20
344.1211853199739
 30
0.0
 10
-775.35247171498816
 20
343.90924558239431
 30
0.0
 10
-775.35247171498816
 20
343.66451865330725
 30
0.0
 10
-775.21849711877269
 20
343.45257891572766
 30
0.0
 10
-774.98644631120374
 20
343.33021545118413
 30
0.0
 10
-774.71849711877269
 20
343.33021545118413
 30
0.0
 10
-774.48644631120374
 20
343.45257891572766
 30
0.0
 10
-774.35247171498816
 20
343.66451865330725
 30
0.0
 10
-774.35247171498816
 20
343.78688211785078
 30
0.0
  0
SPLINE
  5
2BD
100
AcDbEntity
  8
一般
370
               5
  6
Continuous
 62
               7
100
AcDbSpline
210
0.0
220
0.0
230
1.0
 70
               9
 71
               2
 72
              17
 73
              14
 74
               0
 42
0.000001
 43
0.000001
 40
0.0
 40
0.0
 40
0.0
 40
1.0
 40
2.0
 40
3.0
 40
4.0
 40
5.0
 40
6.0
 40
7.0
 40
8.0
 40
9.0
 40
10.0
 40
11.0
 40
12.0
 40
12.0
 40
12.0
 10
-772.85247171498816
 20
343.78688211785078
 30
0.0
 10
-772.85247171498816
 20
344.27633597602494
 30
0.0
 10
-773.38837009985048
 20
345.12409492634328
 30
0.0
 10
-774.31657333012595
 20
345.61354878451743
 30
0.0
 10
-775.38837009985048
 20
345.61354878451743
 30
0.0
 10
-776.31657333012595
 20
345.12409492634328
 30
0.0
 10
-776.85247171498816
 20
344.276335976025
 30
0.0
 10
-776.85247171498816
 20
343.29742825967662
 30
0.0
 10
-776.31657333012595
 20
342.44966930935828
 30
0.0
 10
-775.38837009985048
 20
341.96021545118413
 30
0.0
 10
-774.31657333012595
 20
341.96021545118413
 30
0.0
 10
-773.38837009985048
 20
342.44966930935828
 30
0.0
 10
-772.85247171498816
 20
343.29742825967662
 30
0.0
 10
-772.85247171498816
 20
343.78688211785078
 30
0.0
  0
SPLINE
  5
2BE
100
AcDbEntity
  8
一般
370
              15
  6
Continuous
 62
               7
100
AcDbSpline
210
0.0
220
0.0
230
1.0
 70
               9
 71
               2
 72
              17
 73
              14
 74
               0
 42
0.000001
 43
0.000001
 40
0.0
 40
0.0
 40
0.0
 40
1.0
 40
2.0
 40
3.0
 40
4.0
 40
5.0
 40
6.0
 40
7.0
 40
8.0
 40
9.0
 40
10.0
 40
11.0
 40
12.0
 40
12.0
 40
12.0
 10
-763.83344094242875
 20
367.10252310728157
 30
0.0
 10
-763.83344094242875
 20
367.34725003636868
 30
0.0
 10
-764.10139013485991
 20
367.77112951152782
 30
0.0
 10
-764.56549174999759
 20
368.01585644061493
 30
0.0
 10
-765.10139013485991
 20
368.01585644061493
 30
0.0
 10
-765.56549174999759
 20
367.77112951152782
 30
0.0
 10
-765.83344094242875
 20
367.34725003636868
 30
0.0
 10
-765.83344094242875
 20
366.85779617819446
 30
0.0
 10
-765.56549174999759
 20
366.43391670303532
 30
0.0
 10
-765.10139013485991
 20
366.18918977394821
 30
0.0
 10
-764.56549174999759
 20
366.18918977394821
 30
0.0
 10
-764.10139013485991
 20
366.43391670303532
 30
0.0
 10
-763.83344094242875
 20
366.85779617819446
 30
0.0
 10
-763.83344094242875
 20
367.10252310728157
 30
0.0
  0
SPLINE
  5
2BF
100
AcDbEntity
  8
一般
370
              15
  6
Continuous
 62
               7
100
AcDbSpline
210
0.0
220
0.0
230
1.0
 70
               9
 71
               2
 72
              17
 73
              14
 74
               0
 42
0.000001
 43
0.000001
 40
0.0
 40
0.0
 40
0.0
 40
1.0
 40
2.0
 40
3.0
 40
4.0
 40
5.0
 40
6.0
 40
7.0
 40
8.0
 40
9.0
 40
10.0
 40
11.0
 40
12.0
 40
12.0
 40
12.0
 10
-764.33344094242875
 20
367.10252310728157
 30
0.0
 10
-764.33344094242875
 20
367.2248865718251
 30
0.0
 10
-764.46741553864433
 20
367.43682630940469
 30
0.0
 10
-764.69946634621317
 20
367.55918977394822
 30
0.0
 10
-764.96741553864433
 20
367.55918977394822
 30
0.0
 10
-765.19946634621317
 20
367.43682630940469
 30
0.0
 10
-765.33344094242875
 20
367.2248865718251
 30
0.0
 10
-765.33344094242875
 20
366.98015964273804
 30
0.0
 10
-765.19946634621317
 20
366.76821990515845
 30
0.0
 10
-764.96741553864433
 20
366.64585644061492
 30
0.0
 10
-764.69946634621317
 20
366.64585644061492
 30
0.0
 10
-764.46741553864433
 20
366.76821990515845
 30
0.0
 10
-764.33344094242875
 20
366.98015964273804
 30
0.0
 10
-764.33344094242875
 20
367.10252310728157
 30
0.0
  0
SPLINE
  5
2C0
100
AcDbEntity
  8
一般
370
               5
  6
Continuous
 62
               7
100
AcDbSpline
210
0.0
220
0.0
230
1.0
 70
               9
 71
               2
 72
              17
 73
              14
 74
               0
 42
0.000001
 43
0.000001
 40
0.0
 40
0.0
 40
0.0
 40
1.0
 40
2.0
 40
3.0
 40
4.0
 40
5.0
 40
6.0
 40
7.0
 40
8.0
 40
9.0
 40
10.0
 40
11.0
 40
12.0
 40
12.0
 40
12.0
 10
-762.83344094242875
 20
367.10252310728151
 30
0.0
 10
-762.83344094242875
 20
367.59197696545573
 30
0.0
 10
-763.36933932729096
 20
368.43973591577407
 30
0.0
 10
-764.29754255756654
 20
368.92918977394822
 30
0.0
 10
-765.36933932729096
 20
368.92918977394822
 30
0.0
 10
-766.29754255756654
 20
368.43973591577407
 30
0.0
 10
-766.83344094242875
 20
367.59197696545573
 30
0.0
 10
-766.83344094242875
 20
366.61306924910741
 30
0.0
 10
-766.29754255756654
 20
365.76531029878907
 30
0.0
 10
-765.36933932729107
 20
365.27585644061492
 30
0.0
 10
-764.29754255756654
 20
365.27585644061492
 30
0.0
 10
-763.36933932729107
 20
365.76531029878907
 30
0.0
 10
-762.83344094242875
 20
366.61306924910735
 30
0.0
 10
-762.83344094242875
 20
367.10252310728151
 30
0.0
  0
SPLINE
  5
2C1
100
AcDbEntity
  8
一般
370
              15
  6
Continuous
 62
               7
100
AcDbSpline
210
0.0
220
0.0
230
1.0
 70
               9
 71
               2
 72
              17
 73
              14
 74
               0
 42
0.000001
 43
0.000001
 40
0.0
 40
0.0
 40
0.0
 40
1.0
 40
2.0
 40
3.0
 40
4.0
 40
5.0
 40
6.0
 40
7.0
 40
8.0
 40
9.0
 40
10.0
 40
11.0
 40
12.0
 40
12.0
 40
12.0
 10
-766.91908729545435
 20
354.75507844702639
 30
0.0
 10
-766.91908729545435
 20
354.9998053761135
 30
0.0
 10
-767.18703648788551
 20
355.42368485127258
 30
0.0
 10
-767.6511381030233
 20
355.66841178035969
 30
0.0
 10
-768.18703648788551
 20
355.66841178035969
 30
0.0
 10
-768.6511381030233
 20
355.42368485127258
 30
0.0
 10
-768.91908729545435
 20
354.9998053761135
 30
0.0
 10
-768.91908729545435
 20
354.51035151793928
 30
0.0
 10
-768.6511381030233
 20
354.08647204278014
 30
0.0
 10
-768.18703648788551
 20
353.84174511369304
 30
0.0
 10
-767.6511381030233
 20
353.84174511369304
 30
0.0
 10
-767.18703648788551
 20
354.08647204278014
 30
0.0
 10
-766.91908729545435
 20
354.51035151793928
 30
0.0
 10
-766.91908729545435
 20
354.75507844702639
 30
0.0
  0
SPLINE
  5
2C2
100
AcDbEntity
  8
一般
370
              15
  6
Continuous
 62
               7
100
AcDbSpline
210
0.0
220
0.0
230
1.0
 70
               9
 71
               2
 72
              17
 73
              14
 74
               0
 42
0.000001
 43
0.000001
 40
0.0
 40
0.0
 40
0.0
 40
1.0
 40
2.0
 40
3.0
 40
4.0
 40
5.0
 40
6.0
 40
7.0
 40
8.0
 40
9.0
 40
10.0
 40
11.0
 40
12.0
 40
12.0
 40
12.0
 10
-767.41908729545435
 20
354.75507844702634
 30
0.0
 10
-767.41908729545435
 20
354.87744191156992
 30
0.0
 10
-767.55306189166993
 20
355.08938164914952
 30
0.0
 10
-767.78511269923888
 20
355.21174511369304
 30
0.0
 10
-768.05306189166993
 20
355.21174511369304
 30
0.0
 10
-768.28511269923888
 20
355.08938164914952
 30
0.0
 10
-768.41908729545435
 20
354.87744191156992
 30
0.0
 10
-768.41908729545435
 20
354.63271498248281
 30
0.0
 10
-768.28511269923888
 20
354.42077524490327
 30
0.0
 10
-768.05306189166993
 20
354.29841178035969
 30
0.0
 10
-767.78511269923888
 20
354.29841178035969
 30
0.0
 10
-767.55306189166993
 20
354.42077524490327
 30
0.0
 10
-767.41908729545435
 20
354.63271498248281
 30
0.0
 10
-767.41908729545435
 20
354.75507844702634
 30
0.0
  0
SPLINE
  5
2C3
100
AcDbEntity
  8
一般
370
               5
  6
Continuous
 62
               7
100
AcDbSpline
210
0.0
220
0.0
230
1.0
 70
               9
 71
               2
 72
              17
 73
              14
 74
               0
 42
0.000001
 43
0.000001
 40
0.0
 40
0.0
 40
0.0
 40
1.0
 40
2.0
 40
3.0
 40
4.0
 40
5.0
 40
6.0
 40
7.0
 40
8.0
 40
9.0
 40
10.0
 40
11.0
 40
12.0
 40
12.0
 40
12.0
 10
-765.91908729545435
 20
354.75507844702634
 30
0.0
 10
-765.91908729545435
 20
355.24453230520055
 30
0.0
 10
-766.45498568031667
 20
356.09229125551883
 30
0.0
 10
-767.38318891059214
 20
356.58174511369305
 30
0.0
 10
-768.45498568031667
 20
356.58174511369305
 30
0.0
 10
-769.38318891059214
 20
356.09229125551883
 30
0.0
 10
-769.91908729545435
 20
355.24453230520055
 30
0.0
 10
-769.91908729545435
 20
354.26562458885218
 30
0.0
 10
-769.38318891059214
 20
353.4178656385339
 30
0.0
 10
-768.45498568031667
 20
352.92841178035974
 30
0.0
 10
-767.38318891059214
 20
352.92841178035974
 30
0.0
 10
-766.45498568031667
 20
353.4178656385339
 30
0.0
 10
-765.91908729545435
 20
354.26562458885218
 30
0.0
 10
-765.91908729545435
 20
354.75507844702634
 30
0.0
  0
POLYLINE
  5
2C4
100
AcDbEntity
  8
一般
370
              15
  6
Continuous
 62
               7
100
AcDb2dPolyline
 66
               1
 10
0.0
 20
0.0
 30
0.0
 70
               1
 75
               5
  0
VERTEX
  5
2C5
100
AcDbEntity
  8
一般
370
              15
  6
Continuous
 62
               7
100
AcDbVertex
100
AcDb2dVertex
 10
-812.47294807930552
 20
334.94984837852559
 30
0.0
  0
VERTEX
  5
2C6
100
AcDbEntity
  8
一般
370
              15
  6
Continuous
 62
               7
100
AcDbVertex
100
AcDb2dVertex
 10
-809.97294807930552
 20
334.94984837852559
 30
0.0
  0
VERTEX
  5
2C7
100
AcDbEntity
  8
一般
370
              15
  6
Continuous
 62
               7
100
AcDbVertex
100
AcDb2dVertex
 10
-809.97294807930552
 20
324.17553785885343
 30
0.0
  0
VERTEX
  5
2C8
100
AcDbEntity
  8
一般
370
              15
  6
Continuous
 62
               7
100
AcDbVertex
100
AcDb2dVertex
 10
-812.47294807930552
 20
324.17553785885343
 30
0.0
  0
SEQEND
  5
2C9
100
AcDbEntity
  8
一般
370
              15
  6
Continuous
 62
               7
  0
POLYLINE
  5
2CA
100
AcDbEntity
  8
一般
370
              15
  6
Continuous
 62
               7
100
AcDb2dPolyline
 66
               1
 10
0.0
 20
0.0
 30
0.0
 70
               1
 75
               5
  0
VERTEX
  5
2CB
100
AcDbEntity
  8
一般
370
              15
  6
Continuous
 62
               7
100
AcDbVertex
100
AcDb2dVertex
 10
-812.47294807930552
 20
332.06855418274324
 30
0.0
  0
VERTEX
  5
2CC
100
AcDbEntity
  8
一般
370
              15
  6
Continuous
 62
               7
100
AcDbVertex
100
AcDb2dVertex
 10
-809.97294807930552
 20
332.06855418274324
 30
0.0
  0
VERTEX
  5
2CD
100
AcDbEntity
  8
一般
370
              15
  6
Continuous
 62
               7
100
AcDbVertex
100
AcDb2dVertex
 10
-809.97294807930552
 20
325.16359603114881
 30
0.0
  0
VERTEX
  5
2CE
100
AcDbEntity
  8
一般
370
              15
  6
Continuous
 62
               7
100
AcDbVertex
100
AcDb2dVertex
 10
-812.47294807930552
 20
325.16359603114881
 30
0.0
  0
SEQEND
  5
2CF
100
AcDbEntity
  8
一般
370
              15
  6
Continuous
 62
               7
  0
ENDBLK
  5
2D0
100
AcDbEntity
  8
DEFAULT_1
100
AcDbBlockEnd
  0
BLOCK
  5
2D1
100
AcDbEntity
  8
DEFAULT_1
100
AcDbBlockBegin
  2
グループ-4
 70
               0
 10
0.0
 20
0.0
 30
0.0
  3
グループ-4
  1

  0
ARC
  5
2D2
100
AcDbEntity
  8
一般
370
              15
  6
Continuous
 62
               7
100
AcDbCircle
 10
-1099.9007811030231
 20
-366.69669914110091
 30
0.0
 40
36.999999999999979
100
AcDbArc
 50
278.07396349465489
 51
262.54087019606345
  0
POLYLINE
  5
2D3
100
AcDbEntity
  8
一般
370
              15
  6
Continuous
 62
               7
100
AcDb2dPolyline
 66
               1
 10
0.0
 20
0.0
 30
0.0
 75
               5
  0
VERTEX
  5
2D4
100
AcDbEntity
  8
一般
370
              15
  6
Continuous
 62
               7
100
AcDbVertex
100
AcDb2dVertex
 10
-1094.7040819619222
 20
-390.97338918861101
 30
0.0
  0
VERTEX
  5
2D5
100
AcDbEntity
  8
一般
370
              15
  6
Continuous
 62
               7
100
AcDbVertex
100
AcDb2dVertex
 10
-1094.7040819619222
 20
-462.5
 30
0.0
  0
VERTEX
  5
2D6
100
AcDbEntity
  8
一般
370
              15
  6
Continuous
 62
               7
100
AcDbVertex
100
AcDb2dVertex
 10
-1104.7040819619222
 20
-462.5
 30
0.0
  0
VERTEX
  5
2D7
100
AcDbEntity
  8
一般
370
              15
  6
Continuous
 62
               7
100
AcDbVertex
100
AcDb2dVertex
 10
-1104.7040819619222
 20
-390.97338918861101
 30
0.0
  0
SEQEND
  5
2D8
100
AcDbEntity
  8
一般
370
              15
  6
Continuous
 62
               7
  0
CIRCLE
  5
2D9
100
AcDbEntity
  8
一般
370
              15
  6
Continuous
 62
               7
100
AcDbCircle
 10
-1099.7040819619222
 20
-367.5
 30
0.0
 40
24.0
  0
ENDBLK
  5
2DA
100
AcDbEntity
  8
DEFAULT_1
100
AcDbBlockEnd
  0
ENDSEC
  0
SECTION
  2
ENTITIES
  0
MTEXT
  5
2DB
100
AcDbEntity
  8
一般
 62
               7
100
AcDbMText
 10
537.14231508631656
 20
1097.8851776560084
 30
0.0
 40
90.950520833333329
 41
0.0
 71
               1
 72
               1
  1
CS1-{\H0.9858x;\l52}{\H0.9858x;\l06}
  7
Arial
 73
               1
 44
0.9673603504928806
  0
LINE
  5
2DC
100
AcDbEntity
  8
一般
370
              50
  6
Continuous
 62
               7
100
AcDbLine
 10
-258.44878929488249
 20
-499.0
 30
0.0
 11
-258.44878929488243
 21
980.0
 31
0.0
  0
INSERT
  5
2DD
100
AcDbEntity
  8
0
 62
               7
100
AcDbBlockReference
  2
1_10
 10
-1106.8801003724491
 20
-769.13910532094656
 30
0.0
  0
LINE
  5
2DE
100
AcDbEntity
  8
寸法
100
AcDbLine
 10
-258.44878929488226
 20
-206.9218942144621
 30
0.0
 11
-258.44878929488226
 21
-130.9218942144621
 31
0.0
  0
INSERT
  5
2DF
100
AcDbEntity
  8
DEFAULT_1
 62
               7
100
AcDbBlockReference
  2
グループ-1
 10
105.8
 20
148.0
 30
0.0
  0
INSERT
  5
2E0
100
AcDbEntity
  8
DEFAULT_1
 62
               7
100
AcDbBlockReference
  2
グループ-2
 10
105.8
 20
148.0
 30
0.0
  0
INSERT
  5
2E1
100
AcDbEntity
  8
DEFAULT_1
 62
               7
100
AcDbBlockReference
  2
グループ-3
 10
105.8
 20
148.0
 30
0.0
  0
INSERT
  5
2E2
100
AcDbEntity
  8
DEFAULT_1
 62
               7
100
AcDbBlockReference
  2
グループ-4
 10
105.8
 20
148.0
 30
0.0
  0
ENDSEC
  0
SECTION
  2
OBJECTS
  0
DICTIONARY
  5
19
100
AcDbDictionary
280
               0
281
               1
  3
ACAD_GROUP
350
1A
  3
ACAD_MLINESTYLE
350
1B
  3
ACAD_LAYOUT
350
1E
  3
ACAD_PLOTSETTINGS
350
22
  3
ACAD_PLOTSTYLENAME
350
1F
  3
ACAD_WIPEOUT_VARS
350
23
  0
DICTIONARY
  5
1A
102
{ACAD_REACTORS
330
19
102
}
100
AcDbDictionary
280
               0
281
               1
  0
DICTIONARY
  5
1B
102
{ACAD_REACTORS
330
19
102
}
100
AcDbDictionary
280
               0
281
               1
  3
Standard
350
1C
  0
MLINESTYLE
  5
1C
102
{ACAD_REACTORS
330
1B
102
}
100
AcDbMlineStyle
  2
Standard
 70
               0
  3

 62
               0
 51
90.0
 52
90.0
 71
               2
 49
0.5
 62
             256
  6
ByLayer
 49
-0.5
 62
             256
  6
ByLayer
  0
ACDBDICTIONARYWDFLT
  5
1F
102
{ACAD_REACTORS
330
19
102
}
100
AcDbDictionary
281
               1
  3
Normal
350
1D
100
AcDbDictionaryWithDefault
340
1D
  0
ACDBPLACEHOLDER
  5
1D
102
{ACAD_REACTORS
330
1F
102
}
  0
LAYOUT
  5
20
102
{ACAD_REACTORS
330
1E
102
}
100
AcDbPlotSettings
  1

  2

  4

  6

 40
0.0
 41
0.0
 42
0.0
 43
0.0
 44
0.0
 45
0.0
 46
0.0
 47
0.0
 48
0.0
 49
0.0
140
0.0
141
0.0
142
1.0
143
1.0
 70
            1024
 72
               0
 73
               0
 74
               0
  7

 75
               0
147
1.0
148
0.0
149
0.0
100
AcDbLayout
  1
Model
 70
               0
 71
               0
 10
0.0
 20
0.0
 11
0.0
 21
0.0
 12
0.0
 22
0.0
 32
0.0
 14
0.0
 24
0.0
 34
0.0
 15
0.0
 25
0.0
 35
0.0
146
0.0
 13
0.0
 23
0.0
 33
0.0
 16
0.0
 26
0.0
 36
0.0
 17
0.0
 27
0.0
 37
0.0
 76
               0
330
A
331
0
345
0
346
0
  0
LAYOUT
  5
21
102
{ACAD_REACTORS
330
1E
102
}
100
AcDbPlotSettings
  1

  2

  4

  6

 40
0.0
 41
0.0
 42
0.0
 43
0.0
 44
0.0
 45
0.0
 46
0.0
 47
0.0
 48
0.0
 49
0.0
140
0.0
141
0.0
142
1.0
143
1.0
 70
               0
 72
               0
 73
               0
 74
               0
  7

 75
               0
147
1.0
148
0.0
149
0.0
100
AcDbLayout
  1
Layout1
 70
               0
 71
               0
 10
0.0
 20
0.0
 11
0.0
 21
0.0
 12
0.0
 22
0.0
 32
0.0
 14
0.0
 24
0.0
 34
0.0
 15
0.0
 25
0.0
 35
0.0
146
0.0
 13
0.0
 23
0.0
 33
0.0
 16
0.0
 26
0.0
 36
0.0
 17
0.0
 27
0.0
 37
0.0
 76
               0
330
B
331
0
345
0
346
0
  0
DICTIONARY
  5
1E
102
{ACAD_REACTORS
330
19
102
}
100
AcDbDictionary
280
               0
281
               1
  3
Layout1
350
21
  3
Model
350
20
  0
DICTIONARY
  5
22
102
{ACAD_REACTORS
330
19
102
}
100
AcDbDictionary
280
               0
281
               1
  0
WIPEOUTVARIABLES
  5
23
100
AcDbWipeoutVariables
 70
               0
  0
ENDSEC
  0
EOF
