  0
SECTION
  2
HEADER
  9
$ACADVER
  1
AC1015
  9
$ACADMAINTVER
 70
               6
  9
$DWGCODEPAGE
  3
ANSI_932
  9
$INSBASE
 10
0.0
 20
0.0
 30
0.0
  9
$EXTMIN
 10
126.20657771535571
 20
24.0
 30
-14.816666666666666
  9
$EXTMAX
 10
2830.0
 20
1867.6173284113374
 30
14.816666666666666
  9
$LIMMIN
 10
0.0
 20
0.0
  9
$LIMMAX
 10
0.0
 20
0.0
  9
$ORTHOMODE
 70
               0
  9
$REGENMODE
 70
               1
  9
$FILLMODE
 70
               1
  9
$QTEXTMODE
 70
               0
  9
$MIRRTEXT
 70
               1
  9
$LTSCALE
 40
50.799999999999997
  9
$ATTMODE
 70
               1
  9
$TEXTSIZE
 40
0.2
  9
$TRACEWID
 40
1.0
  9
$TEXTSTYLE
  7
Standard
  9
$CLAYER
  8
水栓
  9
$CELTYPE
  6
Continuous
  9
$CECOLOR
 62
             256
  9
$CELTSCALE
 40
1.0
  9
$DISPSILH
 70
               0
  9
$DIMSCALE
 40
1.0
  9
$DIMASZ
 40
0.18
  9
$DIMEXO
 40
0.0625
  9
$DIMDLI
 40
0.38
  9
$DIMRND
 40
0.0
  9
$DIMDLE
 40
0.0
  9
$DIMEXE
 40
0.18
  9
$DIMTP
 40
0.0
  9
$DIMTM
 40
0.0
  9
$DIMTXT
 40
0.18
  9
$DIMCEN
 40
0.09
  9
$DIMTSZ
 40
0.0
  9
$DIMTOL
 70
               0
  9
$DIMLIM
 70
               0
  9
$DIMTIH
 70
               1
  9
$DIMTOH
 70
               1
  9
$DIMSE1
 70
               0
  9
$DIMSE2
 70
               0
  9
$DIMTAD
 70
               0
  9
$DIMZIN
 70
               0
  9
$DIMBLK
  1

  9
$DIMASO
 70
               1
  9
$DIMSHO
 70
               1
  9
$DIMPOST
  1

  9
$DIMAPOST
  1

  9
$DIMALT
 70
               0
  9
$DIMALTD
 70
               2
  9
$DIMALTF
 40
25.399999999999999
  9
$DIMLFAC
 40
1.0
  9
$DIMTOFL
 70
               0
  9
$DIMTVP
 40
0.0
  9
$DIMTIX
 70
               0
  9
$DIMSOXD
 70
               0
  9
$DIMSAH
 70
               0
  9
$DIMBLK1
  1

  9
$DIMBLK2
  1

  9
$DIMSTYLE
  2
Standard
  9
$DIMCLRD
 70
               0
  9
$DIMCLRE
 70
               0
  9
$DIMCLRT
 70
               0
  9
$DIMTFAC
 40
1.0
  9
$DIMGAP
 40
0.09
  9
$DIMJUST
 70
               0
  9
$DIMSD1
 70
               0
  9
$DIMSD2
 70
               0
  9
$DIMTOLJ
 70
               1
  9
$DIMTZIN
 70
               0
  9
$DIMALTZ
 70
               0
  9
$DIMALTTZ
 70
               0
  9
$DIMUPT
 70
               0
  9
$DIMDEC
 70
               4
  9
$DIMTDEC
 70
               4
  9
$DIMALTU
 70
               2
  9
$DIMALTTD
 70
               2
  9
$DIMTXSTY
  7
Standard
  9
$DIMAUNIT
 70
               0
  9
$DIMADEC
 70
               0
  9
$DIMALTRND
 40
0.0
  9
$DIMAZIN
 70
               0
  9
$DIMDSEP
 70
               0
  9
$DIMATFIT
 70
               3
  9
$DIMFRAC
 70
               0
  9
$DIMLDRBLK
  1

  9
$DIMLUNIT
 70
               2
  9
$DIMLWD
 70
               0
  9
$DIMLWE
 70
               0
  9
$DIMTMOVE
 70
               0
  9
$LUNITS
 70
               2
  9
$LUPREC
 70
               4
  9
$SKETCHINC
 40
0.1
  9
$FILLETRAD
 40
0.0
  9
$AUNITS
 70
               0
  9
$AUPREC
 70
               0
  9
$MENU
  1
acad
  9
$ELEVATION
 40
0.0
  9
$PELEVATION
 40
0.0
  9
$THICKNESS
 40
0.0
  9
$LIMCHECK
 70
               0
  9
$CHAMFERA
 40
0.0
  9
$CHAMFERB
 40
0.0
  9
$CHAMFERC
 40
0.0
  9
$CHAMFERD
 40
0.0
  9
$SKPOLY
 70
               0
  9
$TDCREATE
 40
2455771.605856482
  9
$TDUCREATE
 40
0.000000000
  9
$TDUPDATE
 40
2455771.605856482
  9
$TDUUPDATE
 40
0.000000000
  9
$TDINDWG
 40
0.0000000000
  9
$TDUSRTIMER
 40
0.0000000000
  9
$USRTIMER
 70
               1
  9
$ANGBASE
 50
0.0
  9
$ANGDIR
 70
               0
  9
$PDMODE
 70
               1
  9
$PDSIZE
 40
-2.0
  9
$PLINEWID
 40
0.0
  9
$SPLFRAME
 70
               0
  9
$SPLINETYPE
 70
               6
  9
$SPLINESEGS
 70
               8
  9
$HANDSEED
  5
C6
  9
$SURFTAB1
 70
               6
  9
$SURFTAB2
 70
               6
  9
$SURFTYPE
 70
               6
  9
$SURFU
 70
               6
  9
$SURFV
 70
               6
  9
$UCSBASE
  2

  9
$UCSNAME
  2

  9
$UCSORG
 10
0.0
 20
0.0
 30
0.0
  9
$UCSXDIR
 10
1.0
 20
0.0
 30
0.0
  9
$UCSYDIR
 10
0.0
 20
1.0
 30
0.0
  9
$UCSORTHOREF
  2

  9
$UCSORTHOVIEW
 70
               0
  9
$UCSORGTOP
 10
0.0
 20
0.0
 30
0.0
  9
$UCSORGBOTTOM
 10
0.0
 20
0.0
 30
0.0
  9
$UCSORGLEFT
 10
0.0
 20
0.0
 30
0.0
  9
$UCSORGRIGHT
 10
0.0
 20
0.0
 30
0.0
  9
$UCSORGFRONT
 10
0.0
 20
0.0
 30
0.0
  9
$UCSORGBACK
 10
0.0
 20
0.0
 30
0.0
  9
$PUCSBASE
  2

  9
$PUCSNAME
  2

  9
$PUCSORG
 10
0.0
 20
0.0
 30
0.0
  9
$PUCSXDIR
 10
1.0
 20
0.0
 30
0.0
  9
$PUCSYDIR
 10
0.0
 20
1.0
 30
0.0
  9
$PUCSORTHOREF
  2

  9
$PUCSORTHOVIEW
 70
               0
  9
$PUCSORGTOP
 10
0.0
 20
0.0
 30
0.0
  9
$PUCSORGBOTTOM
 10
0.0
 20
0.0
 30
0.0
  9
$PUCSORGLEFT
 10
0.0
 20
0.0
 30
0.0
  9
$PUCSORGRIGHT
 10
0.0
 20
0.0
 30
0.0
  9
$PUCSORGFRONT
 10
0.0
 20
0.0
 30
0.0
  9
$PUCSORGBACK
 10
0.0
 20
0.0
 30
0.0
  9
$USERI1
 70
               0
  9
$USERI2
 70
               0
  9
$USERI3
 70
               0
  9
$USERI4
 70
               0
  9
$USERI5
 70
               0
  9
$USERR1
 40
0.0
  9
$USERR2
 40
0.0
  9
$USERR3
 40
0.0
  9
$USERR4
 40
0.0
  9
$USERR5
 40
0.0
  9
$WORLDVIEW
 70
               1
  9
$SHADEDGE
 70
               3
  9
$SHADEDIF
 70
              70
  9
$TILEMODE
 70
               1
  9
$MAXACTVP
 70
              64
  9
$PINSBASE
 10
0.0
 20
0.0
 30
0.0
  9
$PLIMCHECK
 70
               0
  9
$PEXTMIN
 10
1.0000000000000000E+20
 20
1.0000000000000000E+20
 30
1.0000000000000000E+20
  9
$PEXTMAX
 10
-1.0000000000000000E+20
 20
-1.0000000000000000E+20
 30
-1.0000000000000000E+20
  9
$PLIMMIN
 10
0.0
 20
0.0
  9
$PLIMMAX
 10
12.0
 20
9.0
  9
$UNITMODE
 70
               0
  9
$VISRETAIN
 70
               0
  9
$PLINEGEN
 70
               1
  9
$PSLTSCALE
 70
               0
  9
$TREEDEPTH
 70
            3020
  9
$CMLSTYLE
  2
Standard
  9
$CMLJUST
 70
               0
  9
$CMLSCALE
 40
1.0
  9
$PROXYGRAPHICS
 70
               0
  9
$MEASUREMENT
 70
               1
  9
$CELWEIGHT
370
               0
  9
$ENDCAPS
280
               0
  9
$JOINSTYLE
280
               0
  9
$LWDISPLAY
290
               1
  9
$INSUNITS
 70
               4
  9
$HYPERLINKBASE
  1

  9
$STYLESHEET
  1

  9
$XEDIT
290
               1
  9
$CEPSNTYPE
380
               0
  9
$PSTYLEMODE
290
               1
  9
$FINGERPRINTGUID
  2

  9
$VERSIONGUID
  2

  9
$EXTNAMES
290
               1
  9
$PSVPSCALE
 40
0.0
  0
ENDSEC
  0
SECTION
  2
CLASSES
  0
CLASS
  1
LWPOLYLINE
  2
AcDbPolyline
  3
AutoCAD 2000
 90
    32768
280
               0
281
               1
  0
CLASS
  1
IMAGE
  2
AcDbRasterImage
  3
ISM
 90
    32895
280
               0
281
               1
  0
CLASS
  1
OLE2FRAME
  2
AcDbOle2Frame
  3
AutoCAD 2000
 90
    32768
280
               0
281
               1
  0
CLASS
  1
HATCH
  2
AcDbHatch
  3
AutoCAD 2000
 90
    32768
280
               0
281
               1
  0
CLASS
  1
DICTIONARYVAR
  2
AcDbDictionaryVar
  3
AutoCAD 2000
 90
    32768
280
               0
281
               0
  0
CLASS
  1
RASTERVARIABLES
  2
AcDbRasterVariables
  3
ISM
 90
    32768
280
               0
281
               0
  0
CLASS
  1
IMAGEDEF
  2
AcDbRasterImageDef
  3
ISM
 90
    32768
280
               0
281
               0
  0
CLASS
  1
IMAGEDEF_REACTOR
  2
AcDbRasterImageDefReactor
  3
ISM
 90
    32769
280
               0
281
               0
  0
CLASS
  1
IDBUFFER
  2
AcDbIdBuffer
  3
AutoCAD 2000
 90
    32768
280
               0
281
               0
  0
CLASS
  1
SPATIAL_FILTER
  2
AcDbSpatialFilter
  3
AutoCAD 2000
 90
    32768
280
               0
281
               0
  0
CLASS
  1
XRECORD
  2
AcDbXrecord
  3
AutoCAD 2000
 90
    32768
280
               0
281
               0
  0
CLASS
  1
SORTENTSTABLE
  2
AcDbSortentsTable
  3
AutoCAD 2000
 90
    32768
280
               0
281
               0
  0
CLASS
  1
LAYER_INDEX
  2
AcDbLayerIndex
  3
AutoCAD 2000
 90
    32768
280
               0
281
               0
  0
CLASS
  1
SPATIAL_INDEX
  2
AcDbSpatialIndex
  3
AutoCAD 2000
 90
    32768
280
               0
281
               0
  0
CLASS
  1
OBJECT_PTR
  2
CAseDLPNTableRecord
  3
"ASE-LPNTableRecord"
 90
    32769
280
               0
281
               0
  0
CLASS
  1
LAYOUT
  2
AcDbLayout
  3
AutoCAD 2000
 90
        0
280
               0
281
               0
  0
CLASS
  1
PLOTSETTINGS
  2
AcDbPlotSettings
  3
AutoCAD 2000
 90
    32768
280
               0
281
               0
  0
CLASS
  1
ACDBDICTIONARYWDFLT
  2
AcDbDictionaryWithDefault
  3
AutoCAD 2000
 90
        0
280
               0
281
               0
  0
CLASS
  1
ACDBPLACEHOLDER
  2
AcDbPlaceHolder
  3
AutoCAD 2000
 90
        0
280
               0
281
               0
  0
CLASS
  1
VBA_PROJECT
  2
AcDbVbaProject
  3
acadvba
 90
    32768
280
               0
281
               0
  0
CLASS
  1
WIPEOUT
  2
AcDbWipeout
  3
WipeOut|AutoCAD Express Tool|expresstools@autodesk.com
 90
      127
280
               0
281
               1
  0
CLASS
  1
WIPEOUTVARIABLES
  2
AcDbWipeoutVariables
  3
WipeOut|AutoCAD Express Tool|expresstools@autodesk.com
 90
        0
280
               0
281
               0
  0
CLASS
  1
RTEXT
  2
RText
  3
RText|AutoCAD Express Tool|expresstools@autodesk.com
 90
    32768
280
               0
281
               1
  0
CLASS
  1
ARCALIGNEDTEXT
  2
AcDbArcAlignedText
  3
ATEXT|AutoCAD Express Tool|expresstools@autodesk.com
 90
    32768
280
               0
281
               1
  0
ENDSEC
  0
SECTION
  2
TABLES
  0
TABLE
  2
VPORT
  5
7
100
AcDbSymbolTable
 70
               1
  0
VPORT
  5
15
100
AcDbSymbolTableRecord
100
AcDbViewportTableRecord
  2
*ACTIVE
 70
               0
 10
0.0
 20
0.0
 11
1.0
 21
1.0
 12
1478.1032888576779
 22
945.80866420566872
 13
0.0
 23
0.0
 14
1.0
 24
1.0
 15
0.0
 25
0.0
 16
0.0
 26
0.0
 36
1.0
 17
0.0
 27
0.0
 37
0.0
 40
1843.6173284113374
 41
0.688564
 42
50.0
 43
0.0
 44
0.0
 50
0.0
 51
0.0
 71
               0
 72
            2000
 73
               1
 74
               1
 75
               0
 76
               0
 77
               0
 78
               0
281
               0
 65
               0
110
0.0
120
0.0
130
0.0
111
1.0
121
0.0
131
0.0
112
0.0
122
1.0
132
0.0
345
0
346
0
 79
               0
146
0.0
  0
ENDTAB
  0
TABLE
  2
LTYPE
  5
4
100
AcDbSymbolTable
 70
              14
  0
LTYPE
  5
11
100
AcDbSymbolTableRecord
100
AcDbLinetypeTableRecord
  2
ByBlock
 70
              64
  3

 72
              65
 73
               0
 40
0.0
  0
LTYPE
  5
12
100
AcDbSymbolTableRecord
100
AcDbLinetypeTableRecord
  2
ByLayer
 70
              64
  3

 72
              65
 73
               0
 40
0.0
  0
LTYPE
  5
13
100
AcDbSymbolTableRecord
100
AcDbLinetypeTableRecord
  2
Continuous
 70
              64
  3
Solid line
 72
              65
 73
               0
 40
0.0
  0
LTYPE
  5
2B
100
AcDbSymbolTableRecord
100
AcDbLinetypeTableRecord
  2
STYLE_01
 70
               0
  3

 72
              65
 73
               2
 40
0.41664
 49
0.20828
 74
               0
 49
-0.20836
 74
               0
  0
LTYPE
  5
2C
100
AcDbSymbolTableRecord
100
AcDbLinetypeTableRecord
  2
STYLE_02
 70
               0
  3

 72
              65
 73
               2
 40
0.6944250000000001
 49
0.48607
 74
               0
 49
-0.2083550000000001
 74
               0
  0
LTYPE
  5
2D
100
AcDbSymbolTableRecord
100
AcDbLinetypeTableRecord
  2
STYLE_03
 70
               0
  3

 72
              65
 73
               2
 40
1.25
 49
1.0416400000000001
 74
               0
 49
-0.2083599999999999
 74
               0
  0
LTYPE
  5
2E
100
AcDbSymbolTableRecord
100
AcDbLinetypeTableRecord
  2
STYLE_04
 70
               0
  3

 72
              65
 73
               2
 40
1.5277099999999999
 49
1.3194249999999998
 74
               0
 49
-0.208285
 74
               0
  0
LTYPE
  5
2F
100
AcDbSymbolTableRecord
100
AcDbLinetypeTableRecord
  2
STYLE_05
 70
               0
  3

 72
              65
 73
               2
 40
0.20828
 49
0.069425
 74
               0
 49
-0.138855
 74
               0
  0
LTYPE
  5
30
100
AcDbSymbolTableRecord
100
AcDbLinetypeTableRecord
  2
STYLE_06
 70
               0
  3

 72
              65
 73
               4
 40
1.0416400000000001
 49
0.625
 74
               0
 49
-0.20828
 74
               0
 49
0.06943
 74
               0
 49
-0.13893
 74
               0
  0
LTYPE
  5
31
100
AcDbSymbolTableRecord
100
AcDbLinetypeTableRecord
  2
STYLE_07
 70
               0
  3

 72
              65
 73
               6
 40
1.875
 49
0.625
 74
               0
 49
-0.20828
 74
               0
 49
0.6250000000000001
 74
               0
 49
-0.2083599999999999
 74
               0
 49
0.06943
 74
               0
 49
-0.1389299999999999
 74
               0
  0
LTYPE
  5
32
100
AcDbSymbolTableRecord
100
AcDbLinetypeTableRecord
  2
STYLE_08
 70
               0
  3

 72
              65
 73
               6
 40
1.25
 49
0.625
 74
               0
 49
-0.20828
 74
               0
 49
0.06943
 74
               0
 49
-0.13893
 74
               0
 49
0.0694299999999999
 74
               0
 49
-0.13893
 74
               0
  0
LTYPE
  5
33
100
AcDbSymbolTableRecord
100
AcDbLinetypeTableRecord
  2
STYLE_09
 70
               0
  3

 72
              65
 73
               4
 40
5.0
 49
3.75
 74
               0
 49
-0.2777849999999998
 74
               0
 49
0.6944300000000003
 74
               0
 49
-0.2777849999999998
 74
               0
  0
LTYPE
  5
34
100
AcDbSymbolTableRecord
100
AcDbLinetypeTableRecord
  2
STYLE_10
 70
               0
  3

 72
              65
 73
               6
 40
5.9375
 49
3.75
 74
               0
 49
-0.2777849999999998
 74
               0
 49
0.6944300000000003
 74
               0
 49
-0.2777849999999998
 74
               0
 49
0.625
 74
               0
 49
-0.3125
 74
               0
  0
LTYPE
  5
35
100
AcDbSymbolTableRecord
100
AcDbLinetypeTableRecord
  2
STYLE_11
 70
               0
  3

 72
              65
 73
               4
 40
0.1
 49
0.05
 74
               0
 49
-0.025
 74
               0
 49
0.0005
 74
               0
 49
-0.0245
 74
               0
  0
ENDTAB
  0
TABLE
  2
LAYER
  5
2
100
AcDbSymbolTable
 70
               6
  0
LAYER
  5
14
100
AcDbSymbolTableRecord
100
AcDbLayerTableRecord
  2
0
 70
               0
 62
               7
  6
Continuous
290
               1
370
              15
390
1D
  0
LAYER
  5
36
100
AcDbSymbolTableRecord
100
AcDbLayerTableRecord
  2
一般
 70
               0
 62
               7
  6
Continuous
290
               1
370
               5
390
1D
  0
LAYER
  5
37
100
AcDbSymbolTableRecord
100
AcDbLayerTableRecord
  2
寸法
 70
               0
 62
               7
  6
Continuous
290
               1
370
               5
390
1D
  0
LAYER
  5
38
100
AcDbSymbolTableRecord
100
AcDbLayerTableRecord
  2
Unknown
 70
               0
 62
               3
  6
Continuous
290
               1
370
              13
390
1D
  0
LAYER
  5
39
100
AcDbSymbolTableRecord
100
AcDbLayerTableRecord
  2
水栓排水
 70
               0
 62
               7
  6
Continuous
290
               1
370
               5
390
1D
  0
LAYER
  5
3A
100
AcDbSymbolTableRecord
100
AcDbLayerTableRecord
  2
水栓
 70
               0
 62
               7
  6
Continuous
290
               1
370
               5
390
1D
  0
ENDTAB
  0
TABLE
  2
STYLE
  5
3
100
AcDbSymbolTable
 70
               3
  0
STYLE
  5
17
100
AcDbSymbolTableRecord
100
AcDbTextStyleTableRecord
  2
Standard
 70
               0
 40
0.0
 41
1.0
 50
0.0
 71
               0
 42
0.0
  3
txt
  4
BIGFONT.SHX
  0
STYLE
  5
29
100
AcDbSymbolTableRecord
100
AcDbTextStyleTableRecord
  2
Arial
 70
               0
 40
0.0
 41
1.0
 50
0.0
 71
               0
 42
0.0
  3

  4
Arial
1001
ACAD
1000
Arial
1071
        0
  0
STYLE
  5
2A
100
AcDbSymbolTableRecord
100
AcDbTextStyleTableRecord
  2
ＭＳ ゴシック
 70
               0
 40
0.0
 41
1.0
 50
0.0
 71
               0
 42
0.0
  3

  4
ＭＳ ゴシック
1001
ACAD
1000
ＭＳ ゴシック
1071
        0
  0
ENDTAB
  0
TABLE
  2
VIEW
  5
5
100
AcDbSymbolTable
 70
               0
  0
ENDTAB
  0
TABLE
  2
UCS
  5
6
100
AcDbSymbolTable
 70
               0
  0
ENDTAB
  0
TABLE
  2
APPID
  5
8
100
AcDbSymbolTable
 70
               1
  0
APPID
  5
16
100
AcDbSymbolTableRecord
100
AcDbRegAppTableRecord
  2
ACAD
 70
               0
  0
ENDTAB
  0
TABLE
  2
DIMSTYLE
  5
9
100
AcDbSymbolTable
 70
               1
100
AcDbDimStyleTable
 71
               0
  0
DIMSTYLE
105
18
100
AcDbSymbolTableRecord
100
AcDbDimStyleTableRecord
  2
Standard
 70
               0
  3

  4

 40
1.0
 41
0.18
 42
0.0625
 43
0.38
 44
0.18
 45
0.0
 46
0.0
 47
0.0
 48
0.0
 71
               0
 72
               0
 73
               1
 74
               1
 75
               0
 76
               0
 77
               0
 78
               0
 79
               0
140
0.18
141
0.09
142
0.0
143
25.399999999999999
144
1.0
145
0.0
146
1.0
147
0.09
148
0.0
170
               0
171
               2
172
               0
173
               0
174
               0
175
               0
176
               0
177
               0
178
               0
179
               0
271
               4
272
               4
273
               2
274
               2
275
               0
276
               0
277
               2
278
              46
279
               0
280
               0
281
               0
282
               0
283
               1
284
               0
285
               0
286
               0
288
               0
340
17
341
0
342
0
343
0
344
0
371
              -2
372
              -2
  0
ENDTAB
  0
TABLE
  2
BLOCK_RECORD
  5
1
100
AcDbSymbolTable
 70
               5
  0
BLOCK_RECORD
  5
A
100
AcDbSymbolTableRecord
100
AcDbBlockTableRecord
  2
*MODEL_SPACE
340
20
  0
BLOCK_RECORD
  5
B
100
AcDbSymbolTableRecord
100
AcDbBlockTableRecord
  2
*PAPER_SPACE
340
21
  0
BLOCK_RECORD
  5
24
100
AcDbSymbolTableRecord
100
AcDbBlockTableRecord
  2
グループ
340
0
102
{BLKREFS
331
4B
102
}
  0
BLOCK_RECORD
  5
25
100
AcDbSymbolTableRecord
100
AcDbBlockTableRecord
  2
SCAL 1_25
340
0
102
{BLKREFS
331
B3
102
}
  0
BLOCK_RECORD
  5
26
100
AcDbSymbolTableRecord
100
AcDbBlockTableRecord
  2
グループ-1
340
0
102
{BLKREFS
331
C3
102
}
  0
BLOCK_RECORD
  5
27
100
AcDbSymbolTableRecord
100
AcDbBlockTableRecord
  2
グループ-2
340
0
102
{BLKREFS
331
C4
102
}
  0
BLOCK_RECORD
  5
28
100
AcDbSymbolTableRecord
100
AcDbBlockTableRecord
  2
グループ-3
340
0
102
{BLKREFS
331
C5
102
}
  0
ENDTAB
  0
ENDSEC
  0
SECTION
  2
BLOCKS
  0
BLOCK
  5
D
100
AcDbEntity
  8
0
100
AcDbBlockBegin
  2
*MODEL_SPACE
 70
               0
 10
0.0
 20
0.0
 30
0.0
  3
*MODEL_SPACE
  1

  0
ENDBLK
  5
E
100
AcDbEntity
  8
0
100
AcDbBlockEnd
  0
BLOCK
  5
F
100
AcDbEntity
 67
               1
  8
0
100
AcDbBlockBegin
  2
*PAPER_SPACE
 70
               0
 10
0.0
 20
0.0
 30
0.0
  3
*PAPER_SPACE
  1

  0
ENDBLK
  5
10
100
AcDbEntity
 67
               1
  8
0
100
AcDbBlockEnd
  0
BLOCK
  5
3B
100
AcDbEntity
  8
一般
100
AcDbBlockBegin
  2
グループ
 70
               0
 10
0.0
 20
0.0
 30
0.0
  3
グループ
  1

  0
LINE
  5
3C
100
AcDbEntity
  8
一般
370
              15
  6
Continuous
 62
               9
100
AcDbLine
 10
-55.0
 20
-11.458333333333485
 30
0.0
 11
-55.0
 21
-41.458333333333485
 31
0.0
  0
WIPEOUT
  5
3D
100
AcDbEntity
  8
一般
370
               5
  6
Continuous
 62
               9
 92
        0
100
AcDbWipeout
 90
        0
 10
-315.0
 20
-11.458333333333186
 30
0.0
 11
70.0
 21
0.0
 31
0.0
 12
0.0
 22
70.0
 32
0.0
 13
1.0
 23
1.0
340
0
 70
               7
280
               1
281
              50
282
              50
283
               0
360
0
 71
               2
 91
        5
 14
-0.5
 24
0.5
 14
0.5
 24
0.5
 14
0.5
 24
-0.255952380952381
 14
-0.5
 24
-0.255952380952381
 14
-0.5
 24
0.5
  0
MTEXT
  5
3E
100
AcDbEntity
  8
一般
 62
               9
100
AcDbMText
 10
-315.0
 20
36.671028645833488
 30
0.0
 40
40.721028645833336
 41
70.0
 71
               1
 72
               1
  1
0
  7
ＭＳ ゴシック
 73
               1
 44
0.7828267384257844
  0
WIPEOUT
  5
3F
100
AcDbEntity
  8
一般
370
               5
  6
Continuous
 62
               9
 92
        0
100
AcDbWipeout
 90
        0
 10
-105.0
 20
-11.458333333333186
 30
0.0
 11
100.0
 21
0.0
 31
0.0
 12
0.0
 22
100.0
 32
0.0
 13
1.0
 23
1.0
340
0
 70
               7
280
               1
281
              50
282
              50
283
               0
360
0
 71
               2
 91
        5
 14
-0.5
 24
0.5
 14
0.5
 24
0.5
 14
0.5
 24
-0.0291666666666667
 14
-0.5
 24
-0.0291666666666667
 14
-0.5
 24
0.5
  0
MTEXT
  5
40
100
AcDbEntity
  8
一般
 62
               9
100
AcDbMText
 10
-105.0
 20
36.671028645833488
 30
0.0
 40
40.721028645833336
 41
100.0
 71
               1
 72
               1
  1
250
  7
ＭＳ ゴシック
 73
               1
 44
0.7828267384257844
  0
WIPEOUT
  5
41
100
AcDbEntity
  8
一般
370
               5
  6
Continuous
 62
               9
 92
        0
100
AcDbWipeout
 90
        0
 10
135.0
 20
-11.458333333333186
 30
0.0
 11
180.0
 21
0.0
 31
0.0
 12
0.0
 22
180.0
 32
0.0
 13
1.0
 23
1.0
340
0
 70
               7
280
               1
281
              50
282
              50
283
               0
360
0
 71
               2
 91
        5
 14
-0.5
 24
0.5
 14
0.5
 24
0.5
 14
0.5
 24
0.2060185185185185
 14
-0.5
 24
0.2060185185185185
 14
-0.5
 24
0.5
  0
MTEXT
  5
42
100
AcDbEntity
  8
一般
 62
               9
100
AcDbMText
 10
135.0
 20
36.671028645833488
 30
0.0
 40
40.721028645833336
 41
180.0
 71
               1
 72
               1
  1
500mm
  7
ＭＳ ゴシック
 73
               1
 44
0.7828267384257844
  0
POLYLINE
  5
43
100
AcDbEntity
  8
一般
370
              15
  6
Continuous
 62
               8
100
AcDb2dPolyline
 66
               1
 10
0.0
 20
0.0
 30
0.0
 75
               5
  0
VERTEX
  5
44
100
AcDbEntity
  8
一般
370
              15
  6
Continuous
 62
               8
100
AcDbVertex
100
AcDb2dVertex
 10
-305.0
 20
-11.458333333333485
 30
0.0
  0
VERTEX
  5
45
100
AcDbEntity
  8
一般
370
              15
  6
Continuous
 62
               8
100
AcDbVertex
100
AcDb2dVertex
 10
-305.0
 20
-41.458333333333485
 30
0.0
  0
VERTEX
  5
46
100
AcDbEntity
  8
一般
370
              15
  6
Continuous
 62
               8
100
AcDbVertex
100
AcDb2dVertex
 10
195.0
 20
-41.458333333333485
 30
0.0
  0
VERTEX
  5
47
100
AcDbEntity
  8
一般
370
              15
  6
Continuous
 62
               8
100
AcDbVertex
100
AcDb2dVertex
 10
195.0
 20
-11.458333333333485
 30
0.0
  0
SEQEND
  5
48
100
AcDbEntity
  8
一般
370
              15
  6
Continuous
 62
               8
  0
ENDBLK
  5
49
100
AcDbEntity
  8
一般
100
AcDbBlockEnd
  0
BLOCK
  5
4A
100
AcDbEntity
  8
一般
100
AcDbBlockBegin
  2
SCAL 1_25
 70
               0
 10
0.0
 20
0.0
 30
0.0
  3
SCAL 1_25
  1

  0
INSERT
  5
4B
100
AcDbEntity
  8
一般
 62
               7
100
AcDbBlockReference
  2
グループ
 10
0.0
 20
0.0
 30
0.0
  0
ENDBLK
  5
4C
100
AcDbEntity
  8
一般
100
AcDbBlockEnd
  0
BLOCK
  5
4D
100
AcDbEntity
  8
水栓
100
AcDbBlockBegin
  2
グループ-1
 70
               0
 10
0.0
 20
0.0
 30
0.0
  3
グループ-1
  1

  0
LINE
  5
4E
100
AcDbEntity
  8
0
100
AcDbLine
 10
-1280.0
 20
-1453.0266305547157
 30
0.0
 11
-1280.0
 21
-1493.0266305547157
 31
0.0
  0
LINE
  5
4F
100
AcDbEntity
  8
0
100
AcDbLine
 10
-1288.0
 20
-1461.0266305547157
 30
0.0
 11
-1288.0
 21
-1493.0266305547157
 31
0.0
  0
LINE
  5
50
100
AcDbEntity
  8
0
100
AcDbLine
 10
-2680.0000000000582
 20
-1453.0266305547157
 30
0.0
 11
-2680.0000000000582
 21
-1493.0266305547157
 31
0.0
  0
LINE
  5
51
100
AcDbEntity
  8
0
100
AcDbLine
 10
-2672.0000000000582
 20
-1461.0266305547157
 30
0.0
 11
-2672.0000000000582
 21
-1493.0266305547157
 31
0.0
  0
LINE
  5
52
100
AcDbEntity
  8
0
100
AcDbLine
 10
-1280.0
 20
-1453.0266305547157
 30
0.0
 11
-2680.0000000000582
 21
-1453.0266305547157
 31
0.0
  0
LINE
  5
53
100
AcDbEntity
  8
0
100
AcDbLine
 10
-1288.0
 20
-1461.0266305547157
 30
0.0
 11
-1349.8205592260492
 21
-1461.0266305547157
 31
0.0
  0
LINE
  5
54
100
AcDbEntity
  8
0
100
AcDbLine
 10
-2607.9993073352525
 20
-1461.0266305547157
 30
0.0
 11
-2672.0000000000582
 21
-1461.0266305547157
 31
0.0
  0
LINE
  5
55
100
AcDbEntity
  8
0
100
AcDbLine
 10
-1280.0
 20
-1493.0266305547157
 30
0.0
 11
-1353.2393801754806
 21
-1493.0266305547157
 31
0.0
  0
LINE
  5
56
100
AcDbEntity
  8
0
100
AcDbLine
 10
-2593.713516526157
 20
-1493.0266305547157
 30
0.0
 11
-2680.0000000000582
 21
-1493.0266305547157
 31
0.0
  0
LINE
  5
57
100
AcDbEntity
  8
0
100
AcDbLine
 10
-1436.9347396434605
 20
-1932.3879357618462
 30
0.0
 11
-1510.3984612497006
 21
-1930.9186613297261
 31
0.0
  0
ARC
  5
58
100
AcDbEntity
  8
0
100
AcDbCircle
 10
-1436.1348995954759
 20
-1892.3959333626462
 30
0.0
 40
39.999999999999652
100
AcDbArc
 50
268.85423716182402
 51
353.90175701788695
  0
LINE
  5
59
100
AcDbEntity
  8
0
100
AcDbLine
 10
-1441.6764395235368
 20
-1920.2907020041966
 30
0.0
 11
-1516.1831707143283
 21
-1918.8005673803855
 31
0.0
  0
ARC
  5
5A
100
AcDbEntity
  8
0
100
AcDbCircle
 10
-1440.8765994755522
 20
-1880.2986996049949
 30
0.0
 40
39.999999999999652
100
AcDbArc
 50
268.85423716182402
 51
353.90175701788695
  0
LINE
  5
5B
100
AcDbEntity
  8
0
100
AcDbLine
 10
-1355.0000000000146
 20
-1453.0266305547157
 30
0.0
 11
-1401.1029513822432
 21
-1884.5480427718157
 31
0.0
  0
LINE
  5
5C
100
AcDbEntity
  8
0
100
AcDbLine
 10
-1349.8205592260347
 20
-1461.0266305547157
 30
0.0
 11
-1396.3612515021523
 21
-1896.6452765294653
 31
0.0
  0
LINE
  5
5D
100
AcDbEntity
  8
0
100
AcDbLine
 10
-2604.9999999999563
 20
-1453.0266305547157
 30
0.0
 11
-2415.3463487776608
 21
-1877.8485336765061
 31
0.0
  0
LINE
  5
5E
100
AcDbEntity
  8
0
100
AcDbLine
 10
-2607.9993073352525
 20
-1461.0266305547157
 30
0.0
 11
-2416.5639074736537
 21
-1889.8396292495363
 31
0.0
  0
LINE
  5
5F
100
AcDbEntity
  8
0
100
AcDbLine
 10
-1534.2036987278989
 20
-1950.3992373614165
 30
0.0
 11
-1586.203508359511
 21
-1949.4537862772049
 31
0.0
  0
ARC
  5
60
100
AcDbEntity
  8
0
100
AcDbCircle
 10
-1534.0219105912256
 20
-1940.4008898442862
 30
0.0
 40
10.000000000000618
100
AcDbArc
 50
268.95837332400083
 51
322.75640425555838
  0
LINE
  5
61
100
AcDbEntity
  8
0
100
AcDbLine
 10
-1540.0722351806908
 20
-1938.2905533914654
 30
0.0
 11
-1580.0731870227901
 21
-1937.5632633579753
 31
0.0
  0
ARC
  5
62
100
AcDbEntity
  8
0
100
AcDbCircle
 10
-1539.890447044032
 20
-1928.2922058743261
 30
0.0
 40
10.000000000000618
100
AcDbArc
 50
268.95837332400083
 51
322.75640425555838
  0
ARC
  5
63
100
AcDbEntity
  8
0
100
AcDbCircle
 10
-1605.1086011139705
 20
-1927.1064212548754
 30
0.0
 40
10.000000000002363
100
AcDbArc
 50
36.493654153281668
 51
88.958373324000831
  0
ARC
  5
64
100
AcDbEntity
  8
0
100
AcDbCircle
 10
-1611.2389224506915
 20
-1938.9969441741159
 30
0.0
 40
9.9999999999960725
100
AcDbArc
 50
36.493654153373143
 51
88.958373324000831
  0
LINE
  5
65
100
AcDbEntity
  8
0
100
AcDbLine
 10
-1597.0693737556721
 20
-1921.1590837428957
 30
0.0
 11
-1587.9306262444297
 21
-1933.5122533528265
 31
0.0
  0
ARC
  5
66
100
AcDbEntity
  8
0
100
AcDbCircle
 10
-1579.8913988861314
 20
-1927.564915840836
 30
0.0
 40
10.000000000002363
100
AcDbArc
 50
216.49365415328168
 51
268.95837332400083
  0
LINE
  5
67
100
AcDbEntity
  8
0
100
AcDbLine
 10
-1603.1996950923931
 20
-1933.0496066621254
 30
0.0
 11
-1594.0609475811216
 21
-1945.4027762720762
 31
0.0
  0
ARC
  5
68
100
AcDbEntity
  8
0
100
AcDbCircle
 10
-1586.0217202228232
 20
-1939.4554387600765
 30
0.0
 40
10.0000000000004
100
AcDbArc
 50
216.49365415340665
 51
268.95837332400083
  0
LINE
  5
69
100
AcDbEntity
  8
0
100
AcDbLine
 10
-1523.070249501121
 20
-1922.6907174763965
 30
0.0
 11
-1531.9297504989518
 21
-1934.3442559829564
 31
0.0
  0
ARC
  5
6A
100
AcDbEntity
  8
0
100
AcDbCircle
 10
-1515.1095529560553
 20
-1928.7427675850249
 30
0.0
 40
10.000000000000618
100
AcDbArc
 50
88.958373324000831
 51
142.75640425555832
  0
LINE
  5
6B
100
AcDbEntity
  8
0
100
AcDbLine
 10
-1517.2017130483291
 20
-1934.7994014463566
 30
0.0
 11
-1526.0612140461599
 21
-1946.4529399529165
 31
0.0
  0
ARC
  5
6C
100
AcDbEntity
  8
0
100
AcDbCircle
 10
-1509.2410165032634
 20
-1940.8514515549759
 30
0.0
 40
10.000000000000618
100
AcDbArc
 50
88.958373324000831
 51
142.75640425555832
  0
LINE
  5
6D
100
AcDbEntity
  8
0
100
AcDbLine
 10
-1604.9268129772972
 20
-1917.1080737377451
 30
0.0
 11
-2379.6248221424612
 21
-1901.5343470964453
 31
0.0
  0
ARC
  5
6E
100
AcDbEntity
  8
0
100
AcDbCircle
 10
-2378.8208659937518
 20
-1861.5424272311666
 30
0.0
 40
40.000000000000774
100
AcDbArc
 50
204.05746369550079
 51
268.84834009673824
  0
LINE
  5
6F
100
AcDbEntity
  8
0
100
AcDbLine
 10
-1611.0571343140182
 20
-1928.9985966569857
 30
0.0
 11
-2380.8422867622576
 21
-1913.5254445605751
 31
0.0
  0
ARC
  5
70
100
AcDbEntity
  8
0
100
AcDbCircle
 10
-2380.0384246898611
 20
-1873.5335228041949
 30
0.0
 40
40.000000000000774
100
AcDbArc
 50
204.05746369550079
 51
268.84847487829097
  0
ENDBLK
  5
71
100
AcDbEntity
  8
水栓
100
AcDbBlockEnd
  0
BLOCK
  5
72
100
AcDbEntity
  8
水栓
100
AcDbBlockBegin
  2
グループ-2
 70
               0
 10
0.0
 20
0.0
 30
0.0
  3
グループ-2
  1

  0
LINE
  5
73
100
AcDbEntity
  8
0
100
AcDbLine
 10
-1290.0000000000291
 20
-59.951280630764813
 30
0.0
 11
-2670.0000000000582
 21
-59.951280630764813
 31
0.0
  0
ARC
  5
74
100
AcDbEntity
  8
0
100
AcDbCircle
 10
-1290.0000000000291
 20
-69.951280630753899
 30
0.0
 40
10.0
100
AcDbArc
 50
0.0
 51
90.0
  0
LINE
  5
75
100
AcDbEntity
  8
0
100
AcDbLine
 10
-1385.0000000000291
 20
-734.9512806307539
 30
0.0
 11
-2575.0000000000582
 21
-734.9512806307539
 31
0.0
  0
ARC
  5
76
100
AcDbEntity
  8
0
100
AcDbCircle
 10
-2575.0000000000582
 20
-704.9512806307539
 30
0.0
 40
30.0
100
AcDbArc
 50
180.0
 51
270.0
  0
ARC
  5
77
100
AcDbEntity
  8
0
100
AcDbCircle
 10
-1385.0000000000291
 20
-704.95128063076481
 30
0.0
 40
30.0
100
AcDbArc
 50
270.0
 51
0.0
  0
LINE
  5
78
100
AcDbEntity
  8
0
100
AcDbLine
 10
-1385.0000000000146
 20
-134.9512806307539
 30
0.0
 11
-2574.9999999999563
 21
-134.9512806307539
 31
0.0
  0
ARC
  5
79
100
AcDbEntity
  8
0
100
AcDbCircle
 10
-1385.0000000000146
 20
-164.95128063076481
 30
0.0
 40
30.0
100
AcDbArc
 50
0.0
 51
90.0
  0
LINE
  5
7A
100
AcDbEntity
  8
0
100
AcDbLine
 10
-1435.0000000000291
 20
-684.9512806307539
 30
0.0
 11
-2375.0000000000582
 21
-684.9512806307539
 31
0.0
  0
ARC
  5
7B
100
AcDbEntity
  8
0
100
AcDbCircle
 10
-1435.0000000000291
 20
-654.9512806307539
 30
0.0
 40
30.0
100
AcDbArc
 50
270.0
 51
0.0
  0
LINE
  5
7C
100
AcDbEntity
  8
0
100
AcDbLine
 10
-1435.0000000000291
 20
-184.9512806307539
 30
0.0
 11
-2375.0000000000582
 21
-184.9512806307539
 31
0.0
  0
ARC
  5
7D
100
AcDbEntity
  8
0
 62
               7
100
AcDbCircle
 10
-1435.0000000000291
 20
-214.9512806307539
 30
0.0
 40
30.0
100
AcDbArc
 50
0.0
 51
90.0
  0
LINE
  5
7E
100
AcDbEntity
  8
0
100
AcDbLine
 10
-2680.0000000000582
 20
-69.951280630753899
 30
0.0
 11
-2680.0000000000582
 21
-799.9512806307539
 31
0.0
  0
ARC
  5
7F
100
AcDbEntity
  8
0
100
AcDbCircle
 10
-2670.0000000000582
 20
-69.951280630753899
 30
0.0
 40
10.0
100
AcDbArc
 50
90.0
 51
180.0
  0
LINE
  5
80
100
AcDbEntity
  8
0
100
AcDbLine
 10
-2604.9999999999563
 20
-164.9512806307539
 30
0.0
 11
-2604.9999999999563
 21
-704.9512806307539
 31
0.0
  0
ARC
  5
81
100
AcDbEntity
  8
0
100
AcDbCircle
 10
-2574.9999999999563
 20
-164.9512806307539
 30
0.0
 40
30.0
100
AcDbArc
 50
90.0
 51
180.0
  0
LINE
  5
82
100
AcDbEntity
  8
0
100
AcDbLine
 10
-1355.0000000000146
 20
-164.95128063076481
 30
0.0
 11
-1355.0000000000291
 21
-704.95128063076481
 31
0.0
  0
LINE
  5
83
100
AcDbEntity
  8
0
100
AcDbLine
 10
-1405.0000000000146
 20
-214.9512806307539
 30
0.0
 11
-1405.0000000000291
 21
-654.9512806307539
 31
0.0
  0
LINE
  5
84
100
AcDbEntity
  8
0
100
AcDbLine
 10
-2404.9999999999563
 20
-214.9512806307539
 30
0.0
 11
-2405.0000000000582
 21
-654.9512806307539
 31
0.0
  0
ARC
  5
85
100
AcDbEntity
  8
0
100
AcDbCircle
 10
-2375.0000000000582
 20
-654.9512806307539
 30
0.0
 40
30.0
100
AcDbArc
 50
180.0
 51
270.0
  0
ARC
  5
86
100
AcDbEntity
  8
0
100
AcDbCircle
 10
-2375.0000000000582
 20
-214.9512806307539
 30
0.0
 40
30.0
100
AcDbArc
 50
90.0
 51
180.0
  0
LINE
  5
87
100
AcDbEntity
  8
0
100
AcDbLine
 10
-2670.0000000000582
 20
-809.95128063076481
 30
0.0
 11
-1290.0000000000291
 21
-809.95128063076481
 31
0.0
  0
ARC
  5
88
100
AcDbEntity
  8
0
100
AcDbCircle
 10
-2670.0000000000582
 20
-799.9512806307539
 30
0.0
 40
10.0
100
AcDbArc
 50
180.0
 51
270.0
  0
ARC
  5
89
100
AcDbEntity
  8
0
100
AcDbCircle
 10
-1290.0000000000291
 20
-799.9512806307539
 30
0.0
 40
10.0
100
AcDbArc
 50
270.0
 51
0.0
  0
LINE
  5
8A
100
AcDbEntity
  8
0
100
AcDbLine
 10
-1280.0
 20
-799.9512806307539
 30
0.0
 11
-1280.0
 21
-69.951280630753899
 31
0.0
  0
CIRCLE
  5
8B
100
AcDbEntity
  8
0
100
AcDbCircle
 10
-1560.0000000000146
 20
-434.9512806307539
 30
0.0
 40
40.0
  0
LINE
  5
8C
100
AcDbEntity
  8
0
370
               5
100
AcDbLine
 10
-1385.0000000000146
 20
-134.9512806307539
 30
0.0
 11
-1435.0000000000291
 21
-184.9512806307539
 31
0.0
  0
LINE
  5
8D
100
AcDbEntity
  8
0
370
               5
100
AcDbLine
 10
-1355.0000000000146
 20
-164.95128063076481
 30
0.0
 11
-1405.0000000000146
 21
-214.9512806307539
 31
0.0
  0
LINE
  5
8E
100
AcDbEntity
  8
0
100
AcDbLine
 10
-1405.0000000000146
 20
-214.9512806307539
 30
0.0
 11
-1405.0000000000291
 21
-661.2012806307539
 31
0.0
  0
LINE
  5
8F
100
AcDbEntity
  8
0
370
               5
100
AcDbLine
 10
-1405.0000000000291
 20
-661.2012806307539
 30
0.0
 11
-1355.0000000000291
 21
-704.95128063076481
 31
0.0
  0
LINE
  5
90
100
AcDbEntity
  8
0
370
               5
100
AcDbLine
 10
-1435.0000000000291
 20
-684.9512806307539
 30
0.0
 11
-1385.0000000000291
 21
-734.9512806307539
 31
0.0
  0
LINE
  5
91
100
AcDbEntity
  8
0
370
               5
100
AcDbLine
 10
-2405.0000000000582
 20
-661.2012806307539
 30
0.0
 11
-2604.9999999999563
 21
-704.9512806307539
 31
0.0
  0
LINE
  5
92
100
AcDbEntity
  8
0
370
               5
100
AcDbLine
 10
-2375.0000000000582
 20
-684.9512806307539
 30
0.0
 11
-2581.2500000000582
 21
-734.9512806307539
 31
0.0
  0
LINE
  5
93
100
AcDbEntity
  8
0
370
               5
100
AcDbLine
 10
-2574.9999999999563
 20
-134.9512806307539
 30
0.0
 11
-2375.0000000000582
 21
-184.9512806307539
 31
0.0
  0
LINE
  5
94
100
AcDbEntity
  8
0
370
               5
100
AcDbLine
 10
-2404.9999999999563
 20
-214.9512806307539
 30
0.0
 11
-2604.9999999999563
 21
-164.9512806307539
 31
0.0
  0
CIRCLE
  5
95
100
AcDbEntity
  8
0
100
AcDbCircle
 10
-1560.0000000000146
 20
-434.9512806307539
 30
0.0
 40
25.0
  0
ENDBLK
  5
96
100
AcDbEntity
  8
水栓
100
AcDbBlockEnd
  0
BLOCK
  5
97
100
AcDbEntity
  8
水栓
100
AcDbBlockBegin
  2
グループ-3
 70
               0
 10
0.0
 20
0.0
 30
0.0
  3
グループ-3
  1

  0
LINE
  5
98
100
AcDbEntity
  8
0
100
AcDbLine
 10
-454.99999999999272
 20
-1453.0266305547157
 30
0.0
 11
295.00000000000728
 21
-1453.0266305547157
 31
0.0
  0
LINE
  5
99
100
AcDbEntity
  8
0
100
AcDbLine
 10
-446.99999999999272
 20
-1461.0266305547157
 30
0.0
 11
-385.17944480747246
 21
-1461.0266305547157
 31
0.0
  0
LINE
  5
9A
100
AcDbEntity
  8
0
100
AcDbLine
 10
225.17944480750157
 20
-1461.0266305547157
 30
0.0
 11
287.00000000000728
 21
-1461.0266305547157
 31
0.0
  0
LINE
  5
9B
100
AcDbEntity
  8
0
100
AcDbLine
 10
-454.99999999999272
 20
-1503.0266305547157
 30
0.0
 11
-380.69226532029302
 21
-1503.0266305547157
 31
0.0
  0
LINE
  5
9C
100
AcDbEntity
  8
0
100
AcDbLine
 10
220.69226532031939
 20
-1503.0266305547157
 30
0.0
 11
295.00000000000728
 21
-1503.0266305547157
 31
0.0
  0
LINE
  5
9D
100
AcDbEntity
  8
0
100
AcDbLine
 10
-298.79796090572927
 20
-1933.0266305547157
 30
0.0
 11
138.79796090572927
 21
-1933.0266305547157
 31
0.0
  0
ARC
  5
9E
100
AcDbEntity
  8
0
100
AcDbCircle
 10
-298.79796090572927
 20
-1893.0266305547157
 30
0.0
 40
40.000000000004995
100
AcDbArc
 50
186.09821194782086
 51
270.0
  0
LINE
  5
9F
100
AcDbEntity
  8
0
100
AcDbLine
 10
-294.04586652562284
 20
-1921.0266305547157
 30
0.0
 11
134.04586652562284
 21
-1921.0266305547157
 31
0.0
  0
ARC
  5
A0
100
AcDbEntity
  8
0
100
AcDbCircle
 10
134.04586652562284
 20
-1881.0266305547157
 30
0.0
 40
40.0
100
AcDbArc
 50
270.0
 51
353.90178805217926
  0
ARC
  5
A1
100
AcDbEntity
  8
0
100
AcDbCircle
 10
-294.04586652562284
 20
-1881.0266305547157
 30
0.0
 40
40.000000000004995
100
AcDbArc
 50
186.09821194782086
 51
270.0
  0
LINE
  5
A2
100
AcDbEntity
  8
0
100
AcDbLine
 10
-454.99999999999272
 20
-1453.0266305547157
 30
0.0
 11
-454.99999999999272
 21
-1503.0266305547157
 31
0.0
  0
LINE
  5
A3
100
AcDbEntity
  8
0
100
AcDbLine
 10
-446.99999999999272
 20
-1461.0266305547157
 30
0.0
 11
-446.99999999999272
 21
-1503.0266305547157
 31
0.0
  0
LINE
  5
A4
100
AcDbEntity
  8
0
100
AcDbLine
 10
295.00000000000728
 20
-1453.0266305547157
 30
0.0
 11
295.00000000000728
 21
-1503.0266305547157
 31
0.0
  0
LINE
  5
A5
100
AcDbEntity
  8
0
100
AcDbLine
 10
287.00000000000728
 20
-1461.0266305547157
 30
0.0
 11
287.00000000000728
 21
-1503.0266305547157
 31
0.0
  0
LINE
  5
A6
100
AcDbEntity
  8
0
100
AcDbLine
 10
220.00000000000728
 20
-1453.0266305547157
 30
0.0
 11
173.81951692057919
 21
-1885.2759521781063
 31
0.0
  0
LINE
  5
A7
100
AcDbEntity
  8
0
100
AcDbLine
 10
225.17944480750157
 20
-1461.0266305547157
 30
0.0
 11
178.57161130070017
 21
-1897.2759521781154
 31
0.0
  0
ARC
  5
A8
100
AcDbEntity
  8
0
100
AcDbCircle
 10
138.79796090572927
 20
-1893.0266305547157
 30
0.0
 40
40.0
100
AcDbArc
 50
270.0
 51
353.90178805217926
  0
LINE
  5
A9
100
AcDbEntity
  8
0
100
AcDbLine
 10
-379.99999999999272
 20
-1453.0266305547157
 30
0.0
 11
-333.81951692057919
 21
-1885.2759521781063
 31
0.0
  0
LINE
  5
AA
100
AcDbEntity
  8
0
100
AcDbLine
 10
-385.17944480747246
 20
-1461.0266305547157
 30
0.0
 11
-338.57161130070017
 21
-1897.2759521781063
 31
0.0
  0
POLYLINE
  5
AB
100
AcDbEntity
  8
水栓
100
AcDb2dPolyline
 66
               1
 10
0.0
 20
0.0
 30
0.0
 70
               1
 75
               5
  0
VERTEX
  5
AC
100
AcDbEntity
  8
水栓
100
AcDbVertex
100
AcDb2dVertex
 10
-105.0
 20
-1921.0266305547157
 30
0.0
  0
VERTEX
  5
AD
100
AcDbEntity
  8
水栓
100
AcDbVertex
100
AcDb2dVertex
 10
-55.0
 20
-1921.0266305547157
 30
0.0
  0
VERTEX
  5
AE
100
AcDbEntity
  8
水栓
100
AcDbVertex
100
AcDb2dVertex
 10
-55.0
 20
-1933.0266305547157
 30
0.0
  0
VERTEX
  5
AF
100
AcDbEntity
  8
水栓
100
AcDbVertex
100
AcDb2dVertex
 10
-105.0
 20
-1933.0266305547157
 30
0.0
  0
SEQEND
  5
B0
100
AcDbEntity
  8
水栓
  0
ENDBLK
  5
B1
100
AcDbEntity
  8
水栓
100
AcDbBlockEnd
  0
ENDSEC
  0
SECTION
  2
ENTITIES
  0
MTEXT
  5
B2
100
AcDbEntity
  8
一般
 62
               7
100
AcDbMText
 10
1946.1324865405218
 20
1849.4566223928191
 30
0.0
 40
70.739293981481481
 41
883.86751345947823
 71
               1
 72
               1
  1
T 505-140w75\P
  7
Arial
 73
               1
 44
0.9673603504928806
  0
INSERT
  5
B3
100
AcDbEntity
  8
一般
 62
               7
100
AcDbBlockReference
  2
SCAL 1_25
 10
252.20657771535571
 20
40.583333333333371
 30
0.0
 41
0.4
 42
0.4
 43
0.4
  0
LINE
  5
B4
100
AcDbEntity
  8
0
100
AcDbLine
 10
873.34582653552059
 20
247.03037965363035
 30
0.0
 11
846.00480424236741
 21
247.55116103064211
 31
0.0
  0
LINE
  5
B5
100
AcDbEntity
  8
0
100
AcDbLine
 10
836.31852050886368
 20
239.74322168808203
 30
0.0
 11
815.51859665622464
 21
240.12140212176598
 31
0.0
  0
ARC
  5
B6
100
AcDbEntity
  8
0
100
AcDbCircle
 10
836.39123576353882
 20
243.74256069493413
 30
0.0
 40
4.0000000000002478
100
AcDbArc
 50
268.95837332400083
 51
322.75640425555838
  0
LINE
  5
B7
100
AcDbEntity
  8
0
100
AcDbLine
 10
833.97110592774698
 20
244.58669527606617
 30
0.0
 11
817.97072519090716
 21
244.87761128946215
 31
0.0
  0
ARC
  5
B8
100
AcDbEntity
  8
0
100
AcDbCircle
 10
834.0438211824162
 20
248.58603428291826
 30
0.0
 40
4.0000000000002478
100
AcDbArc
 50
268.95837332400083
 51
322.75640425555838
  0
ARC
  5
B9
100
AcDbEntity
  8
0
100
AcDbCircle
 10
807.95655955443499
 20
249.06034813069778
 30
0.0
 40
4.0000000000013776
100
AcDbArc
 50
36.493654153290045
 51
88.958373324000831
  0
ARC
  5
BA
100
AcDbEntity
  8
0
100
AcDbCircle
 10
805.50443101974668
 20
244.30413896300229
 30
0.0
 40
3.9999999999984293
100
AcDbArc
 50
36.493654153373143
 51
88.958373324000831
  0
LINE
  5
BB
100
AcDbEntity
  8
0
100
AcDbLine
 10
811.17225049776016
 20
251.43928313548963
 30
0.0
 11
814.82774950225132
 21
246.49801529152171
 31
0.0
  0
ARC
  5
BC
100
AcDbEntity
  8
0
100
AcDbCircle
 10
818.04344044557649
 20
248.87695029631425
 30
0.0
 40
4.000000000000945
100
AcDbArc
 50
216.49365415328168
 51
268.95837332400083
  0
LINE
  5
BD
100
AcDbEntity
  8
0
100
AcDbLine
 10
808.72012196306605
 20
246.68307396779778
 30
0.0
 11
812.3756209675746
 21
241.74180612382179
 31
0.0
  0
ARC
  5
BE
100
AcDbEntity
  8
0
100
AcDbCircle
 10
815.59131191089398
 20
244.12074112861808
 30
0.0
 40
4.0000000000001599
100
AcDbArc
 50
216.49365415340665
 51
268.95837332400083
  0
LINE
  5
BF
100
AcDbEntity
  8
0
100
AcDbLine
 10
840.77190019957482
 20
250.8266296420901
 30
0.0
 11
837.22809980044258
 21
246.16521423946608
 31
0.0
  0
ARC
  5
C0
100
AcDbEntity
  8
0
100
AcDbCircle
 10
843.9561788176012
 20
248.40580959864235
 30
0.0
 40
4.0000000000002478
100
AcDbArc
 50
88.958373324000831
 51
142.75640425556662
  0
LINE
  5
C1
100
AcDbEntity
  8
0
100
AcDbLine
 10
843.11931478069164
 20
245.98315605410608
 30
0.0
 11
839.57551438155929
 21
241.3217406514857
 31
0.0
  0
ARC
  5
C2
100
AcDbEntity
  8
0
100
AcDbCircle
 10
846.30359339871791
 20
243.56233601065833
 30
0.0
 40
4.0000000000002478
100
AcDbArc
 50
88.958373324000831
 51
142.75640425556662
  0
INSERT
  5
C3
100
AcDbEntity
  8
水栓
 62
               7
100
AcDbBlockReference
  2
グループ-1
 10
1450.0
 20
1020.0
 30
0.0
 41
0.4
 42
0.4
 43
0.4
  0
INSERT
  5
C4
100
AcDbEntity
  8
水栓
 62
               7
100
AcDbBlockReference
  2
グループ-2
 10
1450.0
 20
1020.0
 30
0.0
 41
0.4
 42
0.4
 43
0.4
  0
INSERT
  5
C5
100
AcDbEntity
  8
水栓
 62
               7
100
AcDbBlockReference
  2
グループ-3
 10
1450.0
 20
1020.0
 30
0.0
 41
0.4
 42
0.4
 43
0.4
  0
ENDSEC
  0
SECTION
  2
OBJECTS
  0
DICTIONARY
  5
19
100
AcDbDictionary
280
               0
281
               1
  3
ACAD_GROUP
350
1A
  3
ACAD_MLINESTYLE
350
1B
  3
ACAD_LAYOUT
350
1E
  3
ACAD_PLOTSETTINGS
350
22
  3
ACAD_PLOTSTYLENAME
350
1F
  3
ACAD_WIPEOUT_VARS
350
23
  0
DICTIONARY
  5
1A
102
{ACAD_REACTORS
330
19
102
}
100
AcDbDictionary
280
               0
281
               1
  0
DICTIONARY
  5
1B
102
{ACAD_REACTORS
330
19
102
}
100
AcDbDictionary
280
               0
281
               1
  3
Standard
350
1C
  0
MLINESTYLE
  5
1C
102
{ACAD_REACTORS
330
1B
102
}
100
AcDbMlineStyle
  2
Standard
 70
               0
  3

 62
               0
 51
90.0
 52
90.0
 71
               2
 49
0.5
 62
             256
  6
ByLayer
 49
-0.5
 62
             256
  6
ByLayer
  0
ACDBDICTIONARYWDFLT
  5
1F
102
{ACAD_REACTORS
330
19
102
}
100
AcDbDictionary
281
               1
  3
Normal
350
1D
100
AcDbDictionaryWithDefault
340
1D
  0
ACDBPLACEHOLDER
  5
1D
102
{ACAD_REACTORS
330
1F
102
}
  0
LAYOUT
  5
20
102
{ACAD_REACTORS
330
1E
102
}
100
AcDbPlotSettings
  1

  2

  4

  6

 40
0.0
 41
0.0
 42
0.0
 43
0.0
 44
0.0
 45
0.0
 46
0.0
 47
0.0
 48
0.0
 49
0.0
140
0.0
141
0.0
142
1.0
143
1.0
 70
            1024
 72
               0
 73
               0
 74
               0
  7

 75
               0
147
1.0
148
0.0
149
0.0
100
AcDbLayout
  1
Model
 70
               0
 71
               0
 10
0.0
 20
0.0
 11
0.0
 21
0.0
 12
0.0
 22
0.0
 32
0.0
 14
0.0
 24
0.0
 34
0.0
 15
0.0
 25
0.0
 35
0.0
146
0.0
 13
0.0
 23
0.0
 33
0.0
 16
0.0
 26
0.0
 36
0.0
 17
0.0
 27
0.0
 37
0.0
 76
               0
330
A
331
0
345
0
346
0
  0
LAYOUT
  5
21
102
{ACAD_REACTORS
330
1E
102
}
100
AcDbPlotSettings
  1

  2

  4

  6

 40
0.0
 41
0.0
 42
0.0
 43
0.0
 44
0.0
 45
0.0
 46
0.0
 47
0.0
 48
0.0
 49
0.0
140
0.0
141
0.0
142
1.0
143
1.0
 70
               0
 72
               0
 73
               0
 74
               0
  7

 75
               0
147
1.0
148
0.0
149
0.0
100
AcDbLayout
  1
Layout1
 70
               0
 71
               0
 10
0.0
 20
0.0
 11
0.0
 21
0.0
 12
0.0
 22
0.0
 32
0.0
 14
0.0
 24
0.0
 34
0.0
 15
0.0
 25
0.0
 35
0.0
146
0.0
 13
0.0
 23
0.0
 33
0.0
 16
0.0
 26
0.0
 36
0.0
 17
0.0
 27
0.0
 37
0.0
 76
               0
330
B
331
0
345
0
346
0
  0
DICTIONARY
  5
1E
102
{ACAD_REACTORS
330
19
102
}
100
AcDbDictionary
280
               0
281
               1
  3
Layout1
350
21
  3
Model
350
20
  0
DICTIONARY
  5
22
102
{ACAD_REACTORS
330
19
102
}
100
AcDbDictionary
280
               0
281
               1
  0
WIPEOUTVARIABLES
  5
23
100
AcDbWipeoutVariables
 70
               0
  0
ENDSEC
  0
EOF
