  0
SECTION
  2
HEADER
  9
$ACADVER
  1
AC1009
  9
$INSBASE
 10
0
 20
0
 30
0
  9
$EXTMIN
 10
0
 20
0
  9
$EXTMAX
 10
2970
 20
2100
  9
$LIMMIN
 10
0
 20
0
  9
$LIMMAX
 10
2970
 20
2100
  9
$LTSCALE
 40
10
  0
ENDSEC
  0
SECTION
  2
TABLES
  0
TABLE
  2
LTYPE
 70
     9
  0
LTYPE
  2
CONTINUOUS
 70
    64
  3
実線
 72
    65
 73
     0
 40
0.0
  0
LTYPE
  2
DASHED1
 70
    64
  3
--  --  --  --  --  --  --  --  
 72
    65
 73
     2
 40
2.5
 49
1.25
 49
-1.25
  0
LTYPE
  2
DASHED2
 70
    64
  3
----    ----    ----    ----    
 72
    65
 73
     2
 40
5.0
 49
2.5
 49
-2.5
  0
LTYPE
  2
DASHED3
 70
    64
  3
------  ------  ------  ------  
 72
    65
 73
     2
 40
5.0
 49
3.75
 49
-1.25
  0
LTYPE
  2
CENTER1
 70
    64
  3
----- - ----- - ----- - ----- - 
 72
    65
 73
     4
 40
10.0
 49
6.25
 49
-1.25
 49
1.25
 49
-1.25
  0
LTYPE
  2
CENTER2
 70
    64
  3
----------  --  ----------  --  
 72
    65
 73
     4
 40
20.0
 49
12.5
 49
-2.5
 49
2.5
 49
-2.5
  0
LTYPE
  2
PHANTOM1
 70
    64
  3
--- - - --- - - --- - - --- - - 
 72
    65
 73
     6
 40
10.0
 49
3.25
 49
-1.25
 49
1.25
 49
-1.25
 49
1.25
 49
-1.25
  0
LTYPE
  2
PHANTOM2
 70
    64
  3
--------  -  -  --------  -  -  
 72
    65
 73
     6
 40
20.0
 49
10.0
 49
-2.5
 49
1.25
 49
-2.5
 49
1.25
 49
-2.5
  0
LTYPE
  2
DOT
 70
    64
  3
-   -   -   -   -   -   -   -   
 72
    65
 73
     2
 40
2.5
 49
0.625
 49
-1.875
  0
LTYPE
  2
DUMMY
 70
    64
  3
ダミー
 72
    65
 73
     0
 40
0.0
  0
LTYPE
  2
RAND1
 70
    64
  3
ランダム線1
 72
    65
 73
     4
 40
10.0
 49
1.0
 49
-2.0
 49
3.0
 49
-4.0
  0
LTYPE
  2
RAND2
 70
    64
  3
ランダム線2
 72
    65
 73
     4
 40
14.0
 49
2.0
 49
-3.0
 49
4.0
 49
-5.0
  0
LTYPE
  2
RAND3
 70
    64
  3
ランダム線3
 72
    65
 73
     4
 40
18.0
 49
3.0
 49
-4.0
 49
5.0
 49
-6.0
  0
LTYPE
  2
RAND4
 70
    64
  3
ランダム線4
 72
    65
 73
     4
 40
22.0
 49
4.0
 49
-5.0
 49
6.0
 49
-7.0
  0
LTYPE
  2
RAND5
 70
    64
  3
ランダム線5
 72
    65
 73
     4
 40
26.0
 49
5.0
 49
-6.0
 49
7.0
 49
-8.0
  0
LTYPE
  2
LONG1
 70
    64
  3
----------  --  ----------  --  
 72
    65
 73
     4
 40
40.0
 49
32.5
 49
-2.5
 49
2.5
 49
-2.5
  0
LTYPE
  2
LONG2
 70
    64
  3
--------  -  -  --------  -  -  
 72
    65
 73
     6
 40
40.0
 49
30.0
 49
-2.5
 49
1.25
 49
-2.5
 49
1.25
 49
-2.5
  0
LTYPE
  2
LONG3
 70
    64
  3
+++++++++++++++..+++++++++++++++
 72
    65
 73
     2
 40
40.0
 49
37.5
 49
-2.5
  0
LTYPE
  2
LONG4
 70
    64
  3
+++++++++++++++..+++++++++++++++
 72
    65
 73
     2
 40
80.0
 49
75.0
 49
-5.0
  0
LTYPE
  2
LONG5
 70
    64
  3
----------  --  ----------  --  
 72
    65
 73
     4
 40
60.0
 49
37.5
 49
-7.5
 49
7.5
 49
-7.5
  0
LTYPE
  2
dashed
 70
   64
  3
-------   -------------   ------
 72
   65
 73
    2
 40
7.5
 49
6
 49
-1.5
  0
LTYPE
  2
dashed_spaced
 70
   64
  3
----        --------        ----
 72
   65
 73
    2
 40
12
 49
6
 49
-6
  0
LTYPE
  2
long_dashed_dotted
 70
   64
  3
------------- --- --------------
 72
   65
 73
    4
 40
15.25
 49
12
 49
-1.5
 49
0.25
 49
-1.5
  0
LTYPE
  2
long_dashed_double-dotted
 70
   64
  3
----------- --- --- ------------
 72
   65
 73
    6
 40
17
 49
12
 49
-1.5
 49
0.25
 49
-1.5
 49
0.25
 49
-1.5
  0
LTYPE
  2
long_dashed_triplicate-dotted
 70
   64
  3
--------- --- --- --- ----------
 72
   65
 73
    8
 40
18.75
 49
12
 49
-1.5
 49
0.25
 49
-1.5
 49
0.25
 49
-1.5
 49
0.25
 49
-1.5
  0
LTYPE
  2
dotted
 70
   64
  3
   -       -       -       -    
 72
   65
 73
    2
 40
1.75
 49
0.25
 49
-1.5
  0
LTYPE
  2
chain
 70
   64
  3
-------------- -- --------------
 72
   65
 73
    4
 40
18.5
 49
12
 49
-1.5
 49
3.5
 49
-1.5
  0
LTYPE
  2
chain_double_dash
 70
   64
  3
------------ -- -- -------------
 72
   65
 73
    6
 40
23.5
 49
12
 49
-1.5
 49
3.5
 49
-1.5
 49
3.5
 49
-1.5
  0
LTYPE
  2
dashed_dotted
 70
   64
  3
-----------     -     ----------
 72
   65
 73
    4
 40
9.25
 49
6
 49
-1.5
 49
0.25
 49
-1.5
  0
LTYPE
  2
double-dashed_dotted
 70
   64
  3
------   -----------   -   -----
 72
   65
 73
    6
 40
16.75
 49
6
 49
-1.5
 49
6
 49
-1.5
 49
0.25
 49
-1.5
  0
LTYPE
  2
dashed_double-dotted
 70
   64
  3
---------    -    -    ---------
 72
   65
 73
    6
 40
11
 49
6
 49
-1.5
 49
0.25
 49
-1.5
 49
0.25
 49
-1.5
  0
LTYPE
  2
double-dashed_double-dotted
 70
   64
  3
-----   ---------   -   -   ----
 72
   65
 73
    8
 40
18.5
 49
6
 49
-1.5
 49
6
 49
-1.5
 49
0.25
 49
-1.5
 49
0.25
 49
-1.5
  0
LTYPE
  2
dashed_triplicate-dotted
 70
   64
  3
-------    -    -    -    ------
 72
   65
 73
    8
 40
12.75
 49
6
 49
-1.5
 49
0.25
 49
-1.5
 49
0.25
 49
-1.5
 49
0.25
 49
-1.5
  0
LTYPE
  2
double-dashed_triplicate-dotted
 70
   64
  3
-----  ---------  -  -  -  -----
 72
   65
 73
   10
 40
20.25
 49
6
 49
-1.5
 49
6
 49
-1.5
 49
0.25
 49
-1.5
 49
0.25
 49
-1.5
 49
0.25
 49
-1.5
  0
LTYPE
  2
undefined
 70
   64
  3
--------------------------------
 72
   65
 73
    0
 40
0
  0
LTYPE
  2
_
 70
   64
  3
                                
 72
   65
 73
    0
 40
0
  0
LTYPE
  2
__18
 70
   64
  3
                                
 72
   65
 73
    0
 40
0
  0
LTYPE
  2
__19
 70
   64
  3
                                
 72
   65
 73
    0
 40
0
  0
LTYPE
  2
__20
 70
   64
  3
                                
 72
   65
 73
    0
 40
0
  0
LTYPE
  2
__21
 70
   64
  3
                                
 72
   65
 73
    0
 40
0
  0
LTYPE
  2
__22
 70
   64
  3
                                
 72
   65
 73
    0
 40
0
  0
LTYPE
  2
__23
 70
   64
  3
                                
 72
   65
 73
    0
 40
0
  0
LTYPE
  2
__24
 70
   64
  3
                                
 72
   65
 73
    0
 40
0
  0
LTYPE
  2
__25
 70
   64
  3
                                
 72
   65
 73
    0
 40
0
  0
LTYPE
  2
__26
 70
   64
  3
                                
 72
   65
 73
    0
 40
0
  0
LTYPE
  2
__27
 70
   64
  3
                                
 72
   65
 73
    0
 40
0
  0
LTYPE
  2
__28
 70
   64
  3
                                
 72
   65
 73
    0
 40
0
  0
LTYPE
  2
__29
 70
   64
  3
                                
 72
   65
 73
    0
 40
0
  0
LTYPE
  2
__30
 70
   64
  3
                                
 72
   65
 73
    0
 40
0
  0
LTYPE
  2
__31
 70
   64
  3
                                
 72
   65
 73
    0
 40
0
  0
LTYPE
  2
__32
 70
   64
  3
                                
 72
   65
 73
    0
 40
0
  0
ENDTAB
  0
TABLE
  2
STYLE
  5
3
100
AcDbSymbolTable
 70
     1
  0
STYLE
  5
10
100
AcDbSymbolTableRecord
100
AcDbTextStyleTableRecord
  2
STANDARD
 70
     0
 40
0.0
 41
1.0
 50
0.0
 71
     0
 42
0.2
  3
txt
  4
bigfont.shx
  0
STYLE
  5
26
100
AcDbSymbolTableRecord
100
AcDbTextStyleTableRecord
  2
TATEGAKI
 70
    68
 40
0.0
 41
1.0
 50
0.0
 71
     0
 42
1.0
  3
txt
  4
bigfont.shx
  0
ENDTAB
  0
TABLE
  2
LAYER
 70
    4
  0
LAYER
  2
_0-0_
 70
   64
 62
    7
  6
CONTINUOUS
  0
LAYER
  2
_1-0_
 70
   64
 62
    7
  6
CONTINUOUS
  0
LAYER
  2
_1-1_
 70
   64
 62
    7
  6
CONTINUOUS
  0
LAYER
  2
ADD_LINE
 70
   64
 62
    7
  6
CONTINUOUS
  0
ENDTAB
  0
ENDSEC
  0
SECTION
  2
BLOCKS
  0
ENDSEC
  0
SECTION
  2
ENTITIES
  0
LINE
  8
_1-0_
  6
CONTINUOUS
 62
    7
 10
368.46041248571908
 20
1635.2605665052258
 11
448.46043340027563
 21
1635.2605665052258
  0
LINE
  8
_1-1_
  6
CONTINUOUS
 62
    7
 10
368.46041248571908
 20
1635.2605665052258
 11
448.46043340027563
 21
1635.2605665052258
  0
LINE
  8
_1-0_
  6
CONTINUOUS
 62
    7
 10
434.46044067618459
 20
576.83395164813771
 11
455.3426932552145
 21
576.83395164813771
  0
LINE
  8
_1-0_
  6
CONTINUOUS
 62
    7
 10
455.3426932552145
 20
576.83395164813771
 11
455.46040789040819
 21
576.83395164813771
  0
LINE
  8
_1-0_
  6
CONTINUOUS
 62
    7
 10
457.3081908354888
 20
578.06857738715803
 11
457.37428775625347
 21
578.25339505110924
  0
LINE
  8
_1-0_
  6
CONTINUOUS
 62
    7
 10
457.37428775625347
 20
578.25339505110924
 11
457.42201227018739
 21
578.44376818093554
  0
LINE
  8
_1-0_
  6
CONTINUOUS
 62
    7
 10
457.42201227018739
 20
578.44376818093554
 11
457.45079570755536
 21
578.63790327977949
  0
LINE
  8
_1-0_
  6
CONTINUOUS
 62
    7
 10
457.45079570755536
 20
578.63790327977949
 11
457.46041934922857
 21
578.83396310695809
  0
LINE
  8
_1-0_
  6
CONTINUOUS
 62
    7
 10
457.46041934922857
 20
578.83396310695809
 11
457.46041934922857
 21
581.8339584232757
  0
LINE
  8
_1-0_
  6
CONTINUOUS
 62
    7
 10
457.46041934922857
 20
581.8339584232757
 11
457.45079570755536
 21
582.02997450662849
  0
LINE
  8
_1-0_
  6
CONTINUOUS
 62
    7
 10
457.45079570755536
 20
582.02997450662849
 11
457.42201227018739
 21
582.22415334929826
  0
LINE
  8
_1-0_
  6
CONTINUOUS
 62
    7
 10
457.42201227018739
 20
582.22415334929826
 11
457.37428775625347
 21
582.41452647912456
  0
LINE
  8
_1-0_
  6
CONTINUOUS
 62
    7
 10
457.37428775625347
 20
582.41452647912456
 11
457.3081908354888
 21
582.59930039925007
  0
LINE
  8
_1-0_
  6
CONTINUOUS
 62
    7
 10
457.3081908354888
 20
582.59930039925007
 11
457.22424643380293
 21
582.77672535664328
  0
LINE
  8
_1-0_
  6
CONTINUOUS
 62
    7
 10
457.22424643380293
 20
582.77672535664328
 11
457.12337317153754
 21
582.94509534209851
  0
LINE
  8
_1-0_
  6
CONTINUOUS
 62
    7
 10
457.12337317153754
 20
582.94509534209851
 11
457.00644592520803
 21
583.10274809023576
  0
LINE
  8
_1-0_
  6
CONTINUOUS
 62
    7
 10
457.00644592520803
 20
583.10274809023576
 11
456.87464577811102
 21
583.24815256715272
  0
LINE
  8
_1-0_
  6
CONTINUOUS
 62
    7
 10
456.87464577811102
 20
583.24815256715272
 11
456.72919755736825
 21
583.37995271424984
  0
LINE
  8
_1-0_
  6
CONTINUOUS
 62
    7
 10
456.72919755736825
 20
583.37995271424984
 11
456.571544809231
 21
583.49687996057924
  0
LINE
  8
_1-0_
  6
CONTINUOUS
 62
    7
 10
456.571544809231
 20
583.49687996057924
 11
456.40321856760153
 21
583.59779696667056
  0
LINE
  8
_1-0_
  6
CONTINUOUS
 62
    7
 10
456.40321856760153
 20
583.59779696667056
 11
456.22579361020826
 21
583.68169762453044
  0
LINE
  8
_1-0_
  6
CONTINUOUS
 62
    7
 10
456.22579361020826
 20
583.68169762453044
 11
456.04097594625699
 21
583.74783828912098
  0
LINE
  8
_1-0_
  6
CONTINUOUS
 62
    7
 10
456.04097594625699
 20
583.74783828912098
 11
455.85060281643081
 21
583.79551905922904
  0
LINE
  8
_1-0_
  6
CONTINUOUS
 62
    7
 10
455.85060281643081
 20
583.79551905922904
 11
455.65646771758679
 21
583.82430249659706
  0
LINE
  8
_1-0_
  6
CONTINUOUS
 62
    7
 10
455.65646771758679
 20
583.82430249659706
 11
455.46040789040819
 21
583.83396988209608
  0
LINE
  8
_1-0_
  6
CONTINUOUS
 62
    7
 10
455.46040789040819
 20
583.83396988209608
 11
455.3426932552145
 21
583.83396988209608
  0
LINE
  8
_1-0_
  6
CONTINUOUS
 62
    7
 10
455.3426932552145
 20
583.83396988209608
 11
435.56427237610092
 21
583.83396988209608
  0
LINE
  8
_1-0_
  6
CONTINUOUS
 62
    7
 10
435.56427237610092
 20
583.83396988209608
 11
434.46044067618459
 21
576.83395164813771
  0
LINE
  8
_1-0_
  6
CONTINUOUS
 62
    7
 10
434.46044067618459
 20
576.83395164813771
 11
455.3426932552145
 21
576.83395164813771
  0
LINE
  8
_1-0_
  6
CONTINUOUS
 62
    7
 10
455.3426932552145
 20
576.83395164813771
 11
455.46040789040819
 21
576.83395164813771
  0
LINE
  8
_1-0_
  6
CONTINUOUS
 62
    7
 10
457.46041934922857
 20
578.83396310695809
 11
457.46041934922857
 21
581.8339584232757
  0
LINE
  8
_1-0_
  6
CONTINUOUS
 62
    7
 10
455.46040789040819
 20
583.83396988209608
 11
455.3426932552145
 21
583.83396988209608
  0
LINE
  8
_1-0_
  6
CONTINUOUS
 62
    7
 10
455.3426932552145
 20
583.83396988209608
 11
435.56427237610092
 21
583.83396988209608
  0
LINE
  8
_1-0_
  6
CONTINUOUS
 62
    7
 10
438.40075327162566
 20
576.83395164813771
 11
438.40075327162566
 21
583.83396988209608
  0
LINE
  8
_1-0_
  6
CONTINUOUS
 62
    7
 10
334.460436404902
 20
427.62507420248966
 11
334.460436404902
 21
547.62506183049845
  0
LINE
  8
_1-0_
  6
CONTINUOUS
 62
    7
 10
482.46040948109282
 20
427.62507420248966
 11
482.46040948109282
 21
547.62506183049845
  0
LINE
  8
_1-0_
  6
CONTINUOUS
 62
    7
 10
321.93469809749416
 20
441.62506692658053
 11
321.93469809749416
 21
521.62508784113697
  0
LINE
  8
_1-0_
  6
CONTINUOUS
 62
    7
 10
345.93470437186113
 20
441.62506692658053
 11
345.93470437186113
 21
521.62508784113697
  0
LINE
  8
_1-0_
  6
CONTINUOUS
 62
    7
 10
470.46042821582216
 20
441.62506692658053
 11
470.46042821582216
 21
521.62508784113697
  0
LINE
  8
_1-0_
  6
CONTINUOUS
 62
    7
 10
494.46043449018902
 20
441.62506692658053
 11
494.46043449018902
 21
521.62508784113697
  0
LINE
  8
_1-0_
  6
CONTINUOUS
 62
    7
 10
334.460436404902
 20
547.62506183049845
 11
394.46043021890648
 21
487.62506801649408
  0
LINE
  8
_1-0_
  6
CONTINUOUS
 62
    7
 10
482.46040948109282
 20
547.62506183049845
 11
422.4604156670884
 21
487.62506801649408
  0
LINE
  8
_1-0_
  6
CONTINUOUS
 62
    7
 10
311.96042778869383
 20
411.62507001957835
 11
307.96042674296615
 21
407.62504710193764
  0
LINE
  8
_1-0_
  6
CONTINUOUS
 62
    7
 10
307.96042674296615
 20
407.62504710193764
 11
307.96042674296615
 21
389.62507520403176
  0
LINE
  8
_1-0_
  6
CONTINUOUS
 62
    7
 10
307.96042674296615
 20
389.62507520403176
 11
311.96042778869383
 21
385.62505228639111
  0
LINE
  8
_1-0_
  6
CONTINUOUS
 62
    7
 10
311.96042778869383
 20
385.62505228639111
 11
356.96042314919725
 21
385.62505228639111
  0
LINE
  8
_1-0_
  6
CONTINUOUS
 62
    7
 10
356.96042314919725
 20
385.62505228639111
 11
360.96042419492505
 21
389.62507520403176
  0
LINE
  8
_1-0_
  6
CONTINUOUS
 62
    7
 10
360.96042419492505
 20
389.62507520403176
 11
360.96042419492505
 21
398.6250611529847
  0
LINE
  8
_1-0_
  6
CONTINUOUS
 62
    7
 10
360.96042419492505
 20
398.6250611529847
 11
360.96042419492505
 21
407.62504710193764
  0
LINE
  8
_1-0_
  6
CONTINUOUS
 62
    7
 10
360.96042419492505
 20
407.62504710193764
 11
356.96042314919725
 21
411.62507001957835
  0
LINE
  8
_1-0_
  6
CONTINUOUS
 62
    7
 10
356.96042314919725
 20
411.62507001957835
 11
311.96042778869383
 21
411.62507001957835
  0
LINE
  8
_1-0_
  6
CONTINUOUS
 62
    7
 10
321.21043157393416
 20
389.62507520403176
 11
321.21043157393416
 21
407.62504710193764
  0
LINE
  8
_1-0_
  6
CONTINUOUS
 62
    7
 10
347.71041936395704
 20
389.62507520403176
 11
347.71041936395704
 21
407.62504710193764
  0
LINE
  8
_1-0_
  6
CONTINUOUS
 62
    7
 10
322.46043326771854
 20
411.62507001957835
 11
346.46041767017266
 21
411.62507001957835
  0
LINE
  8
_1-0_
  6
CONTINUOUS
 62
    7
 10
321.46042753830841
 20
441.62506692658053
 11
347.46042339958279
 21
441.62506692658053
  0
LINE
  8
_1-0_
  6
CONTINUOUS
 62
    7
 10
322.46043326771854
 20
418.55361084220027
 11
322.46043326771854
 21
419.23990772497694
  0
LINE
  8
_1-0_
  6
CONTINUOUS
 62
    7
 10
346.46041767017266
 20
418.55361084220027
 11
346.46041767017266
 21
419.23990772497694
  0
LINE
  8
_1-0_
  6
CONTINUOUS
 62
    7
 10
321.46042753830841
 20
441.62506692658053
 11
347.46042339958279
 21
441.62506692658053
  0
LINE
  8
_1-0_
  6
CONTINUOUS
 62
    7
 10
313.46042544685275
 20
385.62505228639111
 11
355.46042549103845
 21
385.62505228639111
  0
LINE
  8
_1-0_
  6
CONTINUOUS
 62
    7
 10
322.46043326771854
 20
411.62507001957835
 11
346.46041767017266
 21
411.62507001957835
  0
LINE
  8
_1-0_
  6
CONTINUOUS
 62
    7
 10
322.46043326771854
 20
431.52216789805288
 11
322.46043326771854
 21
430.01025004736704
  0
LINE
  8
_1-0_
  6
CONTINUOUS
 62
    7
 10
346.46041767017266
 20
431.62505337630455
 11
346.46041767017266
 21
430.01025004736704
  0
LINE
  8
_1-0_
  6
CONTINUOUS
 62
    7
 10
347.46042339958279
 20
441.62506692658053
 11
347.46042339958279
 21
438.62507161026292
  0
LINE
  8
_1-0_
  6
CONTINUOUS
 62
    7
 10
321.46042753830841
 20
441.62506692658053
 11
321.46042753830841
 21
438.62507161026292
  0
LINE
  8
_1-0_
  6
CONTINUOUS
 62
    7
 10
459.96042273679763
 20
411.62507001957835
 11
455.9604435629825
 21
407.62504710193764
  0
LINE
  8
_1-0_
  6
CONTINUOUS
 62
    7
 10
455.9604435629825
 20
407.62504710193764
 11
455.9604435629825
 21
389.62507520403176
  0
LINE
  8
_1-0_
  6
CONTINUOUS
 62
    7
 10
455.9604435629825
 20
389.62507520403176
 11
459.96042273679763
 21
385.62505228639111
  0
LINE
  8
_1-0_
  6
CONTINUOUS
 62
    7
 10
459.96042273679763
 20
385.62505228639111
 11
504.96043996921372
 21
385.62505228639111
  0
LINE
  8
_1-0_
  6
CONTINUOUS
 62
    7
 10
504.96043996921372
 20
385.62505228639111
 11
508.96041914302873
 21
389.62507520403176
  0
LINE
  8
_1-0_
  6
CONTINUOUS
 62
    7
 10
508.96041914302873
 20
389.62507520403176
 11
508.96041914302873
 21
398.6250611529847
  0
LINE
  8
_1-0_
  6
CONTINUOUS
 62
    7
 10
508.96041914302873
 20
398.6250611529847
 11
508.96041914302873
 21
407.62504710193764
  0
LINE
  8
_1-0_
  6
CONTINUOUS
 62
    7
 10
508.96041914302873
 20
407.62504710193764
 11
504.96043996921372
 21
411.62507001957835
  0
LINE
  8
_1-0_
  6
CONTINUOUS
 62
    7
 10
504.96043996921372
 20
411.62507001957835
 11
459.96042273679763
 21
411.62507001957835
  0
LINE
  8
_1-0_
  6
CONTINUOUS
 62
    7
 10
469.21040465012481
 20
389.62507520403176
 11
469.21040465012481
 21
407.62504710193764
  0
LINE
  8
_1-0_
  6
CONTINUOUS
 62
    7
 10
495.71041431206072
 20
389.62507520403176
 11
495.71041431206072
 21
407.62504710193764
  0
LINE
  8
_1-0_
  6
CONTINUOUS
 62
    7
 10
470.46042821582216
 20
411.62507001957835
 11
494.46043449018902
 21
411.62507001957835
  0
LINE
  8
_1-0_
  6
CONTINUOUS
 62
    7
 10
469.46044435832493
 20
441.62506692658053
 11
495.4604183476863
 21
441.62506692658053
  0
LINE
  8
_1-0_
  6
CONTINUOUS
 62
    7
 10
461.46044226686922
 20
385.62505228639111
 11
503.46042043914196
 21
385.62505228639111
  0
LINE
  8
_1-0_
  6
CONTINUOUS
 62
    7
 10
470.46042821582216
 20
411.62507001957835
 11
494.46043449018902
 21
411.62507001957835
  0
LINE
  8
_1-0_
  6
CONTINUOUS
 62
    7
 10
470.46042821582216
 20
418.55361084220027
 11
470.46042821582216
 21
419.23990772497694
  0
LINE
  8
_1-0_
  6
CONTINUOUS
 62
    7
 10
494.46043449018902
 20
418.55361084220027
 11
494.46043449018902
 21
419.23990772497694
  0
LINE
  8
_1-0_
  6
CONTINUOUS
 62
    7
 10
469.46044435832493
 20
441.62506692658053
 11
495.4604183476863
 21
441.62506692658053
  0
LINE
  8
_1-0_
  6
CONTINUOUS
 62
    7
 10
470.46042821582216
 20
431.52216789805288
 11
470.46042821582216
 21
430.01025004736704
  0
LINE
  8
_1-0_
  6
CONTINUOUS
 62
    7
 10
494.46043449018902
 20
431.62505337630455
 11
494.46043449018902
 21
430.01025004736704
  0
LINE
  8
_1-0_
  6
CONTINUOUS
 62
    7
 10
495.4604183476863
 20
441.62506692658053
 11
495.4604183476863
 21
438.62507161026292
  0
LINE
  8
_1-0_
  6
CONTINUOUS
 62
    7
 10
469.46044435832493
 20
441.62506692658053
 11
469.46044435832493
 21
438.62507161026292
  0
LINE
  8
_1-0_
  6
CONTINUOUS
 62
    7
 10
382.46040520981012
 20
638.83395692096246
 11
406.46041148417709
 21
638.83395692096246
  0
LINE
  8
_1-0_
  6
CONTINUOUS
 62
    7
 10
406.46041148417709
 20
638.83395692096246
 11
406.46041148417709
 21
527.62507847377231
  0
LINE
  8
_1-0_
  6
CONTINUOUS
 62
    7
 10
406.46041148417709
 20
527.62507847377231
 11
382.46040520981012
 21
527.62507847377231
  0
LINE
  8
_1-0_
  6
CONTINUOUS
 62
    7
 10
382.46040520981012
 20
527.62507847377231
 11
382.46040520981012
 21
638.83395692096246
  0
LINE
  8
_1-0_
  6
CONTINUOUS
 62
    7
 10
410.46043440181779
 20
638.83395692096246
 11
434.46044067618459
 21
638.83395692096246
  0
LINE
  8
_1-0_
  6
CONTINUOUS
 62
    7
 10
434.46044067618459
 20
638.83395692096246
 11
434.46044067618459
 21
527.62507847377231
  0
LINE
  8
_1-0_
  6
CONTINUOUS
 62
    7
 10
434.46044067618459
 20
527.62507847377231
 11
410.46043440181779
 21
527.62507847377231
  0
LINE
  8
_1-0_
  6
CONTINUOUS
 62
    7
 10
410.46043440181779
 20
527.62507847377231
 11
410.46043440181779
 21
638.83395692096246
  0
LINE
  8
_1-0_
  6
CONTINUOUS
 62
    7
 10
406.46041148417709
 20
527.62507847377231
 11
406.46041148417709
 21
638.83395692096246
  0
LINE
  8
_1-0_
  6
CONTINUOUS
 62
    7
 10
382.46040520981012
 20
638.83395692096246
 11
382.46040520981012
 21
527.62507847377231
  0
LINE
  8
_1-0_
  6
CONTINUOUS
 62
    7
 10
410.46043440181779
 20
638.83395692096246
 11
410.46043440181779
 21
527.62507847377231
  0
LINE
  8
_1-0_
  6
CONTINUOUS
 62
    7
 10
434.46044067618459
 20
527.62507847377231
 11
434.46044067618459
 21
638.83395692096246
  0
LINE
  8
_1-0_
  6
CONTINUOUS
 62
    7
 10
394.46043021890648
 20
487.62506801649408
 11
394.46043021890648
 21
638.83395692096246
  0
LINE
  8
_1-0_
  6
CONTINUOUS
 62
    7
 10
422.4604156670884
 20
487.62506801649408
 11
422.4604156670884
 21
638.83395692096246
  0
LINE
  8
_1-0_
  6
CONTINUOUS
 62
    7
 10
381.88307419706945
 20
576.83395164813771
 11
361.00082161803954
 21
576.83395164813771
  0
LINE
  8
_1-0_
  6
CONTINUOUS
 62
    7
 10
361.00082161803954
 20
576.83395164813771
 11
360.88308511093317
 21
576.83395164813771
  0
LINE
  8
_1-0_
  6
CONTINUOUS
 62
    7
 10
360.88308511093317
 20
576.83395164813771
 11
360.68704715566753
 21
576.84357528981093
  0
LINE
  8
_1-0_
  6
CONTINUOUS
 62
    7
 10
360.68704715566753
 20
576.84357528981093
 11
360.49291205682351
 21
576.87240247100476
  0
LINE
  8
_1-0_
  6
CONTINUOUS
 62
    7
 10
360.49291205682351
 20
576.87240247100476
 11
360.30251705508431
 21
576.92008324111282
  0
LINE
  8
_1-0_
  6
CONTINUOUS
 62
    7
 10
360.30251705508431
 20
576.92008324111282
 11
360.11772126304595
 21
576.98618016187743
  0
LINE
  8
_1-0_
  6
CONTINUOUS
 62
    7
 10
360.11772126304595
 20
576.98618016187743
 11
359.94029630565279
 21
577.07012456356324
  0
LINE
  8
_1-0_
  6
CONTINUOUS
 62
    7
 10
359.94029630565279
 20
577.07012456356324
 11
359.77194819211036
 21
577.17099782582875
  0
LINE
  8
_1-0_
  6
CONTINUOUS
 62
    7
 10
359.77194819211036
 20
577.17099782582875
 11
359.61429544397305
 21
577.28792507215815
  0
LINE
  8
_1-0_
  6
CONTINUOUS
 62
    7
 10
359.61429544397305
 20
577.28792507215815
 11
359.46886909514319
 21
577.41972521925516
  0
LINE
  8
_1-0_
  6
CONTINUOUS
 62
    7
 10
359.46886909514319
 20
577.41972521925516
 11
359.33706894804601
 21
577.56517343999792
  0
LINE
  8
_1-0_
  6
CONTINUOUS
 62
    7
 10
359.33706894804601
 20
577.56517343999792
 11
359.22014170171678
 21
577.72282618813529
  0
LINE
  8
_1-0_
  6
CONTINUOUS
 62
    7
 10
359.22014170171678
 20
577.72282618813529
 11
359.11924656753826
 21
577.89115242976482
  0
LINE
  8
_1-0_
  6
CONTINUOUS
 62
    7
 10
359.11924656753826
 20
577.89115242976482
 11
359.03532403776552
 21
578.06857738715803
  0
LINE
  8
_1-0_
  6
CONTINUOUS
 62
    7
 10
359.03532403776552
 20
578.06857738715803
 11
358.96920524508801
 21
578.25339505110924
  0
LINE
  8
_1-0_
  6
CONTINUOUS
 62
    7
 10
358.96920524508801
 20
578.25339505110924
 11
358.92150260306693
 21
578.44376818093554
  0
LINE
  8
_1-0_
  6
CONTINUOUS
 62
    7
 10
358.92150260306693
 20
578.44376818093554
 11
358.89271916569896
 21
578.63790327977949
  0
LINE
  8
_1-0_
  6
CONTINUOUS
 62
    7
 10
358.89271916569896
 20
578.63790327977949
 11
358.88307365211278
 21
578.83396310695809
  0
LINE
  8
_1-0_
  6
CONTINUOUS
 62
    7
 10
358.88307365211278
 20
578.83396310695809
 11
358.88307365211278
 21
581.8339584232757
  0
LINE
  8
_1-0_
  6
CONTINUOUS
 62
    7
 10
358.88307365211278
 20
581.8339584232757
 11
358.89271916569896
 21
582.02997450662849
  0
LINE
  8
_1-0_
  6
CONTINUOUS
 62
    7
 10
358.89271916569896
 20
582.02997450662849
 11
358.92150260306693
 21
582.22415334929826
  0
LINE
  8
_1-0_
  6
CONTINUOUS
 62
    7
 10
358.92150260306693
 20
582.22415334929826
 11
358.96920524508801
 21
582.41452647912456
  0
LINE
  8
_1-0_
  6
CONTINUOUS
 62
    7
 10
358.96920524508801
 20
582.41452647912456
 11
359.03532403776552
 21
582.59930039925007
  0
LINE
  8
_1-0_
  6
CONTINUOUS
 62
    7
 10
359.03532403776552
 20
582.59930039925007
 11
359.11924656753826
 21
582.77672535664328
  0
LINE
  8
_1-0_
  6
CONTINUOUS
 62
    7
 10
359.11924656753826
 20
582.77672535664328
 11
359.22014170171678
 21
582.94509534209851
  0
LINE
  8
_1-0_
  6
CONTINUOUS
 62
    7
 10
359.22014170171678
 20
582.94509534209851
 11
359.33706894804601
 21
583.10274809023576
  0
LINE
  8
_1-0_
  6
CONTINUOUS
 62
    7
 10
359.33706894804601
 20
583.10274809023576
 11
359.46886909514319
 21
583.24815256715272
  0
LINE
  8
_1-0_
  6
CONTINUOUS
 62
    7
 10
359.46886909514319
 20
583.24815256715272
 11
359.61429544397305
 21
583.37995271424984
  0
LINE
  8
_1-0_
  6
CONTINUOUS
 62
    7
 10
359.61429544397305
 20
583.37995271424984
 11
359.77194819211036
 21
583.49687996057924
  0
LINE
  8
_1-0_
  6
CONTINUOUS
 62
    7
 10
359.77194819211036
 20
583.49687996057924
 11
359.94029630565279
 21
583.59779696667056
  0
LINE
  8
_1-0_
  6
CONTINUOUS
 62
    7
 10
359.94029630565279
 20
583.59779696667056
 11
360.11772126304595
 21
583.68169762453044
  0
LINE
  8
_1-0_
  6
CONTINUOUS
 62
    7
 10
360.11772126304595
 20
583.68169762453044
 11
360.30251705508431
 21
583.74783828912098
  0
LINE
  8
_1-0_
  6
CONTINUOUS
 62
    7
 10
360.30251705508431
 20
583.74783828912098
 11
360.49291205682351
 21
583.79551905922904
  0
LINE
  8
_1-0_
  6
CONTINUOUS
 62
    7
 10
360.49291205682351
 20
583.79551905922904
 11
360.68704715566753
 21
583.82430249659706
  0
LINE
  8
_1-0_
  6
CONTINUOUS
 62
    7
 10
360.68704715566753
 20
583.82430249659706
 11
360.88308511093317
 21
583.83396988209608
  0
LINE
  8
_1-0_
  6
CONTINUOUS
 62
    7
 10
360.88308511093317
 20
583.83396988209608
 11
361.00082161803954
 21
583.83396988209608
  0
LINE
  8
_1-0_
  6
CONTINUOUS
 62
    7
 10
361.00082161803954
 20
583.83396988209608
 11
380.77924249715323
 21
583.83396988209608
  0
LINE
  8
_1-0_
  6
CONTINUOUS
 62
    7
 10
380.77924249715323
 20
583.83396988209608
 11
381.88307419706945
 21
576.83395164813771
  0
LINE
  8
_1-0_
  6
CONTINUOUS
 62
    7
 10
381.88307419706945
 20
576.83395164813771
 11
361.00082161803954
 21
576.83395164813771
  0
LINE
  8
_1-0_
  6
CONTINUOUS
 62
    7
 10
361.00082161803954
 20
576.83395164813771
 11
360.88308511093317
 21
576.83395164813771
  0
LINE
  8
_1-0_
  6
CONTINUOUS
 62
    7
 10
358.88307365211278
 20
578.83396310695809
 11
358.88307365211278
 21
581.8339584232757
  0
LINE
  8
_1-0_
  6
CONTINUOUS
 62
    7
 10
360.88308511093317
 20
583.83396988209608
 11
361.00082161803954
 21
583.83396988209608
  0
LINE
  8
_1-0_
  6
CONTINUOUS
 62
    7
 10
361.00082161803954
 20
583.83396988209608
 11
380.77924249715323
 21
583.83396988209608
  0
LINE
  8
_1-0_
  6
CONTINUOUS
 62
    7
 10
377.94276160162838
 20
576.83395164813771
 11
377.94276160162838
 21
583.83396988209608
  0
LINE
  8
_1-0_
  6
CONTINUOUS
 62
    7
 10
448.46043340027563
 20
638.83395692096246
 11
368.46041248571908
 21
638.83395692096246
  0
LINE
  8
_1-0_
  6
CONTINUOUS
 62
    7
 10
361.46041612367367
 20
587.85827062304872
 11
455.46040789040819
 21
587.85827062304872
  0
LINE
  8
_1-0_
  6
CONTINUOUS
 62
    7
 10
455.46040789040819
 20
587.85827062304872
 11
455.46040789040819
 21
584.4582817637322
  0
LINE
  8
_1-0_
  6
CONTINUOUS
 62
    7
 10
455.46040789040819
 20
584.4582817637322
 11
361.46041612367367
 21
584.4582817637322
  0
LINE
  8
_1-0_
  6
CONTINUOUS
 62
    7
 10
361.46041612367367
 20
584.4582817637322
 11
361.46041612367367
 21
587.85827062304872
  0
LINE
  8
_1-0_
  6
CONTINUOUS
 62
    7
 10
361.46041612367367
 20
587.85827062304872
 11
455.46040789040819
 21
587.85827062304872
  0
LINE
  8
_1-0_
  6
CONTINUOUS
 62
    7
 10
455.46040789040819
 20
587.85827062304872
 11
455.46040789040819
 21
584.4582817637322
  0
LINE
  8
_1-0_
  6
CONTINUOUS
 62
    7
 10
455.46040789040819
 20
584.4582817637322
 11
361.46041612367367
 21
584.4582817637322
  0
LINE
  8
_1-0_
  6
CONTINUOUS
 62
    7
 10
361.46041612367367
 20
584.4582817637322
 11
361.46041612367367
 21
587.85827062304872
  0
LINE
  8
_1-0_
  6
CONTINUOUS
 62
    7
 10
354.46041976162832
 20
638.83395692096246
 11
454.46042403291085
 21
638.83395692096246
  0
LINE
  8
_1-0_
  6
CONTINUOUS
 62
    7
 10
454.46042403291085
 20
638.83395692096246
 11
454.46042403291085
 21
630.23396451500855
  0
LINE
  8
_1-0_
  6
CONTINUOUS
 62
    7
 10
354.46041976162832
 20
630.23396451500855
 11
454.46042403291085
 21
630.23396451500855
  0
LINE
  8
_1-0_
  6
CONTINUOUS
 62
    7
 10
454.46042403291085
 20
630.23396451500855
 11
454.46042403291085
 21
626.83393191186622
  0
LINE
  8
_1-0_
  6
CONTINUOUS
 62
    7
 10
454.46042403291085
 20
626.83393191186622
 11
354.46041976162832
 21
626.83393191186622
  0
LINE
  8
_1-0_
  6
CONTINUOUS
 62
    7
 10
354.46041976162832
 20
626.83393191186622
 11
354.46041976162832
 21
630.23396451500855
  0
LINE
  8
_1-0_
  6
CONTINUOUS
 62
    7
 10
857.49263189013857
 20
638.83395692096246
 11
870.89267804355688
 21
638.83395692096246
  0
LINE
  8
_1-0_
  6
CONTINUOUS
 62
    7
 10
870.89267804355688
 20
638.83395692096246
 11
870.89267804355688
 21
538.83395264967987
  0
LINE
  8
_1-0_
  6
CONTINUOUS
 62
    7
 10
870.89267804355688
 20
538.83395264967987
 11
857.49263189013857
 21
538.83395264967987
  0
LINE
  8
_1-0_
  6
CONTINUOUS
 62
    7
 10
857.49263189013857
 20
538.83395264967987
 11
857.49263189013857
 21
638.83395692096246
  0
LINE
  8
_1-0_
  6
CONTINUOUS
 62
    7
 10
856.49264803264134
 20
628.83394337068648
 11
871.89266190105411
 21
628.83394337068648
  0
LINE
  8
_1-0_
  6
CONTINUOUS
 62
    7
 10
871.89266190105411
 20
628.83394337068648
 11
871.89266190105411
 21
626.83393191186622
  0
LINE
  8
_1-0_
  6
CONTINUOUS
 62
    7
 10
871.89266190105411
 20
626.83393191186622
 11
856.49264803264134
 21
626.83393191186622
  0
LINE
  8
_1-0_
  6
CONTINUOUS
 62
    7
 10
856.49264803264134
 20
626.83393191186622
 11
856.49264803264134
 21
628.83394337068648
  0
LINE
  8
_1-0_
  6
CONTINUOUS
 62
    7
 10
856.49264803264134
 20
628.83394337068648
 11
871.89266190105411
 21
628.83394337068648
  0
LINE
  8
_1-0_
  6
CONTINUOUS
 62
    7
 10
871.89266190105411
 20
628.83394337068648
 11
871.89266190105411
 21
626.83393191186622
  0
LINE
  8
_1-0_
  6
CONTINUOUS
 62
    7
 10
871.89266190105411
 20
626.83393191186622
 11
856.49264803264134
 21
626.83393191186622
  0
LINE
  8
_1-0_
  6
CONTINUOUS
 62
    7
 10
856.49264803264134
 20
626.83393191186622
 11
856.49264803264134
 21
628.83394337068648
  0
LINE
  8
_1-0_
  6
CONTINUOUS
 62
    7
 10
856.49264803264134
 20
624.83396419687153
 11
871.89266190105411
 21
624.83396419687153
  0
LINE
  8
_1-0_
  6
CONTINUOUS
 62
    7
 10
871.89266190105411
 20
624.83396419687153
 11
871.89266190105411
 21
622.83395273805115
  0
LINE
  8
_1-0_
  6
CONTINUOUS
 62
    7
 10
871.89266190105411
 20
622.83395273805115
 11
856.49264803264134
 21
622.83395273805115
  0
LINE
  8
_1-0_
  6
CONTINUOUS
 62
    7
 10
856.49264803264134
 20
622.83395273805115
 11
856.49264803264134
 21
624.83396419687153
  0
LINE
  8
_1-0_
  6
CONTINUOUS
 62
    7
 10
856.49264803264134
 20
624.83396419687153
 11
871.89266190105411
 21
624.83396419687153
  0
LINE
  8
_1-0_
  6
CONTINUOUS
 62
    7
 10
871.89266190105411
 20
624.83396419687153
 11
871.89266190105411
 21
622.83395273805115
  0
LINE
  8
_1-0_
  6
CONTINUOUS
 62
    7
 10
871.89266190105411
 20
622.83395273805115
 11
856.49264803264134
 21
622.83395273805115
  0
LINE
  8
_1-0_
  6
CONTINUOUS
 62
    7
 10
856.49264803264134
 20
622.83395273805115
 11
856.49264803264134
 21
624.83396419687153
  0
LINE
  8
_1-0_
  6
CONTINUOUS
 62
    7
 10
856.49264803264134
 20
620.83394127923088
 11
871.89266190105411
 21
620.83394127923088
  0
LINE
  8
_1-0_
  6
CONTINUOUS
 62
    7
 10
871.89266190105411
 20
620.83394127923088
 11
871.89266190105411
 21
618.83397356423632
  0
LINE
  8
_1-0_
  6
CONTINUOUS
 62
    7
 10
871.89266190105411
 20
618.83397356423632
 11
856.49264803264134
 21
618.83397356423632
  0
LINE
  8
_1-0_
  6
CONTINUOUS
 62
    7
 10
856.49264803264134
 20
618.83397356423632
 11
856.49264803264134
 21
620.83394127923088
  0
LINE
  8
_1-0_
  6
CONTINUOUS
 62
    7
 10
856.49264803264134
 20
620.83394127923088
 11
871.89266190105411
 21
620.83394127923088
  0
LINE
  8
_1-0_
  6
CONTINUOUS
 62
    7
 10
871.89266190105411
 20
620.83394127923088
 11
871.89266190105411
 21
618.83397356423632
  0
LINE
  8
_1-0_
  6
CONTINUOUS
 62
    7
 10
871.89266190105411
 20
618.83397356423632
 11
856.49264803264134
 21
618.83397356423632
  0
LINE
  8
_1-0_
  6
CONTINUOUS
 62
    7
 10
856.49264803264134
 20
618.83397356423632
 11
856.49264803264134
 21
620.83394127923088
  0
LINE
  8
_1-0_
  6
CONTINUOUS
 62
    7
 10
856.49264803264134
 20
616.83396210541594
 11
871.89266190105411
 21
616.83396210541594
  0
LINE
  8
_1-0_
  6
CONTINUOUS
 62
    7
 10
871.89266190105411
 20
616.83396210541594
 11
871.89266190105411
 21
614.83395064659555
  0
LINE
  8
_1-0_
  6
CONTINUOUS
 62
    7
 10
871.89266190105411
 20
614.83395064659555
 11
856.49264803264134
 21
614.83395064659555
  0
LINE
  8
_1-0_
  6
CONTINUOUS
 62
    7
 10
856.49264803264134
 20
614.83395064659555
 11
856.49264803264134
 21
616.83396210541594
  0
LINE
  8
_1-0_
  6
CONTINUOUS
 62
    7
 10
856.49264803264134
 20
616.83396210541594
 11
871.89266190105411
 21
616.83396210541594
  0
LINE
  8
_1-0_
  6
CONTINUOUS
 62
    7
 10
871.89266190105411
 20
616.83396210541594
 11
871.89266190105411
 21
614.83395064659555
  0
LINE
  8
_1-0_
  6
CONTINUOUS
 62
    7
 10
871.89266190105411
 20
614.83395064659555
 11
856.49264803264134
 21
614.83395064659555
  0
LINE
  8
_1-0_
  6
CONTINUOUS
 62
    7
 10
856.49264803264134
 20
614.83395064659555
 11
856.49264803264134
 21
616.83396210541594
  0
LINE
  8
_1-0_
  6
CONTINUOUS
 62
    7
 10
856.49264803264134
 20
612.83393918777517
 11
871.89266190105411
 21
612.83393918777517
  0
LINE
  8
_1-0_
  6
CONTINUOUS
 62
    7
 10
871.89266190105411
 20
612.83393918777517
 11
871.89266190105411
 21
610.8339714727806
  0
LINE
  8
_1-0_
  6
CONTINUOUS
 62
    7
 10
871.89266190105411
 20
610.8339714727806
 11
856.49264803264134
 21
610.8339714727806
  0
LINE
  8
_1-0_
  6
CONTINUOUS
 62
    7
 10
856.49264803264134
 20
610.8339714727806
 11
856.49264803264134
 21
612.83393918777517
  0
LINE
  8
_1-0_
  6
CONTINUOUS
 62
    7
 10
856.49264803264134
 20
612.83393918777517
 11
871.89266190105411
 21
612.83393918777517
  0
LINE
  8
_1-0_
  6
CONTINUOUS
 62
    7
 10
871.89266190105411
 20
612.83393918777517
 11
871.89266190105411
 21
610.8339714727806
  0
LINE
  8
_1-0_
  6
CONTINUOUS
 62
    7
 10
871.89266190105411
 20
610.8339714727806
 11
856.49264803264134
 21
610.8339714727806
  0
LINE
  8
_1-0_
  6
CONTINUOUS
 62
    7
 10
856.49264803264134
 20
610.8339714727806
 11
856.49264803264134
 21
612.83393918777517
  0
LINE
  8
_1-0_
  6
CONTINUOUS
 62
    7
 10
856.49264803264134
 20
608.83396001396034
 11
871.89266190105411
 21
608.83396001396034
  0
LINE
  8
_1-0_
  6
CONTINUOUS
 62
    7
 10
871.89266190105411
 20
608.83396001396034
 11
871.89266190105411
 21
606.83394855513995
  0
LINE
  8
_1-0_
  6
CONTINUOUS
 62
    7
 10
871.89266190105411
 20
606.83394855513995
 11
856.49264803264134
 21
606.83394855513995
  0
LINE
  8
_1-0_
  6
CONTINUOUS
 62
    7
 10
856.49264803264134
 20
606.83394855513995
 11
856.49264803264134
 21
608.83396001396034
  0
LINE
  8
_1-0_
  6
CONTINUOUS
 62
    7
 10
856.49264803264134
 20
608.83396001396034
 11
871.89266190105411
 21
608.83396001396034
  0
LINE
  8
_1-0_
  6
CONTINUOUS
 62
    7
 10
871.89266190105411
 20
608.83396001396034
 11
871.89266190105411
 21
606.83394855513995
  0
LINE
  8
_1-0_
  6
CONTINUOUS
 62
    7
 10
871.89266190105411
 20
606.83394855513995
 11
856.49264803264134
 21
606.83394855513995
  0
LINE
  8
_1-0_
  6
CONTINUOUS
 62
    7
 10
856.49264803264134
 20
606.83394855513995
 11
856.49264803264134
 21
608.83396001396034
  0
LINE
  8
_1-0_
  6
CONTINUOUS
 62
    7
 10
856.49264803264134
 20
604.83393709631957
 11
871.89266190105411
 21
604.83393709631957
  0
LINE
  8
_1-0_
  6
CONTINUOUS
 62
    7
 10
871.89266190105411
 20
604.83393709631957
 11
871.89266190105411
 21
602.83396938132501
  0
LINE
  8
_1-0_
  6
CONTINUOUS
 62
    7
 10
871.89266190105411
 20
602.83396938132501
 11
856.49264803264134
 21
602.83396938132501
  0
LINE
  8
_1-0_
  6
CONTINUOUS
 62
    7
 10
856.49264803264134
 20
602.83396938132501
 11
856.49264803264134
 21
604.83393709631957
  0
LINE
  8
_1-0_
  6
CONTINUOUS
 62
    7
 10
856.49264803264134
 20
604.83393709631957
 11
871.89266190105411
 21
604.83393709631957
  0
LINE
  8
_1-0_
  6
CONTINUOUS
 62
    7
 10
871.89266190105411
 20
604.83393709631957
 11
871.89266190105411
 21
602.83396938132501
  0
LINE
  8
_1-0_
  6
CONTINUOUS
 62
    7
 10
871.89266190105411
 20
602.83396938132501
 11
856.49264803264134
 21
602.83396938132501
  0
LINE
  8
_1-0_
  6
CONTINUOUS
 62
    7
 10
856.49264803264134
 20
602.83396938132501
 11
856.49264803264134
 21
604.83393709631957
  0
LINE
  8
_1-0_
  6
CONTINUOUS
 62
    7
 10
856.49264803264134
 20
600.83395792250462
 11
871.89266190105411
 21
600.83395792250462
  0
LINE
  8
_1-0_
  6
CONTINUOUS
 62
    7
 10
871.89266190105411
 20
600.83395792250462
 11
871.89266190105411
 21
598.83394646368424
  0
LINE
  8
_1-0_
  6
CONTINUOUS
 62
    7
 10
871.89266190105411
 20
598.83394646368424
 11
856.49264803264134
 21
598.83394646368424
  0
LINE
  8
_1-0_
  6
CONTINUOUS
 62
    7
 10
856.49264803264134
 20
598.83394646368424
 11
856.49264803264134
 21
600.83395792250462
  0
LINE
  8
_1-0_
  6
CONTINUOUS
 62
    7
 10
856.49264803264134
 20
600.83395792250462
 11
871.89266190105411
 21
600.83395792250462
  0
LINE
  8
_1-0_
  6
CONTINUOUS
 62
    7
 10
871.89266190105411
 20
600.83395792250462
 11
871.89266190105411
 21
598.83394646368424
  0
LINE
  8
_1-0_
  6
CONTINUOUS
 62
    7
 10
871.89266190105411
 20
598.83394646368424
 11
856.49264803264134
 21
598.83394646368424
  0
LINE
  8
_1-0_
  6
CONTINUOUS
 62
    7
 10
856.49264803264134
 20
598.83394646368424
 11
856.49264803264134
 21
600.83395792250462
  0
LINE
  8
_1-0_
  6
CONTINUOUS
 62
    7
 10
856.49264803264134
 20
596.83393500486386
 11
871.89266190105411
 21
596.83393500486386
  0
LINE
  8
_1-0_
  6
CONTINUOUS
 62
    7
 10
871.89266190105411
 20
596.83393500486386
 11
871.89266190105411
 21
594.83396728986929
  0
LINE
  8
_1-0_
  6
CONTINUOUS
 62
    7
 10
871.89266190105411
 20
594.83396728986929
 11
856.49264803264134
 21
594.83396728986929
  0
LINE
  8
_1-0_
  6
CONTINUOUS
 62
    7
 10
856.49264803264134
 20
594.83396728986929
 11
856.49264803264134
 21
596.83393500486386
  0
LINE
  8
_1-0_
  6
CONTINUOUS
 62
    7
 10
856.49264803264134
 20
596.83393500486386
 11
871.89266190105411
 21
596.83393500486386
  0
LINE
  8
_1-0_
  6
CONTINUOUS
 62
    7
 10
871.89266190105411
 20
596.83393500486386
 11
871.89266190105411
 21
594.83396728986929
  0
LINE
  8
_1-0_
  6
CONTINUOUS
 62
    7
 10
871.89266190105411
 20
594.83396728986929
 11
856.49264803264134
 21
594.83396728986929
  0
LINE
  8
_1-0_
  6
CONTINUOUS
 62
    7
 10
856.49264803264134
 20
594.83396728986929
 11
856.49264803264134
 21
596.83393500486386
  0
LINE
  8
_1-0_
  6
CONTINUOUS
 62
    7
 10
856.49264803264134
 20
592.83395583104902
 11
871.89266190105411
 21
592.83395583104902
  0
LINE
  8
_1-0_
  6
CONTINUOUS
 62
    7
 10
871.89266190105411
 20
592.83395583104902
 11
871.89266190105411
 21
590.83394437222864
  0
LINE
  8
_1-0_
  6
CONTINUOUS
 62
    7
 10
871.89266190105411
 20
590.83394437222864
 11
856.49264803264134
 21
590.83394437222864
  0
LINE
  8
_1-0_
  6
CONTINUOUS
 62
    7
 10
856.49264803264134
 20
590.83394437222864
 11
856.49264803264134
 21
592.83395583104902
  0
LINE
  8
_1-0_
  6
CONTINUOUS
 62
    7
 10
856.49264803264134
 20
592.83395583104902
 11
871.89266190105411
 21
592.83395583104902
  0
LINE
  8
_1-0_
  6
CONTINUOUS
 62
    7
 10
871.89266190105411
 20
592.83395583104902
 11
871.89266190105411
 21
590.83394437222864
  0
LINE
  8
_1-0_
  6
CONTINUOUS
 62
    7
 10
871.89266190105411
 20
590.83394437222864
 11
856.49264803264134
 21
590.83394437222864
  0
LINE
  8
_1-0_
  6
CONTINUOUS
 62
    7
 10
856.49264803264134
 20
590.83394437222864
 11
856.49264803264134
 21
592.83395583104902
  0
LINE
  8
_1-0_
  6
CONTINUOUS
 62
    7
 10
856.49264803264134
 20
588.83393291340826
 11
871.89266190105411
 21
588.83393291340826
  0
LINE
  8
_1-0_
  6
CONTINUOUS
 62
    7
 10
871.89266190105411
 20
588.83393291340826
 11
871.89266190105411
 21
586.83396519841369
  0
LINE
  8
_1-0_
  6
CONTINUOUS
 62
    7
 10
871.89266190105411
 20
586.83396519841369
 11
856.49264803264134
 21
586.83396519841369
  0
LINE
  8
_1-0_
  6
CONTINUOUS
 62
    7
 10
856.49264803264134
 20
586.83396519841369
 11
856.49264803264134
 21
588.83393291340826
  0
LINE
  8
_1-0_
  6
CONTINUOUS
 62
    7
 10
856.49264803264134
 20
588.83393291340826
 11
871.89266190105411
 21
588.83393291340826
  0
LINE
  8
_1-0_
  6
CONTINUOUS
 62
    7
 10
871.89266190105411
 20
588.83393291340826
 11
871.89266190105411
 21
586.83396519841369
  0
LINE
  8
_1-0_
  6
CONTINUOUS
 62
    7
 10
871.89266190105411
 20
586.83396519841369
 11
856.49264803264134
 21
586.83396519841369
  0
LINE
  8
_1-0_
  6
CONTINUOUS
 62
    7
 10
856.49264803264134
 20
586.83396519841369
 11
856.49264803264134
 21
588.83393291340826
  0
LINE
  8
_1-0_
  6
CONTINUOUS
 62
    7
 10
856.49264803264134
 20
584.83395373959331
 11
871.89266190105411
 21
584.83395373959331
  0
LINE
  8
_1-0_
  6
CONTINUOUS
 62
    7
 10
871.89266190105411
 20
584.83395373959331
 11
871.89266190105411
 21
582.83394228077304
  0
LINE
  8
_1-0_
  6
CONTINUOUS
 62
    7
 10
871.89266190105411
 20
582.83394228077304
 11
856.49264803264134
 21
582.83394228077304
  0
LINE
  8
_1-0_
  6
CONTINUOUS
 62
    7
 10
856.49264803264134
 20
582.83394228077304
 11
856.49264803264134
 21
584.83395373959331
  0
LINE
  8
_1-0_
  6
CONTINUOUS
 62
    7
 10
856.49264803264134
 20
584.83395373959331
 11
871.89266190105411
 21
584.83395373959331
  0
LINE
  8
_1-0_
  6
CONTINUOUS
 62
    7
 10
871.89266190105411
 20
584.83395373959331
 11
871.89266190105411
 21
582.83394228077304
  0
LINE
  8
_1-0_
  6
CONTINUOUS
 62
    7
 10
871.89266190105411
 20
582.83394228077304
 11
856.49264803264134
 21
582.83394228077304
  0
LINE
  8
_1-0_
  6
CONTINUOUS
 62
    7
 10
856.49264803264134
 20
582.83394228077304
 11
856.49264803264134
 21
584.83395373959331
  0
LINE
  8
_1-0_
  6
CONTINUOUS
 62
    7
 10
856.49264803264134
 20
580.83393082195266
 11
871.89266190105411
 21
580.83393082195266
  0
LINE
  8
_1-0_
  6
CONTINUOUS
 62
    7
 10
871.89266190105411
 20
580.83393082195266
 11
871.89266190105411
 21
578.83396310695809
  0
LINE
  8
_1-0_
  6
CONTINUOUS
 62
    7
 10
871.89266190105411
 20
578.83396310695809
 11
856.49264803264134
 21
578.83396310695809
  0
LINE
  8
_1-0_
  6
CONTINUOUS
 62
    7
 10
856.49264803264134
 20
578.83396310695809
 11
856.49264803264134
 21
580.83393082195266
  0
LINE
  8
_1-0_
  6
CONTINUOUS
 62
    7
 10
856.49264803264134
 20
580.83393082195266
 11
871.89266190105411
 21
580.83393082195266
  0
LINE
  8
_1-0_
  6
CONTINUOUS
 62
    7
 10
871.89266190105411
 20
580.83393082195266
 11
871.89266190105411
 21
578.83396310695809
  0
LINE
  8
_1-0_
  6
CONTINUOUS
 62
    7
 10
871.89266190105411
 20
578.83396310695809
 11
856.49264803264134
 21
578.83396310695809
  0
LINE
  8
_1-0_
  6
CONTINUOUS
 62
    7
 10
856.49264803264134
 20
578.83396310695809
 11
856.49264803264134
 21
580.83393082195266
  0
LINE
  8
_1-0_
  6
CONTINUOUS
 62
    7
 10
856.49264803264134
 20
544.83394328231509
 11
871.89266190105411
 21
544.83394328231509
  0
LINE
  8
_1-0_
  6
CONTINUOUS
 62
    7
 10
871.89266190105411
 20
544.83394328231509
 11
871.89266190105411
 21
542.83393182349482
  0
LINE
  8
_1-0_
  6
CONTINUOUS
 62
    7
 10
871.89266190105411
 20
542.83393182349482
 11
856.49264803264134
 21
542.83393182349482
  0
LINE
  8
_1-0_
  6
CONTINUOUS
 62
    7
 10
856.49264803264134
 20
542.83393182349482
 11
856.49264803264134
 21
544.83394328231509
  0
LINE
  8
_1-0_
  6
CONTINUOUS
 62
    7
 10
856.49264803264134
 20
544.83394328231509
 11
871.89266190105411
 21
544.83394328231509
  0
LINE
  8
_1-0_
  6
CONTINUOUS
 62
    7
 10
871.89266190105411
 20
544.83394328231509
 11
871.89266190105411
 21
542.83393182349482
  0
LINE
  8
_1-0_
  6
CONTINUOUS
 62
    7
 10
871.89266190105411
 20
542.83393182349482
 11
856.49264803264134
 21
542.83393182349482
  0
LINE
  8
_1-0_
  6
CONTINUOUS
 62
    7
 10
856.49264803264134
 20
542.83393182349482
 11
856.49264803264134
 21
544.83394328231509
  0
LINE
  8
_1-0_
  6
CONTINUOUS
 62
    7
 10
856.49264803264134
 20
540.83396410850025
 11
871.89266190105411
 21
540.83396410850025
  0
LINE
  8
_1-0_
  6
CONTINUOUS
 62
    7
 10
871.89266190105411
 20
540.83396410850025
 11
871.89266190105411
 21
538.83395264967987
  0
LINE
  8
_1-0_
  6
CONTINUOUS
 62
    7
 10
871.89266190105411
 20
538.83395264967987
 11
856.49264803264134
 21
538.83395264967987
  0
LINE
  8
_1-0_
  6
CONTINUOUS
 62
    7
 10
856.49264803264134
 20
538.83395264967987
 11
856.49264803264134
 21
540.83396410850025
  0
LINE
  8
_1-0_
  6
CONTINUOUS
 62
    7
 10
856.49264803264134
 20
540.83396410850025
 11
871.89266190105411
 21
540.83396410850025
  0
LINE
  8
_1-0_
  6
CONTINUOUS
 62
    7
 10
871.89266190105411
 20
540.83396410850025
 11
871.89266190105411
 21
538.83395264967987
  0
LINE
  8
_1-0_
  6
CONTINUOUS
 62
    7
 10
871.89266190105411
 20
538.83395264967987
 11
856.49264803264134
 21
538.83395264967987
  0
LINE
  8
_1-0_
  6
CONTINUOUS
 62
    7
 10
856.49264803264134
 20
538.83395264967987
 11
856.49264803264134
 21
540.83396410850025
  0
LINE
  8
_1-0_
  6
CONTINUOUS
 62
    7
 10
817.87839823247839
 20
914.75513708637482
 11
816.2205072351403
 21
913.09759603964312
  0
LINE
  8
_1-0_
  6
CONTINUOUS
 62
    7
 10
816.2205072351403
 20
913.09759603964312
 11
814.7519395158098
 21
911.34504340330136
  0
LINE
  8
_1-0_
  6
CONTINUOUS
 62
    7
 10
814.7519395158098
 20
911.34504340330136
 11
813.4726075868349
 21
909.49747917734965
  0
LINE
  8
_1-0_
  6
CONTINUOUS
 62
    7
 10
813.4726075868349
 20
909.49747917734965
 11
812.38251144821572
 21
907.55481587413658
  0
LINE
  8
_1-0_
  6
CONTINUOUS
 62
    7
 10
812.38251144821572
 20
907.55481587413658
 11
811.48173858760401
 21
905.51714098131333
  0
LINE
  8
_1-0_
  6
CONTINUOUS
 62
    7
 10
811.48173858760401
 20
905.51714098131333
 11
810.77028900499965
 21
903.38445449888013
  0
LINE
  8
_1-0_
  6
CONTINUOUS
 62
    7
 10
810.77028900499965
 20
903.38445449888013
 11
810.24807521275102
 21
901.15675642683698
  0
LINE
  8
_1-0_
  6
CONTINUOUS
 62
    7
 10
810.24807521275102
 20
901.15675642683698
 11
809.91509721085833
 21
898.83395927753224
  0
LINE
  8
_1-0_
  6
CONTINUOUS
 62
    7
 10
816.76039353300689
 20
636.8339454621422
 11
832.16040740141989
 21
636.8339454621422
  0
LINE
  8
_1-0_
  6
CONTINUOUS
 62
    7
 10
832.16040740141989
 20
636.8339454621422
 11
832.16040740141989
 21
634.8339340033217
  0
LINE
  8
_1-0_
  6
CONTINUOUS
 62
    7
 10
832.16040740141989
 20
634.8339340033217
 11
816.76039353300689
 21
634.8339340033217
  0
LINE
  8
_1-0_
  6
CONTINUOUS
 62
    7
 10
816.76039353300689
 20
634.8339340033217
 11
816.76039353300689
 21
636.8339454621422
  0
LINE
  8
_1-0_
  6
CONTINUOUS
 62
    7
 10
816.76039353300689
 20
636.8339454621422
 11
832.16040740141989
 21
636.8339454621422
  0
LINE
  8
_1-0_
  6
CONTINUOUS
 62
    7
 10
832.16040740141989
 20
636.8339454621422
 11
832.16040740141989
 21
634.8339340033217
  0
LINE
  8
_1-0_
  6
CONTINUOUS
 62
    7
 10
832.16040740141989
 20
634.8339340033217
 11
816.76039353300689
 21
634.8339340033217
  0
LINE
  8
_1-0_
  6
CONTINUOUS
 62
    7
 10
816.76039353300689
 20
634.8339340033217
 11
816.76039353300689
 21
636.8339454621422
  0
LINE
  8
_1-0_
  6
CONTINUOUS
 62
    7
 10
816.76039353300689
 20
632.83396628832725
 11
832.16040740141989
 21
632.83396628832725
  0
LINE
  8
_1-0_
  6
CONTINUOUS
 62
    7
 10
832.16040740141989
 20
632.83396628832725
 11
832.16040740141989
 21
630.83395482950687
  0
LINE
  8
_1-0_
  6
CONTINUOUS
 62
    7
 10
832.16040740141989
 20
630.83395482950687
 11
816.76039353300689
 21
630.83395482950687
  0
LINE
  8
_1-0_
  6
CONTINUOUS
 62
    7
 10
816.76039353300689
 20
630.83395482950687
 11
816.76039353300689
 21
632.83396628832725
  0
LINE
  8
_1-0_
  6
CONTINUOUS
 62
    7
 10
816.76039353300689
 20
632.83396628832725
 11
832.16040740141989
 21
632.83396628832725
  0
LINE
  8
_1-0_
  6
CONTINUOUS
 62
    7
 10
832.16040740141989
 20
632.83396628832725
 11
832.16040740141989
 21
630.83395482950687
  0
LINE
  8
_1-0_
  6
CONTINUOUS
 62
    7
 10
832.16040740141989
 20
630.83395482950687
 11
816.76039353300689
 21
630.83395482950687
  0
LINE
  8
_1-0_
  6
CONTINUOUS
 62
    7
 10
816.76039353300689
 20
630.83395482950687
 11
816.76039353300689
 21
632.83396628832725
  0
LINE
  8
_1-0_
  6
CONTINUOUS
 62
    7
 10
864.30345807756692
 20
638.83395692096246
 11
864.30345807756692
 21
558.06833156747712
  0
LINE
  8
_1-0_
  6
CONTINUOUS
 62
    7
 10
840.30340805937408
 20
638.83395692096246
 11
840.30340805937408
 21
558.06833156747712
  0
LINE
  8
_1-0_
  6
CONTINUOUS
 62
    7
 10
804.46041711048724
 20
576.83395164813771
 11
804.3624309407237
 21
576.83876346897432
  0
LINE
  8
_1-0_
  6
CONTINUOUS
 62
    7
 10
804.3624309407237
 20
576.83876346897432
 11
804.26531964747596
 21
576.85315518765833
  0
LINE
  8
_1-0_
  6
CONTINUOUS
 62
    7
 10
804.26531964747596
 20
576.85315518765833
 11
804.17013308256287
 21
576.87699557271242
  0
LINE
  8
_1-0_
  6
CONTINUOUS
 62
    7
 10
804.17013308256287
 20
576.87699557271242
 11
804.07774612250012
 21
576.91006590500751
  0
LINE
  8
_1-0_
  6
CONTINUOUS
 62
    7
 10
804.07774612250012
 20
576.91006590500751
 11
803.9890336438034
 21
576.95201623393757
  0
LINE
  8
_1-0_
  6
CONTINUOUS
 62
    7
 10
803.9890336438034
 20
576.95201623393757
 11
803.90487052298886
 21
577.00249660889608
  0
LINE
  8
_1-0_
  6
CONTINUOUS
 62
    7
 10
803.90487052298886
 20
577.00249660889608
 11
803.82604414892
 21
577.06093836014793
  0
LINE
  8
_1-0_
  6
CONTINUOUS
 62
    7
 10
803.82604414892
 20
577.06093836014793
 11
803.75334191046159
 21
577.1268603056094
  0
LINE
  8
_1-0_
  6
CONTINUOUS
 62
    7
 10
803.75334191046159
 20
577.1268603056094
 11
803.68737622117442
 21
577.19956254406782
  0
LINE
  8
_1-0_
  6
CONTINUOUS
 62
    7
 10
803.68737622117442
 20
577.19956254406782
 11
803.62893446992257
 21
577.27838891813644
  0
LINE
  8
_1-0_
  6
CONTINUOUS
 62
    7
 10
803.62893446992257
 20
577.27838891813644
 11
803.57854158261557
 21
577.36255203895121
  0
LINE
  8
_1-0_
  6
CONTINUOUS
 62
    7
 10
803.57854158261557
 20
577.36255203895121
 11
803.53654750985982
 21
577.45126451764781
  0
LINE
  8
_1-0_
  6
CONTINUOUS
 62
    7
 10
803.53654750985982
 20
577.45126451764781
 11
803.5034771775646
 21
577.54365147771057
  0
LINE
  8
_1-0_
  6
CONTINUOUS
 62
    7
 10
803.5034771775646
 20
577.54365147771057
 11
803.47968053633633
 21
577.63888178644947
  0
LINE
  8
_1-0_
  6
CONTINUOUS
 62
    7
 10
803.47968053633633
 20
577.63888178644947
 11
803.46524507382651
 21
577.73594933587151
  0
LINE
  8
_1-0_
  6
CONTINUOUS
 62
    7
 10
803.46524507382651
 20
577.73594933587151
 11
803.4604332529899
 21
577.83393550563505
  0
LINE
  8
_1-0_
  6
CONTINUOUS
 62
    7
 10
803.4604332529899
 20
577.83393550563505
 11
803.47968053633633
 21
577.63888178644947
  0
LINE
  8
_1-0_
  6
CONTINUOUS
 62
    7
 10
803.47968053633633
 20
577.63888178644947
 11
803.53654750985982
 21
577.45126451764781
  0
LINE
  8
_1-0_
  6
CONTINUOUS
 62
    7
 10
803.53654750985982
 20
577.45126451764781
 11
803.62893446992257
 21
577.27838891813644
  0
LINE
  8
_1-0_
  6
CONTINUOUS
 62
    7
 10
803.62893446992257
 20
577.27838891813644
 11
803.75334191046159
 21
577.1268603056094
  0
LINE
  8
_1-0_
  6
CONTINUOUS
 62
    7
 10
803.75334191046159
 20
577.1268603056094
 11
803.90487052298886
 21
577.00249660889608
  0
LINE
  8
_1-0_
  6
CONTINUOUS
 62
    7
 10
803.90487052298886
 20
577.00249660889608
 11
804.07774612250012
 21
576.91006590500751
  0
LINE
  8
_1-0_
  6
CONTINUOUS
 62
    7
 10
804.07774612250012
 20
576.91006590500751
 11
804.26531964747596
 21
576.85315518765833
  0
LINE
  8
_1-0_
  6
CONTINUOUS
 62
    7
 10
804.26531964747596
 20
576.85315518765833
 11
804.46041711048724
 21
576.83395164813771
  0
LINE
  8
_1-0_
  6
CONTINUOUS
 62
    7
 10
804.46041711048724
 20
576.83395164813771
 11
882.46038282239749
 21
576.83395164813771
  0
LINE
  8
_1-0_
  6
CONTINUOUS
 62
    7
 10
882.46038282239749
 20
576.83395164813771
 11
882.65548028540877
 21
576.85315518765833
  0
LINE
  8
_1-0_
  6
CONTINUOUS
 62
    7
 10
882.65548028540877
 20
576.85315518765833
 11
882.84314129803636
 21
576.91006590500751
  0
LINE
  8
_1-0_
  6
CONTINUOUS
 62
    7
 10
882.84314129803636
 20
576.91006590500751
 11
883.01601689754762
 21
577.00249660889608
  0
LINE
  8
_1-0_
  6
CONTINUOUS
 62
    7
 10
883.01601689754762
 20
577.00249660889608
 11
883.16754551007477
 21
577.1268603056094
  0
LINE
  8
_1-0_
  6
CONTINUOUS
 62
    7
 10
883.16754551007477
 20
577.1268603056094
 11
883.29186546296228
 21
577.27838891813644
  0
LINE
  8
_1-0_
  6
CONTINUOUS
 62
    7
 10
883.29186546296228
 20
577.27838891813644
 11
883.38433991067643
 21
577.45126451764781
  0
LINE
  8
_1-0_
  6
CONTINUOUS
 62
    7
 10
883.38433991067643
 20
577.45126451764781
 11
883.44120688420003
 21
577.63888178644947
  0
LINE
  8
_1-0_
  6
CONTINUOUS
 62
    7
 10
883.44120688420003
 20
577.63888178644947
 11
883.46045416754635
 21
577.83393550563505
  0
LINE
  8
_1-0_
  6
CONTINUOUS
 62
    7
 10
883.46045416754635
 20
577.83393550563505
 11
883.46045416754635
 21
583.23393582377196
  0
LINE
  8
_1-0_
  6
CONTINUOUS
 62
    7
 10
883.46045416754635
 20
583.23393582377196
 11
883.44120688420003
 21
583.42903328678312
  0
LINE
  8
_1-0_
  6
CONTINUOUS
 62
    7
 10
883.44120688420003
 20
583.42903328678312
 11
883.38433991067643
 21
583.61665055558478
  0
LINE
  8
_1-0_
  6
CONTINUOUS
 62
    7
 10
883.38433991067643
 20
583.61665055558478
 11
883.29186546296228
 21
583.78952615509615
  0
LINE
  8
_1-0_
  6
CONTINUOUS
 62
    7
 10
883.29186546296228
 20
583.78952615509615
 11
883.16754551007477
 21
583.94105476762331
  0
LINE
  8
_1-0_
  6
CONTINUOUS
 62
    7
 10
883.16754551007477
 20
583.94105476762331
 11
883.01601689754762
 21
584.06541846433652
  0
LINE
  8
_1-0_
  6
CONTINUOUS
 62
    7
 10
883.01601689754762
 20
584.06541846433652
 11
882.84314129803636
 21
584.15784916822508
  0
LINE
  8
_1-0_
  6
CONTINUOUS
 62
    7
 10
882.84314129803636
 20
584.15784916822508
 11
882.65548028540877
 21
584.21471614174857
  0
LINE
  8
_1-0_
  6
CONTINUOUS
 62
    7
 10
882.65548028540877
 20
584.21471614174857
 11
882.46038282239749
 21
584.233963425095
  0
LINE
  8
_1-0_
  6
CONTINUOUS
 62
    7
 10
882.46038282239749
 20
584.233963425095
 11
804.46041711048724
 21
584.233963425095
  0
LINE
  8
_1-0_
  6
CONTINUOUS
 62
    7
 10
804.46041711048724
 20
584.233963425095
 11
804.26531964747596
 21
584.21471614174857
  0
LINE
  8
_1-0_
  6
CONTINUOUS
 62
    7
 10
804.26531964747596
 20
584.21471614174857
 11
804.07774612250012
 21
584.15784916822508
  0
LINE
  8
_1-0_
  6
CONTINUOUS
 62
    7
 10
804.07774612250012
 20
584.15784916822508
 11
803.90487052298886
 21
584.06541846433652
  0
LINE
  8
_1-0_
  6
CONTINUOUS
 62
    7
 10
803.90487052298886
 20
584.06541846433652
 11
803.75334191046159
 21
583.94105476762331
  0
LINE
  8
_1-0_
  6
CONTINUOUS
 62
    7
 10
803.75334191046159
 20
583.94105476762331
 11
803.62893446992257
 21
583.78952615509615
  0
LINE
  8
_1-0_
  6
CONTINUOUS
 62
    7
 10
803.62893446992257
 20
583.78952615509615
 11
803.53654750985982
 21
583.61665055558478
  0
LINE
  8
_1-0_
  6
CONTINUOUS
 62
    7
 10
803.53654750985982
 20
583.61665055558478
 11
803.47968053633633
 21
583.42903328678312
  0
LINE
  8
_1-0_
  6
CONTINUOUS
 62
    7
 10
803.47968053633633
 20
583.42903328678312
 11
803.4604332529899
 21
583.23393582377196
  0
LINE
  8
_1-0_
  6
CONTINUOUS
 62
    7
 10
803.4604332529899
 20
583.23393582377196
 11
803.4604332529899
 21
577.83393550563505
  0
LINE
  8
_1-0_
  6
CONTINUOUS
 62
    7
 10
803.4604332529899
 20
577.83393550563505
 11
803.4604332529899
 21
580.53393566470345
  0
LINE
  8
_1-0_
  6
CONTINUOUS
 62
    7
 10
803.4604332529899
 20
580.53393566470345
 11
803.4604332529899
 21
583.23393582377196
  0
LINE
  8
_1-0_
  6
CONTINUOUS
 62
    7
 10
803.4604332529899
 20
583.23393582377196
 11
803.46524507382651
 21
583.3319657373612
  0
LINE
  8
_1-0_
  6
CONTINUOUS
 62
    7
 10
803.46524507382651
 20
583.3319657373612
 11
803.47968053633633
 21
583.42903328678312
  0
LINE
  8
_1-0_
  6
CONTINUOUS
 62
    7
 10
803.47968053633633
 20
583.42903328678312
 11
803.5034771775646
 21
583.52421985169633
  0
LINE
  8
_1-0_
  6
CONTINUOUS
 62
    7
 10
803.5034771775646
 20
583.52421985169633
 11
803.53654750985982
 21
583.61665055558478
  0
LINE
  8
_1-0_
  6
CONTINUOUS
 62
    7
 10
803.53654750985982
 20
583.61665055558478
 11
803.57854158261557
 21
583.7053630342815
  0
LINE
  8
_1-0_
  6
CONTINUOUS
 62
    7
 10
803.57854158261557
 20
583.7053630342815
 11
803.62893446992257
 21
583.78952615509615
  0
LINE
  8
_1-0_
  6
CONTINUOUS
 62
    7
 10
803.62893446992257
 20
583.78952615509615
 11
803.68737622117442
 21
583.86835252916489
  0
LINE
  8
_1-0_
  6
CONTINUOUS
 62
    7
 10
803.68737622117442
 20
583.86835252916489
 11
803.75334191046159
 21
583.94105476762331
  0
LINE
  8
_1-0_
  6
CONTINUOUS
 62
    7
 10
803.75334191046159
 20
583.94105476762331
 11
803.82604414892
 21
584.00697671308478
  0
LINE
  8
_1-0_
  6
CONTINUOUS
 62
    7
 10
803.82604414892
 20
584.00697671308478
 11
803.90487052298886
 21
584.06541846433652
  0
LINE
  8
_1-0_
  6
CONTINUOUS
 62
    7
 10
803.90487052298886
 20
584.06541846433652
 11
803.9890336438034
 21
584.11585509546933
  0
LINE
  8
_1-0_
  6
CONTINUOUS
 62
    7
 10
803.9890336438034
 20
584.11585509546933
 11
804.07774612250012
 21
584.15784916822508
  0
LINE
  8
_1-0_
  6
CONTINUOUS
 62
    7
 10
804.07774612250012
 20
584.15784916822508
 11
804.17013308256287
 21
584.19087575669448
  0
LINE
  8
_1-0_
  6
CONTINUOUS
 62
    7
 10
804.17013308256287
 20
584.19087575669448
 11
804.26531964747596
 21
584.21471614174857
  0
LINE
  8
_1-0_
  6
CONTINUOUS
 62
    7
 10
804.26531964747596
 20
584.21471614174857
 11
804.3624309407237
 21
584.22915160425839
  0
LINE
  8
_1-0_
  6
CONTINUOUS
 62
    7
 10
804.3624309407237
 20
584.22915160425839
 11
804.46041711048724
 21
584.233963425095
  0
LINE
  8
_1-0_
  6
CONTINUOUS
 62
    7
 10
882.46038282239749
 20
584.233963425095
 11
882.55845647981255
 21
584.22915160425839
  0
LINE
  8
_1-0_
  6
CONTINUOUS
 62
    7
 10
882.55845647981255
 20
584.22915160425839
 11
882.65548028540877
 21
584.21471614174857
  0
LINE
  8
_1-0_
  6
CONTINUOUS
 62
    7
 10
882.65548028540877
 20
584.21471614174857
 11
882.75066685032198
 21
584.19087575669448
  0
LINE
  8
_1-0_
  6
CONTINUOUS
 62
    7
 10
882.75066685032198
 20
584.19087575669448
 11
882.84314129803636
 21
584.15784916822508
  0
LINE
  8
_1-0_
  6
CONTINUOUS
 62
    7
 10
882.84314129803636
 20
584.15784916822508
 11
882.93185377673285
 21
584.11585509546933
  0
LINE
  8
_1-0_
  6
CONTINUOUS
 62
    7
 10
882.93185377673285
 20
584.11585509546933
 11
883.01601689754762
 21
584.06541846433652
  0
LINE
  8
_1-0_
  6
CONTINUOUS
 62
    7
 10
883.01601689754762
 20
584.06541846433652
 11
883.09484327161624
 21
584.00697671308478
  0
LINE
  8
_1-0_
  6
CONTINUOUS
 62
    7
 10
883.09484327161624
 20
584.00697671308478
 11
883.16754551007477
 21
583.94105476762331
  0
LINE
  8
_1-0_
  6
CONTINUOUS
 62
    7
 10
883.16754551007477
 20
583.94105476762331
 11
883.23342371171043
 21
583.86835252916489
  0
LINE
  8
_1-0_
  6
CONTINUOUS
 62
    7
 10
883.23342371171043
 20
583.86835252916489
 11
883.29186546296228
 21
583.78952615509615
  0
LINE
  8
_1-0_
  6
CONTINUOUS
 62
    7
 10
883.29186546296228
 20
583.78952615509615
 11
883.34234583792067
 21
583.7053630342815
  0
LINE
  8
_1-0_
  6
CONTINUOUS
 62
    7
 10
883.34234583792067
 20
583.7053630342815
 11
883.38433991067643
 21
583.61665055558478
  0
LINE
  8
_1-0_
  6
CONTINUOUS
 62
    7
 10
883.38433991067643
 20
583.61665055558478
 11
883.41732275532013
 21
583.52421985169633
  0
LINE
  8
_1-0_
  6
CONTINUOUS
 62
    7
 10
883.41732275532013
 20
583.52421985169633
 11
883.44120688420003
 21
583.42903328678312
  0
LINE
  8
_1-0_
  6
CONTINUOUS
 62
    7
 10
883.44120688420003
 20
583.42903328678312
 11
883.45564234670974
 21
583.3319657373612
  0
LINE
  8
_1-0_
  6
CONTINUOUS
 62
    7
 10
883.45564234670974
 20
583.3319657373612
 11
883.46045416754635
 21
583.23393582377196
  0
LINE
  8
_1-0_
  6
CONTINUOUS
 62
    7
 10
883.46045416754635
 20
583.23393582377196
 11
883.46045416754635
 21
580.53393566470345
  0
LINE
  8
_1-0_
  6
CONTINUOUS
 62
    7
 10
883.46045416754635
 20
580.53393566470345
 11
883.46045416754635
 21
577.83393550563505
  0
LINE
  8
_1-0_
  6
CONTINUOUS
 62
    7
 10
883.46045416754635
 20
577.83393550563505
 11
883.45564234670974
 21
577.73594933587151
  0
LINE
  8
_1-0_
  6
CONTINUOUS
 62
    7
 10
883.45564234670974
 20
577.73594933587151
 11
883.44120688420003
 21
577.63888178644947
  0
LINE
  8
_1-0_
  6
CONTINUOUS
 62
    7
 10
883.44120688420003
 20
577.63888178644947
 11
883.41732275532013
 21
577.54365147771057
  0
LINE
  8
_1-0_
  6
CONTINUOUS
 62
    7
 10
883.41732275532013
 20
577.54365147771057
 11
883.38433991067643
 21
577.45126451764781
  0
LINE
  8
_1-0_
  6
CONTINUOUS
 62
    7
 10
883.38433991067643
 20
577.45126451764781
 11
883.34234583792067
 21
577.36255203895121
  0
LINE
  8
_1-0_
  6
CONTINUOUS
 62
    7
 10
883.34234583792067
 20
577.36255203895121
 11
883.29186546296228
 21
577.27838891813644
  0
LINE
  8
_1-0_
  6
CONTINUOUS
 62
    7
 10
883.29186546296228
 20
577.27838891813644
 11
883.23342371171043
 21
577.19956254406782
  0
LINE
  8
_1-0_
  6
CONTINUOUS
 62
    7
 10
883.23342371171043
 20
577.19956254406782
 11
883.16754551007477
 21
577.1268603056094
  0
LINE
  8
_1-0_
  6
CONTINUOUS
 62
    7
 10
883.16754551007477
 20
577.1268603056094
 11
883.09484327161624
 21
577.06093836014793
  0
LINE
  8
_1-0_
  6
CONTINUOUS
 62
    7
 10
883.09484327161624
 20
577.06093836014793
 11
883.01601689754762
 21
577.00249660889608
  0
LINE
  8
_1-0_
  6
CONTINUOUS
 62
    7
 10
883.01601689754762
 20
577.00249660889608
 11
882.93185377673285
 21
576.95201623393757
  0
LINE
  8
_1-0_
  6
CONTINUOUS
 62
    7
 10
882.93185377673285
 20
576.95201623393757
 11
882.84314129803636
 21
576.91006590500751
  0
LINE
  8
_1-0_
  6
CONTINUOUS
 62
    7
 10
882.84314129803636
 20
576.91006590500751
 11
882.75066685032198
 21
576.87699557271242
  0
LINE
  8
_1-0_
  6
CONTINUOUS
 62
    7
 10
882.75066685032198
 20
576.87699557271242
 11
882.65548028540877
 21
576.85315518765833
  0
LINE
  8
_1-0_
  6
CONTINUOUS
 62
    7
 10
882.65548028540877
 20
576.85315518765833
 11
882.55845647981255
 21
576.83876346897432
  0
LINE
  8
_1-0_
  6
CONTINUOUS
 62
    7
 10
882.55845647981255
 20
576.83876346897432
 11
882.46038282239749
 21
576.83395164813771
  0
LINE
  8
_1-0_
  6
CONTINUOUS
 62
    7
 10
804.46041711048724
 20
584.233963425095
 11
843.46039996644231
 21
584.233963425095
  0
LINE
  8
_1-0_
  6
CONTINUOUS
 62
    7
 10
843.46039996644231
 20
584.233963425095
 11
882.46038282239749
 21
584.233963425095
  0
LINE
  8
_1-0_
  6
CONTINUOUS
 62
    7
 10
882.46038282239749
 20
576.83395164813771
 11
843.46039996644231
 21
576.83395164813771
  0
LINE
  8
_1-0_
  6
CONTINUOUS
 62
    7
 10
843.46039996644231
 20
576.83395164813771
 11
804.46041711048724
 21
576.83395164813771
  0
LINE
  8
_1-0_
  6
CONTINUOUS
 62
    7
 10
840.30340805937408
 20
638.83395692096246
 11
864.30345807756692
 21
638.83395692096246
  0
LINE
  8
_1-0_
  6
CONTINUOUS
 62
    7
 10
803.4604332529899
 20
587.63395228441152
 11
883.46045416754635
 21
587.63395228441152
  0
LINE
  8
_1-0_
  6
CONTINUOUS
 62
    7
 10
883.46045416754635
 20
587.63395228441152
 11
883.46045416754635
 21
584.233963425095
  0
LINE
  8
_1-0_
  6
CONTINUOUS
 62
    7
 10
883.46045416754635
 20
584.233963425095
 11
803.4604332529899
 21
584.233963425095
  0
LINE
  8
_1-0_
  6
CONTINUOUS
 62
    7
 10
803.4604332529899
 20
584.233963425095
 11
803.4604332529899
 21
587.63395228441152
  0
LINE
  8
_1-0_
  6
CONTINUOUS
 62
    7
 10
791.30341165314303
 20
630.23396451500855
 11
889.30340446560535
 21
630.23396451500855
  0
LINE
  8
_1-0_
  6
CONTINUOUS
 62
    7
 10
889.30340446560535
 20
630.23396451500855
 11
889.30340446560535
 21
627.58461970620169
  0
LINE
  8
_1-0_
  6
CONTINUOUS
 62
    7
 10
889.30340446560535
 20
627.58461970620169
 11
791.30341165314303
 21
627.58461970620169
  0
LINE
  8
_1-0_
  6
CONTINUOUS
 62
    7
 10
791.30341165314303
 20
627.58461970620169
 11
791.30341165314303
 21
630.23396451500855
  0
LINE
  8
_1-0_
  6
CONTINUOUS
 62
    7
 10
455.46040789040819
 20
576.83395164813771
 11
455.65646771758679
 21
576.84357528981093
  0
LINE
  8
_1-0_
  6
CONTINUOUS
 62
    7
 10
455.65646771758679
 20
576.84357528981093
 11
455.85060281643081
 21
576.87240247100476
  0
LINE
  8
_1-0_
  6
CONTINUOUS
 62
    7
 10
455.85060281643081
 20
576.87240247100476
 11
456.04097594625699
 21
576.92008324111282
  0
LINE
  8
_1-0_
  6
CONTINUOUS
 62
    7
 10
456.04097594625699
 20
576.92008324111282
 11
456.22579361020826
 21
576.98618016187743
  0
LINE
  8
_1-0_
  6
CONTINUOUS
 62
    7
 10
456.22579361020826
 20
576.98618016187743
 11
456.40321856760153
 21
577.07012456356324
  0
LINE
  8
_1-0_
  6
CONTINUOUS
 62
    7
 10
456.40321856760153
 20
577.07012456356324
 11
456.571544809231
 21
577.17099782582875
  0
LINE
  8
_1-0_
  6
CONTINUOUS
 62
    7
 10
456.571544809231
 20
577.17099782582875
 11
456.72919755736825
 21
577.28792507215815
  0
LINE
  8
_1-0_
  6
CONTINUOUS
 62
    7
 10
456.72919755736825
 20
577.28792507215815
 11
456.87464577811102
 21
577.41972521925516
  0
LINE
  8
_1-0_
  6
CONTINUOUS
 62
    7
 10
456.87464577811102
 20
577.41972521925516
 11
457.00644592520803
 21
577.56517343999792
  0
LINE
  8
_1-0_
  6
CONTINUOUS
 62
    7
 10
457.00644592520803
 20
577.56517343999792
 11
457.12337317153754
 21
577.72282618813529
  0
LINE
  8
_1-0_
  6
CONTINUOUS
 62
    7
 10
457.12337317153754
 20
577.72282618813529
 11
457.22424643380293
 21
577.89115242976482
  0
LINE
  8
_1-0_
  6
CONTINUOUS
 62
    7
 10
457.22424643380293
 20
577.89115242976482
 11
457.3081908354888
 21
578.06857738715803
  0
LINE
  8
_1-0_
  6
CONTINUOUS
 62
    7
 10
903.46039378044679
 20
438.83394837839722
 11
903.46039378044679
 21
578.83396310695809
  0
LINE
  8
_1-0_
  6
CONTINUOUS
 62
    7
 10
925.96046801239368
 20
428.83393482812119
 11
929.96040344238281
 21
424.83395565430624
  0
LINE
  8
_1-0_
  6
CONTINUOUS
 62
    7
 10
929.96040344238281
 20
424.83395565430624
 11
929.96040344238281
 21
406.83394001257454
  0
LINE
  8
_1-0_
  6
CONTINUOUS
 62
    7
 10
929.96040344238281
 20
406.83394001257454
 11
925.96046801239368
 21
402.83396083875971
  0
LINE
  8
_1-0_
  6
CONTINUOUS
 62
    7
 10
925.96046801239368
 20
402.83396083875971
 11
880.96040703615154
 21
402.83396083875971
  0
LINE
  8
_1-0_
  6
CONTINUOUS
 62
    7
 10
880.96040703615154
 20
402.83396083875971
 11
876.96038411851089
 21
406.83394001257454
  0
LINE
  8
_1-0_
  6
CONTINUOUS
 62
    7
 10
876.96038411851089
 20
406.83394001257454
 11
876.96038411851089
 21
415.8339697053533
  0
LINE
  8
_1-0_
  6
CONTINUOUS
 62
    7
 10
876.96038411851089
 20
415.8339697053533
 11
876.96038411851089
 21
424.83395565430624
  0
LINE
  8
_1-0_
  6
CONTINUOUS
 62
    7
 10
876.96038411851089
 20
424.83395565430624
 11
880.96040703615154
 21
428.83393482812119
  0
LINE
  8
_1-0_
  6
CONTINUOUS
 62
    7
 10
880.96040703615154
 20
428.83393482812119
 11
925.96046801239368
 21
428.83393482812119
  0
LINE
  8
_1-0_
  6
CONTINUOUS
 62
    7
 10
916.7103986114148
 20
406.83394001257454
 11
916.7103986114148
 21
424.83395565430624
  0
LINE
  8
_1-0_
  6
CONTINUOUS
 62
    7
 10
890.2103889494789
 20
406.83394001257454
 11
890.2103889494789
 21
424.83395565430624
  0
LINE
  8
_1-0_
  6
CONTINUOUS
 62
    7
 10
915.46046253336897
 20
428.83393482812119
 11
891.46041251517636
 21
428.83393482812119
  0
LINE
  8
_1-0_
  6
CONTINUOUS
 62
    7
 10
915.46046253336897
 20
435.76247565074311
 11
915.46046253336897
 21
436.44877253351979
  0
LINE
  8
_1-0_
  6
CONTINUOUS
 62
    7
 10
891.46041251517636
 20
435.76247565074311
 11
891.46041251517636
 21
436.44877253351979
  0
LINE
  8
_1-0_
  6
CONTINUOUS
 62
    7
 10
916.46044639086631
 20
458.83393173512337
 11
890.46042865767902
 21
458.83393173512337
  0
LINE
  8
_1-0_
  6
CONTINUOUS
 62
    7
 10
915.46046253336897
 20
448.73107645042154
 11
915.46046253336897
 21
447.21911485590988
  0
LINE
  8
_1-0_
  6
CONTINUOUS
 62
    7
 10
891.46041251517636
 20
448.83396192867326
 11
891.46041251517636
 21
447.21911485590988
  0
LINE
  8
_1-0_
  6
CONTINUOUS
 62
    7
 10
890.46042865767902
 20
458.83393173512337
 11
890.46042865767902
 21
455.83393641880576
  0
LINE
  8
_1-0_
  6
CONTINUOUS
 62
    7
 10
916.46044639086631
 20
458.83393173512337
 11
916.46044639086631
 21
455.83393641880576
  0
LINE
  8
_1-0_
  6
CONTINUOUS
 62
    7
 10
915.46046253336897
 20
458.83393173512337
 11
915.46046253336897
 21
538.83395264967987
  0
LINE
  8
_1-0_
  6
CONTINUOUS
 62
    7
 10
891.46041251517636
 20
458.83393173512337
 11
891.46041251517636
 21
538.83395264967987
  0
LINE
  8
_1-0_
  6
CONTINUOUS
 62
    7
 10
924.46040473849609
 20
402.83396083875971
 11
882.46038282239749
 21
402.83396083875971
  0
LINE
  8
_1-0_
  6
CONTINUOUS
 62
    7
 10
903.46039378044679
 20
578.83396310695809
 11
843.46039996644231
 21
518.83396929295361
  0
LINE
  8
_1-0_
  6
CONTINUOUS
 62
    7
 10
855.15268716112519
 20
496.83393073358127
 11
873.63270380322081
 21
496.83393073358127
  0
LINE
  8
_1-0_
  6
CONTINUOUS
 62
    7
 10
873.63270380322081
 20
496.83393073358127
 11
873.63270380322081
 21
495.50061892358491
  0
LINE
  8
_1-0_
  6
CONTINUOUS
 62
    7
 10
873.63270380322081
 20
495.50061892358491
 11
855.15268716112519
 21
495.50061892358491
  0
LINE
  8
_1-0_
  6
CONTINUOUS
 62
    7
 10
855.15268716112519
 20
495.50061892358491
 11
855.15268716112519
 21
496.83393073358127
  0
LINE
  8
_1-0_
  6
CONTINUOUS
 62
    7
 10
855.15268716112519
 20
496.83393073358127
 11
873.63270380322081
 21
496.83393073358127
  0
LINE
  8
_1-0_
  6
CONTINUOUS
 62
    7
 10
873.63270380322081
 20
496.83393073358127
 11
873.63270380322081
 21
495.50061892358491
  0
LINE
  8
_1-0_
  6
CONTINUOUS
 62
    7
 10
873.63270380322081
 20
495.50061892358491
 11
855.15268716112519
 21
495.50061892358491
  0
LINE
  8
_1-0_
  6
CONTINUOUS
 62
    7
 10
855.15268716112519
 20
495.50061892358491
 11
855.15268716112519
 21
496.83393073358127
  0
LINE
  8
_1-0_
  6
CONTINUOUS
 62
    7
 10
855.15268716112519
 20
494.16730711358855
 11
873.63270380322081
 21
494.16730711358855
  0
LINE
  8
_1-0_
  6
CONTINUOUS
 62
    7
 10
873.63270380322081
 20
494.16730711358855
 11
873.63270380322081
 21
492.83395155976632
  0
LINE
  8
_1-0_
  6
CONTINUOUS
 62
    7
 10
873.63270380322081
 20
492.83395155976632
 11
855.15268716112519
 21
492.83395155976632
  0
LINE
  8
_1-0_
  6
CONTINUOUS
 62
    7
 10
855.15268716112519
 20
492.83395155976632
 11
855.15268716112519
 21
494.16730711358855
  0
LINE
  8
_1-0_
  6
CONTINUOUS
 62
    7
 10
855.15268716112519
 20
494.16730711358855
 11
873.63270380322081
 21
494.16730711358855
  0
LINE
  8
_1-0_
  6
CONTINUOUS
 62
    7
 10
873.63270380322081
 20
494.16730711358855
 11
873.63270380322081
 21
492.83395155976632
  0
LINE
  8
_1-0_
  6
CONTINUOUS
 62
    7
 10
873.63270380322081
 20
492.83395155976632
 11
855.15268716112519
 21
492.83395155976632
  0
LINE
  8
_1-0_
  6
CONTINUOUS
 62
    7
 10
855.15268716112519
 20
492.83395155976632
 11
855.15268716112519
 21
494.16730711358855
  0
LINE
  8
_1-0_
  6
CONTINUOUS
 62
    7
 10
855.15268716112519
 20
491.50063974976996
 11
873.63270380322081
 21
491.50063974976996
  0
LINE
  8
_1-0_
  6
CONTINUOUS
 62
    7
 10
873.63270380322081
 20
491.50063974976996
 11
873.63270380322081
 21
490.16728419594779
  0
LINE
  8
_1-0_
  6
CONTINUOUS
 62
    7
 10
873.63270380322081
 20
490.16728419594779
 11
855.15268716112519
 21
490.16728419594779
  0
LINE
  8
_1-0_
  6
CONTINUOUS
 62
    7
 10
855.15268716112519
 20
490.16728419594779
 11
855.15268716112519
 21
491.50063974976996
  0
LINE
  8
_1-0_
  6
CONTINUOUS
 62
    7
 10
855.15268716112519
 20
491.50063974976996
 11
873.63270380322081
 21
491.50063974976996
  0
LINE
  8
_1-0_
  6
CONTINUOUS
 62
    7
 10
873.63270380322081
 20
491.50063974976996
 11
873.63270380322081
 21
490.16728419594779
  0
LINE
  8
_1-0_
  6
CONTINUOUS
 62
    7
 10
873.63270380322081
 20
490.16728419594779
 11
855.15268716112519
 21
490.16728419594779
  0
LINE
  8
_1-0_
  6
CONTINUOUS
 62
    7
 10
855.15268716112519
 20
490.16728419594779
 11
855.15268716112519
 21
491.50063974976996
  0
LINE
  8
_1-0_
  6
CONTINUOUS
 62
    7
 10
855.15268716112519
 20
488.83397238595143
 11
873.63270380322081
 21
488.83397238595143
  0
LINE
  8
_1-0_
  6
CONTINUOUS
 62
    7
 10
873.63270380322081
 20
488.83397238595143
 11
873.63270380322081
 21
487.50061683212925
  0
LINE
  8
_1-0_
  6
CONTINUOUS
 62
    7
 10
873.63270380322081
 20
487.50061683212925
 11
855.15268716112519
 21
487.50061683212925
  0
LINE
  8
_1-0_
  6
CONTINUOUS
 62
    7
 10
855.15268716112519
 20
487.50061683212925
 11
855.15268716112519
 21
488.83397238595143
  0
LINE
  8
_1-0_
  6
CONTINUOUS
 62
    7
 10
855.15268716112519
 20
488.83397238595143
 11
873.63270380322081
 21
488.83397238595143
  0
LINE
  8
_1-0_
  6
CONTINUOUS
 62
    7
 10
873.63270380322081
 20
488.83397238595143
 11
873.63270380322081
 21
487.50061683212925
  0
LINE
  8
_1-0_
  6
CONTINUOUS
 62
    7
 10
873.63270380322081
 20
487.50061683212925
 11
855.15268716112519
 21
487.50061683212925
  0
LINE
  8
_1-0_
  6
CONTINUOUS
 62
    7
 10
855.15268716112519
 20
487.50061683212925
 11
855.15268716112519
 21
488.83397238595143
  0
LINE
  8
_1-0_
  6
CONTINUOUS
 62
    7
 10
855.15268716112519
 20
486.16730502213284
 11
873.63270380322081
 21
486.16730502213284
  0
LINE
  8
_1-0_
  6
CONTINUOUS
 62
    7
 10
873.63270380322081
 20
486.16730502213284
 11
873.63270380322081
 21
484.83394946831072
  0
LINE
  8
_1-0_
  6
CONTINUOUS
 62
    7
 10
873.63270380322081
 20
484.83394946831072
 11
855.15268716112519
 21
484.83394946831072
  0
LINE
  8
_1-0_
  6
CONTINUOUS
 62
    7
 10
855.15268716112519
 20
484.83394946831072
 11
855.15268716112519
 21
486.16730502213284
  0
LINE
  8
_1-0_
  6
CONTINUOUS
 62
    7
 10
855.15268716112519
 20
486.16730502213284
 11
873.63270380322081
 21
486.16730502213284
  0
LINE
  8
_1-0_
  6
CONTINUOUS
 62
    7
 10
873.63270380322081
 20
486.16730502213284
 11
873.63270380322081
 21
484.83394946831072
  0
LINE
  8
_1-0_
  6
CONTINUOUS
 62
    7
 10
873.63270380322081
 20
484.83394946831072
 11
855.15268716112519
 21
484.83394946831072
  0
LINE
  8
_1-0_
  6
CONTINUOUS
 62
    7
 10
855.15268716112519
 20
484.83394946831072
 11
855.15268716112519
 21
486.16730502213284
  0
LINE
  8
_1-0_
  6
CONTINUOUS
 62
    7
 10
855.15268716112519
 20
483.50063765831436
 11
873.63270380322081
 21
483.50063765831436
  0
LINE
  8
_1-0_
  6
CONTINUOUS
 62
    7
 10
873.63270380322081
 20
483.50063765831436
 11
873.63270380322081
 21
482.16728210449219
  0
LINE
  8
_1-0_
  6
CONTINUOUS
 62
    7
 10
873.63270380322081
 20
482.16728210449219
 11
855.15268716112519
 21
482.16728210449219
  0
LINE
  8
_1-0_
  6
CONTINUOUS
 62
    7
 10
855.15268716112519
 20
482.16728210449219
 11
855.15268716112519
 21
483.50063765831436
  0
LINE
  8
_1-0_
  6
CONTINUOUS
 62
    7
 10
855.15268716112519
 20
483.50063765831436
 11
873.63270380322081
 21
483.50063765831436
  0
LINE
  8
_1-0_
  6
CONTINUOUS
 62
    7
 10
873.63270380322081
 20
483.50063765831436
 11
873.63270380322081
 21
482.16728210449219
  0
LINE
  8
_1-0_
  6
CONTINUOUS
 62
    7
 10
873.63270380322081
 20
482.16728210449219
 11
855.15268716112519
 21
482.16728210449219
  0
LINE
  8
_1-0_
  6
CONTINUOUS
 62
    7
 10
855.15268716112519
 20
482.16728210449219
 11
855.15268716112519
 21
483.50063765831436
  0
LINE
  8
_1-0_
  6
CONTINUOUS
 62
    7
 10
855.15268716112519
 20
480.83397029449577
 11
873.63270380322081
 21
480.83397029449577
  0
LINE
  8
_1-0_
  6
CONTINUOUS
 62
    7
 10
873.63270380322081
 20
480.83397029449577
 11
873.63270380322081
 21
479.5006147406736
  0
LINE
  8
_1-0_
  6
CONTINUOUS
 62
    7
 10
873.63270380322081
 20
479.5006147406736
 11
855.15268716112519
 21
479.5006147406736
  0
LINE
  8
_1-0_
  6
CONTINUOUS
 62
    7
 10
855.15268716112519
 20
479.5006147406736
 11
855.15268716112519
 21
480.83397029449577
  0
LINE
  8
_1-0_
  6
CONTINUOUS
 62
    7
 10
855.15268716112519
 20
480.83397029449577
 11
873.63270380322081
 21
480.83397029449577
  0
LINE
  8
_1-0_
  6
CONTINUOUS
 62
    7
 10
873.63270380322081
 20
480.83397029449577
 11
873.63270380322081
 21
479.5006147406736
  0
LINE
  8
_1-0_
  6
CONTINUOUS
 62
    7
 10
873.63270380322081
 20
479.5006147406736
 11
855.15268716112519
 21
479.5006147406736
  0
LINE
  8
_1-0_
  6
CONTINUOUS
 62
    7
 10
855.15268716112519
 20
479.5006147406736
 11
855.15268716112519
 21
480.83397029449577
  0
LINE
  8
_1-0_
  6
CONTINUOUS
 62
    7
 10
855.15268716112519
 20
478.16730293067724
 11
873.63270380322081
 21
478.16730293067724
  0
LINE
  8
_1-0_
  6
CONTINUOUS
 62
    7
 10
873.63270380322081
 20
478.16730293067724
 11
873.63270380322081
 21
476.83394737685501
  0
LINE
  8
_1-0_
  6
CONTINUOUS
 62
    7
 10
873.63270380322081
 20
476.83394737685501
 11
855.15268716112519
 21
476.83394737685501
  0
LINE
  8
_1-0_
  6
CONTINUOUS
 62
    7
 10
855.15268716112519
 20
476.83394737685501
 11
855.15268716112519
 21
478.16730293067724
  0
LINE
  8
_1-0_
  6
CONTINUOUS
 62
    7
 10
855.15268716112519
 20
478.16730293067724
 11
873.63270380322081
 21
478.16730293067724
  0
LINE
  8
_1-0_
  6
CONTINUOUS
 62
    7
 10
873.63270380322081
 20
478.16730293067724
 11
873.63270380322081
 21
476.83394737685501
  0
LINE
  8
_1-0_
  6
CONTINUOUS
 62
    7
 10
873.63270380322081
 20
476.83394737685501
 11
855.15268716112519
 21
476.83394737685501
  0
LINE
  8
_1-0_
  6
CONTINUOUS
 62
    7
 10
855.15268716112519
 20
476.83394737685501
 11
855.15268716112519
 21
478.16730293067724
  0
LINE
  8
_1-0_
  6
CONTINUOUS
 62
    7
 10
876.99266706194192
 20
496.83393073358127
 11
879.39271580758702
 21
495.50061892358491
  0
LINE
  8
_1-0_
  6
CONTINUOUS
 62
    7
 10
879.39271580758702
 20
495.50061892358491
 11
879.39271580758702
 21
478.16730293067724
  0
LINE
  8
_1-0_
  6
CONTINUOUS
 62
    7
 10
879.39271580758702
 20
478.16730293067724
 11
876.99266706194192
 21
476.83394737685501
  0
LINE
  8
_1-0_
  6
CONTINUOUS
 62
    7
 10
876.99266706194192
 20
476.83394737685501
 11
851.79263641475245
 21
476.83394737685501
  0
LINE
  8
_1-0_
  6
CONTINUOUS
 62
    7
 10
851.79263641475245
 20
476.83394737685501
 11
849.39267515675897
 21
478.16730293067724
  0
LINE
  8
_1-0_
  6
CONTINUOUS
 62
    7
 10
849.39267515675897
 20
478.16730293067724
 11
849.39267515675897
 21
495.50061892358491
  0
LINE
  8
_1-0_
  6
CONTINUOUS
 62
    7
 10
849.39267515675897
 20
495.50061892358491
 11
851.79263641475245
 21
496.83393073358127
  0
LINE
  8
_1-0_
  6
CONTINUOUS
 62
    7
 10
851.79263641475245
 20
496.83393073358127
 11
876.99266706194192
 21
496.83393073358127
  0
LINE
  8
_1-0_
  6
CONTINUOUS
 62
    7
 10
876.99266706194192
 20
496.83393073358127
 11
879.39271580758702
 21
495.50061892358491
  0
LINE
  8
_1-0_
  6
CONTINUOUS
 62
    7
 10
879.39271580758702
 20
495.50061892358491
 11
879.39271580758702
 21
478.16730293067724
  0
LINE
  8
_1-0_
  6
CONTINUOUS
 62
    7
 10
879.39271580758702
 20
478.16730293067724
 11
876.99266706194192
 21
476.83394737685501
  0
LINE
  8
_1-0_
  6
CONTINUOUS
 62
    7
 10
876.99266706194192
 20
476.83394737685501
 11
851.79263641475245
 21
476.83394737685501
  0
LINE
  8
_1-0_
  6
CONTINUOUS
 62
    7
 10
851.79263641475245
 20
476.83394737685501
 11
849.39267515675897
 21
478.16730293067724
  0
LINE
  8
_1-0_
  6
CONTINUOUS
 62
    7
 10
849.39267515675897
 20
478.16730293067724
 11
849.39267515675897
 21
495.50061892358491
  0
LINE
  8
_1-0_
  6
CONTINUOUS
 62
    7
 10
849.39267515675897
 20
495.50061892358491
 11
851.79263641475245
 21
496.83393073358127
  0
LINE
  8
_1-0_
  6
CONTINUOUS
 62
    7
 10
851.79263641475245
 20
496.83393073358127
 11
876.99266706194192
 21
496.83393073358127
  0
LINE
  8
_1-0_
  6
CONTINUOUS
 62
    7
 10
871.89266190105411
 20
495.50061892358491
 11
871.89266190105411
 21
478.16730293067724
  0
LINE
  8
_1-0_
  6
CONTINUOUS
 62
    7
 10
856.89264157564014
 20
495.50061892358491
 11
856.89264157564014
 21
478.16730293067724
  0
LINE
  8
_1-0_
  6
CONTINUOUS
 62
    7
 10
871.89266190105411
 20
495.50061892358491
 11
870.01771404015972
 21
495.79230275393451
  0
LINE
  8
_1-0_
  6
CONTINUOUS
 62
    7
 10
870.01771404015972
 20
495.79230275393451
 11
868.14267869161358
 21
496.00061085233358
  0
LINE
  8
_1-0_
  6
CONTINUOUS
 62
    7
 10
868.14267869161358
 20
496.00061085233358
 11
866.26764334306745
 21
496.12563070643364
  0
LINE
  8
_1-0_
  6
CONTINUOUS
 62
    7
 10
866.26764334306745
 20
496.12563070643364
 11
864.39269548217294
 21
496.16727482858312
  0
LINE
  8
_1-0_
  6
CONTINUOUS
 62
    7
 10
864.39269548217294
 20
496.16727482858312
 11
862.5176601336268
 21
496.12563070643364
  0
LINE
  8
_1-0_
  6
CONTINUOUS
 62
    7
 10
862.5176601336268
 20
496.12563070643364
 11
860.64271227273241
 21
496.00061085233358
  0
LINE
  8
_1-0_
  6
CONTINUOUS
 62
    7
 10
860.64271227273241
 20
496.00061085233358
 11
858.76767692418628
 21
495.79230275393451
  0
LINE
  8
_1-0_
  6
CONTINUOUS
 62
    7
 10
858.76767692418628
 20
495.79230275393451
 11
856.89264157564014
 21
495.50061892358491
  0
LINE
  8
_1-0_
  6
CONTINUOUS
 62
    7
 10
856.89264157564014
 20
495.50061892358491
 11
856.22589818299048
 21
495.66662674244759
  0
LINE
  8
_1-0_
  6
CONTINUOUS
 62
    7
 10
856.22589818299048
 20
495.66662674244759
 11
855.55128090169887
 21
495.81806786732324
  0
LINE
  8
_1-0_
  6
CONTINUOUS
 62
    7
 10
855.55128090169887
 20
495.81806786732324
 11
854.8688772194173
 21
495.95489855438586
  0
LINE
  8
_1-0_
  6
CONTINUOUS
 62
    7
 10
854.8688772194173
 20
495.95489855438586
 11
854.17859964849401
 21
496.07716254746128
  0
LINE
  8
_1-0_
  6
CONTINUOUS
 62
    7
 10
854.17859964849401
 20
496.07716254746128
 11
853.48053567658053
 21
496.18485984654961
  0
LINE
  8
_1-0_
  6
CONTINUOUS
 62
    7
 10
853.48053567658053
 20
496.18485984654961
 11
852.77459781602533
 21
496.27794670782492
  0
LINE
  8
_1-0_
  6
CONTINUOUS
 62
    7
 10
852.77459781602533
 20
496.27794670782492
 11
852.06087355448005
 21
496.35646687511314
  0
LINE
  8
_1-0_
  6
CONTINUOUS
 62
    7
 10
852.06087355448005
 20
496.35646687511314
 11
851.33927540429318
 21
496.4204203484141
  0
LINE
  8
_1-0_
  6
CONTINUOUS
 62
    7
 10
877.55005089012343
 20
496.61486165403858
 11
876.80229393211562
 21
496.53918483542657
  0
LINE
  8
_1-0_
  6
CONTINUOUS
 62
    7
 10
876.80229393211562
 20
496.53918483542657
 11
876.06617283176729
 21
496.44531058528707
  0
LINE
  8
_1-0_
  6
CONTINUOUS
 62
    7
 10
876.06617283176729
 20
496.44531058528707
 11
875.34160010142671
 21
496.33328264744586
  0
LINE
  8
_1-0_
  6
CONTINUOUS
 62
    7
 10
875.34160010142671
 20
496.33328264744586
 11
874.62866322874561
 21
496.20310102190285
  0
LINE
  8
_1-0_
  6
CONTINUOUS
 62
    7
 10
874.62866322874561
 20
496.20310102190285
 11
873.92727472607237
 21
496.05472196483242
  0
LINE
  8
_1-0_
  6
CONTINUOUS
 62
    7
 10
873.92727472607237
 20
496.05472196483242
 11
873.23743459340676
 21
495.88818922006021
  0
LINE
  8
_1-0_
  6
CONTINUOUS
 62
    7
 10
873.23743459340676
 20
495.88818922006021
 11
872.55923031840086
 21
495.70350278758633
  0
LINE
  8
_1-0_
  6
CONTINUOUS
 62
    7
 10
872.55923031840086
 20
495.70350278758633
 11
871.89266190105411
 21
495.50061892358491
  0
LINE
  8
_1-0_
  6
CONTINUOUS
 62
    7
 10
856.89264157564014
 20
478.16730293067724
 11
858.76767692418628
 21
477.87561910032764
  0
LINE
  8
_1-0_
  6
CONTINUOUS
 62
    7
 10
858.76767692418628
 20
477.87561910032764
 11
860.64271227273241
 21
477.66726725810281
  0
LINE
  8
_1-0_
  6
CONTINUOUS
 62
    7
 10
860.64271227273241
 20
477.66726725810281
 11
862.5176601336268
 21
477.54229114782851
  0
LINE
  8
_1-0_
  6
CONTINUOUS
 62
    7
 10
862.5176601336268
 20
477.54229114782851
 11
864.39269548217294
 21
477.50060328185327
  0
LINE
  8
_1-0_
  6
CONTINUOUS
 62
    7
 10
864.39269548217294
 20
477.50060328185327
 11
866.26764334306745
 21
477.54229114782851
  0
LINE
  8
_1-0_
  6
CONTINUOUS
 62
    7
 10
866.26764334306745
 20
477.54229114782851
 11
868.14267869161358
 21
477.66726725810281
  0
LINE
  8
_1-0_
  6
CONTINUOUS
 62
    7
 10
868.14267869161358
 20
477.66726725810281
 11
870.01771404015972
 21
477.87561910032764
  0
LINE
  8
_1-0_
  6
CONTINUOUS
 62
    7
 10
870.01771404015972
 20
477.87561910032764
 11
871.89266190105411
 21
478.16730293067724
  0
LINE
  8
_1-0_
  6
CONTINUOUS
 62
    7
 10
851.33927540429318
 20
477.24750150584805
 11
852.06087355448005
 21
477.311454979149
  0
LINE
  8
_1-0_
  6
CONTINUOUS
 62
    7
 10
852.06087355448005
 20
477.311454979149
 11
852.77459781602533
 21
477.38997514643722
  0
LINE
  8
_1-0_
  6
CONTINUOUS
 62
    7
 10
852.77459781602533
 20
477.38997514643722
 11
853.48053567658053
 21
477.48306200771253
  0
LINE
  8
_1-0_
  6
CONTINUOUS
 62
    7
 10
853.48053567658053
 20
477.48306200771253
 11
854.17859964849401
 21
477.59075930680081
  0
LINE
  8
_1-0_
  6
CONTINUOUS
 62
    7
 10
854.17859964849401
 20
477.59075930680081
 11
854.8688772194173
 21
477.71302329987628
  0
LINE
  8
_1-0_
  6
CONTINUOUS
 62
    7
 10
854.8688772194173
 20
477.71302329987628
 11
855.55128090169887
 21
477.84985398693891
  0
LINE
  8
_1-0_
  6
CONTINUOUS
 62
    7
 10
855.55128090169887
 20
477.84985398693891
 11
856.22589818299048
 21
478.00129511181444
  0
LINE
  8
_1-0_
  6
CONTINUOUS
 62
    7
 10
856.22589818299048
 20
478.00129511181444
 11
856.89264157564014
 21
478.16730293067724
  0
LINE
  8
_1-0_
  6
CONTINUOUS
 62
    7
 10
871.89266190105411
 20
478.16730293067724
 11
872.55923031840086
 21
477.96441906667582
  0
LINE
  8
_1-0_
  6
CONTINUOUS
 62
    7
 10
872.55923031840086
 20
477.96441906667582
 11
873.23743459340676
 21
477.77973263420193
  0
LINE
  8
_1-0_
  6
CONTINUOUS
 62
    7
 10
873.23743459340676
 20
477.77973263420193
 11
873.92727472607237
 21
477.61319988942972
  0
LINE
  8
_1-0_
  6
CONTINUOUS
 62
    7
 10
873.92727472607237
 20
477.61319988942972
 11
874.62866322874561
 21
477.46482083235924
  0
LINE
  8
_1-0_
  6
CONTINUOUS
 62
    7
 10
874.62866322874561
 20
477.46482083235924
 11
875.34160010142671
 21
477.33463920681629
  0
LINE
  8
_1-0_
  6
CONTINUOUS
 62
    7
 10
875.34160010142671
 20
477.33463920681629
 11
876.06617283176729
 21
477.22261126897507
  0
LINE
  8
_1-0_
  6
CONTINUOUS
 62
    7
 10
876.06617283176729
 20
477.22261126897507
 11
876.80229393211562
 21
477.12873701883558
  0
LINE
  8
_1-0_
  6
CONTINUOUS
 62
    7
 10
876.80229393211562
 20
477.12873701883558
 11
877.55005089012343
 21
477.05306020022357
  0
LINE
  8
_1-0_
  6
CONTINUOUS
 62
    7
 10
854.19268516039756
 20
576.83395164813771
 11
874.19271226094952
 21
576.83395164813771
  0
LINE
  8
_1-0_
  6
CONTINUOUS
 62
    7
 10
874.19271226094952
 20
576.83395164813771
 11
874.19271226094952
 21
496.83393073358127
  0
LINE
  8
_1-0_
  6
CONTINUOUS
 62
    7
 10
874.19271226094952
 20
496.83393073358127
 11
854.19268516039756
 21
496.83393073358127
  0
LINE
  8
_1-0_
  6
CONTINUOUS
 62
    7
 10
854.19268516039756
 20
496.83393073358127
 11
854.19268516039756
 21
576.83395164813771
  0
LINE
  8
_1-0_
  6
CONTINUOUS
 62
    7
 10
854.19268516039756
 20
576.83395164813771
 11
874.19271226094952
 21
576.83395164813771
  0
LINE
  8
_1-0_
  6
CONTINUOUS
 62
    7
 10
874.19271226094952
 20
576.83395164813771
 11
874.19271226094952
 21
496.83393073358127
  0
LINE
  8
_1-0_
  6
CONTINUOUS
 62
    7
 10
874.19271226094952
 20
496.83393073358127
 11
854.19268516039756
 21
496.83393073358127
  0
LINE
  8
_1-0_
  6
CONTINUOUS
 62
    7
 10
854.19268516039756
 20
496.83393073358127
 11
854.19268516039756
 21
576.83395164813771
  0
LINE
  8
_1-0_
  6
CONTINUOUS
 62
    7
 10
408.46042294299735
 20
626.83393191186622
 11
408.46042294299735
 21
613.81275103359144
  0
LINE
  8
_1-0_
  6
CONTINUOUS
 62
    7
 10
803.4604332529899
 20
898.83395927753224
 11
843.46039996644231
 21
898.83395927753224
  0
LINE
  8
_1-0_
  6
CONTINUOUS
 62
    7
 10
883.46045416754635
 20
638.83395692096246
 11
803.4604332529899
 21
638.83395692096246
  0
LINE
  8
_1-0_
  6
CONTINUOUS
 62
    7
 10
803.4604332529899
 20
638.83395692096246
 11
803.4604332529899
 21
898.83395927753224
  0
LINE
  8
_1-0_
  6
CONTINUOUS
 62
    7
 10
803.4604332529899
 20
930.83396764335475
 11
803.4604332529899
 21
942.83394890862542
  0
LINE
  8
_1-0_
  6
CONTINUOUS
 62
    7
 10
883.46045416754635
 20
898.83395927753224
 11
843.46039996644231
 21
898.83395927753224
  0
LINE
  8
_1-0_
  6
CONTINUOUS
 62
    7
 10
883.46045416754635
 20
638.83395692096246
 11
883.46045416754635
 21
898.83395927753224
  0
LINE
  8
_1-0_
  6
CONTINUOUS
 62
    7
 10
883.46045416754635
 20
906.83391762516203
 11
883.46045416754635
 21
930.83396764335475
  0
LINE
  8
_1-0_
  6
CONTINUOUS
 62
    7
 10
1039.460385591367
 20
798.83391126242373
 11
883.46045416754635
 21
798.83391126242373
  0
LINE
  8
_1-0_
  6
CONTINUOUS
 62
    7
 10
1103.460402323012
 20
828.83395191325178
 11
883.46045416754635
 21
828.83395191325178
  0
LINE
  8
_1-0_
  6
CONTINUOUS
 62
    7
 10
1103.460402323012
 20
806.83395709770525
 11
1103.460402323012
 21
828.83395191325178
  0
LINE
  8
_1-0_
  6
CONTINUOUS
 62
    7
 10
883.46045416754635
 20
930.83396764335475
 11
1017.4603907758204
 21
930.83396764335475
  0
LINE
  8
_1-0_
  6
CONTINUOUS
 62
    7
 10
883.46045416754635
 20
906.83391762516203
 11
843.46039996644231
 21
906.83391762516203
  0
LINE
  8
_1-0_
  6
CONTINUOUS
 62
    7
 10
803.4604332529899
 20
942.83394890862542
 11
843.46039996644231
 21
942.83394890862542
  0
LINE
  8
_1-0_
  6
CONTINUOUS
 62
    7
 10
843.46039996644231
 20
942.83394890862542
 11
1017.4603907758204
 21
942.83394890862542
  0
LINE
  8
_1-0_
  6
CONTINUOUS
 62
    7
 10
448.46043340027563
 20
806.83395709770525
 11
408.46042294299735
 21
806.83395709770525
  0
LINE
  8
_1-0_
  6
CONTINUOUS
 62
    7
 10
408.46042294299735
 20
806.83395709770525
 11
368.46041248571908
 21
806.83395709770525
  0
LINE
  8
_1-0_
  6
CONTINUOUS
 62
    7
 10
448.46043340027563
 20
828.83395191325178
 11
408.46042294299735
 21
828.83395191325178
  0
LINE
  8
_1-0_
  6
CONTINUOUS
 62
    7
 10
408.46042294299735
 20
828.83395191325178
 11
368.46041248571908
 21
828.83395191325178
  0
LINE
  8
_1-0_
  6
CONTINUOUS
 62
    7
 10
448.46043340027563
 20
930.83396764335475
 11
408.46042294299735
 21
930.83396764335475
  0
LINE
  8
_1-0_
  6
CONTINUOUS
 62
    7
 10
408.46042294299735
 20
930.83396764335475
 11
368.46041248571908
 21
930.83396764335475
  0
LINE
  8
_1-0_
  6
CONTINUOUS
 62
    7
 10
408.46042294299735
 20
906.83391762516203
 11
448.46043340027563
 21
906.83391762516203
  0
LINE
  8
_1-0_
  6
CONTINUOUS
 62
    7
 10
448.46043340027563
 20
906.83391762516203
 11
448.46043340027563
 21
942.83394890862542
  0
LINE
  8
_1-0_
  6
CONTINUOUS
 62
    7
 10
448.46043340027563
 20
942.83394890862542
 11
408.46042294299735
 21
942.83394890862542
  0
LINE
  8
_1-0_
  6
CONTINUOUS
 62
    7
 10
408.46042294299735
 20
942.83394890862542
 11
368.46041248571908
 21
942.83394890862542
  0
LINE
  8
_1-0_
  6
CONTINUOUS
 62
    7
 10
368.46041248571908
 20
942.83394890862542
 11
368.46041248571908
 21
906.83391762516203
  0
LINE
  8
_1-0_
  6
CONTINUOUS
 62
    7
 10
368.46041248571908
 20
906.83391762516203
 11
408.46042294299735
 21
906.83391762516203
  0
LINE
  8
_1-0_
  6
CONTINUOUS
 62
    7
 10
408.46042294299735
 20
898.83395927753224
 11
368.46041248571908
 21
898.83395927753224
  0
LINE
  8
_1-0_
  6
CONTINUOUS
 62
    7
 10
368.46041248571908
 20
898.83395927753224
 11
368.46041248571908
 21
638.83395692096246
  0
LINE
  8
_1-0_
  6
CONTINUOUS
 62
    7
 10
803.4604332529899
 20
930.83396764335475
 11
843.46039996644231
 21
906.83391762516203
  0
LINE
  8
_1-0_
  6
CONTINUOUS
 62
    7
 10
817.87839823247839
 20
914.75513708637482
 11
830.25851334384038
 21
914.75513708637482
  0
LINE
  8
_1-0_
  6
CONTINUOUS
 62
    7
 10
1017.4603907758204
 20
942.83394890862542
 11
1017.4603907758204
 21
930.83396764335475
  0
LINE
  8
_1-0_
  6
CONTINUOUS
 62
    7
 10
1039.460385591367
 20
798.83391126242373
 11
1103.460402323012
 21
806.83395709770525
  0
LINE
  8
_1-0_
  6
CONTINUOUS
 62
    7
 10
448.46043340027563
 20
638.83395692096246
 11
448.46043340027563
 21
898.83395927753224
  0
LINE
  8
_1-0_
  6
CONTINUOUS
 62
    7
 10
448.46043340027563
 20
898.83395927753224
 11
408.46042294299735
 21
898.83395927753224
  0
LINE
  8
_1-0_
  6
CONTINUOUS
 62
    7
 10
1093.5376403690766
 20
805.59364466133263
 11
1095.5222102573939
 21
789.71717304244464
  0
LINE
  8
_1-0_
  6
CONTINUOUS
 62
    7
 10
1045.908313000064
 20
799.63993499638025
 11
1047.8928828883816
 21
783.76346337749226
  0
LINE
  8
_1-0_
  6
CONTINUOUS
 62
    7
 10
1047.8928828883816
 20
783.76346337749226
 11
1095.5222102573939
 21
789.71717304244464
  0
LINE
  8
_1-0_
  6
CONTINUOUS
 62
    7
 10
384.46041666863039
 20
806.83395709770525
 11
384.46041666863039
 21
786.74031820996845
  0
LINE
  8
_1-0_
  6
CONTINUOUS
 62
    7
 10
432.46042921736432
 20
806.83395709770525
 11
432.46042921736432
 21
786.74031820996845
  0
LINE
  8
_1-0_
  6
CONTINUOUS
 62
    7
 10
384.46041666863039
 20
786.74031820996845
 11
384.53211279909578
 21
786.60182525752589
  0
LINE
  8
_1-0_
  6
CONTINUOUS
 62
    7
 10
384.53211279909578
 20
786.60182525752589
 11
384.63228616014874
 21
786.46761920001052
  0
LINE
  8
_1-0_
  6
CONTINUOUS
 62
    7
 10
384.63228616014874
 20
786.46761920001052
 11
384.7610242394407
 21
786.33770003742234
  0
LINE
  8
_1-0_
  6
CONTINUOUS
 62
    7
 10
384.7610242394407
 20
786.33770003742234
 11
384.91828329314586
 21
786.21215525741275
  0
LINE
  8
_1-0_
  6
CONTINUOUS
 62
    7
 10
384.91828329314586
 20
786.21215525741275
 11
385.10401957743881
 21
786.09098485998197
  0
LINE
  8
_1-0_
  6
CONTINUOUS
 62
    7
 10
385.10401957743881
 20
786.09098485998197
 11
385.31832057997065
 21
785.97401386982688
  0
LINE
  8
_1-0_
  6
CONTINUOUS
 62
    7
 10
385.31832057997065
 20
785.97401386982688
 11
385.56109881308998
 21
785.86141726225037
  0
LINE
  8
_1-0_
  6
CONTINUOUS
 62
    7
 10
385.56109881308998
 20
785.86141726225037
 11
385.8324417644485
 21
785.75319503725257
  0
LINE
  8
_1-0_
  6
CONTINUOUS
 62
    7
 10
385.8324417644485
 20
785.75319503725257
 11
386.12500047131391
 21
785.64952217013672
  0
LINE
  8
_1-0_
  6
CONTINUOUS
 62
    7
 10
386.12500047131391
 20
785.64952217013672
 11
386.43160094625699
 21
785.55083609916073
  0
LINE
  8
_1-0_
  6
CONTINUOUS
 62
    7
 10
386.43160094625699
 20
785.55083609916073
 11
386.75219944545205
 21
785.45713682432415
  0
LINE
  8
_1-0_
  6
CONTINUOUS
 62
    7
 10
386.75219944545205
 20
785.45713682432415
 11
387.08679596889897
 21
785.36833685797603
  0
LINE
  8
_1-0_
  6
CONTINUOUS
 62
    7
 10
387.08679596889897
 20
785.36833685797603
 11
387.43539051659781
 21
785.28452368776766
  0
LINE
  8
_1-0_
  6
CONTINUOUS
 62
    7
 10
387.43539051659781
 20
785.28452368776766
 11
387.79798308854851
 21
785.20569731369903
  0
LINE
  8
_1-0_
  6
CONTINUOUS
 62
    7
 10
387.79798308854851
 20
785.20569731369903
 11
388.17461742857716
 21
785.13177024811853
  0
LINE
  8
_1-0_
  6
CONTINUOUS
 62
    7
 10
388.17461742857716
 20
785.13177024811853
 11
388.56520604903181
 21
785.06282997867766
  0
LINE
  8
_1-0_
  6
CONTINUOUS
 62
    7
 10
388.56520604903181
 20
785.06282997867766
 11
388.9766604743869
 21
784.99598941287468
  0
LINE
  8
_1-0_
  6
CONTINUOUS
 62
    7
 10
388.9766604743869
 20
784.99598941287468
 11
389.4156735099881
 21
784.92818648290449
  0
LINE
  8
_1-0_
  6
CONTINUOUS
 62
    7
 10
389.4156735099881
 20
784.92818648290449
 11
389.88237638731249
 21
784.85968365172153
  0
LINE
  8
_1-0_
  6
CONTINUOUS
 62
    7
 10
389.88237638731249
 20
784.85968365172153
 11
390.37663787488299
 21
784.79030594402286
  0
LINE
  8
_1-0_
  6
CONTINUOUS
 62
    7
 10
390.37663787488299
 20
784.79030594402286
 11
390.8985454603511
 21
784.7200533598085
  0
LINE
  8
_1-0_
  6
CONTINUOUS
 62
    7
 10
390.8985454603511
 20
784.7200533598085
 11
391.44809914371677
 21
784.64901338673008
  0
LINE
  8
_1-0_
  6
CONTINUOUS
 62
    7
 10
391.44809914371677
 20
784.64901338673008
 11
392.02525518115419
 21
784.57718602478735
  0
LINE
  8
_1-0_
  6
CONTINUOUS
 62
    7
 10
392.02525518115419
 20
784.57718602478735
 11
392.63001357266347
 21
784.50448378632882
  0
LINE
  8
_1-0_
  6
CONTINUOUS
 62
    7
 10
392.63001357266347
 20
784.50448378632882
 11
393.27597864806421
 21
784.43239396143144
  0
LINE
  8
_1-0_
  6
CONTINUOUS
 62
    7
 10
393.27597864806421
 20
784.43239396143144
 11
393.97679848100222
 21
784.36240384017174
  0
LINE
  8
_1-0_
  6
CONTINUOUS
 62
    7
 10
393.97679848100222
 20
784.36240384017174
 11
394.73238558382604
 21
784.2944259348983
  0
LINE
  8
_1-0_
  6
CONTINUOUS
 62
    7
 10
394.73238558382604
 20
784.2944259348983
 11
395.54278370036116
 21
784.22846024561113
  0
LINE
  8
_1-0_
  6
CONTINUOUS
 62
    7
 10
395.54278370036116
 20
784.22846024561113
 11
396.40803657443371
 21
784.16459425996163
  0
LINE
  8
_1-0_
  6
CONTINUOUS
 62
    7
 10
396.40803657443371
 20
784.16459425996163
 11
397.32805671839174
 21
784.10282797795003
  0
LINE
  8
_1-0_
  6
CONTINUOUS
 62
    7
 10
397.32805671839174
 20
784.10282797795003
 11
398.30288787606139
 21
784.04307391192458
  0
LINE
  8
_1-0_
  6
CONTINUOUS
 62
    7
 10
398.30288787606139
 20
784.04307391192458
 11
399.33253004744245
 21
783.98541954953703
  0
LINE
  8
_1-0_
  6
CONTINUOUS
 62
    7
 10
399.33253004744245
 20
783.98541954953703
 11
400.40005437195532
 21
783.9323145450312
  0
LINE
  8
_1-0_
  6
CONTINUOUS
 62
    7
 10
400.40005437195532
 20
783.9323145450312
 11
401.48857573284602
 21
783.88655850325767
  0
LINE
  8
_1-0_
  6
CONTINUOUS
 62
    7
 10
401.48857573284602
 20
783.88655850325767
 11
402.59809413011465
 21
783.84797644891341
  0
LINE
  8
_1-0_
  6
CONTINUOUS
 62
    7
 10
402.59809413011465
 20
783.84797644891341
 11
403.72856581993545
 21
783.81656838199797
  0
LINE
  8
_1-0_
  6
CONTINUOUS
 62
    7
 10
403.72856581993545
 20
783.81656838199797
 11
404.8800782899599
 21
783.79250927781504
  0
LINE
  8
_1-0_
  6
CONTINUOUS
 62
    7
 10
404.8800782899599
 20
783.79250927781504
 11
406.05254405253646
 21
783.77562416106116
  0
LINE
  8
_1-0_
  6
CONTINUOUS
 62
    7
 10
406.05254405253646
 20
783.77562416106116
 11
407.24596310766515
 21
783.76591303173643
  0
LINE
  8
_1-0_
  6
CONTINUOUS
 62
    7
 10
407.24596310766515
 20
783.76591303173643
 11
408.46042294299735
 21
783.76346337749226
  0
LINE
  8
_1-0_
  6
CONTINUOUS
 62
    7
 10
408.46042294299735
 20
783.76346337749226
 11
409.67497026598124
 21
783.76556308113004
  0
LINE
  8
_1-0_
  6
CONTINUOUS
 62
    7
 10
409.67497026598124
 20
783.76556308113004
 11
410.86852055258731
 21
783.77474928454535
  0
LINE
  8
_1-0_
  6
CONTINUOUS
 62
    7
 10
410.86852055258731
 20
783.77474928454535
 11
412.04111754664126
 21
783.7911094753897
  0
LINE
  8
_1-0_
  6
CONTINUOUS
 62
    7
 10
412.04111754664126
 20
783.7911094753897
 11
413.19271750431722
 21
783.81464365366344
  0
LINE
  8
_1-0_
  6
CONTINUOUS
 62
    7
 10
413.19271750431722
 20
783.81464365366344
 11
414.32336416944111
 21
783.84535181936599
  0
LINE
  8
_1-0_
  6
CONTINUOUS
 62
    7
 10
414.32336416944111
 20
783.84535181936599
 11
415.43301379818718
 21
783.88323397249781
  0
LINE
  8
_1-0_
  6
CONTINUOUS
 62
    7
 10
415.43301379818718
 20
783.88323397249781
 11
416.52171013438107
 21
783.92820262540704
  0
LINE
  8
_1-0_
  6
CONTINUOUS
 62
    7
 10
416.52171013438107
 20
783.92820262540704
 11
417.58940943419702
 21
783.98043275339717
  0
LINE
  8
_1-0_
  6
CONTINUOUS
 62
    7
 10
417.58940943419702
 20
783.98043275339717
 11
418.61922658088122
 21
784.03729972692065
  0
LINE
  8
_1-0_
  6
CONTINUOUS
 62
    7
 10
418.61922658088122
 20
784.03729972692065
 11
419.59414522620239
 21
784.09652886703668
  0
LINE
  8
_1-0_
  6
CONTINUOUS
 62
    7
 10
419.59414522620239
 20
784.09652886703668
 11
420.51425285781204
 21
784.15803268609352
  0
LINE
  8
_1-0_
  6
CONTINUOUS
 62
    7
 10
420.51425285781204
 20
784.15803268609352
 11
421.37946198805878
 21
784.22189867174302
  0
LINE
  8
_1-0_
  6
CONTINUOUS
 62
    7
 10
421.37946198805878
 20
784.22189867174302
 11
422.18981636076819
 21
784.28795184868181
  0
LINE
  8
_1-0_
  6
CONTINUOUS
 62
    7
 10
422.18981636076819
 20
784.28795184868181
 11
422.94531597594045
 21
784.35645467986456
  0
LINE
  8
_1-0_
  6
CONTINUOUS
 62
    7
 10
422.94531597594045
 20
784.35645467986456
 11
423.64596083357526
 21
784.42714470233693
  0
LINE
  8
_1-0_
  6
CONTINUOUS
 62
    7
 10
423.64596083357526
 20
784.42714470233693
 11
424.29175093367292
 21
784.50019689140163
  0
LINE
  8
_1-0_
  6
CONTINUOUS
 62
    7
 10
424.29175093367292
 20
784.50019689140163
 11
424.89073514017821
 21
784.57307410516341
  0
LINE
  8
_1-0_
  6
CONTINUOUS
 62
    7
 10
424.89073514017821
 20
784.57307410516341
 11
425.45091857321012
 21
784.64332668937777
  0
LINE
  8
_1-0_
  6
CONTINUOUS
 62
    7
 10
425.45091857321012
 20
784.64332668937777
 11
425.97238872042027
 21
784.71095464404482
  0
LINE
  8
_1-0_
  6
CONTINUOUS
 62
    7
 10
425.97238872042027
 20
784.71095464404482
 11
426.4550580941571
 21
784.77595796916478
  0
LINE
  8
_1-0_
  6
CONTINUOUS
 62
    7
 10
426.4550580941571
 20
784.77595796916478
 11
426.89897043824658
 21
784.83842415238894
  0
LINE
  8
_1-0_
  6
CONTINUOUS
 62
    7
 10
426.89897043824658
 20
784.83842415238894
 11
427.30408200886257
 21
784.89817821841439
  0
LINE
  8
_1-0_
  6
CONTINUOUS
 62
    7
 10
427.30408200886257
 20
784.89817821841439
 11
427.67048029365685
 21
784.95539514254415
  0
LINE
  8
_1-0_
  6
CONTINUOUS
 62
    7
 10
427.67048029365685
 20
784.95539514254415
 11
427.99807780497787
 21
785.00989994947508
  0
LINE
  8
_1-0_
  6
CONTINUOUS
 62
    7
 10
427.99807780497787
 20
785.00989994947508
 11
428.30065384794835
 21
785.06352987989032
  0
LINE
  8
_1-0_
  6
CONTINUOUS
 62
    7
 10
428.30065384794835
 20
785.06352987989032
 11
428.59194398386592
 21
785.11768473621498
  0
LINE
  8
_1-0_
  6
CONTINUOUS
 62
    7
 10
428.59194398386592
 20
785.11768473621498
 11
428.87190446890457
 21
785.1725394937522
  0
LINE
  8
_1-0_
  6
CONTINUOUS
 62
    7
 10
428.87190446890457
 20
785.1725394937522
 11
429.14053530306433
 21
785.22800666485057
  0
LINE
  8
_1-0_
  6
CONTINUOUS
 62
    7
 10
429.14053530306433
 20
785.22800666485057
 11
429.39788023017087
 21
785.28408624950987
  0
LINE
  8
_1-0_
  6
CONTINUOUS
 62
    7
 10
429.39788023017087
 20
785.28408624950987
 11
429.64389550639851
 21
785.3407782477301
  0
LINE
  8
_1-0_
  6
CONTINUOUS
 62
    7
 10
429.64389550639851
 20
785.3407782477301
 11
429.87858113174724
 21
785.39808265951137
  0
LINE
  8
_1-0_
  6
CONTINUOUS
 62
    7
 10
429.87858113174724
 20
785.39808265951137
 11
430.10198085004305
 21
785.45608697250543
  0
LINE
  8
_1-0_
  6
CONTINUOUS
 62
    7
 10
430.10198085004305
 20
785.45608697250543
 11
430.31593190196861
 21
785.51461621140879
  0
LINE
  8
_1-0_
  6
CONTINUOUS
 62
    7
 10
430.31593190196861
 20
785.51461621140879
 11
430.52235901585874
 21
785.57340791326681
  0
LINE
  8
_1-0_
  6
CONTINUOUS
 62
    7
 10
430.52235901585874
 20
785.57340791326681
 11
430.72117470406198
 21
785.63254956573132
  0
LINE
  8
_1-0_
  6
CONTINUOUS
 62
    7
 10
430.72117470406198
 20
785.63254956573132
 11
430.91242271040386
 21
785.69204116880201
  0
LINE
  8
_1-0_
  6
CONTINUOUS
 62
    7
 10
430.91242271040386
 20
785.69204116880201
 11
431.09614677871048
 21
785.75188272247897
  0
LINE
  8
_1-0_
  6
CONTINUOUS
 62
    7
 10
431.09614677871048
 20
785.75188272247897
 11
431.27225942133009
 21
785.81207422676232
  0
LINE
  8
_1-0_
  6
CONTINUOUS
 62
    7
 10
431.27225942133009
 20
785.81207422676232
 11
431.44084812591427
 21
785.87261568165195
  0
LINE
  8
_1-0_
  6
CONTINUOUS
 62
    7
 10
431.44084812591427
 20
785.87261568165195
 11
431.60186914863732
 21
785.93341959949623
  0
LINE
  8
_1-0_
  6
CONTINUOUS
 62
    7
 10
431.60186914863732
 20
785.93341959949623
 11
431.75282909142925
 21
785.99947277643491
  0
LINE
  8
_1-0_
  6
CONTINUOUS
 62
    7
 10
431.75282909142925
 20
785.99947277643491
 11
431.89136578769762
 21
786.0754120580018
  0
LINE
  8
_1-0_
  6
CONTINUOUS
 62
    7
 10
431.89136578769762
 20
786.0754120580018
 11
432.0173917497907
 21
786.16132493184796
  0
LINE
  8
_1-0_
  6
CONTINUOUS
 62
    7
 10
432.0173917497907
 20
786.16132493184796
 11
432.13095072153453
 21
786.25721139797361
  0
LINE
  8
_1-0_
  6
CONTINUOUS
 62
    7
 10
432.13095072153453
 20
786.25721139797361
 11
432.23204270292882
 21
786.36307145637886
  0
LINE
  8
_1-0_
  6
CONTINUOUS
 62
    7
 10
432.23204270292882
 20
786.36307145637886
 11
432.32062395014822
 21
786.47890510706361
  0
LINE
  8
_1-0_
  6
CONTINUOUS
 62
    7
 10
432.32062395014822
 20
786.47890510706361
 11
432.39678195084377
 21
786.60462486237634
  0
LINE
  8
_1-0_
  6
CONTINUOUS
 62
    7
 10
432.39678195084377
 20
786.60462486237634
 11
432.46042921736432
 21
786.74031820996845
  0
LINE
  8
_1-0_
  6
CONTINUOUS
 62
    7
 10
432.46042921736432
 20
786.74031820996845
 11
432.38873308689904
 21
786.87881116241101
  0
LINE
  8
_1-0_
  6
CONTINUOUS
 62
    7
 10
432.38873308689904
 20
786.87881116241101
 11
432.28855972584597
 21
787.01301721992638
  0
LINE
  8
_1-0_
  6
CONTINUOUS
 62
    7
 10
432.28855972584597
 20
787.01301721992638
 11
432.15982164655401
 21
787.14293638251456
  0
LINE
  8
_1-0_
  6
CONTINUOUS
 62
    7
 10
432.15982164655401
 20
787.14293638251456
 11
432.00260633667455
 21
787.26848116252415
  0
LINE
  8
_1-0_
  6
CONTINUOUS
 62
    7
 10
432.00260633667455
 20
787.26848116252415
 11
431.81682630855607
 21
787.38973904760644
  0
LINE
  8
_1-0_
  6
CONTINUOUS
 62
    7
 10
431.81682630855607
 20
787.38973904760644
 11
431.60256904984988
 21
787.50662255011002
  0
LINE
  8
_1-0_
  6
CONTINUOUS
 62
    7
 10
431.60256904984988
 20
787.50662255011002
 11
431.35974707290472
 21
787.61921915768653
  0
LINE
  8
_1-0_
  6
CONTINUOUS
 62
    7
 10
431.35974707290472
 20
787.61921915768653
 11
431.0884478653719
 21
787.72744138268422
  0
LINE
  8
_1-0_
  6
CONTINUOUS
 62
    7
 10
431.0884478653719
 20
787.72744138268422
 11
430.7958454146808
 21
787.83111424980007
  0
LINE
  8
_1-0_
  6
CONTINUOUS
 62
    7
 10
430.7958454146808
 20
787.83111424980007
 11
430.48924493973772
 21
787.92980032077617
  0
LINE
  8
_1-0_
  6
CONTINUOUS
 62
    7
 10
430.48924493973772
 20
787.92980032077617
 11
430.16864644054283
 21
788.02349959561252
  0
LINE
  8
_1-0_
  6
CONTINUOUS
 62
    7
 10
430.16864644054283
 20
788.02349959561252
 11
429.83404991709591
 21
788.11229956196075
  0
LINE
  8
_1-0_
  6
CONTINUOUS
 62
    7
 10
429.83404991709591
 20
788.11229956196075
 11
429.4854553693969
 21
788.19611273216924
  0
LINE
  8
_1-0_
  6
CONTINUOUS
 62
    7
 10
429.4854553693969
 20
788.19611273216924
 11
429.1228627974462
 21
788.27493910623787
  0
LINE
  8
_1-0_
  6
CONTINUOUS
 62
    7
 10
429.1228627974462
 20
788.27493910623787
 11
428.74627220124353
 21
788.34886617181837
  0
LINE
  8
_1-0_
  6
CONTINUOUS
 62
    7
 10
428.74627220124353
 20
788.34886617181837
 11
428.35563983696306
 21
788.41780644125924
  0
LINE
  8
_1-0_
  6
CONTINUOUS
 62
    7
 10
428.35563983696306
 20
788.41780644125924
 11
427.94422915543362
 21
788.48473449471373
  0
LINE
  8
_1-0_
  6
CONTINUOUS
 62
    7
 10
427.94422915543362
 20
788.48473449471373
 11
427.50517237600661
 21
788.55244993703241
  0
LINE
  8
_1-0_
  6
CONTINUOUS
 62
    7
 10
427.50517237600661
 20
788.55244993703241
 11
427.03851324250792
 21
788.62095276821537
  0
LINE
  8
_1-0_
  6
CONTINUOUS
 62
    7
 10
427.03851324250792
 20
788.62095276821537
 11
426.54420801111172
 21
788.69033047591392
  0
LINE
  8
_1-0_
  6
CONTINUOUS
 62
    7
 10
426.54420801111172
 20
788.69033047591392
 11
426.02230042564361
 21
788.7605830601284
  0
LINE
  8
_1-0_
  6
CONTINUOUS
 62
    7
 10
426.02230042564361
 20
788.7605830601284
 11
425.47274674227793
 21
788.83162303320682
  0
LINE
  8
_1-0_
  6
CONTINUOUS
 62
    7
 10
425.47274674227793
 20
788.83162303320682
 11
424.89559070484063
 21
788.90345039514955
  0
LINE
  8
_1-0_
  6
CONTINUOUS
 62
    7
 10
424.89559070484063
 20
788.90345039514955
 11
424.29083231333141
 21
788.97615263360808
  0
LINE
  8
_1-0_
  6
CONTINUOUS
 62
    7
 10
424.29083231333141
 20
788.97615263360808
 11
423.6448672379305
 21
789.04824245850546
  0
LINE
  8
_1-0_
  6
CONTINUOUS
 62
    7
 10
423.6448672379305
 20
789.04824245850546
 11
422.9440474049926
 21
789.11832006741679
  0
LINE
  8
_1-0_
  6
CONTINUOUS
 62
    7
 10
422.9440474049926
 20
789.11832006741679
 11
422.18846030216878
 21
789.18621048503849
  0
LINE
  8
_1-0_
  6
CONTINUOUS
 62
    7
 10
422.18846030216878
 20
789.18621048503849
 11
421.37806218563355
 21
789.25217617432577
  0
LINE
  8
_1-0_
  6
CONTINUOUS
 62
    7
 10
421.37806218563355
 20
789.25217617432577
 11
420.51285305538698
 21
789.31604215997527
  0
LINE
  8
_1-0_
  6
CONTINUOUS
 62
    7
 10
420.51285305538698
 20
789.31604215997527
 11
419.59278916760297
 21
789.37780844198687
  0
LINE
  8
_1-0_
  6
CONTINUOUS
 62
    7
 10
419.59278916760297
 20
789.37780844198687
 11
418.61795800993349
 21
789.43756250801232
  0
LINE
  8
_1-0_
  6
CONTINUOUS
 62
    7
 10
418.61795800993349
 20
789.43756250801232
 11
417.58831583855226
 21
789.49521687039987
  0
LINE
  8
_1-0_
  6
CONTINUOUS
 62
    7
 10
417.58831583855226
 20
789.49521687039987
 11
416.52079151403939
 21
789.5483218749057
  0
LINE
  8
_1-0_
  6
CONTINUOUS
 62
    7
 10
416.52079151403939
 20
789.5483218749057
 11
415.43227015314869
 21
789.59407791667911
  0
LINE
  8
_1-0_
  6
CONTINUOUS
 62
    7
 10
415.43227015314869
 20
789.59407791667911
 11
414.32275175588018
 21
789.63265997102349
  0
LINE
  8
_1-0_
  6
CONTINUOUS
 62
    7
 10
414.32275175588018
 20
789.63265997102349
 11
413.19228006605925
 21
789.66406803793893
  0
LINE
  8
_1-0_
  6
CONTINUOUS
 62
    7
 10
413.19228006605925
 20
789.66406803793893
 11
412.0408113398608
 21
789.68812714212186
  0
LINE
  8
_1-0_
  6
CONTINUOUS
 62
    7
 10
412.0408113398608
 20
789.68812714212186
 11
410.86830183345842
 21
789.70509974652725
  0
LINE
  8
_1-0_
  6
CONTINUOUS
 62
    7
 10
410.86830183345842
 20
789.70509974652725
 11
409.67488277832967
 21
789.71472338820047
  0
LINE
  8
_1-0_
  6
CONTINUOUS
 62
    7
 10
409.67488277832967
 20
789.71472338820047
 11
408.46042294299735
 21
789.71717304244464
  0
LINE
  8
_1-0_
  6
CONTINUOUS
 62
    7
 10
408.46042294299735
 20
789.71717304244464
 11
407.24587562001346
 21
789.71507333880686
  0
LINE
  8
_1-0_
  6
CONTINUOUS
 62
    7
 10
407.24587562001346
 20
789.71507333880686
 11
406.0523253334074
 21
789.70588713539144
  0
LINE
  8
_1-0_
  6
CONTINUOUS
 62
    7
 10
406.0523253334074
 20
789.70588713539144
 11
404.87977208317943
 21
789.68952694454697
  0
LINE
  8
_1-0_
  6
CONTINUOUS
 62
    7
 10
404.87977208317943
 20
789.68952694454697
 11
403.72812838167761
 21
789.66599276627346
  0
LINE
  8
_1-0_
  6
CONTINUOUS
 62
    7
 10
403.72812838167761
 20
789.66599276627346
 11
402.59752546037942
 21
789.6352846005708
  0
LINE
  8
_1-0_
  6
CONTINUOUS
 62
    7
 10
402.59752546037942
 20
789.6352846005708
 11
401.4878320878077
 21
789.59748993509061
  0
LINE
  8
_1-0_
  6
CONTINUOUS
 62
    7
 10
401.4878320878077
 20
789.59748993509061
 11
400.39913575161381
 21
789.55243379452963
  0
LINE
  8
_1-0_
  6
CONTINUOUS
 62
    7
 10
400.39913575161381
 20
789.55243379452963
 11
399.33143645179769
 21
789.50029115419125
  0
LINE
  8
_1-0_
  6
CONTINUOUS
 62
    7
 10
399.33143645179769
 20
789.50029115419125
 11
398.30161930511349
 21
789.44333669301625
  0
LINE
  8
_1-0_
  6
CONTINUOUS
 62
    7
 10
398.30161930511349
 20
789.44333669301625
 11
397.32670065979232
 21
789.38410755290022
  0
LINE
  8
_1-0_
  6
CONTINUOUS
 62
    7
 10
397.32670065979232
 20
789.38410755290022
 11
396.40659302818267
 21
789.32260373384338
  0
LINE
  8
_1-0_
  6
CONTINUOUS
 62
    7
 10
396.40659302818267
 20
789.32260373384338
 11
395.54138389793593
 21
789.25873774819388
  0
LINE
  8
_1-0_
  6
CONTINUOUS
 62
    7
 10
395.54138389793593
 20
789.25873774819388
 11
394.73102952522652
 21
789.19268457125509
  0
LINE
  8
_1-0_
  6
CONTINUOUS
 62
    7
 10
394.73102952522652
 20
789.19268457125509
 11
393.97552991005443
 21
789.12426922772386
  0
LINE
  8
_1-0_
  6
CONTINUOUS
 62
    7
 10
393.97552991005443
 20
789.12426922772386
 11
393.27488505241945
 21
789.05349171759997
  0
LINE
  8
_1-0_
  6
CONTINUOUS
 62
    7
 10
393.27488505241945
 20
789.05349171759997
 11
392.62909495232179
 21
788.98043952853516
  0
LINE
  8
_1-0_
  6
CONTINUOUS
 62
    7
 10
392.62909495232179
 20
788.98043952853516
 11
392.03011074581667
 21
788.90756231477349
  0
LINE
  8
_1-0_
  6
CONTINUOUS
 62
    7
 10
392.03011074581667
 20
788.90756231477349
 11
391.46992731278459
 21
788.83730973055913
  0
LINE
  8
_1-0_
  6
CONTINUOUS
 62
    7
 10
391.46992731278459
 20
788.83730973055913
 11
390.94845716557444
 21
788.76968177589208
  0
LINE
  8
_1-0_
  6
CONTINUOUS
 62
    7
 10
390.94845716557444
 20
788.76968177589208
 11
390.46578779183761
 21
788.70467845077212
  0
LINE
  8
_1-0_
  6
CONTINUOUS
 62
    7
 10
390.46578779183761
 20
788.70467845077212
 11
390.02187544774813
 21
788.64221226754796
  0
LINE
  8
_1-0_
  6
CONTINUOUS
 62
    7
 10
390.02187544774813
 20
788.64221226754796
 11
389.61676387713226
 21
788.58245820152251
  0
LINE
  8
_1-0_
  6
CONTINUOUS
 62
    7
 10
389.61676387713226
 20
788.58245820152251
 11
389.25036559233786
 21
788.52524127739275
  0
LINE
  8
_1-0_
  6
CONTINUOUS
 62
    7
 10
389.25036559233786
 20
788.52524127739275
 11
388.92276808101701
 21
788.4707364704617
  0
LINE
  8
_1-0_
  6
CONTINUOUS
 62
    7
 10
388.92276808101701
 20
788.4707364704617
 11
388.62019203804635
 21
788.41719402769809
  0
LINE
  8
_1-0_
  6
CONTINUOUS
 62
    7
 10
388.62019203804635
 20
788.41719402769809
 11
388.32890190212879
 21
788.36295168372192
  0
LINE
  8
_1-0_
  6
CONTINUOUS
 62
    7
 10
388.32890190212879
 20
788.36295168372192
 11
388.04894141709013
 21
788.30809692618459
  0
LINE
  8
_1-0_
  6
CONTINUOUS
 62
    7
 10
388.04894141709013
 20
788.30809692618459
 11
387.7803105829305
 21
788.25271724273784
  0
LINE
  8
_1-0_
  6
CONTINUOUS
 62
    7
 10
387.7803105829305
 20
788.25271724273784
 11
387.52296565582384
 21
788.19663765807854
  0
LINE
  8
_1-0_
  6
CONTINUOUS
 62
    7
 10
387.52296565582384
 20
788.19663765807854
 11
387.2769503795962
 21
788.13985817220669
  0
LINE
  8
_1-0_
  6
CONTINUOUS
 62
    7
 10
387.2769503795962
 20
788.13985817220669
 11
387.04226475424747
 21
788.08255376042541
  0
LINE
  8
_1-0_
  6
CONTINUOUS
 62
    7
 10
387.04226475424747
 20
788.08255376042541
 11
386.81886503595183
 21
788.02454944743147
  0
LINE
  8
_1-0_
  6
CONTINUOUS
 62
    7
 10
386.81886503595183
 20
788.02454944743147
 11
386.60491398402627
 21
787.96610769617973
  0
LINE
  8
_1-0_
  6
CONTINUOUS
 62
    7
 10
386.60491398402627
 20
787.96610769617973
 11
386.39853061396184
 21
787.90722850666998
  0
LINE
  8
_1-0_
  6
CONTINUOUS
 62
    7
 10
386.39853061396184
 20
787.90722850666998
 11
386.19967118193273
 21
787.84808685420558
  0
LINE
  8
_1-0_
  6
CONTINUOUS
 62
    7
 10
386.19967118193273
 20
787.84808685420558
 11
386.00842317559085
 21
787.78859525113489
  0
LINE
  8
_1-0_
  6
CONTINUOUS
 62
    7
 10
386.00842317559085
 20
787.78859525113489
 11
385.82469910728423
 21
787.72875369745793
  0
LINE
  8
_1-0_
  6
CONTINUOUS
 62
    7
 10
385.82469910728423
 20
787.72875369745793
 11
385.64858646466462
 21
787.66856219317458
  0
LINE
  8
_1-0_
  6
CONTINUOUS
 62
    7
 10
385.64858646466462
 20
787.66856219317458
 11
385.47999776008044
 21
787.60810822593658
  0
LINE
  8
_1-0_
  6
CONTINUOUS
 62
    7
 10
385.47999776008044
 20
787.60810822593658
 11
385.31902048118326
 21
787.54721682044067
  0
LINE
  8
_1-0_
  6
CONTINUOUS
 62
    7
 10
385.31902048118326
 20
787.54721682044067
 11
385.16801679456563
 21
787.48116364350176
  0
LINE
  8
_1-0_
  6
CONTINUOUS
 62
    7
 10
385.16801679456563
 20
787.48116364350176
 11
385.02952384212307
 21
787.4052243619351
  0
LINE
  8
_1-0_
  6
CONTINUOUS
 62
    7
 10
385.02952384212307
 20
787.4052243619351
 11
384.903454136204
 21
787.31931148808894
  0
LINE
  8
_1-0_
  6
CONTINUOUS
 62
    7
 10
384.903454136204
 20
787.31931148808894
 11
384.78989516446035
 21
787.22342502196307
  0
LINE
  8
_1-0_
  6
CONTINUOUS
 62
    7
 10
384.78989516446035
 20
787.22342502196307
 11
384.68880318306589
 21
787.11756496355792
  0
LINE
  8
_1-0_
  6
CONTINUOUS
 62
    7
 10
384.68880318306589
 20
787.11756496355792
 11
384.60022193584666
 21
787.00173131287329
  0
LINE
  8
_1-0_
  6
CONTINUOUS
 62
    7
 10
384.60022193584666
 20
787.00173131287329
 11
384.52406393515105
 21
786.87601155756056
  0
LINE
  8
_1-0_
  6
CONTINUOUS
 62
    7
 10
384.52406393515105
 20
786.87601155756056
 11
384.46041666863039
 21
786.74031820996845
  0
LINE
  8
_1-0_
  6
CONTINUOUS
 62
    7
 10
432.46042921736432
 20
795.85714391759916
 11
432.38873308689904
 21
795.99563687004184
  0
LINE
  8
_1-0_
  6
CONTINUOUS
 62
    7
 10
432.38873308689904
 20
795.99563687004184
 11
432.28855972584597
 21
796.12984292755709
  0
LINE
  8
_1-0_
  6
CONTINUOUS
 62
    7
 10
432.28855972584597
 20
796.12984292755709
 11
432.15982164655401
 21
796.25967460249376
  0
LINE
  8
_1-0_
  6
CONTINUOUS
 62
    7
 10
432.15982164655401
 20
796.25967460249376
 11
432.00260633667455
 21
796.38521938250324
  0
LINE
  8
_1-0_
  6
CONTINUOUS
 62
    7
 10
432.00260633667455
 20
796.38521938250324
 11
431.81682630855607
 21
796.50647726758564
  0
LINE
  8
_1-0_
  6
CONTINUOUS
 62
    7
 10
431.81682630855607
 20
796.50647726758564
 11
431.60256904984988
 21
796.62344825774085
  0
LINE
  8
_1-0_
  6
CONTINUOUS
 62
    7
 10
431.60256904984988
 20
796.62344825774085
 11
431.35974707290472
 21
796.73595737766573
  0
LINE
  8
_1-0_
  6
CONTINUOUS
 62
    7
 10
431.35974707290472
 20
796.73595737766573
 11
431.0884478653719
 21
796.84426709031504
  0
LINE
  8
_1-0_
  6
CONTINUOUS
 62
    7
 10
431.0884478653719
 20
796.84426709031504
 11
430.7958454146808
 21
796.94785246977926
  0
LINE
  8
_1-0_
  6
CONTINUOUS
 62
    7
 10
430.7958454146808
 20
796.94785246977926
 11
430.48924493973772
 21
797.04653854075548
  0
LINE
  8
_1-0_
  6
CONTINUOUS
 62
    7
 10
430.48924493973772
 20
797.04653854075548
 11
430.16864644054283
 21
797.14032530324334
  0
LINE
  8
_1-0_
  6
CONTINUOUS
 62
    7
 10
430.16864644054283
 20
797.14032530324334
 11
429.83404991709591
 21
797.22903778193995
  0
LINE
  8
_1-0_
  6
CONTINUOUS
 62
    7
 10
429.83404991709591
 20
797.22903778193995
 11
429.4854553693969
 21
797.31285095214844
  0
LINE
  8
_1-0_
  6
CONTINUOUS
 62
    7
 10
429.4854553693969
 20
797.31285095214844
 11
429.1228627974462
 21
797.39176481386858
  0
LINE
  8
_1-0_
  6
CONTINUOUS
 62
    7
 10
429.1228627974462
 20
797.39176481386858
 11
428.74627220124353
 21
797.4656918794492
  0
LINE
  8
_1-0_
  6
CONTINUOUS
 62
    7
 10
428.74627220124353
 20
797.4656918794492
 11
428.35563983696306
 21
797.53463214888995
  0
LINE
  8
_1-0_
  6
CONTINUOUS
 62
    7
 10
428.35563983696306
 20
797.53463214888995
 11
427.94422915543362
 21
797.60147271469293
  0
LINE
  8
_1-0_
  6
CONTINUOUS
 62
    7
 10
427.94422915543362
 20
797.60147271469293
 11
427.50517237600661
 21
797.6691881570116
  0
LINE
  8
_1-0_
  6
CONTINUOUS
 62
    7
 10
427.50517237600661
 20
797.6691881570116
 11
427.03851324250792
 21
797.73777847584608
  0
LINE
  8
_1-0_
  6
CONTINUOUS
 62
    7
 10
427.03851324250792
 20
797.73777847584608
 11
426.54420801111172
 21
797.80715618354463
  0
LINE
  8
_1-0_
  6
CONTINUOUS
 62
    7
 10
426.54420801111172
 20
797.80715618354463
 11
426.02230042564361
 21
797.87732128010748
  0
LINE
  8
_1-0_
  6
CONTINUOUS
 62
    7
 10
426.02230042564361
 20
797.87732128010748
 11
425.47274674227793
 21
797.94836125318602
  0
LINE
  8
_1-0_
  6
CONTINUOUS
 62
    7
 10
425.47274674227793
 20
797.94836125318602
 11
424.89559070484063
 21
798.02027610278037
  0
LINE
  8
_1-0_
  6
CONTINUOUS
 62
    7
 10
424.89559070484063
 20
798.02027610278037
 11
424.29083231333141
 21
798.09297834123879
  0
LINE
  8
_1-0_
  6
CONTINUOUS
 62
    7
 10
424.29083231333141
 20
798.09297834123879
 11
423.6448672379305
 21
798.16506816613628
  0
LINE
  8
_1-0_
  6
CONTINUOUS
 62
    7
 10
423.6448672379305
 20
798.16506816613628
 11
422.9440474049926
 21
798.23505828739587
  0
LINE
  8
_1-0_
  6
CONTINUOUS
 62
    7
 10
422.9440474049926
 20
798.23505828739587
 11
422.18846030216878
 21
798.30303619266931
  0
LINE
  8
_1-0_
  6
CONTINUOUS
 62
    7
 10
422.18846030216878
 20
798.30303619266931
 11
421.37806218563355
 21
798.36891439430497
  0
LINE
  8
_1-0_
  6
CONTINUOUS
 62
    7
 10
421.37806218563355
 20
798.36891439430497
 11
420.51285305538698
 21
798.43278037995447
  0
LINE
  8
_1-0_
  6
CONTINUOUS
 62
    7
 10
420.51285305538698
 20
798.43278037995447
 11
419.59278916760297
 21
798.49463414961758
  0
LINE
  8
_1-0_
  6
CONTINUOUS
 62
    7
 10
419.59278916760297
 20
798.49463414961758
 11
418.61795800993349
 21
798.55438821564303
  0
LINE
  8
_1-0_
  6
CONTINUOUS
 62
    7
 10
418.61795800993349
 20
798.55438821564303
 11
417.58831583855226
 21
798.6120425780307
  0
LINE
  8
_1-0_
  6
CONTINUOUS
 62
    7
 10
417.58831583855226
 20
798.6120425780307
 11
416.52079151403939
 21
798.66506009488489
  0
LINE
  8
_1-0_
  6
CONTINUOUS
 62
    7
 10
416.52079151403939
 20
798.66506009488489
 11
415.43227015314869
 21
798.71090362430994
  0
LINE
  8
_1-0_
  6
CONTINUOUS
 62
    7
 10
415.43227015314869
 20
798.71090362430994
 11
414.32275175588018
 21
798.74948567865431
  0
LINE
  8
_1-0_
  6
CONTINUOUS
 62
    7
 10
414.32275175588018
 20
798.74948567865431
 11
413.19228006605925
 21
798.7808062579179
  0
LINE
  8
_1-0_
  6
CONTINUOUS
 62
    7
 10
413.19228006605925
 20
798.7808062579179
 11
412.0408113398608
 21
798.80495284975257
  0
LINE
  8
_1-0_
  6
CONTINUOUS
 62
    7
 10
412.0408113398608
 20
798.80495284975257
 11
410.86830183345842
 21
798.82183796650656
  0
LINE
  8
_1-0_
  6
CONTINUOUS
 62
    7
 10
410.86830183345842
 20
798.82183796650656
 11
409.67488277832967
 21
798.83154909583129
  0
LINE
  8
_1-0_
  6
CONTINUOUS
 62
    7
 10
409.67488277832967
 20
798.83154909583129
 11
408.46042294299735
 21
798.83391126242373
  0
LINE
  8
_1-0_
  6
CONTINUOUS
 62
    7
 10
408.46042294299735
 20
798.83391126242373
 11
407.24587562001346
 21
798.83189904643757
  0
LINE
  8
_1-0_
  6
CONTINUOUS
 62
    7
 10
407.24587562001346
 20
798.83189904643757
 11
406.0523253334074
 21
798.82271284302215
  0
LINE
  8
_1-0_
  6
CONTINUOUS
 62
    7
 10
406.0523253334074
 20
798.82271284302215
 11
404.87977208317943
 21
798.80635265217779
  0
LINE
  8
_1-0_
  6
CONTINUOUS
 62
    7
 10
404.87977208317943
 20
798.80635265217779
 11
403.72812838167761
 21
798.78281847390429
  0
LINE
  8
_1-0_
  6
CONTINUOUS
 62
    7
 10
403.72812838167761
 20
798.78281847390429
 11
402.59752546037942
 21
798.75211030820151
  0
LINE
  8
_1-0_
  6
CONTINUOUS
 62
    7
 10
402.59752546037942
 20
798.75211030820151
 11
401.4878320878077
 21
798.7142281550698
  0
LINE
  8
_1-0_
  6
CONTINUOUS
 62
    7
 10
401.4878320878077
 20
798.7142281550698
 11
400.39913575161381
 21
798.66925950216046
  0
LINE
  8
_1-0_
  6
CONTINUOUS
 62
    7
 10
400.39913575161381
 20
798.66925950216046
 11
399.33143645179769
 21
798.61702937417044
  0
LINE
  8
_1-0_
  6
CONTINUOUS
 62
    7
 10
399.33143645179769
 20
798.61702937417044
 11
398.30161930511349
 21
798.56016240064696
  0
LINE
  8
_1-0_
  6
CONTINUOUS
 62
    7
 10
398.30161930511349
 20
798.56016240064696
 11
397.32670065979232
 21
798.50093326053093
  0
LINE
  8
_1-0_
  6
CONTINUOUS
 62
    7
 10
397.32670065979232
 20
798.50093326053093
 11
396.40659302818267
 21
798.43942944147398
  0
LINE
  8
_1-0_
  6
CONTINUOUS
 62
    7
 10
396.40659302818267
 20
798.43942944147398
 11
395.54138389793593
 21
798.3755634558247
  0
LINE
  8
_1-0_
  6
CONTINUOUS
 62
    7
 10
395.54138389793593
 20
798.3755634558247
 11
394.73102952522652
 21
798.30942279123417
  0
LINE
  8
_1-0_
  6
CONTINUOUS
 62
    7
 10
394.73102952522652
 20
798.30942279123417
 11
393.97552991005443
 21
798.24100744770294
  0
LINE
  8
_1-0_
  6
CONTINUOUS
 62
    7
 10
393.97552991005443
 20
798.24100744770294
 11
393.27488505241945
 21
798.17031742523068
  0
LINE
  8
_1-0_
  6
CONTINUOUS
 62
    7
 10
393.27488505241945
 20
798.17031742523068
 11
392.62909495232179
 21
798.09726523616587
  0
LINE
  8
_1-0_
  6
CONTINUOUS
 62
    7
 10
392.62909495232179
 20
798.09726523616587
 11
392.03011074581667
 21
798.02438802240431
  0
LINE
  8
_1-0_
  6
CONTINUOUS
 62
    7
 10
392.03011074581667
 20
798.02438802240431
 11
391.46992731278459
 21
797.95413543818995
  0
LINE
  8
_1-0_
  6
CONTINUOUS
 62
    7
 10
391.46992731278459
 20
797.95413543818995
 11
390.94845716557444
 21
797.88650748352279
  0
LINE
  8
_1-0_
  6
CONTINUOUS
 62
    7
 10
390.94845716557444
 20
797.88650748352279
 11
390.46578779183761
 21
797.82141667075143
  0
LINE
  8
_1-0_
  6
CONTINUOUS
 62
    7
 10
390.46578779183761
 20
797.82141667075143
 11
390.02187544774813
 21
797.75903797517867
  0
LINE
  8
_1-0_
  6
CONTINUOUS
 62
    7
 10
390.02187544774813
 20
797.75903797517867
 11
389.61676387713226
 21
797.69928390915322
  0
LINE
  8
_1-0_
  6
CONTINUOUS
 62
    7
 10
389.61676387713226
 20
797.69928390915322
 11
389.25036559233786
 21
797.64206698502346
  0
LINE
  8
_1-0_
  6
CONTINUOUS
 62
    7
 10
389.25036559233786
 20
797.64206698502346
 11
388.92276808101701
 21
797.58747469044101
  0
LINE
  8
_1-0_
  6
CONTINUOUS
 62
    7
 10
388.92276808101701
 20
797.58747469044101
 11
388.62019203804635
 21
797.53393224767728
  0
LINE
  8
_1-0_
  6
CONTINUOUS
 62
    7
 10
388.62019203804635
 20
797.53393224767728
 11
388.32890190212879
 21
797.47977739135263
  0
LINE
  8
_1-0_
  6
CONTINUOUS
 62
    7
 10
388.32890190212879
 20
797.47977739135263
 11
388.04894141709013
 21
797.42492263381541
  0
LINE
  8
_1-0_
  6
CONTINUOUS
 62
    7
 10
388.04894141709013
 20
797.42492263381541
 11
387.7803105829305
 21
797.36945546271716
  0
LINE
  8
_1-0_
  6
CONTINUOUS
 62
    7
 10
387.7803105829305
 20
797.36945546271716
 11
387.52296565582384
 21
797.31337587805785
  0
LINE
  8
_1-0_
  6
CONTINUOUS
 62
    7
 10
387.52296565582384
 20
797.31337587805785
 11
387.2769503795962
 21
797.25668387983751
  0
LINE
  8
_1-0_
  6
CONTINUOUS
 62
    7
 10
387.2769503795962
 20
797.25668387983751
 11
387.04226475424747
 21
797.19929198040461
  0
LINE
  8
_1-0_
  6
CONTINUOUS
 62
    7
 10
387.04226475424747
 20
797.19929198040461
 11
386.81886503595183
 21
797.14137515506218
  0
LINE
  8
_1-0_
  6
CONTINUOUS
 62
    7
 10
386.81886503595183
 20
797.14137515506218
 11
386.60491398402627
 21
797.08284591615882
  0
LINE
  8
_1-0_
  6
CONTINUOUS
 62
    7
 10
386.60491398402627
 20
797.08284591615882
 11
386.39853061396184
 21
797.02405421430069
  0
LINE
  8
_1-0_
  6
CONTINUOUS
 62
    7
 10
386.39853061396184
 20
797.02405421430069
 11
386.19967118193273
 21
796.9649125618364
  0
LINE
  8
_1-0_
  6
CONTINUOUS
 62
    7
 10
386.19967118193273
 20
796.9649125618364
 11
386.00842317559085
 21
796.90542095876572
  0
LINE
  8
_1-0_
  6
CONTINUOUS
 62
    7
 10
386.00842317559085
 20
796.90542095876572
 11
385.82469910728423
 21
796.84557940508864
  0
LINE
  8
_1-0_
  6
CONTINUOUS
 62
    7
 10
385.82469910728423
 20
796.84557940508864
 11
385.64858646466462
 21
796.7853879008054
  0
LINE
  8
_1-0_
  6
CONTINUOUS
 62
    7
 10
385.64858646466462
 20
796.7853879008054
 11
385.47999776008044
 21
796.72484644591577
  0
LINE
  8
_1-0_
  6
CONTINUOUS
 62
    7
 10
385.47999776008044
 20
796.72484644591577
 11
385.31902048118326
 21
796.66395504041986
  0
LINE
  8
_1-0_
  6
CONTINUOUS
 62
    7
 10
385.31902048118326
 20
796.66395504041986
 11
385.16801679456563
 21
796.59798935113258
  0
LINE
  8
_1-0_
  6
CONTINUOUS
 62
    7
 10
385.16801679456563
 20
796.59798935113258
 11
385.02952384212307
 21
796.52196258191441
  0
LINE
  8
_1-0_
  6
CONTINUOUS
 62
    7
 10
385.02952384212307
 20
796.52196258191441
 11
384.903454136204
 21
796.43604970806803
  0
LINE
  8
_1-0_
  6
CONTINUOUS
 62
    7
 10
384.903454136204
 20
796.43604970806803
 11
384.78989516446035
 21
796.34016324194238
  0
LINE
  8
_1-0_
  6
CONTINUOUS
 62
    7
 10
384.78989516446035
 20
796.34016324194238
 11
384.68880318306589
 21
796.23439067118863
  0
LINE
  8
_1-0_
  6
CONTINUOUS
 62
    7
 10
384.68880318306589
 20
796.23439067118863
 11
384.60022193584666
 21
796.11855702050411
  0
LINE
  8
_1-0_
  6
CONTINUOUS
 62
    7
 10
384.60022193584666
 20
796.11855702050411
 11
384.52406393515105
 21
795.99283726519138
  0
LINE
  8
_1-0_
  6
CONTINUOUS
 62
    7
 10
384.52406393515105
 20
795.99283726519138
 11
384.46041666863039
 21
795.85714391759916
  0
LINE
  8
_1-0_
  6
CONTINUOUS
 62
    7
 10
432.46042921736432
 20
802.61678982885644
 11
432.38873308689904
 21
802.755282781299
  0
LINE
  8
_1-0_
  6
CONTINUOUS
 62
    7
 10
432.38873308689904
 20
802.755282781299
 11
432.28855972584597
 21
802.88948883881426
  0
LINE
  8
_1-0_
  6
CONTINUOUS
 62
    7
 10
432.28855972584597
 20
802.88948883881426
 11
432.15982164655401
 21
803.01932051375104
  0
LINE
  8
_1-0_
  6
CONTINUOUS
 62
    7
 10
432.15982164655401
 20
803.01932051375104
 11
432.00260633667455
 21
803.14495278141203
  0
LINE
  8
_1-0_
  6
CONTINUOUS
 62
    7
 10
432.00260633667455
 20
803.14495278141203
 11
431.81682630855607
 21
803.2661231788428
  0
LINE
  8
_1-0_
  6
CONTINUOUS
 62
    7
 10
431.81682630855607
 20
803.2661231788428
 11
431.60256904984988
 21
803.38309416899801
  0
LINE
  8
_1-0_
  6
CONTINUOUS
 62
    7
 10
431.60256904984988
 20
803.38309416899801
 11
431.35974707290472
 21
803.49569077657452
  0
LINE
  8
_1-0_
  6
CONTINUOUS
 62
    7
 10
431.35974707290472
 20
803.49569077657452
 11
431.0884478653719
 21
803.60391300157232
  0
LINE
  8
_1-0_
  6
CONTINUOUS
 62
    7
 10
431.0884478653719
 20
803.60391300157232
 11
430.7958454146808
 21
803.70758586868817
  0
LINE
  8
_1-0_
  6
CONTINUOUS
 62
    7
 10
430.7958454146808
 20
803.70758586868817
 11
430.48924493973772
 21
803.80618445201264
  0
LINE
  8
_1-0_
  6
CONTINUOUS
 62
    7
 10
430.48924493973772
 20
803.80618445201264
 11
430.16864644054283
 21
803.89997121450062
  0
LINE
  8
_1-0_
  6
CONTINUOUS
 62
    7
 10
430.16864644054283
 20
803.89997121450062
 11
429.83404991709591
 21
803.98868369319712
  0
LINE
  8
_1-0_
  6
CONTINUOUS
 62
    7
 10
429.83404991709591
 20
803.98868369319712
 11
429.4854553693969
 21
804.0724968634056
  0
LINE
  8
_1-0_
  6
CONTINUOUS
 62
    7
 10
429.4854553693969
 20
804.0724968634056
 11
429.1228627974462
 21
804.15141072512586
  0
LINE
  8
_1-0_
  6
CONTINUOUS
 62
    7
 10
429.1228627974462
 20
804.15141072512586
 11
428.74627220124353
 21
804.22533779070636
  0
LINE
  8
_1-0_
  6
CONTINUOUS
 62
    7
 10
428.74627220124353
 20
804.22533779070636
 11
428.35563983696306
 21
804.29427806014712
  0
LINE
  8
_1-0_
  6
CONTINUOUS
 62
    7
 10
428.35563983696306
 20
804.29427806014712
 11
427.94422915543362
 21
804.3611186259501
  0
LINE
  8
_1-0_
  6
CONTINUOUS
 62
    7
 10
427.94422915543362
 20
804.3611186259501
 11
427.50517237600661
 21
804.42883406826877
  0
LINE
  8
_1-0_
  6
CONTINUOUS
 62
    7
 10
427.50517237600661
 20
804.42883406826877
 11
427.03851324250792
 21
804.49742438710337
  0
LINE
  8
_1-0_
  6
CONTINUOUS
 62
    7
 10
427.03851324250792
 20
804.49742438710337
 11
426.54420801111172
 21
804.56680209480191
  0
LINE
  8
_1-0_
  6
CONTINUOUS
 62
    7
 10
426.54420801111172
 20
804.56680209480191
 11
426.02230042564361
 21
804.63696719136476
  0
LINE
  8
_1-0_
  6
CONTINUOUS
 62
    7
 10
426.02230042564361
 20
804.63696719136476
 11
425.47274674227793
 21
804.7080071644433
  0
LINE
  8
_1-0_
  6
CONTINUOUS
 62
    7
 10
425.47274674227793
 20
804.7080071644433
 11
424.89559070484063
 21
804.77992201403754
  0
LINE
  8
_1-0_
  6
CONTINUOUS
 62
    7
 10
424.89559070484063
 20
804.77992201403754
 11
424.29083231333141
 21
804.85262425249607
  0
LINE
  8
_1-0_
  6
CONTINUOUS
 62
    7
 10
424.29083231333141
 20
804.85262425249607
 11
423.6448672379305
 21
804.92471407739345
  0
LINE
  8
_1-0_
  6
CONTINUOUS
 62
    7
 10
423.6448672379305
 20
804.92471407739345
 11
422.9440474049926
 21
804.99470419865315
  0
LINE
  8
_1-0_
  6
CONTINUOUS
 62
    7
 10
422.9440474049926
 20
804.99470419865315
 11
422.18846030216878
 21
805.06268210392659
  0
LINE
  8
_1-0_
  6
CONTINUOUS
 62
    7
 10
422.18846030216878
 20
805.06268210392659
 11
421.37806218563355
 21
805.12864779321376
  0
LINE
  8
_1-0_
  6
CONTINUOUS
 62
    7
 10
421.37806218563355
 20
805.12864779321376
 11
420.51285305538698
 21
805.19242629121163
  0
LINE
  8
_1-0_
  6
CONTINUOUS
 62
    7
 10
420.51285305538698
 20
805.19242629121163
 11
419.59278916760297
 21
805.25428006087486
  0
LINE
  8
_1-0_
  6
CONTINUOUS
 62
    7
 10
419.59278916760297
 20
805.25428006087486
 11
418.61795800993349
 21
805.3140341269002
  0
LINE
  8
_1-0_
  6
CONTINUOUS
 62
    7
 10
418.61795800993349
 20
805.3140341269002
 11
417.58831583855226
 21
805.37168848928786
  0
LINE
  8
_1-0_
  6
CONTINUOUS
 62
    7
 10
417.58831583855226
 20
805.37168848928786
 11
416.52079151403939
 21
805.42470600614206
  0
LINE
  8
_1-0_
  6
CONTINUOUS
 62
    7
 10
416.52079151403939
 20
805.42470600614206
 11
415.43227015314869
 21
805.47054953556722
  0
LINE
  8
_1-0_
  6
CONTINUOUS
 62
    7
 10
415.43227015314869
 20
805.47054953556722
 11
414.32275175588018
 21
805.50913158991148
  0
LINE
  8
_1-0_
  6
CONTINUOUS
 62
    7
 10
414.32275175588018
 20
805.50913158991148
 11
413.19228006605925
 21
805.5404521691753
  0
LINE
  8
_1-0_
  6
CONTINUOUS
 62
    7
 10
413.19228006605925
 20
805.5404521691753
 11
412.0408113398608
 21
805.56459876100985
  0
LINE
  8
_1-0_
  6
CONTINUOUS
 62
    7
 10
412.0408113398608
 20
805.56459876100985
 11
410.86830183345842
 21
805.58148387776373
  0
LINE
  8
_1-0_
  6
CONTINUOUS
 62
    7
 10
410.86830183345842
 20
805.58148387776373
 11
409.67488277832967
 21
805.59119500708846
  0
LINE
  8
_1-0_
  6
CONTINUOUS
 62
    7
 10
409.67488277832967
 20
805.59119500708846
 11
408.46042294299735
 21
805.59364466133263
  0
LINE
  8
_1-0_
  6
CONTINUOUS
 62
    7
 10
408.46042294299735
 20
805.59364466133263
 11
407.24587562001346
 21
805.59154495769474
  0
LINE
  8
_1-0_
  6
CONTINUOUS
 62
    7
 10
407.24587562001346
 20
805.59154495769474
 11
406.0523253334074
 21
805.58235875427954
  0
LINE
  8
_1-0_
  6
CONTINUOUS
 62
    7
 10
406.0523253334074
 20
805.58235875427954
 11
404.87977208317943
 21
805.56599856343507
  0
LINE
  8
_1-0_
  6
CONTINUOUS
 62
    7
 10
404.87977208317943
 20
805.56599856343507
 11
403.72812838167761
 21
805.54246438516145
  0
LINE
  8
_1-0_
  6
CONTINUOUS
 62
    7
 10
403.72812838167761
 20
805.54246438516145
 11
402.59752546037942
 21
805.5117562194589
  0
LINE
  8
_1-0_
  6
CONTINUOUS
 62
    7
 10
402.59752546037942
 20
805.5117562194589
 11
401.4878320878077
 21
805.47387406632708
  0
LINE
  8
_1-0_
  6
CONTINUOUS
 62
    7
 10
401.4878320878077
 20
805.47387406632708
 11
400.39913575161381
 21
805.42890541341762
  0
LINE
  8
_1-0_
  6
CONTINUOUS
 62
    7
 10
400.39913575161381
 20
805.42890541341762
 11
399.33143645179769
 21
805.37667528542772
  0
LINE
  8
_1-0_
  6
CONTINUOUS
 62
    7
 10
399.33143645179769
 20
805.37667528542772
 11
398.30161930511349
 21
805.31980831190424
  0
LINE
  8
_1-0_
  6
CONTINUOUS
 62
    7
 10
398.30161930511349
 20
805.31980831190424
 11
397.32670065979232
 21
805.26057917178821
  0
LINE
  8
_1-0_
  6
CONTINUOUS
 62
    7
 10
397.32670065979232
 20
805.26057917178821
 11
396.40659302818267
 21
805.19907535273137
  0
LINE
  8
_1-0_
  6
CONTINUOUS
 62
    7
 10
396.40659302818267
 20
805.19907535273137
 11
395.54138389793593
 21
805.13520936708187
  0
LINE
  8
_1-0_
  6
CONTINUOUS
 62
    7
 10
395.54138389793593
 20
805.13520936708187
 11
394.73102952522652
 21
805.06906870249156
  0
LINE
  8
_1-0_
  6
CONTINUOUS
 62
    7
 10
394.73102952522652
 20
805.06906870249156
 11
393.97552991005443
 21
805.00065335896022
  0
LINE
  8
_1-0_
  6
CONTINUOUS
 62
    7
 10
393.97552991005443
 20
805.00065335896022
 11
393.27488505241945
 21
804.92996333648784
  0
LINE
  8
_1-0_
  6
CONTINUOUS
 62
    7
 10
393.27488505241945
 20
804.92996333648784
 11
392.62909495232179
 21
804.85691114742326
  0
LINE
  8
_1-0_
  6
CONTINUOUS
 62
    7
 10
392.62909495232179
 20
804.85691114742326
 11
392.03011074581667
 21
804.78403393366148
  0
LINE
  8
_1-0_
  6
CONTINUOUS
 62
    7
 10
392.03011074581667
 20
804.78403393366148
 11
391.46992731278459
 21
804.71378134944712
  0
LINE
  8
_1-0_
  6
CONTINUOUS
 62
    7
 10
391.46992731278459
 20
804.71378134944712
 11
390.94845716557444
 21
804.64615339477996
  0
LINE
  8
_1-0_
  6
CONTINUOUS
 62
    7
 10
390.94845716557444
 20
804.64615339477996
 11
390.46578779183761
 21
804.5810625820086
  0
LINE
  8
_1-0_
  6
CONTINUOUS
 62
    7
 10
390.46578779183761
 20
804.5810625820086
 11
390.02187544774813
 21
804.51868388643584
  0
LINE
  8
_1-0_
  6
CONTINUOUS
 62
    7
 10
390.02187544774813
 20
804.51868388643584
 11
389.61676387713226
 21
804.4589298204105
  0
LINE
  8
_1-0_
  6
CONTINUOUS
 62
    7
 10
389.61676387713226
 20
804.4589298204105
 11
389.25036559233786
 21
804.40171289628074
  0
LINE
  8
_1-0_
  6
CONTINUOUS
 62
    7
 10
389.25036559233786
 20
804.40171289628074
 11
388.92276808101701
 21
804.34720808934969
  0
LINE
  8
_1-0_
  6
CONTINUOUS
 62
    7
 10
388.92276808101701
 20
804.34720808934969
 11
388.62019203804635
 21
804.29357815893457
  0
LINE
  8
_1-0_
  6
CONTINUOUS
 62
    7
 10
388.62019203804635
 20
804.29357815893457
 11
388.32890190212879
 21
804.23942330260979
  0
LINE
  8
_1-0_
  6
CONTINUOUS
 62
    7
 10
388.32890190212879
 20
804.23942330260979
 11
388.04894141709013
 21
804.18456854507269
  0
LINE
  8
_1-0_
  6
CONTINUOUS
 62
    7
 10
388.04894141709013
 20
804.18456854507269
 11
387.7803105829305
 21
804.12910137397432
  0
LINE
  8
_1-0_
  6
CONTINUOUS
 62
    7
 10
387.7803105829305
 20
804.12910137397432
 11
387.52296565582384
 21
804.07302178931502
  0
LINE
  8
_1-0_
  6
CONTINUOUS
 62
    7
 10
387.52296565582384
 20
804.07302178931502
 11
387.2769503795962
 21
804.01632979109479
  0
LINE
  8
_1-0_
  6
CONTINUOUS
 62
    7
 10
387.2769503795962
 20
804.01632979109479
 11
387.04226475424747
 21
803.95893789166178
  0
LINE
  8
_1-0_
  6
CONTINUOUS
 62
    7
 10
387.04226475424747
 20
803.95893789166178
 11
386.81886503595183
 21
803.90102106631946
  0
LINE
  8
_1-0_
  6
CONTINUOUS
 62
    7
 10
386.81886503595183
 20
803.90102106631946
 11
386.60491398402627
 21
803.8424918274161
  0
LINE
  8
_1-0_
  6
CONTINUOUS
 62
    7
 10
386.60491398402627
 20
803.8424918274161
 11
386.39853061396184
 21
803.78370012555808
  0
LINE
  8
_1-0_
  6
CONTINUOUS
 62
    7
 10
386.39853061396184
 20
803.78370012555808
 11
386.19967118193273
 21
803.72455847309357
  0
LINE
  8
_1-0_
  6
CONTINUOUS
 62
    7
 10
386.19967118193273
 20
803.72455847309357
 11
386.00842317559085
 21
803.66506687002288
  0
LINE
  8
_1-0_
  6
CONTINUOUS
 62
    7
 10
386.00842317559085
 20
803.66506687002288
 11
385.82469910728423
 21
803.60522531634592
  0
LINE
  8
_1-0_
  6
CONTINUOUS
 62
    7
 10
385.82469910728423
 20
803.60522531634592
 11
385.64858646466462
 21
803.54503381206257
  0
LINE
  8
_1-0_
  6
CONTINUOUS
 62
    7
 10
385.64858646466462
 20
803.54503381206257
 11
385.47999776008044
 21
803.48449235717294
  0
LINE
  8
_1-0_
  6
CONTINUOUS
 62
    7
 10
385.47999776008044
 20
803.48449235717294
 11
385.31902048118326
 21
803.42368843932854
  0
LINE
  8
_1-0_
  6
CONTINUOUS
 62
    7
 10
385.31902048118326
 20
803.42368843932854
 11
385.16801679456563
 21
803.35763526238998
  0
LINE
  8
_1-0_
  6
CONTINUOUS
 62
    7
 10
385.16801679456563
 20
803.35763526238998
 11
385.02952384212307
 21
803.28169598082309
  0
LINE
  8
_1-0_
  6
CONTINUOUS
 62
    7
 10
385.02952384212307
 20
803.28169598082309
 11
384.903454136204
 21
803.19569561932542
  0
LINE
  8
_1-0_
  6
CONTINUOUS
 62
    7
 10
384.903454136204
 20
803.19569561932542
 11
384.78989516446035
 21
803.09980915319954
  0
LINE
  8
_1-0_
  6
CONTINUOUS
 62
    7
 10
384.78989516446035
 20
803.09980915319954
 11
384.68880318306589
 21
802.99403658244603
  0
LINE
  8
_1-0_
  6
CONTINUOUS
 62
    7
 10
384.68880318306589
 20
802.99403658244603
 11
384.60022193584666
 21
802.87820293176128
  0
LINE
  8
_1-0_
  6
CONTINUOUS
 62
    7
 10
384.60022193584666
 20
802.87820293176128
 11
384.52406393515105
 21
802.75248317644855
  0
LINE
  8
_1-0_
  6
CONTINUOUS
 62
    7
 10
384.52406393515105
 20
802.75248317644855
 11
384.46041666863039
 21
802.61678982885644
  0
LINE
  8
_1-0_
  6
CONTINUOUS
 62
    7
 10
791.06527026555705
 20
913.68061374973604
 11
785.99387356673424
 21
924.55629120462174
  0
LINE
  8
_1-0_
  6
CONTINUOUS
 62
    7
 10
873.71275500441141
 20
925.73868681565216
 11
863.56987411911416
 21
947.49004172542368
  0
LINE
  8
_1-0_
  6
CONTINUOUS
 62
    7
 10
863.56987411911416
 20
947.49004172542368
 11
985.01515775113489
 21
1004.1208860772916
  0
LINE
  8
_1-0_
  6
CONTINUOUS
 62
    7
 10
873.71275500441141
 20
925.73868681565216
 11
837.46040933380709
 21
908.83397282780822
  0
LINE
  8
_1-0_
  6
CONTINUOUS
 62
    7
 10
785.99387356673424
 20
924.55629120462174
 11
822.24613174968692
 21
941.46100519246579
  0
LINE
  8
_1-0_
  6
CONTINUOUS
 62
    7
 10
822.24613174968692
 20
941.46100519246579
 11
979.94376105231197
 21
1014.996651019829
  0
LINE
  8
_1-0_
  6
CONTINUOUS
 62
    7
 10
791.06527026555705
 20
913.68061374973604
 11
837.46040933380709
 21
908.83397282780822
  0
LINE
  8
_1-0_
  6
CONTINUOUS
 62
    7
 10
979.94376105231197
 20
1014.996651019829
 11
985.01515775113489
 21
1004.1208860772916
  0
LINE
  8
_1-1_
  6
CONTINUOUS
 62
    7
 10
448.46043340027563
 20
798.83391126242373
 11
432.46042921736432
 21
798.83391126242373
  0
LINE
  8
_1-1_
  6
CONTINUOUS
 62
    7
 10
384.46041666863039
 20
798.83391126242373
 11
368.46041248571908
 21
798.83391126242373
  0
LINE
  8
_1-0_
  6
CONTINUOUS
 62
    7
 10
454.46042403291085
 20
638.83395692096246
 11
454.46042403291085
 21
630.23396451500855
  0
LINE
  8
_1-0_
  6
CONTINUOUS
 62
    7
 10
454.46042403291085
 20
630.23396451500855
 11
354.46041976162832
 21
630.23396451500855
  0
LINE
  8
_1-0_
  6
CONTINUOUS
 62
    7
 10
354.46041976162832
 20
630.23396451500855
 11
354.46041976162832
 21
638.83395692096246
  0
LINE
  8
_1-0_
  6
CONTINUOUS
 62
    7
 10
354.46041976162832
 20
638.83395692096246
 11
454.46042403291085
 21
638.83395692096246
  0
LINE
  8
_1-0_
  6
CONTINUOUS
 62
    7
 10
890.30347581075421
 20
638.83395692096246
 11
890.30347581075421
 21
630.23396451500855
  0
LINE
  8
_1-0_
  6
CONTINUOUS
 62
    7
 10
890.30347581075421
 20
630.23396451500855
 11
790.3034277956458
 21
630.23396451500855
  0
LINE
  8
_1-0_
  6
CONTINUOUS
 62
    7
 10
790.3034277956458
 20
630.23396451500855
 11
790.3034277956458
 21
638.83395692096246
  0
LINE
  8
_1-0_
  6
CONTINUOUS
 62
    7
 10
790.3034277956458
 20
638.83395692096246
 11
890.30347581075421
 21
638.83395692096246
  0
LINE
  8
_1-0_
  6
CONTINUOUS
 62
    7
 10
448.46043340027563
 20
1635.2605665052258
 11
448.46043340027563
 21
1421.2606089823953
  0
LINE
  8
_1-0_
  6
CONTINUOUS
 62
    7
 10
448.46043340027563
 20
1421.2606089823953
 11
368.46041248571908
 21
1421.2606089823953
  0
LINE
  8
_1-0_
  6
CONTINUOUS
 62
    7
 10
368.46041248571908
 20
1421.2606089823953
 11
368.46041248571908
 21
1635.2605665052258
  0
LINE
  8
_1-1_
  6
CONTINUOUS
 62
    7
 10
448.46043340027563
 20
1635.2605665052258
 11
448.46043340027563
 21
1335.2605974352036
  0
LINE
  8
_1-1_
  6
CONTINUOUS
 62
    7
 10
448.46043340027563
 20
1335.2605974352036
 11
368.46041248571908
 21
1335.2605974352036
  0
LINE
  8
_1-1_
  6
CONTINUOUS
 62
    7
 10
368.46041248571908
 20
1335.2605974352036
 11
368.46041248571908
 21
1635.2605665052258
  0
ARC
  8
_1-0_
  6
CONTINUOUS
 62
    7
 10
455.46040789040819
 20
578.83396310695809
 40
2.0000000102409525
 50
270
 51
0
  0
ARC
  8
_1-0_
  6
CONTINUOUS
 62
    7
 10
455.46040789040819
 20
581.8339584232757
 40
2.0000000102409525
 50
0
 51
90
  0
ARC
  8
_1-0_
  6
CONTINUOUS
 62
    7
 10
307.83542876077888
 20
389.39069578546355
 40
22.613780839102606
 50
53.739776611328118
 51
79.489776611328111
  0
ARC
  8
_1-0_
  6
CONTINUOUS
 62
    7
 10
334.460436404902
 20
409.57037877852383
 40
23.945312822187269
 50
236.40324401855469
 51
303.59674072265625
  0
ARC
  8
_1-0_
  6
CONTINUOUS
 62
    7
 10
361.08542217711232
 20
407.85942652050596
 40
22.613780839102606
 50
233.73977661132815
 51
259.48977661132812
  0
ARC
  8
_1-0_
  6
CONTINUOUS
 62
    7
 10
307.67130192642497
 20
408.2389479530363
 40
23.017052435046455
 50
280.73956298828125
 51
306.03086853027344
  0
ARC
  8
_1-0_
  6
CONTINUOUS
 62
    7
 10
334.460436404902
 20
387.67974352744545
 40
23.945312822187269
 50
56.403244018554688
 51
123.59674072265625
  0
ARC
  8
_1-0_
  6
CONTINUOUS
 62
    7
 10
361.08542217711232
 20
389.39069578546355
 40
22.613780839102606
 50
100.51020812988281
 51
126.2602081298828
  0
ARC
  8
_1-0_
  6
CONTINUOUS
 62
    7
 10
329.46042962976406
 20
437.62508775276564
 40
8.0622577575182817
 50
172.8749694824219
 51
199.7477722167969
  0
ARC
  8
_1-0_
  6
CONTINUOUS
 62
    7
 10
338.96042937937852
 20
437.62508775276564
 40
8.5000001716797868
 50
341.07534790039062
 51
6.7098236083984224
  0
ARC
  8
_1-0_
  6
CONTINUOUS
 62
    7
 10
326.4604343134464
 20
424.62507888617205
 40
4.9999999401652211
 50
158.96052551269531
 51
201.03945922851562
  0
ARC
  8
_1-0_
  6
CONTINUOUS
 62
    7
 10
342.46041662444469
 20
424.62507888617205
 40
4.9999999401652211
 50
338.96052551269531
 51
21.039459228515653
  0
ARC
  8
_1-0_
  6
CONTINUOUS
 62
    7
 10
323.92451724490599
 20
413.62508147839867
 40
2.478627351950494
 50
156.73660278320312
 51
233.7939758300781
  0
ARC
  8
_1-0_
  6
CONTINUOUS
 62
    7
 10
344.99633369298522
 20
413.62508147839867
 40
2.478627351950494
 50
306.20600891113281
 51
23.263381958007816
  0
ARC
  8
_1-0_
  6
CONTINUOUS
 62
    7
 10
312.46041971744262
 20
431.52216789805288
 40
9.9999998803304422
 50
0
 51
19.747772216796875
  0
ARC
  8
_1-0_
  6
CONTINUOUS
 62
    7
 10
356.46043122044858
 20
431.62505337630455
 40
9.9999998803304422
 50
161.0753479003906
 51
179.99999999999997
  0
ARC
  8
_1-0_
  6
CONTINUOUS
 62
    7
 10
312.46041971744262
 20
430.01025004736704
 40
9.9999998803304422
 50
338.96052551269531
 51
0.0000000000000254
  0
ARC
  8
_1-0_
  6
CONTINUOUS
 62
    7
 10
356.46043122044858
 20
430.01025004736704
 40
9.9999998803304422
 50
180
 51
201.03945922851562
  0
ARC
  8
_1-0_
  6
CONTINUOUS
 62
    7
 10
356.46043122044858
 20
419.23990772497694
 40
9.9999998803304422
 50
158.96052551269531
 51
180
  0
ARC
  8
_1-0_
  6
CONTINUOUS
 62
    7
 10
312.46041971744262
 20
419.23990772497694
 40
9.9999998803304422
 50
0
 51
21.039459228515625
  0
ARC
  8
_1-0_
  6
CONTINUOUS
 62
    7
 10
312.46041971744262
 20
418.55361084220027
 40
9.9999998803304422
 50
336.73660278320318
 51
0.0000000000000413
  0
ARC
  8
_1-0_
  6
CONTINUOUS
 62
    7
 10
356.46043122044858
 20
418.55361084220027
 40
9.9999998803304422
 50
180
 51
203.26338195800781
  0
ARC
  8
_1-0_
  6
CONTINUOUS
 62
    7
 10
482.46040948109282
 20
387.67974352744545
 40
23.945312822187269
 50
56.403244018554688
 51
123.59674072265625
  0
ARC
  8
_1-0_
  6
CONTINUOUS
 62
    7
 10
509.08543899712868
 20
389.39069578546355
 40
22.613780839102606
 50
100.51020812988281
 51
126.2602081298828
  0
ARC
  8
_1-0_
  6
CONTINUOUS
 62
    7
 10
455.83542370888256
 20
389.39069578546355
 40
22.613780839102606
 50
53.739776611328118
 51
79.489776611328111
  0
ARC
  8
_1-0_
  6
CONTINUOUS
 62
    7
 10
482.46040948109282
 20
409.57037877852383
 40
23.945312822187269
 50
236.40324401855469
 51
303.59674072265625
  0
ARC
  8
_1-0_
  6
CONTINUOUS
 62
    7
 10
509.08543899712868
 20
407.85942652050596
 40
22.613780839102606
 50
233.73977661132815
 51
259.48977661132812
  0
ARC
  8
_1-0_
  6
CONTINUOUS
 62
    7
 10
455.67129687452876
 20
408.2389479530363
 40
23.017052435046455
 50
280.73956298828125
 51
306.03086853027344
  0
ARC
  8
_1-0_
  6
CONTINUOUS
 62
    7
 10
477.46044644978042
 20
437.62508775276564
 40
8.0622577575182817
 50
172.8749694824219
 51
199.7477722167969
  0
ARC
  8
_1-0_
  6
CONTINUOUS
 62
    7
 10
486.96042432748214
 20
437.62508775276564
 40
8.5000001716797868
 50
341.07534790039062
 51
6.7098236083984224
  0
ARC
  8
_1-0_
  6
CONTINUOUS
 62
    7
 10
474.46040738963717
 20
424.62507888617205
 40
4.9999999401652211
 50
158.96052551269531
 51
201.03945922851562
  0
ARC
  8
_1-0_
  6
CONTINUOUS
 62
    7
 10
490.46041157254848
 20
424.62507888617205
 40
4.9999999401652211
 50
338.96052551269531
 51
21.039459228515653
  0
ARC
  8
_1-0_
  6
CONTINUOUS
 62
    7
 10
471.92453406492263
 20
413.62508147839867
 40
2.478627351950494
 50
156.73660278320312
 51
233.7939758300781
  0
ARC
  8
_1-0_
  6
CONTINUOUS
 62
    7
 10
492.99632864108872
 20
413.62508147839867
 40
2.478627351950494
 50
306.20600891113281
 51
23.263381958007816
  0
ARC
  8
_1-0_
  6
CONTINUOUS
 62
    7
 10
460.46041466554612
 20
431.52216789805288
 40
9.9999998803304422
 50
0
 51
19.747772216796875
  0
ARC
  8
_1-0_
  6
CONTINUOUS
 62
    7
 10
504.46040429663924
 20
431.62505337630455
 40
9.9999998803304422
 50
161.0753479003906
 51
179.99999999999997
  0
ARC
  8
_1-0_
  6
CONTINUOUS
 62
    7
 10
460.46041466554612
 20
430.01025004736704
 40
9.9999998803304422
 50
338.96052551269531
 51
0.0000000000000254
  0
ARC
  8
_1-0_
  6
CONTINUOUS
 62
    7
 10
504.46040429663924
 20
430.01025004736704
 40
9.9999998803304422
 50
180
 51
201.03945922851562
  0
ARC
  8
_1-0_
  6
CONTINUOUS
 62
    7
 10
504.46040429663924
 20
419.23990772497694
 40
9.9999998803304422
 50
158.96052551269531
 51
180
  0
ARC
  8
_1-0_
  6
CONTINUOUS
 62
    7
 10
460.46041466554612
 20
419.23990772497694
 40
9.9999998803304422
 50
0
 51
21.039459228515625
  0
ARC
  8
_1-0_
  6
CONTINUOUS
 62
    7
 10
460.46041466554612
 20
418.55361084220027
 40
9.9999998803304422
 50
336.73660278320318
 51
0.0000000000000413
  0
ARC
  8
_1-0_
  6
CONTINUOUS
 62
    7
 10
504.46040429663924
 20
418.55361084220027
 40
9.9999998803304422
 50
180
 51
203.26338195800781
  0
ARC
  8
_1-0_
  6
CONTINUOUS
 62
    7
 10
360.88308511093317
 20
578.83396310695809
 40
2.0000000102409525
 50
180
 51
270
  0
ARC
  8
_1-0_
  6
CONTINUOUS
 62
    7
 10
360.88308511093317
 20
581.8339584232757
 40
2.0000000102409525
 50
90
 51
180
  0
ARC
  8
_1-0_
  6
CONTINUOUS
 62
    7
 10
400.09428502970223
 20
898.83395927753224
 40
24.6338406400791
 50
161.04916381835937
 51
180
  0
ARC
  8
_1-0_
  6
CONTINUOUS
 62
    7
 10
903.46039378044679
 20
404.88865207981416
 40
23.945312822187269
 50
56.403244018554688
 51
123.59674072265625
  0
ARC
  8
_1-0_
  6
CONTINUOUS
 62
    7
 10
876.83545175206245
 20
406.59956059400628
 40
22.613780839102606
 50
53.739776611328118
 51
79.489776611328111
  0
ARC
  8
_1-0_
  6
CONTINUOUS
 62
    7
 10
930.08542329648276
 20
406.59956059400628
 40
22.613780839102606
 50
100.51020812988281
 51
126.2602081298828
  0
ARC
  8
_1-0_
  6
CONTINUOUS
 62
    7
 10
903.46039378044679
 20
426.77924358706673
 40
23.945312822187269
 50
236.40324401855469
 51
303.59674072265625
  0
ARC
  8
_1-0_
  6
CONTINUOUS
 62
    7
 10
876.83545175206245
 20
425.06833507287456
 40
22.613780839102606
 50
280.51020812988276
 51
306.26020812988276
  0
ARC
  8
_1-0_
  6
CONTINUOUS
 62
    7
 10
930.24955013083672
 20
425.44785650540496
 40
23.017052435046455
 50
233.9691162109375
 51
259.26042175292969
  0
ARC
  8
_1-0_
  6
CONTINUOUS
 62
    7
 10
908.46040055558478
 20
454.83395256130848
 40
8.0622577575182817
 50
340.25221252441406
 51
7.1250152587890803
  0
ARC
  8
_1-0_
  6
CONTINUOUS
 62
    7
 10
898.96046642170904
 20
454.83395256130848
 40
8.5000001716797868
 50
173.2901611328125
 51
198.92463684082028
  0
ARC
  8
_1-0_
  6
CONTINUOUS
 62
    7
 10
911.46043961572832
 20
441.83394369471489
 40
4.9999999401652211
 50
338.96052551269531
 51
21.039459228515653
  0
ARC
  8
_1-0_
  6
CONTINUOUS
 62
    7
 10
895.46043543281701
 20
441.83394369471489
 40
4.9999999401652211
 50
158.96052551269531
 51
201.03945922851562
  0
ARC
  8
_1-0_
  6
CONTINUOUS
 62
    7
 10
913.99635668426868
 20
430.83394628694157
 40
2.478627351950494
 50
306.20600891113281
 51
23.263381958007816
  0
ARC
  8
_1-0_
  6
CONTINUOUS
 62
    7
 10
892.92451836427654
 20
430.83394628694157
 40
2.478627351950494
 50
156.73660278320312
 51
233.7939758300781
  0
ARC
  8
_1-0_
  6
CONTINUOUS
 62
    7
 10
925.46038859599332
 20
448.73107645042154
 40
9.9999998803304422
 50
160.25221252441409
 51
180.00000000000003
  0
ARC
  8
_1-0_
  6
CONTINUOUS
 62
    7
 10
881.46039896490026
 20
448.83396192867326
 40
9.9999998803304422
 50
0
 51
18.924636840820313
  0
ARC
  8
_1-0_
  6
CONTINUOUS
 62
    7
 10
925.46038859599332
 20
447.21911485590988
 40
9.9999998803304422
 50
180
 51
201.03945922851562
  0
ARC
  8
_1-0_
  6
CONTINUOUS
 62
    7
 10
881.46039896490026
 20
447.21911485590988
 40
9.9999998803304422
 50
338.96052551269531
 51
0.0000000000000254
  0
ARC
  8
_1-0_
  6
CONTINUOUS
 62
    7
 10
881.46039896490026
 20
436.44877253351979
 40
9.9999998803304422
 50
0
 51
21.039459228515625
  0
ARC
  8
_1-0_
  6
CONTINUOUS
 62
    7
 10
925.46038859599332
 20
436.44877253351979
 40
9.9999998803304422
 50
158.96052551269531
 51
180
  0
ARC
  8
_1-0_
  6
CONTINUOUS
 62
    7
 10
925.46038859599332
 20
435.76247565074311
 40
9.9999998803304422
 50
180
 51
203.26338195800781
  0
ARC
  8
_1-0_
  6
CONTINUOUS
 62
    7
 10
881.46039896490026
 20
435.76247565074311
 40
9.9999998803304422
 50
336.73660278320318
 51
0.0000000000000413
  0
ARC
  8
_1-0_
  6
CONTINUOUS
 62
    7
 10
416.82660460011846
 20
898.83395927753224
 40
24.6338406400791
 50
0
 51
18.950820922851562
  0
ARC
  8
_1-0_
  6
CONTINUOUS
 62
    7
 10
851.82658162356336
 20
898.83395927753224
 40
24.6338406400791
 50
0
 51
18.950820922851562
  0
TEXT
  8
_0-0_
 62
    6
 10
2065.5662071198567
 20
1778.3100508170696
 40
100
 41
1
 50
0
  1
BX-4801_
  0
POINT
  8
_1-0_
 62
    7
 10
864.39269548217294
 20
496.83393073358127
  0
ENDSEC
  0
EOF
