  0
SECTION
  2
HEADER
  9
$ACADVER
  1
AC1009
  9
$INSBASE
 10
0
 20
0
 30
0
  9
$EXTMIN
 10
0
 20
0
  9
$EXTMAX
 10
2970
 20
2100
  9
$LIMMIN
 10
0
 20
0
  9
$LIMMAX
 10
2970
 20
2100
  9
$LTSCALE
 40
10
  0
ENDSEC
  0
SECTION
  2
TABLES
  0
TABLE
  2
LTYPE
 70
     9
  0
LTYPE
  2
CONTINUOUS
 70
    64
  3
実線
 72
    65
 73
     0
 40
0.0
  0
LTYPE
  2
DASHED1
 70
    64
  3
--  --  --  --  --  --  --  --  
 72
    65
 73
     2
 40
2.5
 49
1.25
 49
-1.25
  0
LTYPE
  2
DASHED2
 70
    64
  3
----    ----    ----    ----    
 72
    65
 73
     2
 40
5.0
 49
2.5
 49
-2.5
  0
LTYPE
  2
DASHED3
 70
    64
  3
------  ------  ------  ------  
 72
    65
 73
     2
 40
5.0
 49
3.75
 49
-1.25
  0
LTYPE
  2
CENTER1
 70
    64
  3
----- - ----- - ----- - ----- - 
 72
    65
 73
     4
 40
10.0
 49
6.25
 49
-1.25
 49
1.25
 49
-1.25
  0
LTYPE
  2
CENTER2
 70
    64
  3
----------  --  ----------  --  
 72
    65
 73
     4
 40
20.0
 49
12.5
 49
-2.5
 49
2.5
 49
-2.5
  0
LTYPE
  2
PHANTOM1
 70
    64
  3
--- - - --- - - --- - - --- - - 
 72
    65
 73
     6
 40
10.0
 49
3.25
 49
-1.25
 49
1.25
 49
-1.25
 49
1.25
 49
-1.25
  0
LTYPE
  2
PHANTOM2
 70
    64
  3
--------  -  -  --------  -  -  
 72
    65
 73
     6
 40
20.0
 49
10.0
 49
-2.5
 49
1.25
 49
-2.5
 49
1.25
 49
-2.5
  0
LTYPE
  2
DOT
 70
    64
  3
-   -   -   -   -   -   -   -   
 72
    65
 73
     2
 40
2.5
 49
0.625
 49
-1.875
  0
LTYPE
  2
DUMMY
 70
    64
  3
ダミー
 72
    65
 73
     0
 40
0.0
  0
LTYPE
  2
RAND1
 70
    64
  3
ランダム線1
 72
    65
 73
     4
 40
10.0
 49
1.0
 49
-2.0
 49
3.0
 49
-4.0
  0
LTYPE
  2
RAND2
 70
    64
  3
ランダム線2
 72
    65
 73
     4
 40
14.0
 49
2.0
 49
-3.0
 49
4.0
 49
-5.0
  0
LTYPE
  2
RAND3
 70
    64
  3
ランダム線3
 72
    65
 73
     4
 40
18.0
 49
3.0
 49
-4.0
 49
5.0
 49
-6.0
  0
LTYPE
  2
RAND4
 70
    64
  3
ランダム線4
 72
    65
 73
     4
 40
22.0
 49
4.0
 49
-5.0
 49
6.0
 49
-7.0
  0
LTYPE
  2
RAND5
 70
    64
  3
ランダム線5
 72
    65
 73
     4
 40
26.0
 49
5.0
 49
-6.0
 49
7.0
 49
-8.0
  0
LTYPE
  2
LONG1
 70
    64
  3
----------  --  ----------  --  
 72
    65
 73
     4
 40
40.0
 49
32.5
 49
-2.5
 49
2.5
 49
-2.5
  0
LTYPE
  2
LONG2
 70
    64
  3
--------  -  -  --------  -  -  
 72
    65
 73
     6
 40
40.0
 49
30.0
 49
-2.5
 49
1.25
 49
-2.5
 49
1.25
 49
-2.5
  0
LTYPE
  2
LONG3
 70
    64
  3
+++++++++++++++..+++++++++++++++
 72
    65
 73
     2
 40
40.0
 49
37.5
 49
-2.5
  0
LTYPE
  2
LONG4
 70
    64
  3
+++++++++++++++..+++++++++++++++
 72
    65
 73
     2
 40
80.0
 49
75.0
 49
-5.0
  0
LTYPE
  2
LONG5
 70
    64
  3
----------  --  ----------  --  
 72
    65
 73
     4
 40
60.0
 49
37.5
 49
-7.5
 49
7.5
 49
-7.5
  0
LTYPE
  2
dashed
 70
   64
  3
-------   -------------   ------
 72
   65
 73
    2
 40
7.5
 49
6
 49
-1.5
  0
LTYPE
  2
dashed_spaced
 70
   64
  3
----        --------        ----
 72
   65
 73
    2
 40
12
 49
6
 49
-6
  0
LTYPE
  2
long_dashed_dotted
 70
   64
  3
------------- --- --------------
 72
   65
 73
    4
 40
15.25
 49
12
 49
-1.5
 49
0.25
 49
-1.5
  0
LTYPE
  2
long_dashed_double-dotted
 70
   64
  3
----------- --- --- ------------
 72
   65
 73
    6
 40
17
 49
12
 49
-1.5
 49
0.25
 49
-1.5
 49
0.25
 49
-1.5
  0
LTYPE
  2
long_dashed_triplicate-dotted
 70
   64
  3
--------- --- --- --- ----------
 72
   65
 73
    8
 40
18.75
 49
12
 49
-1.5
 49
0.25
 49
-1.5
 49
0.25
 49
-1.5
 49
0.25
 49
-1.5
  0
LTYPE
  2
dotted
 70
   64
  3
   -       -       -       -    
 72
   65
 73
    2
 40
1.75
 49
0.25
 49
-1.5
  0
LTYPE
  2
chain
 70
   64
  3
-------------- -- --------------
 72
   65
 73
    4
 40
18.5
 49
12
 49
-1.5
 49
3.5
 49
-1.5
  0
LTYPE
  2
chain_double_dash
 70
   64
  3
------------ -- -- -------------
 72
   65
 73
    6
 40
23.5
 49
12
 49
-1.5
 49
3.5
 49
-1.5
 49
3.5
 49
-1.5
  0
LTYPE
  2
dashed_dotted
 70
   64
  3
-----------     -     ----------
 72
   65
 73
    4
 40
9.25
 49
6
 49
-1.5
 49
0.25
 49
-1.5
  0
LTYPE
  2
double-dashed_dotted
 70
   64
  3
------   -----------   -   -----
 72
   65
 73
    6
 40
16.75
 49
6
 49
-1.5
 49
6
 49
-1.5
 49
0.25
 49
-1.5
  0
LTYPE
  2
dashed_double-dotted
 70
   64
  3
---------    -    -    ---------
 72
   65
 73
    6
 40
11
 49
6
 49
-1.5
 49
0.25
 49
-1.5
 49
0.25
 49
-1.5
  0
LTYPE
  2
double-dashed_double-dotted
 70
   64
  3
-----   ---------   -   -   ----
 72
   65
 73
    8
 40
18.5
 49
6
 49
-1.5
 49
6
 49
-1.5
 49
0.25
 49
-1.5
 49
0.25
 49
-1.5
  0
LTYPE
  2
dashed_triplicate-dotted
 70
   64
  3
-------    -    -    -    ------
 72
   65
 73
    8
 40
12.75
 49
6
 49
-1.5
 49
0.25
 49
-1.5
 49
0.25
 49
-1.5
 49
0.25
 49
-1.5
  0
LTYPE
  2
double-dashed_triplicate-dotted
 70
   64
  3
-----  ---------  -  -  -  -----
 72
   65
 73
   10
 40
20.25
 49
6
 49
-1.5
 49
6
 49
-1.5
 49
0.25
 49
-1.5
 49
0.25
 49
-1.5
 49
0.25
 49
-1.5
  0
LTYPE
  2
undefined
 70
   64
  3
--------------------------------
 72
   65
 73
    0
 40
0
  0
LTYPE
  2
_
 70
   64
  3
                                
 72
   65
 73
    0
 40
0
  0
LTYPE
  2
__18
 70
   64
  3
                                
 72
   65
 73
    0
 40
0
  0
LTYPE
  2
__19
 70
   64
  3
                                
 72
   65
 73
    0
 40
0
  0
LTYPE
  2
__20
 70
   64
  3
                                
 72
   65
 73
    0
 40
0
  0
LTYPE
  2
__21
 70
   64
  3
                                
 72
   65
 73
    0
 40
0
  0
LTYPE
  2
__22
 70
   64
  3
                                
 72
   65
 73
    0
 40
0
  0
LTYPE
  2
__23
 70
   64
  3
                                
 72
   65
 73
    0
 40
0
  0
LTYPE
  2
__24
 70
   64
  3
                                
 72
   65
 73
    0
 40
0
  0
LTYPE
  2
__25
 70
   64
  3
                                
 72
   65
 73
    0
 40
0
  0
LTYPE
  2
__26
 70
   64
  3
                                
 72
   65
 73
    0
 40
0
  0
LTYPE
  2
__27
 70
   64
  3
                                
 72
   65
 73
    0
 40
0
  0
LTYPE
  2
__28
 70
   64
  3
                                
 72
   65
 73
    0
 40
0
  0
LTYPE
  2
__29
 70
   64
  3
                                
 72
   65
 73
    0
 40
0
  0
LTYPE
  2
__30
 70
   64
  3
                                
 72
   65
 73
    0
 40
0
  0
LTYPE
  2
__31
 70
   64
  3
                                
 72
   65
 73
    0
 40
0
  0
LTYPE
  2
__32
 70
   64
  3
                                
 72
   65
 73
    0
 40
0
  0
ENDTAB
  0
TABLE
  2
STYLE
  5
3
100
AcDbSymbolTable
 70
     1
  0
STYLE
  5
10
100
AcDbSymbolTableRecord
100
AcDbTextStyleTableRecord
  2
STANDARD
 70
     0
 40
0.0
 41
1.0
 50
0.0
 71
     0
 42
0.2
  3
txt
  4
bigfont.shx
  0
STYLE
  5
26
100
AcDbSymbolTableRecord
100
AcDbTextStyleTableRecord
  2
TATEGAKI
 70
    68
 40
0.0
 41
1.0
 50
0.0
 71
     0
 42
1.0
  3
txt
  4
bigfont.shx
  0
ENDTAB
  0
TABLE
  2
LAYER
 70
    6
  0
LAYER
  2
_0-0_
 70
   64
 62
    7
  6
CONTINUOUS
  0
LAYER
  2
_1-0_
 70
   64
 62
    7
  6
CONTINUOUS
  0
LAYER
  2
_2-0_
 70
   64
 62
    7
  6
CONTINUOUS
  0
LAYER
  2
_5-0_
 70
   64
 62
    7
  6
CONTINUOUS
  0
LAYER
  2
_6-0_
 70
   64
 62
    7
  6
CONTINUOUS
  0
LAYER
  2
ADD_LINE
 70
   64
 62
    7
  6
CONTINUOUS
  0
ENDTAB
  0
ENDSEC
  0
SECTION
  2
BLOCKS
  0
ENDSEC
  0
SECTION
  2
ENTITIES
  0
LINE
  8
_6-0_
  6
CONTINUOUS
 62
    7
 10
178.3749967376238
 20
493.45292669465641
 11
178.3749967376238
 21
360.45290832814101
  0
LINE
  8
_1-0_
  6
CONTINUOUS
 62
    7
 10
200.87460072344328
 20
1080.9417807089314
 11
200.87460072344328
 21
1053.4902553484706
  0
LINE
  8
_1-0_
  6
CONTINUOUS
 62
    7
 10
760.88098062051301
 20
1080.9417807089314
 11
760.88098062051301
 21
1053.4902553484706
  0
LINE
  8
_1-0_
  6
CONTINUOUS
 62
    7
 10
496.77815735570249
 20
1241.3418160810434
 11
660.0584174491263
 21
1241.3418160810434
  0
LINE
  8
_1-0_
  6
CONTINUOUS
 62
    7
 10
496.77736996683836
 20
951.34177307364553
 11
660.0584174491263
 21
951.34177307364553
  0
LINE
  8
_1-0_
  6
CONTINUOUS
 62
    7
 10
178.3749967376238
 20
937.34182409338041
 11
178.3749967376238
 21
1350.3418063012787
  0
LINE
  8
_1-0_
  6
CONTINUOUS
 62
    7
 10
777.37502757186587
 20
931.34183346074508
 11
184.37499830621562
 21
931.34183346074508
  0
LINE
  8
_1-0_
  6
CONTINUOUS
 62
    7
 10
777.37502757186587
 20
1356.3417969339141
 11
184.37499830621562
 21
1356.3417969339141
  0
LINE
  8
_1-0_
  6
CONTINUOUS
 62
    7
 10
754.88055254961989
 20
951.34177307364553
 11
206.87419766164652
 21
951.34177307364553
  0
LINE
  8
_1-0_
  6
CONTINUOUS
 62
    7
 10
200.87420702901113
 20
957.34176370628097
 11
200.87499441787543
 21
1236.3418093059054
  0
LINE
  8
_1-0_
  6
CONTINUOUS
 62
    7
 10
760.88054318225522
 20
957.34176370628097
 11
760.88133057111929
 21
1236.3418093059054
  0
LINE
  8
_1-0_
  6
CONTINUOUS
 62
    7
 10
754.88133993848407
 20
1241.3418160810434
 11
206.87500692242367
 21
1241.3418160810434
  0
LINE
  8
_1-0_
  6
CONTINUOUS
 62
    7
 10
255.87500332865474
 20
1242.3417999385406
 11
255.87500332865474
 21
1018.3418288654342
  0
LINE
  8
_1-0_
  6
CONTINUOUS
 62
    7
 10
705.87500067751375
 20
1242.3417999385406
 11
705.87500067751375
 21
1018.3418288654342
  0
LINE
  8
_1-0_
  6
CONTINUOUS
 62
    7
 10
699.87501004487854
 20
1012.3418382327989
 11
261.87499396128999
 21
1012.3418382327989
  0
LINE
  8
_1-0_
  6
CONTINUOUS
 62
    7
 10
257.63236778583303
 20
1014.0992026899772
 11
202.63235887505374
 21
958.09713208997562
  0
LINE
  8
_1-0_
  6
CONTINUOUS
 62
    7
 10
704.1176362203355
 20
1014.0992026899772
 11
759.12396611394104
 21
958.09713208997562
  0
LINE
  8
_1-0_
  6
CONTINUOUS
 62
    7
 10
783.3750182045012
 20
1350.3418063012787
 11
783.3750182045012
 21
937.34182409338041
  0
LINE
  8
_6-0_
  6
CONTINUOUS
 62
    7
 10
1201.8749991162863
 20
354.45291769550579
 11
1614.8750688118364
 21
354.45291769550579
  0
LINE
  8
_6-0_
  6
CONTINUOUS
 62
    7
 10
1620.87497195682
 20
360.45290832814101
 11
1620.87497195682
 21
493.45292669465641
  0
LINE
  8
_6-0_
  6
CONTINUOUS
 62
    7
 10
1195.8750084836511
 20
360.45290832814101
 11
1195.8750084836511
 21
493.45292669465641
  0
LINE
  8
_6-0_
  6
CONTINUOUS
 62
    7
 10
1282.4304791306895
 20
409.45292660628496
 11
1496.8750488988221
 21
409.45292660628496
  0
LINE
  8
_6-0_
  6
CONTINUOUS
 62
    7
 10
1273.9399775206812
 20
414.16977959710198
 11
1217.6610085034461
 21
496.82964383865408
  0
LINE
  8
_6-0_
  6
CONTINUOUS
 62
    7
 10
1505.8750785916006
 20
493.45292669465641
 11
1505.8750785916006
 21
419.45289641273524
  0
LINE
  8
_6-0_
  6
CONTINUOUS
 62
    7
 10
1201.8749991162863
 20
499.45291732729169
 11
1212.7014210233356
 21
499.45291732729169
  0
LINE
  8
_6-0_
  6
CONTINUOUS
 62
    7
 10
1512.8749655940817
 20
499.45291732729169
 11
1614.8750688118364
 21
499.45291732729169
  0
LINE
  8
_6-0_
  6
CONTINUOUS
 62
    7
 10
1212.7014210233356
 20
499.45291732729169
 11
1512.8749655940817
 21
499.45291732729169
  0
LINE
  8
_6-0_
  6
CONTINUOUS
 62
    7
 10
1388.3751380949866
 20
399.45291305600904
 11
1388.3751380949866
 21
354.45291769550579
  0
LINE
  8
_6-0_
  6
CONTINUOUS
 62
    7
 10
1433.3751990712287
 20
399.45291305600904
 11
1433.3751990712287
 21
354.45291769550579
  0
LINE
  8
_6-0_
  6
CONTINUOUS
 62
    7
 10
1373.3752052572243
 20
409.45292660628496
 11
1388.3751380949866
 21
399.45291305600904
  0
LINE
  8
_6-0_
  6
CONTINUOUS
 62
    7
 10
1433.3751990712287
 20
399.45291305600904
 11
1448.3751319089911
 21
409.45292660628496
  0
LINE
  8
_6-0_
  6
CONTINUOUS
 62
    7
 10
184.37499830621562
 20
354.45291769550579
 11
777.37502757186587
 21
354.45291769550579
  0
LINE
  8
_6-0_
  6
CONTINUOUS
 62
    7
 10
783.3750182045012
 20
360.45290832814101
 11
783.3750182045012
 21
493.45292669465641
  0
LINE
  8
_6-0_
  6
CONTINUOUS
 62
    7
 10
700.2669984677583
 20
409.45292660628496
 11
261.48335548901656
 21
409.45292660628496
  0
LINE
  8
_6-0_
  6
CONTINUOUS
 62
    7
 10
202.62969050168067
 20
496.58161634644023
 11
252.95053172755885
 21
414.23841365976222
  0
LINE
  8
_6-0_
  6
CONTINUOUS
 62
    7
 10
759.12659074348824
 20
496.58187880939494
 11
708.7995378943483
 21
414.23797622150431
  0
LINE
  8
_6-0_
  6
CONTINUOUS
 62
    7
 10
184.37499830621562
 20
499.45291732729169
 11
197.51000061918859
 21
499.45291732729169
  0
LINE
  8
_6-0_
  6
CONTINUOUS
 62
    7
 10
764.24610565067712
 20
499.45291732729169
 11
777.37502757186587
 21
499.45291732729169
  0
LINE
  8
_6-0_
  6
CONTINUOUS
 62
    7
 10
197.51000061918859
 20
499.45291732729169
 11
764.24610565067712
 21
499.45291732729169
  0
LINE
  8
_6-0_
  6
CONTINUOUS
 62
    7
 10
458.37519023409214
 20
399.45291305600904
 11
458.37519023409214
 21
354.45291769550579
  0
LINE
  8
_6-0_
  6
CONTINUOUS
 62
    7
 10
503.37516372268254
 20
399.45291305600904
 11
503.37516372268254
 21
354.45291769550579
  0
LINE
  8
_6-0_
  6
CONTINUOUS
 62
    7
 10
443.37516990867812
 20
409.45292660628496
 11
458.37519023409214
 21
399.45291305600904
  0
LINE
  8
_6-0_
  6
CONTINUOUS
 62
    7
 10
503.37516372268254
 20
399.45291305600904
 11
518.37518404809657
 21
409.45292660628496
  0
LINE
  8
_6-0_
  6
CONTINUOUS
 62
    7
 10
497.50308003664941
 20
476.45293865424782
 11
499.37807164136956
 21
476.45293865424782
  0
LINE
  8
_6-0_
  6
CONTINUOUS
 62
    7
 10
499.37807164136956
 20
476.45293865424782
 11
500.40228957835313
 21
476.55381191651327
  0
LINE
  8
_6-0_
  6
CONTINUOUS
 62
    7
 10
500.40228957835313
 20
476.55381191651327
 11
501.38713807212798
 21
476.85253850281464
  0
LINE
  8
_6-0_
  6
CONTINUOUS
 62
    7
 10
501.38713807212798
 20
476.85253850281464
 11
502.29482245721414
 21
477.33770127462145
  0
LINE
  8
_6-0_
  6
CONTINUOUS
 62
    7
 10
502.29482245721414
 20
477.33770127462145
 11
503.09039141680739
 21
477.99062161832239
  0
LINE
  8
_6-0_
  6
CONTINUOUS
 62
    7
 10
503.09039141680739
 20
477.99062161832239
 11
503.74326801668258
 21
478.7861905779157
  0
LINE
  8
_6-0_
  6
CONTINUOUS
 62
    7
 10
503.74326801668258
 20
478.7861905779157
 11
504.22843078848928
 21
479.69383121917599
  0
LINE
  8
_6-0_
  6
CONTINUOUS
 62
    7
 10
504.22843078848928
 20
479.69383121917599
 11
504.52720111861652
 21
480.67867971295095
  0
LINE
  8
_6-0_
  6
CONTINUOUS
 62
    7
 10
504.52720111861652
 20
480.67867971295095
 11
504.62807438088191
 21
481.70289764993436
  0
LINE
  8
_6-0_
  6
CONTINUOUS
 62
    7
 10
504.62807438088191
 20
481.70289764993436
 11
504.52720111861652
 21
482.72715933074358
  0
LINE
  8
_6-0_
  6
CONTINUOUS
 62
    7
 10
504.52720111861652
 20
482.72715933074358
 11
504.22843078848928
 21
483.71200782451854
  0
LINE
  8
_6-0_
  6
CONTINUOUS
 62
    7
 10
504.22843078848928
 20
483.71200782451854
 11
503.74326801668258
 21
484.61964846577877
  0
LINE
  8
_6-0_
  6
CONTINUOUS
 62
    7
 10
503.74326801668258
 20
484.61964846577877
 11
503.09039141680739
 21
485.41521742537213
  0
LINE
  8
_6-0_
  6
CONTINUOUS
 62
    7
 10
503.09039141680739
 20
485.41521742537213
 11
502.29482245721414
 21
486.06813776907308
  0
LINE
  8
_6-0_
  6
CONTINUOUS
 62
    7
 10
502.29482245721414
 20
486.06813776907308
 11
501.38713807212798
 21
486.55330054087983
  0
LINE
  8
_6-0_
  6
CONTINUOUS
 62
    7
 10
501.38713807212798
 20
486.55330054087983
 11
500.40228957835313
 21
486.85202712718126
  0
LINE
  8
_6-0_
  6
CONTINUOUS
 62
    7
 10
500.40228957835313
 20
486.85202712718126
 11
499.37807164136956
 21
486.95290038944671
  0
LINE
  8
_6-0_
  6
CONTINUOUS
 62
    7
 10
499.37807164136956
 20
486.95290038944671
 11
497.50308003664941
 21
486.95290038944671
  0
LINE
  8
_6-0_
  6
CONTINUOUS
 62
    7
 10
497.50308003664941
 20
486.95290038944671
 11
464.25304810512944
 21
486.95290038944671
  0
LINE
  8
_6-0_
  6
CONTINUOUS
 62
    7
 10
464.25304810512944
 20
486.95290038944671
 11
462.37805650040912
 21
486.95290038944671
  0
LINE
  8
_6-0_
  6
CONTINUOUS
 62
    7
 10
462.37805650040912
 20
486.95290038944671
 11
461.35383856342571
 21
486.85202712718126
  0
LINE
  8
_6-0_
  6
CONTINUOUS
 62
    7
 10
461.35383856342571
 20
486.85202712718126
 11
460.36899006965075
 21
486.55330054087983
  0
LINE
  8
_6-0_
  6
CONTINUOUS
 62
    7
 10
460.36899006965075
 20
486.55330054087983
 11
459.46130568456454
 21
486.06813776907308
  0
LINE
  8
_6-0_
  6
CONTINUOUS
 62
    7
 10
459.46130568456454
 20
486.06813776907308
 11
458.6657367249714
 21
485.41521742537213
  0
LINE
  8
_6-0_
  6
CONTINUOUS
 62
    7
 10
458.6657367249714
 20
485.41521742537213
 11
458.01286012509621
 21
484.61964846577877
  0
LINE
  8
_6-0_
  6
CONTINUOUS
 62
    7
 10
458.01286012509621
 20
484.61964846577877
 11
457.5276973532894
 21
483.71200782451854
  0
LINE
  8
_6-0_
  6
CONTINUOUS
 62
    7
 10
457.5276973532894
 20
483.71200782451854
 11
457.22892702316216
 21
482.72715933074358
  0
LINE
  8
_6-0_
  6
CONTINUOUS
 62
    7
 10
457.22892702316216
 20
482.72715933074358
 11
457.12805376089676
 21
481.70289764993436
  0
LINE
  8
_6-0_
  6
CONTINUOUS
 62
    7
 10
457.12805376089676
 20
481.70289764993436
 11
457.22892702316216
 21
480.67867971295095
  0
LINE
  8
_6-0_
  6
CONTINUOUS
 62
    7
 10
457.22892702316216
 20
480.67867971295095
 11
457.5276973532894
 21
479.69383121917599
  0
LINE
  8
_6-0_
  6
CONTINUOUS
 62
    7
 10
457.5276973532894
 20
479.69383121917599
 11
458.01286012509621
 21
478.7861905779157
  0
LINE
  8
_6-0_
  6
CONTINUOUS
 62
    7
 10
458.01286012509621
 20
478.7861905779157
 11
458.6657367249714
 21
477.99062161832239
  0
LINE
  8
_6-0_
  6
CONTINUOUS
 62
    7
 10
458.6657367249714
 20
477.99062161832239
 11
459.46130568456454
 21
477.33770127462145
  0
LINE
  8
_6-0_
  6
CONTINUOUS
 62
    7
 10
459.46130568456454
 20
477.33770127462145
 11
460.36899006965075
 21
476.85253850281464
  0
LINE
  8
_6-0_
  6
CONTINUOUS
 62
    7
 10
460.36899006965075
 20
476.85253850281464
 11
461.35383856342571
 21
476.55381191651327
  0
LINE
  8
_6-0_
  6
CONTINUOUS
 62
    7
 10
461.35383856342571
 20
476.55381191651327
 11
462.37805650040912
 21
476.45293865424782
  0
LINE
  8
_6-0_
  6
CONTINUOUS
 62
    7
 10
462.37805650040912
 20
476.45293865424782
 11
464.25304810512944
 21
476.45293865424782
  0
LINE
  8
_6-0_
  6
CONTINUOUS
 62
    7
 10
464.25304810512944
 20
476.45293865424782
 11
497.50308003664941
 21
476.45293865424782
  0
LINE
  8
_6-0_
  6
CONTINUOUS
 62
    7
 10
497.28431716388712
 20
473.95293526667888
 11
499.37807164136956
 21
473.95293526667888
  0
LINE
  8
_6-0_
  6
CONTINUOUS
 62
    7
 10
499.37807164136956
 20
473.95293526667888
 11
500.89003323588133
 21
474.10183924965872
  0
LINE
  8
_6-0_
  6
CONTINUOUS
 62
    7
 10
500.89003323588133
 20
474.10183924965872
 11
502.34385928592161
 21
474.54286450124613
  0
LINE
  8
_6-0_
  6
CONTINUOUS
 62
    7
 10
502.34385928592161
 20
474.54286450124613
 11
503.68373266978608
 21
475.25903841703553
  0
LINE
  8
_6-0_
  6
CONTINUOUS
 62
    7
 10
503.68373266978608
 20
475.25903841703553
 11
504.85812316069723
 21
476.22284613060674
  0
LINE
  8
_6-0_
  6
CONTINUOUS
 62
    7
 10
504.85812316069723
 20
476.22284613060674
 11
505.82197461809426
 21
477.39723662151789
  0
LINE
  8
_6-0_
  6
CONTINUOUS
 62
    7
 10
505.82197461809426
 20
477.39723662151789
 11
506.53814853388371
 21
478.73711000538236
  0
LINE
  8
_6-0_
  6
CONTINUOUS
 62
    7
 10
506.53814853388371
 20
478.73711000538236
 11
506.97917378547106
 21
480.19097979924851
  0
LINE
  8
_6-0_
  6
CONTINUOUS
 62
    7
 10
506.97917378547106
 20
480.19097979924851
 11
507.12807776845096
 21
481.70289764993436
  0
LINE
  8
_6-0_
  6
CONTINUOUS
 62
    7
 10
507.12807776845096
 20
481.70289764993436
 11
506.97917378547106
 21
483.21485924444602
  0
LINE
  8
_6-0_
  6
CONTINUOUS
 62
    7
 10
506.97917378547106
 20
483.21485924444602
 11
506.53814853388371
 21
484.66872903831216
  0
LINE
  8
_6-0_
  6
CONTINUOUS
 62
    7
 10
506.53814853388371
 20
484.66872903831216
 11
505.82197461809426
 21
486.00860242217664
  0
LINE
  8
_6-0_
  6
CONTINUOUS
 62
    7
 10
505.82197461809426
 20
486.00860242217664
 11
504.85812316069723
 21
487.18299291308779
  0
LINE
  8
_6-0_
  6
CONTINUOUS
 62
    7
 10
504.85812316069723
 20
487.18299291308779
 11
503.68373266978608
 21
488.146800626659
  0
LINE
  8
_6-0_
  6
CONTINUOUS
 62
    7
 10
503.68373266978608
 20
488.146800626659
 11
502.34385928592161
 21
488.8629745424484
  0
LINE
  8
_6-0_
  6
CONTINUOUS
 62
    7
 10
502.34385928592161
 20
488.8629745424484
 11
500.89003323588133
 21
489.30399979403575
  0
LINE
  8
_6-0_
  6
CONTINUOUS
 62
    7
 10
500.89003323588133
 20
489.30399979403575
 11
499.37807164136956
 21
489.45290377701565
  0
LINE
  8
_6-0_
  6
CONTINUOUS
 62
    7
 10
499.37807164136956
 20
489.45290377701565
 11
497.28431716388712
 21
489.45290377701565
  0
LINE
  8
_6-0_
  6
CONTINUOUS
 62
    7
 10
497.28431716388712
 20
489.45290377701565
 11
464.47181097789155
 21
489.45290377701565
  0
LINE
  8
_6-0_
  6
CONTINUOUS
 62
    7
 10
464.47181097789155
 20
489.45290377701565
 11
462.37805650040912
 21
489.45290377701565
  0
LINE
  8
_6-0_
  6
CONTINUOUS
 62
    7
 10
462.37805650040912
 20
489.45290377701565
 11
460.86613864972321
 21
489.30399979403575
  0
LINE
  8
_6-0_
  6
CONTINUOUS
 62
    7
 10
460.86613864972321
 20
489.30399979403575
 11
459.41226885585706
 21
488.8629745424484
  0
LINE
  8
_6-0_
  6
CONTINUOUS
 62
    7
 10
459.41226885585706
 20
488.8629745424484
 11
458.07239547199259
 21
488.146800626659
  0
LINE
  8
_6-0_
  6
CONTINUOUS
 62
    7
 10
458.07239547199259
 20
488.146800626659
 11
456.89800498108139
 21
487.18299291308779
  0
LINE
  8
_6-0_
  6
CONTINUOUS
 62
    7
 10
456.89800498108139
 20
487.18299291308779
 11
455.93419726751023
 21
486.00860242217664
  0
LINE
  8
_6-0_
  6
CONTINUOUS
 62
    7
 10
455.93419726751023
 20
486.00860242217664
 11
455.21797960789513
 21
484.66872903831216
  0
LINE
  8
_6-0_
  6
CONTINUOUS
 62
    7
 10
455.21797960789513
 20
484.66872903831216
 11
454.77699810013348
 21
483.21485924444602
  0
LINE
  8
_6-0_
  6
CONTINUOUS
 62
    7
 10
454.77699810013348
 20
483.21485924444602
 11
454.62805037332771
 21
481.70289764993436
  0
LINE
  8
_6-0_
  6
CONTINUOUS
 62
    7
 10
454.62805037332771
 20
481.70289764993436
 11
454.77699810013348
 21
480.19097979924851
  0
LINE
  8
_6-0_
  6
CONTINUOUS
 62
    7
 10
454.77699810013348
 20
480.19097979924851
 11
455.21797960789513
 21
478.73711000538236
  0
LINE
  8
_6-0_
  6
CONTINUOUS
 62
    7
 10
455.21797960789513
 20
478.73711000538236
 11
455.93419726751023
 21
477.39723662151789
  0
LINE
  8
_6-0_
  6
CONTINUOUS
 62
    7
 10
455.93419726751023
 20
477.39723662151789
 11
456.89800498108139
 21
476.22284613060674
  0
LINE
  8
_6-0_
  6
CONTINUOUS
 62
    7
 10
456.89800498108139
 20
476.22284613060674
 11
458.07239547199259
 21
475.25903841703553
  0
LINE
  8
_6-0_
  6
CONTINUOUS
 62
    7
 10
458.07239547199259
 20
475.25903841703553
 11
459.41226885585706
 21
474.54286450124613
  0
LINE
  8
_6-0_
  6
CONTINUOUS
 62
    7
 10
459.41226885585706
 20
474.54286450124613
 11
460.86613864972321
 21
474.10183924965872
  0
LINE
  8
_6-0_
  6
CONTINUOUS
 62
    7
 10
460.86613864972321
 20
474.10183924965872
 11
462.37805650040912
 21
473.95293526667888
  0
LINE
  8
_6-0_
  6
CONTINUOUS
 62
    7
 10
462.37805650040912
 20
473.95293526667888
 11
464.47181097789155
 21
473.95293526667888
  0
LINE
  8
_6-0_
  6
CONTINUOUS
 62
    7
 10
464.47181097789155
 20
473.95293526667888
 11
497.28431716388712
 21
473.95293526667888
  0
ARC
  8
_1-0_
  6
CONTINUOUS
 62
    7
 10
184.37499830621562
 20
1350.3418063012787
 40
6.0000002015971763
 50
90
 51
180
  0
ARC
  8
_1-0_
  6
CONTINUOUS
 62
    7
 10
184.37499830621562
 20
937.34182409338041
 40
6.0000002015971763
 50
180
 51
270
  0
ARC
  8
_1-0_
  6
CONTINUOUS
 62
    7
 10
777.37502757186587
 20
937.34182409338041
 40
6.0000002015971763
 50
270
 51
0
  0
ARC
  8
_1-0_
  6
CONTINUOUS
 62
    7
 10
777.37502757186587
 20
1350.3418063012787
 40
6.0000002015971763
 50
0
 51
90
  0
ARC
  8
_1-0_
  6
CONTINUOUS
 62
    7
 10
754.88055254961989
 20
957.34176370628097
 40
6.0000002015971763
 50
270
 51
0
  0
ARC
  8
_1-0_
  6
CONTINUOUS
 62
    7
 10
206.87500692242367
 20
1235.3418254484081
 40
6.0000002015971763
 50
90
 51
180
  0
ARC
  8
_1-0_
  6
CONTINUOUS
 62
    7
 10
206.87419766164652
 20
957.34176370628097
 40
6.0000002015971763
 50
180
 51
270
  0
CIRCLE
  8
_1-0_
  6
CONTINUOUS
 62
    7
 10
480.87500200308426
 20
1301.3418098950478
 40
18.000000604791531
  0
ARC
  8
_1-0_
  6
CONTINUOUS
 62
    7
 10
754.88133993848407
 20
1235.3418254484081
 40
6.0000002015971763
 50
0
 51
90
  0
ARC
  8
_1-0_
  6
CONTINUOUS
 62
    7
 10
261.87499396128999
 20
1018.3418288654342
 40
6.0000002015971763
 50
180
 51
270
  0
ARC
  8
_1-0_
  6
CONTINUOUS
 62
    7
 10
699.87501004487854
 20
1018.3418288654342
 40
6.0000002015971763
 50
270
 51
0
  0
CIRCLE
  8
_1-0_
  6
CONTINUOUS
 62
    7
 10
480.87500200308426
 20
1151.3417816162107
 40
24.500000937104684
  0
CIRCLE
  8
_1-0_
  6
CONTINUOUS
 62
    7
 10
480.87500200308426
 20
1151.3417816162107
 40
37.49999886774188
  0
ARC
  8
_6-0_
  6
CONTINUOUS
 62
    7
 10
1614.8750688118364
 20
360.45290832814101
 40
6.0000002015971763
 50
270
 51
0
  0
ARC
  8
_6-0_
  6
CONTINUOUS
 62
    7
 10
1201.8749991162863
 20
360.45290832814101
 40
6.0000002015971763
 50
180
 51
270
  0
ARC
  8
_6-0_
  6
CONTINUOUS
 62
    7
 10
1201.8749991162863
 20
493.45292669465641
 40
6.0000002015971763
 50
90
 51
180
  0
ARC
  8
_6-0_
  6
CONTINUOUS
 62
    7
 10
1495.8750650413249
 20
419.45289641273524
 40
9.9999998803304422
 50
270
 51
0
  0
ARC
  8
_6-0_
  6
CONTINUOUS
 62
    7
 10
1212.7014210233356
 20
493.45292669465641
 40
6.0000002015971763
 50
34.248947143554687
 51
90
  0
ARC
  8
_6-0_
  6
CONTINUOUS
 62
    7
 10
1282.4304791306895
 20
419.45289641273524
 40
9.9999998803304422
 50
211.8917236328125
 51
270
  0
ARC
  8
_6-0_
  6
CONTINUOUS
 62
    7
 10
1511.8749817365845
 20
493.45292669465641
 40
6.0000002015971763
 50
90
 51
180
  0
ARC
  8
_6-0_
  6
CONTINUOUS
 62
    7
 10
1614.8750688118364
 20
493.45292669465641
 40
6.0000002015971763
 50
0
 51
90
  0
ARC
  8
_6-0_
  6
CONTINUOUS
 62
    7
 10
184.37499830621562
 20
493.45292669465641
 40
6.0000002015971763
 50
90
 51
180
  0
ARC
  8
_6-0_
  6
CONTINUOUS
 62
    7
 10
777.37502757186587
 20
360.45290832814101
 40
6.0000002015971763
 50
270
 51
0
  0
ARC
  8
_6-0_
  6
CONTINUOUS
 62
    7
 10
184.37499830621562
 20
360.45290832814101
 40
6.0000002015971763
 50
180
 51
270
  0
ARC
  8
_6-0_
  6
CONTINUOUS
 62
    7
 10
777.37502757186587
 20
493.45292669465641
 40
6.0000002015971763
 50
0
 51
90
  0
ARC
  8
_6-0_
  6
CONTINUOUS
 62
    7
 10
261.48335548901656
 20
419.45289641273524
 40
9.9999998803304422
 50
211.42956542968747
 51
270
  0
ARC
  8
_6-0_
  6
CONTINUOUS
 62
    7
 10
700.2669984677583
 20
419.45289641273524
 40
9.9999998803304422
 50
270
 51
328.56748962402344
  0
ARC
  8
_6-0_
  6
CONTINUOUS
 62
    7
 10
197.51000061918859
 20
493.45292669465641
 40
6.0000002015971763
 50
31.4295654296875
 51
90
  0
ARC
  8
_6-0_
  6
CONTINUOUS
 62
    7
 10
764.24610565067712
 20
493.45292669465641
 40
6.0000002015971763
 50
90
 51
148.56748962402344
  0
TEXT
  8
_0-0_
 62
    6
 10
1960.1900007918073
 20
1814.3306416986529
 40
100
 41
1
 50
0
  1
 
  0
TEXT
  8
_0-0_
 62
    6
 10
1970.0666243505293
 20
1814.3306416986529
 40
100
 41
1
 50
0
  1
B1-671
  0
TEXT
  8
_2-0_
 62
    4
 10
994.08971352006461
 20
1547.0362689044023
 40
25
 41
1
 50
0
  1
 
  0
TEXT
  8
_5-0_
 62
    4
 10
2110.2222513324045
 20
1628.4529773609056
 40
25
 41
1
 50
0
  1
　
  0
TEXT
  8
_5-0_
 62
    4
 10
2138.4444554155857
 20
1628.4529773609056
 40
25
 41
1
 50
0
  1
　
  0
TEXT
  8
_5-0_
 62
    4
 10
2166.6666594987669
 20
1589.6473045790979
 40
25
 41
1
 50
0
  1
　
  0
ENDSEC
  0
EOF
