  0
SECTION
  2
HEADER
  9
$ACADVER
  1
AC1009
  9
$INSBASE
 10
0
 20
0
 30
0
  9
$EXTMIN
 10
0
 20
0
  9
$EXTMAX
 10
2970
 20
2100
  9
$LIMMIN
 10
0
 20
0
  9
$LIMMAX
 10
2970
 20
2100
  9
$LTSCALE
 40
10
  0
ENDSEC
  0
SECTION
  2
TABLES
  0
TABLE
  2
LTYPE
 70
     9
  0
LTYPE
  2
CONTINUOUS
 70
    64
  3
実線
 72
    65
 73
     0
 40
0.0
  0
LTYPE
  2
DASHED1
 70
    64
  3
--  --  --  --  --  --  --  --  
 72
    65
 73
     2
 40
2.5
 49
1.25
 49
-1.25
  0
LTYPE
  2
DASHED2
 70
    64
  3
----    ----    ----    ----    
 72
    65
 73
     2
 40
5.0
 49
2.5
 49
-2.5
  0
LTYPE
  2
DASHED3
 70
    64
  3
------  ------  ------  ------  
 72
    65
 73
     2
 40
5.0
 49
3.75
 49
-1.25
  0
LTYPE
  2
CENTER1
 70
    64
  3
----- - ----- - ----- - ----- - 
 72
    65
 73
     4
 40
10.0
 49
6.25
 49
-1.25
 49
1.25
 49
-1.25
  0
LTYPE
  2
CENTER2
 70
    64
  3
----------  --  ----------  --  
 72
    65
 73
     4
 40
20.0
 49
12.5
 49
-2.5
 49
2.5
 49
-2.5
  0
LTYPE
  2
PHANTOM1
 70
    64
  3
--- - - --- - - --- - - --- - - 
 72
    65
 73
     6
 40
10.0
 49
3.25
 49
-1.25
 49
1.25
 49
-1.25
 49
1.25
 49
-1.25
  0
LTYPE
  2
PHANTOM2
 70
    64
  3
--------  -  -  --------  -  -  
 72
    65
 73
     6
 40
20.0
 49
10.0
 49
-2.5
 49
1.25
 49
-2.5
 49
1.25
 49
-2.5
  0
LTYPE
  2
DOT
 70
    64
  3
-   -   -   -   -   -   -   -   
 72
    65
 73
     2
 40
2.5
 49
0.625
 49
-1.875
  0
LTYPE
  2
DUMMY
 70
    64
  3
ダミー
 72
    65
 73
     0
 40
0.0
  0
LTYPE
  2
RAND1
 70
    64
  3
ランダム線1
 72
    65
 73
     4
 40
10.0
 49
1.0
 49
-2.0
 49
3.0
 49
-4.0
  0
LTYPE
  2
RAND2
 70
    64
  3
ランダム線2
 72
    65
 73
     4
 40
14.0
 49
2.0
 49
-3.0
 49
4.0
 49
-5.0
  0
LTYPE
  2
RAND3
 70
    64
  3
ランダム線3
 72
    65
 73
     4
 40
18.0
 49
3.0
 49
-4.0
 49
5.0
 49
-6.0
  0
LTYPE
  2
RAND4
 70
    64
  3
ランダム線4
 72
    65
 73
     4
 40
22.0
 49
4.0
 49
-5.0
 49
6.0
 49
-7.0
  0
LTYPE
  2
RAND5
 70
    64
  3
ランダム線5
 72
    65
 73
     4
 40
26.0
 49
5.0
 49
-6.0
 49
7.0
 49
-8.0
  0
LTYPE
  2
LONG1
 70
    64
  3
----------  --  ----------  --  
 72
    65
 73
     4
 40
40.0
 49
32.5
 49
-2.5
 49
2.5
 49
-2.5
  0
LTYPE
  2
LONG2
 70
    64
  3
--------  -  -  --------  -  -  
 72
    65
 73
     6
 40
40.0
 49
30.0
 49
-2.5
 49
1.25
 49
-2.5
 49
1.25
 49
-2.5
  0
LTYPE
  2
LONG3
 70
    64
  3
+++++++++++++++..+++++++++++++++
 72
    65
 73
     2
 40
40.0
 49
37.5
 49
-2.5
  0
LTYPE
  2
LONG4
 70
    64
  3
+++++++++++++++..+++++++++++++++
 72
    65
 73
     2
 40
80.0
 49
75.0
 49
-5.0
  0
LTYPE
  2
LONG5
 70
    64
  3
----------  --  ----------  --  
 72
    65
 73
     4
 40
60.0
 49
37.5
 49
-7.5
 49
7.5
 49
-7.5
  0
LTYPE
  2
dashed
 70
   64
  3
-------   -------------   ------
 72
   65
 73
    2
 40
7.5
 49
6
 49
-1.5
  0
LTYPE
  2
dashed_spaced
 70
   64
  3
----        --------        ----
 72
   65
 73
    2
 40
12
 49
6
 49
-6
  0
LTYPE
  2
long_dashed_dotted
 70
   64
  3
------------- --- --------------
 72
   65
 73
    4
 40
15.25
 49
12
 49
-1.5
 49
0.25
 49
-1.5
  0
LTYPE
  2
long_dashed_double-dotted
 70
   64
  3
----------- --- --- ------------
 72
   65
 73
    6
 40
17
 49
12
 49
-1.5
 49
0.25
 49
-1.5
 49
0.25
 49
-1.5
  0
LTYPE
  2
long_dashed_triplicate-dotted
 70
   64
  3
--------- --- --- --- ----------
 72
   65
 73
    8
 40
18.75
 49
12
 49
-1.5
 49
0.25
 49
-1.5
 49
0.25
 49
-1.5
 49
0.25
 49
-1.5
  0
LTYPE
  2
dotted
 70
   64
  3
   -       -       -       -    
 72
   65
 73
    2
 40
1.75
 49
0.25
 49
-1.5
  0
LTYPE
  2
chain
 70
   64
  3
-------------- -- --------------
 72
   65
 73
    4
 40
18.5
 49
12
 49
-1.5
 49
3.5
 49
-1.5
  0
LTYPE
  2
chain_double_dash
 70
   64
  3
------------ -- -- -------------
 72
   65
 73
    6
 40
23.5
 49
12
 49
-1.5
 49
3.5
 49
-1.5
 49
3.5
 49
-1.5
  0
LTYPE
  2
dashed_dotted
 70
   64
  3
-----------     -     ----------
 72
   65
 73
    4
 40
9.25
 49
6
 49
-1.5
 49
0.25
 49
-1.5
  0
LTYPE
  2
double-dashed_dotted
 70
   64
  3
------   -----------   -   -----
 72
   65
 73
    6
 40
16.75
 49
6
 49
-1.5
 49
6
 49
-1.5
 49
0.25
 49
-1.5
  0
LTYPE
  2
dashed_double-dotted
 70
   64
  3
---------    -    -    ---------
 72
   65
 73
    6
 40
11
 49
6
 49
-1.5
 49
0.25
 49
-1.5
 49
0.25
 49
-1.5
  0
LTYPE
  2
double-dashed_double-dotted
 70
   64
  3
-----   ---------   -   -   ----
 72
   65
 73
    8
 40
18.5
 49
6
 49
-1.5
 49
6
 49
-1.5
 49
0.25
 49
-1.5
 49
0.25
 49
-1.5
  0
LTYPE
  2
dashed_triplicate-dotted
 70
   64
  3
-------    -    -    -    ------
 72
   65
 73
    8
 40
12.75
 49
6
 49
-1.5
 49
0.25
 49
-1.5
 49
0.25
 49
-1.5
 49
0.25
 49
-1.5
  0
LTYPE
  2
double-dashed_triplicate-dotted
 70
   64
  3
-----  ---------  -  -  -  -----
 72
   65
 73
   10
 40
20.25
 49
6
 49
-1.5
 49
6
 49
-1.5
 49
0.25
 49
-1.5
 49
0.25
 49
-1.5
 49
0.25
 49
-1.5
  0
LTYPE
  2
undefined
 70
   64
  3
--------------------------------
 72
   65
 73
    0
 40
0
  0
LTYPE
  2
_
 70
   64
  3
                                
 72
   65
 73
    0
 40
0
  0
LTYPE
  2
__18
 70
   64
  3
                                
 72
   65
 73
    0
 40
0
  0
LTYPE
  2
__19
 70
   64
  3
                                
 72
   65
 73
    0
 40
0
  0
LTYPE
  2
__20
 70
   64
  3
                                
 72
   65
 73
    0
 40
0
  0
LTYPE
  2
__21
 70
   64
  3
                                
 72
   65
 73
    0
 40
0
  0
LTYPE
  2
__22
 70
   64
  3
                                
 72
   65
 73
    0
 40
0
  0
LTYPE
  2
__23
 70
   64
  3
                                
 72
   65
 73
    0
 40
0
  0
LTYPE
  2
__24
 70
   64
  3
                                
 72
   65
 73
    0
 40
0
  0
LTYPE
  2
__25
 70
   64
  3
                                
 72
   65
 73
    0
 40
0
  0
LTYPE
  2
__26
 70
   64
  3
                                
 72
   65
 73
    0
 40
0
  0
LTYPE
  2
__27
 70
   64
  3
                                
 72
   65
 73
    0
 40
0
  0
LTYPE
  2
__28
 70
   64
  3
                                
 72
   65
 73
    0
 40
0
  0
LTYPE
  2
__29
 70
   64
  3
                                
 72
   65
 73
    0
 40
0
  0
LTYPE
  2
__30
 70
   64
  3
                                
 72
   65
 73
    0
 40
0
  0
LTYPE
  2
__31
 70
   64
  3
                                
 72
   65
 73
    0
 40
0
  0
LTYPE
  2
__32
 70
   64
  3
                                
 72
   65
 73
    0
 40
0
  0
ENDTAB
  0
TABLE
  2
STYLE
  5
3
100
AcDbSymbolTable
 70
     1
  0
STYLE
  5
10
100
AcDbSymbolTableRecord
100
AcDbTextStyleTableRecord
  2
STANDARD
 70
     0
 40
0.0
 41
1.0
 50
0.0
 71
     0
 42
0.2
  3
txt
  4
bigfont.shx
  0
STYLE
  5
26
100
AcDbSymbolTableRecord
100
AcDbTextStyleTableRecord
  2
TATEGAKI
 70
    68
 40
0.0
 41
1.0
 50
0.0
 71
     0
 42
1.0
  3
txt
  4
bigfont.shx
  0
ENDTAB
  0
TABLE
  2
LAYER
 70
    4
  0
LAYER
  2
_0-0_
 70
   64
 62
    7
  6
CONTINUOUS
  0
LAYER
  2
_1-0_
 70
   64
 62
    7
  6
CONTINUOUS
  0
LAYER
  2
_2-0_
 70
   64
 62
    7
  6
CONTINUOUS
  0
LAYER
  2
ADD_LINE
 70
   64
 62
    7
  6
CONTINUOUS
  0
ENDTAB
  0
ENDSEC
  0
SECTION
  2
BLOCKS
  0
ENDSEC
  0
SECTION
  2
ENTITIES
  0
LINE
  8
_1-0_
  6
CONTINUOUS
 62
    7
 10
714.51305021190262
 20
395.60236279108352
 11
752.32678800015833
 21
483.02991034901737
  0
LINE
  8
_1-0_
  6
CONTINUOUS
 62
    7
 10
762.98514612853296
 20
966.34660521989622
 11
764.15573090660064
 21
966.46191394467155
  0
LINE
  8
_1-0_
  6
CONTINUOUS
 62
    7
 10
764.15573090660064
 20
966.46191394467155
 11
765.28125954410734
 21
966.80337824876699
  0
LINE
  8
_1-0_
  6
CONTINUOUS
 62
    7
 10
765.28125954410734
 20
966.80337824876699
 11
766.31860062882708
 21
967.35778749679503
  0
LINE
  8
_1-0_
  6
CONTINUOUS
 62
    7
 10
766.31860062882708
 20
967.35778749679503
 11
767.22785979164144
 21
968.10396967707447
  0
LINE
  8
_1-0_
  6
CONTINUOUS
 62
    7
 10
767.22785979164144
 20
968.10396967707447
 11
767.974041971921
 21
969.01322883988894
  0
LINE
  8
_1-0_
  6
CONTINUOUS
 62
    7
 10
767.974041971921
 20
969.01322883988894
 11
768.52845121994903
 21
970.05056992460845
  0
LINE
  8
_1-0_
  6
CONTINUOUS
 62
    7
 10
768.52845121994903
 20
970.05056992460845
 11
768.86991552404447
 21
971.17609856211527
  0
LINE
  8
_1-0_
  6
CONTINUOUS
 62
    7
 10
768.86991552404447
 20
971.17609856211527
 11
768.9852242488198
 21
972.34659585253144
  0
LINE
  8
_1-0_
  6
CONTINUOUS
 62
    7
 10
768.9852242488198
 20
972.34659585253144
 11
768.9852242488198
 21
1320.3466649589391
  0
LINE
  8
_1-0_
  6
CONTINUOUS
 62
    7
 10
768.9852242488198
 20
1320.3466649589391
 11
768.86991552404447
 21
1321.5171622493551
  0
LINE
  8
_1-0_
  6
CONTINUOUS
 62
    7
 10
768.86991552404447
 20
1321.5171622493551
 11
768.52845121994903
 21
1322.6427783745135
  0
LINE
  8
_1-0_
  6
CONTINUOUS
 62
    7
 10
768.52845121994903
 20
1322.6427783745135
 11
767.974041971921
 21
1323.6800319715815
  0
LINE
  8
_1-0_
  6
CONTINUOUS
 62
    7
 10
767.974041971921
 20
1323.6800319715815
 11
767.22785979164144
 21
1324.589291134396
  0
LINE
  8
_1-0_
  6
CONTINUOUS
 62
    7
 10
767.22785979164144
 20
1324.589291134396
 11
766.31860062882708
 21
1325.3354733146757
  0
LINE
  8
_1-0_
  6
CONTINUOUS
 62
    7
 10
766.31860062882708
 20
1325.3354733146757
 11
765.28125954410734
 21
1325.8898825627034
  0
LINE
  8
_1-0_
  6
CONTINUOUS
 62
    7
 10
765.28125954410734
 20
1325.8898825627034
 11
764.15573090660064
 21
1326.2313468667992
  0
LINE
  8
_1-0_
  6
CONTINUOUS
 62
    7
 10
764.15573090660064
 20
1326.2313468667992
 11
762.98514612853296
 21
1326.3466555915743
  0
LINE
  8
_1-0_
  6
CONTINUOUS
 62
    7
 10
762.98514612853296
 20
1326.3466555915743
 11
254.98518829640275
 21
1326.3466555915743
  0
LINE
  8
_1-0_
  6
CONTINUOUS
 62
    7
 10
254.98518829640275
 20
1326.3466555915743
 11
253.8146472621608
 21
1326.2313468667992
  0
LINE
  8
_1-0_
  6
CONTINUOUS
 62
    7
 10
253.8146472621608
 20
1326.2313468667992
 11
252.68909675274116
 21
1325.8898825627034
  0
LINE
  8
_1-0_
  6
CONTINUOUS
 62
    7
 10
252.68909675274116
 20
1325.8898825627034
 11
251.65177753993447
 21
1325.3354733146757
  0
LINE
  8
_1-0_
  6
CONTINUOUS
 62
    7
 10
251.65177753993447
 20
1325.3354733146757
 11
250.74254024903283
 21
1324.589291134396
  0
LINE
  8
_1-0_
  6
CONTINUOUS
 62
    7
 10
250.74254024903283
 20
1324.589291134396
 11
249.99637994066632
 21
1323.6800319715815
  0
LINE
  8
_1-0_
  6
CONTINUOUS
 62
    7
 10
249.99637994066632
 20
1323.6800319715815
 11
249.44190507689953
 21
1322.6427783745135
  0
LINE
  8
_1-0_
  6
CONTINUOUS
 62
    7
 10
249.44190507689953
 20
1322.6427783745135
 11
249.10048451662988
 21
1321.5171622493551
  0
LINE
  8
_1-0_
  6
CONTINUOUS
 62
    7
 10
249.10048451662988
 20
1321.5171622493551
 11
248.98519766376751
 21
1320.3466649589391
  0
LINE
  8
_1-0_
  6
CONTINUOUS
 62
    7
 10
248.98519766376751
 20
1320.3466649589391
 11
248.98519766376751
 21
972.34659585253144
  0
LINE
  8
_1-0_
  6
CONTINUOUS
 62
    7
 10
248.98519766376751
 20
972.34659585253144
 11
249.10048451662988
 21
971.17609856211527
  0
LINE
  8
_1-0_
  6
CONTINUOUS
 62
    7
 10
249.10048451662988
 20
971.17609856211527
 11
249.44190507689953
 21
970.05056992460845
  0
LINE
  8
_1-0_
  6
CONTINUOUS
 62
    7
 10
249.44190507689953
 20
970.05056992460845
 11
249.99637994066632
 21
969.01322883988894
  0
LINE
  8
_1-0_
  6
CONTINUOUS
 62
    7
 10
249.99637994066632
 20
969.01322883988894
 11
250.74254024903283
 21
968.10396967707447
  0
LINE
  8
_1-0_
  6
CONTINUOUS
 62
    7
 10
250.74254024903283
 20
968.10396967707447
 11
251.65177753993447
 21
967.35778749679503
  0
LINE
  8
_1-0_
  6
CONTINUOUS
 62
    7
 10
251.65177753993447
 20
967.35778749679503
 11
252.68909675274116
 21
966.80337824876699
  0
LINE
  8
_1-0_
  6
CONTINUOUS
 62
    7
 10
252.68909675274116
 20
966.80337824876699
 11
253.8146472621608
 21
966.46191394467155
  0
LINE
  8
_1-0_
  6
CONTINUOUS
 62
    7
 10
253.8146472621608
 20
966.46191394467155
 11
254.98518829640275
 21
966.34660521989622
  0
LINE
  8
_1-0_
  6
CONTINUOUS
 62
    7
 10
254.98518829640275
 20
966.34660521989622
 11
762.98514612853296
 21
966.34660521989622
  0
LINE
  8
_1-0_
  6
CONTINUOUS
 62
    7
 10
748.98519714826773
 20
1220.5865955720997
 11
748.87452526902598
 21
1221.710374456575
  0
LINE
  8
_1-0_
  6
CONTINUOUS
 62
    7
 10
748.87452526902598
 20
1221.710374456575
 11
748.54670903857607
 21
1222.7909344411723
  0
LINE
  8
_1-0_
  6
CONTINUOUS
 62
    7
 10
748.54670903857607
 20
1222.7909344411723
 11
748.01443416639643
 21
1223.7867188913942
  0
LINE
  8
_1-0_
  6
CONTINUOUS
 62
    7
 10
748.01443416639643
 20
1223.7867188913942
 11
747.29808527530383
 21
1224.6595831911536
  0
LINE
  8
_1-0_
  6
CONTINUOUS
 62
    7
 10
747.29808527530383
 20
1224.6595831911536
 11
746.42530846319596
 21
1225.375932082246
  0
LINE
  8
_1-0_
  6
CONTINUOUS
 62
    7
 10
746.42530846319596
 20
1225.375932082246
 11
745.42943652532267
 21
1225.9082069544256
  0
LINE
  8
_1-0_
  6
CONTINUOUS
 62
    7
 10
745.42943652532267
 20
1225.9082069544256
 11
744.34887654072531
 21
1226.235935697224
  0
LINE
  8
_1-0_
  6
CONTINUOUS
 62
    7
 10
744.34887654072531
 20
1226.235935697224
 11
743.22518514390151
 21
1226.3466075764659
  0
LINE
  8
_1-0_
  6
CONTINUOUS
 62
    7
 10
743.22518514390151
 20
1226.3466075764659
 11
743.10760174018526
 21
1226.3466075764659
  0
LINE
  8
_1-0_
  6
CONTINUOUS
 62
    7
 10
743.10760174018526
 20
1226.3466075764659
 11
274.86273268475031
 21
1226.3466075764659
  0
LINE
  8
_1-0_
  6
CONTINUOUS
 62
    7
 10
274.86273268475031
 20
1226.3466075764659
 11
274.74519302485987
 21
1226.3466075764659
  0
LINE
  8
_1-0_
  6
CONTINUOUS
 62
    7
 10
274.74519302485987
 20
1226.3466075764659
 11
273.62147975612334
 21
1226.235935697224
  0
LINE
  8
_1-0_
  6
CONTINUOUS
 62
    7
 10
273.62147975612334
 20
1226.235935697224
 11
272.54094164343871
 21
1225.9082069544256
  0
LINE
  8
_1-0_
  6
CONTINUOUS
 62
    7
 10
272.54094164343871
 20
1225.9082069544256
 11
271.54511344939124
 21
1225.375932082246
  0
LINE
  8
_1-0_
  6
CONTINUOUS
 62
    7
 10
271.54511344939124
 20
1225.375932082246
 11
270.67224914963174
 21
1224.6595831911536
  0
LINE
  8
_1-0_
  6
CONTINUOUS
 62
    7
 10
270.67224914963174
 20
1224.6595831911536
 11
269.95592213045211
 21
1223.7867188913942
  0
LINE
  8
_1-0_
  6
CONTINUOUS
 62
    7
 10
269.95592213045211
 20
1223.7867188913942
 11
269.42364725827247
 21
1222.7909344411723
  0
LINE
  8
_1-0_
  6
CONTINUOUS
 62
    7
 10
269.42364725827247
 20
1222.7909344411723
 11
269.09587477164837
 21
1221.710374456575
  0
LINE
  8
_1-0_
  6
CONTINUOUS
 62
    7
 10
269.09587477164837
 20
1221.710374456575
 11
268.98518102049366
 21
1220.5865955720997
  0
LINE
  8
_1-0_
  6
CONTINUOUS
 62
    7
 10
268.98518102049366
 20
1220.5865955720997
 11
268.98518102049366
 21
992.1066443248144
  0
LINE
  8
_1-0_
  6
CONTINUOUS
 62
    7
 10
268.98518102049366
 20
992.1066443248144
 11
269.09587477164837
 21
990.98295292799071
  0
LINE
  8
_1-0_
  6
CONTINUOUS
 62
    7
 10
269.09587477164837
 20
990.98295292799071
 11
269.42364725827247
 21
989.90239294339312
  0
LINE
  8
_1-0_
  6
CONTINUOUS
 62
    7
 10
269.42364725827247
 20
989.90239294339312
 11
269.95592213045211
 21
988.90652100552006
  0
LINE
  8
_1-0_
  6
CONTINUOUS
 62
    7
 10
269.95592213045211
 20
988.90652100552006
 11
270.67224914963174
 21
988.03374419341208
  0
LINE
  8
_1-0_
  6
CONTINUOUS
 62
    7
 10
270.67224914963174
 20
988.03374419341208
 11
271.54511344939124
 21
987.3173953023196
  0
LINE
  8
_1-0_
  6
CONTINUOUS
 62
    7
 10
271.54511344939124
 20
987.3173953023196
 11
272.54094164343871
 21
986.78512043013995
  0
LINE
  8
_1-0_
  6
CONTINUOUS
 62
    7
 10
272.54094164343871
 20
986.78512043013995
 11
273.62147975612334
 21
986.45730419969004
  0
LINE
  8
_1-0_
  6
CONTINUOUS
 62
    7
 10
273.62147975612334
 20
986.45730419969004
 11
274.74519302485987
 21
986.34663232044818
  0
LINE
  8
_1-0_
  6
CONTINUOUS
 62
    7
 10
274.74519302485987
 20
986.34663232044818
 11
274.86273268475031
 21
986.34663232044818
  0
LINE
  8
_1-0_
  6
CONTINUOUS
 62
    7
 10
274.86273268475031
 20
986.34663232044818
 11
743.10760174018526
 21
986.34663232044818
  0
LINE
  8
_1-0_
  6
CONTINUOUS
 62
    7
 10
743.10760174018526
 20
986.34663232044818
 11
743.22518514390151
 21
986.34663232044818
  0
LINE
  8
_1-0_
  6
CONTINUOUS
 62
    7
 10
743.22518514390151
 20
986.34663232044818
 11
744.34887654072531
 21
986.45730419969004
  0
LINE
  8
_1-0_
  6
CONTINUOUS
 62
    7
 10
744.34887654072531
 20
986.45730419969004
 11
745.42943652532267
 21
986.78512043013995
  0
LINE
  8
_1-0_
  6
CONTINUOUS
 62
    7
 10
745.42943652532267
 20
986.78512043013995
 11
746.42530846319596
 21
987.3173953023196
  0
LINE
  8
_1-0_
  6
CONTINUOUS
 62
    7
 10
746.42530846319596
 20
987.3173953023196
 11
747.29808527530383
 21
988.03374419341208
  0
LINE
  8
_1-0_
  6
CONTINUOUS
 62
    7
 10
747.29808527530383
 20
988.03374419341208
 11
748.01443416639643
 21
988.90652100552006
  0
LINE
  8
_1-0_
  6
CONTINUOUS
 62
    7
 10
748.01443416639643
 20
988.90652100552006
 11
748.54670903857607
 21
989.90239294339312
  0
LINE
  8
_1-0_
  6
CONTINUOUS
 62
    7
 10
748.54670903857607
 20
989.90239294339312
 11
748.87452526902598
 21
990.98295292799071
  0
LINE
  8
_1-0_
  6
CONTINUOUS
 62
    7
 10
748.87452526902598
 20
990.98295292799071
 11
748.98519714826773
 21
992.1066443248144
  0
LINE
  8
_1-0_
  6
CONTINUOUS
 62
    7
 10
748.98519714826773
 20
992.1066443248144
 11
748.98519714826773
 21
1220.5865955720997
  0
LINE
  8
_1-0_
  6
CONTINUOUS
 62
    7
 10
308.98519147777193
 20
991.34663909558617
 11
308.98519147777193
 21
1221.3466008013279
  0
LINE
  8
_1-0_
  6
CONTINUOUS
 62
    7
 10
708.98518669098962
 20
991.34663909558617
 11
708.98518669098962
 21
1221.3466008013279
  0
LINE
  8
_1-0_
  6
CONTINUOUS
 62
    7
 10
308.98519147777193
 20
991.34663909558617
 11
708.98518669098962
 21
991.34663909558617
  0
LINE
  8
_1-0_
  6
CONTINUOUS
 62
    7
 10
308.98519147777193
 20
1221.3466008013279
 11
708.98518669098962
 21
1221.3466008013279
  0
LINE
  8
_1-0_
  6
CONTINUOUS
 62
    7
 10
1157.8911072130829
 20
372.34665771248717
 11
1157.8911072130829
 21
480.34662033139966
  0
LINE
  8
_1-0_
  6
CONTINUOUS
 62
    7
 10
1517.891157584761
 20
372.34665771248717
 11
1517.891157584761
 21
480.34662033139966
  0
LINE
  8
_1-0_
  6
CONTINUOUS
 62
    7
 10
1287.8911083913679
 20
374.5471033810648
 11
1287.8911083913679
 21
366.34664520793905
  0
LINE
  8
_1-0_
  6
CONTINUOUS
 62
    7
 10
1332.8910818799582
 20
374.5471033810648
 11
1332.8910818799582
 21
366.34664520793905
  0
LINE
  8
_1-0_
  6
CONTINUOUS
 62
    7
 10
1272.8910880659537
 20
384.54663574925718
 11
1287.8911083913679
 21
374.5471033810648
  0
LINE
  8
_1-0_
  6
CONTINUOUS
 62
    7
 10
1332.8910818799582
 20
374.5471033810648
 11
1347.8911022053721
 21
384.54663574925718
  0
LINE
  8
_1-0_
  6
CONTINUOUS
 62
    7
 10
1163.8910978457181
 20
366.34664520793905
 11
1511.8910794644742
 21
366.34664520793905
  0
LINE
  8
_1-0_
  6
CONTINUOUS
 62
    7
 10
1428.2613708613922
 20
486.34665470786075
 11
1511.8910794644742
 21
486.34665470786075
  0
LINE
  8
_1-0_
  6
CONTINUOUS
 62
    7
 10
1188.2613956053744
 20
384.54663574925718
 11
1407.520848277913
 21
384.54663574925718
  0
LINE
  8
_1-0_
  6
CONTINUOUS
 62
    7
 10
1167.5208730218951
 20
486.34665470786075
 11
1163.8910978457181
 21
486.34665470786075
  0
LINE
  8
_1-0_
  6
CONTINUOUS
 62
    7
 10
1173.4841188408693
 20
481.00920806059958
 11
1182.2980622987488
 21
389.88403865269248
  0
LINE
  8
_1-0_
  6
CONTINUOUS
 62
    7
 10
1413.4841815845384
 20
389.88403865269248
 11
1422.2980375547668
 21
481.00920806059958
  0
LINE
  8
_1-0_
  6
CONTINUOUS
 62
    7
 10
1167.5208730218951
 20
486.34665470786075
 11
1428.2613708613922
 21
486.34665470786075
  0
LINE
  8
_1-0_
  6
CONTINUOUS
 62
    7
 10
254.98518829640275
 20
366.34664520793905
 11
762.98514612853296
 21
366.34664520793905
  0
LINE
  8
_1-0_
  6
CONTINUOUS
 62
    7
 10
321.3458624585715
 20
384.54663574925718
 11
696.62449383827709
 21
384.54663574925718
  0
LINE
  8
_1-0_
  6
CONTINUOUS
 62
    7
 10
757.69336803539375
 20
486.34665470786075
 11
762.98514612853296
 21
486.34665470786075
  0
LINE
  8
_1-0_
  6
CONTINUOUS
 62
    7
 10
486.48519140412901
 20
374.5471033810648
 11
486.48519140412901
 21
366.34664520793905
  0
LINE
  8
_1-0_
  6
CONTINUOUS
 62
    7
 10
531.48520863654528
 20
374.5471033810648
 11
531.48520863654528
 21
366.34664520793905
  0
LINE
  8
_1-0_
  6
CONTINUOUS
 62
    7
 10
471.48517107871498
 20
384.54663574925718
 11
486.48519140412901
 21
374.5471033810648
  0
LINE
  8
_1-0_
  6
CONTINUOUS
 62
    7
 10
531.48520863654528
 20
374.5471033810648
 11
546.48518521813344
 21
384.54663574925718
  0
LINE
  8
_1-0_
  6
CONTINUOUS
 62
    7
 10
248.98519766376751
 20
480.34662033139966
 11
248.98519766376751
 21
372.34665771248717
  0
LINE
  8
_1-0_
  6
CONTINUOUS
 62
    7
 10
768.9852242488198
 20
480.34662033139966
 11
768.9852242488198
 21
372.34665771248717
  0
LINE
  8
_1-0_
  6
CONTINUOUS
 62
    7
 10
265.64354642477736
 20
483.02991034901737
 11
303.45732795685876
 21
395.60236279108352
  0
LINE
  8
_1-0_
  6
CONTINUOUS
 62
    7
 10
254.98518829640275
 20
486.34665470786075
 11
260.27698826145479
 21
486.34665470786075
  0
LINE
  8
_1-0_
  6
CONTINUOUS
 62
    7
 10
260.27698826145479
 20
486.34665470786075
 11
757.69336803539375
 21
486.34665470786075
  0
CIRCLE
  8
_1-0_
  6
CONTINUOUS
 62
    7
 10
508.98517814842421
 20
1118.8466806301278
 40
22.500000414240773
  0
CIRCLE
  8
_1-0_
  6
CONTINUOUS
 62
    7
 10
508.98517814842421
 20
1118.8466806301278
 40
37.49999886774188
  0
CIRCLE
  8
_1-0_
  6
CONTINUOUS
 62
    7
 10
508.98517814842421
 20
1273.8466281964511
 40
17.500000474075552
  0
ARC
  8
_1-0_
  6
CONTINUOUS
 62
    7
 10
308.98519147777193
 20
873.79525585984629
 40
117.55135042787059
 50
90
 51
106.77104187011719
  0
ARC
  8
_1-0_
  6
CONTINUOUS
 62
    7
 10
708.98518669098962
 20
873.79525585984629
 40
117.55135042787059
 50
73.228942871093736
 51
89.999999999999986
  0
ARC
  8
_1-0_
  6
CONTINUOUS
 62
    7
 10
308.98519147777193
 20
1338.8979840370678
 40
117.55135042787059
 50
253.22894287109375
 51
270
  0
ARC
  8
_1-0_
  6
CONTINUOUS
 62
    7
 10
708.98518669098962
 20
1338.8979840370678
 40
117.55135042787059
 50
270
 51
286.77104187011719
  0
ARC
  8
_1-0_
  6
CONTINUOUS
 62
    7
 10
1511.8910794644742
 20
372.34665771248717
 40
6.0000002015971763
 50
270
 51
0
  0
ARC
  8
_1-0_
  6
CONTINUOUS
 62
    7
 10
1163.8910978457181
 20
480.34662033139966
 40
6.0000002015971763
 50
90
 51
180
  0
ARC
  8
_1-0_
  6
CONTINUOUS
 62
    7
 10
1163.8910978457181
 20
372.34665771248717
 40
6.0000002015971763
 50
180
 51
270
  0
ARC
  8
_1-0_
  6
CONTINUOUS
 62
    7
 10
1511.8910794644742
 20
480.34662033139966
 40
6.0000002015971763
 50
0
 51
90
  0
ARC
  8
_1-0_
  6
CONTINUOUS
 62
    7
 10
1407.520848277913
 20
390.54662638189257
 40
6.0000002015971763
 50
270
 51
353.65980529785156
  0
ARC
  8
_1-0_
  6
CONTINUOUS
 62
    7
 10
1167.5208730218951
 20
480.34662033139966
 40
6.0000002015971763
 50
6.340179443359375
 51
89.999999999999986
  0
ARC
  8
_1-0_
  6
CONTINUOUS
 62
    7
 10
1188.2613956053744
 20
390.54662638189257
 40
6.0000002015971763
 50
186.34017944335937
 51
270
  0
ARC
  8
_1-0_
  6
CONTINUOUS
 62
    7
 10
1428.2613708613922
 20
480.34662033139966
 40
6.0000002015971763
 50
90
 51
173.65980529785156
  0
ARC
  8
_1-0_
  6
CONTINUOUS
 62
    7
 10
762.98514612853296
 20
372.34665771248717
 40
6.0000002015971763
 50
270
 51
0
  0
ARC
  8
_1-0_
  6
CONTINUOUS
 62
    7
 10
762.98514612853296
 20
480.34662033139966
 40
6.0000002015971763
 50
0
 51
90
  0
ARC
  8
_1-0_
  6
CONTINUOUS
 62
    7
 10
254.98518829640275
 20
372.34665771248717
 40
6.0000002015971763
 50
180
 51
270
  0
ARC
  8
_1-0_
  6
CONTINUOUS
 62
    7
 10
254.98518829640275
 20
480.34662033139966
 40
6.0000002015971763
 50
90
 51
180
  0
ARC
  8
_1-0_
  6
CONTINUOUS
 62
    7
 10
321.3458624585715
 20
404.54661910598332
 40
19.999999760660884
 50
206.56504821777344
 51
270
  0
ARC
  8
_1-0_
  6
CONTINUOUS
 62
    7
 10
696.62449383827709
 20
404.54661910598332
 40
19.999999760660884
 50
270
 51
333.4349365234375
  0
ARC
  8
_1-0_
  6
CONTINUOUS
 62
    7
 10
757.69336803539375
 20
480.34662033139966
 40
6.0000002015971763
 50
90
 51
153.4349365234375
  0
ARC
  8
_1-0_
  6
CONTINUOUS
 62
    7
 10
260.27698826145479
 20
480.34662033139966
 40
6.0000002015971763
 50
26.565048217773434
 51
90
  0
TEXT
  8
_0-0_
 62
    6
 10
1865.0200196490782
 20
1814.9806749498521
 40
100
 41
1
 50
0
  1
B1-556_
  0
TEXT
  8
_2-0_
 62
    4
 10
1132.14999578174
 20
1319.2584935486545
 40
25
 41
1
 50
0
  1
 
  0
ENDSEC
  0
EOF
