  0
SECTION
  2
HEADER
  9
$ACADVER
  1
AC1015
  9
$ACADMAINTVER
 70
               6
  9
$DWGCODEPAGE
  3
ANSI_932
  9
$INSBASE
 10
0.0
 20
0.0
 30
0.0
  9
$EXTMIN
 10
1122.9307806183469
 20
739.39430393150269
 30
-7.4083333333333323
  9
$EXTMAX
 10
1836.3324811575601
 20
1339.7477182428363
 30
7.4083333333333323
  9
$LIMMIN
 10
0.0
 20
0.0
  9
$LIMMAX
 10
0.0
 20
0.0
  9
$ORTHOMODE
 70
               0
  9
$REGENMODE
 70
               1
  9
$FILLMODE
 70
               1
  9
$QTEXTMODE
 70
               0
  9
$MIRRTEXT
 70
               1
  9
$LTSCALE
 40
25.399999999999999
  9
$ATTMODE
 70
               1
  9
$TEXTSIZE
 40
0.2
  9
$TRACEWID
 40
1.0
  9
$TEXTSTYLE
  7
Standard
  9
$CLAYER
  8
一般
  9
$CELTYPE
  6
Continuous
  9
$CECOLOR
 62
             256
  9
$CELTSCALE
 40
1.0
  9
$DISPSILH
 70
               0
  9
$DIMSCALE
 40
1.0
  9
$DIMASZ
 40
0.18
  9
$DIMEXO
 40
0.0625
  9
$DIMDLI
 40
0.38
  9
$DIMRND
 40
0.0
  9
$DIMDLE
 40
0.0
  9
$DIMEXE
 40
0.18
  9
$DIMTP
 40
0.0
  9
$DIMTM
 40
0.0
  9
$DIMTXT
 40
0.18
  9
$DIMCEN
 40
0.09
  9
$DIMTSZ
 40
0.0
  9
$DIMTOL
 70
               0
  9
$DIMLIM
 70
               0
  9
$DIMTIH
 70
               1
  9
$DIMTOH
 70
               1
  9
$DIMSE1
 70
               0
  9
$DIMSE2
 70
               0
  9
$DIMTAD
 70
               0
  9
$DIMZIN
 70
               0
  9
$DIMBLK
  1

  9
$DIMASO
 70
               1
  9
$DIMSHO
 70
               1
  9
$DIMPOST
  1

  9
$DIMAPOST
  1

  9
$DIMALT
 70
               0
  9
$DIMALTD
 70
               2
  9
$DIMALTF
 40
25.399999999999999
  9
$DIMLFAC
 40
1.0
  9
$DIMTOFL
 70
               0
  9
$DIMTVP
 40
0.0
  9
$DIMTIX
 70
               0
  9
$DIMSOXD
 70
               0
  9
$DIMSAH
 70
               0
  9
$DIMBLK1
  1

  9
$DIMBLK2
  1

  9
$DIMSTYLE
  2
Standard
  9
$DIMCLRD
 70
               0
  9
$DIMCLRE
 70
               0
  9
$DIMCLRT
 70
               0
  9
$DIMTFAC
 40
1.0
  9
$DIMGAP
 40
0.09
  9
$DIMJUST
 70
               0
  9
$DIMSD1
 70
               0
  9
$DIMSD2
 70
               0
  9
$DIMTOLJ
 70
               1
  9
$DIMTZIN
 70
               0
  9
$DIMALTZ
 70
               0
  9
$DIMALTTZ
 70
               0
  9
$DIMUPT
 70
               0
  9
$DIMDEC
 70
               4
  9
$DIMTDEC
 70
               4
  9
$DIMALTU
 70
               2
  9
$DIMALTTD
 70
               2
  9
$DIMTXSTY
  7
Standard
  9
$DIMAUNIT
 70
               0
  9
$DIMADEC
 70
               0
  9
$DIMALTRND
 40
0.0
  9
$DIMAZIN
 70
               0
  9
$DIMDSEP
 70
               0
  9
$DIMATFIT
 70
               3
  9
$DIMFRAC
 70
               0
  9
$DIMLDRBLK
  1

  9
$DIMLUNIT
 70
               2
  9
$DIMLWD
 70
               0
  9
$DIMLWE
 70
               0
  9
$DIMTMOVE
 70
               0
  9
$LUNITS
 70
               2
  9
$LUPREC
 70
               4
  9
$SKETCHINC
 40
0.1
  9
$FILLETRAD
 40
0.0
  9
$AUNITS
 70
               0
  9
$AUPREC
 70
               0
  9
$MENU
  1
acad
  9
$ELEVATION
 40
0.0
  9
$PELEVATION
 40
0.0
  9
$THICKNESS
 40
0.0
  9
$LIMCHECK
 70
               0
  9
$CHAMFERA
 40
0.0
  9
$CHAMFERB
 40
0.0
  9
$CHAMFERC
 40
0.0
  9
$CHAMFERD
 40
0.0
  9
$SKPOLY
 70
               0
  9
$TDCREATE
 40
2455119.808449074
  9
$TDUCREATE
 40
0.000000000
  9
$TDUPDATE
 40
2455119.808449074
  9
$TDUUPDATE
 40
0.000000000
  9
$TDINDWG
 40
0.0000000000
  9
$TDUSRTIMER
 40
0.0000000000
  9
$USRTIMER
 70
               1
  9
$ANGBASE
 50
0.0
  9
$ANGDIR
 70
               0
  9
$PDMODE
 70
               1
  9
$PDSIZE
 40
-2.0
  9
$PLINEWID
 40
0.0
  9
$SPLFRAME
 70
               0
  9
$SPLINETYPE
 70
               6
  9
$SPLINESEGS
 70
               8
  9
$HANDSEED
  5
C7
  9
$SURFTAB1
 70
               6
  9
$SURFTAB2
 70
               6
  9
$SURFTYPE
 70
               6
  9
$SURFU
 70
               6
  9
$SURFV
 70
               6
  9
$UCSBASE
  2

  9
$UCSNAME
  2

  9
$UCSORG
 10
0.0
 20
0.0
 30
0.0
  9
$UCSXDIR
 10
1.0
 20
0.0
 30
0.0
  9
$UCSYDIR
 10
0.0
 20
1.0
 30
0.0
  9
$UCSORTHOREF
  2

  9
$UCSORTHOVIEW
 70
               0
  9
$UCSORGTOP
 10
0.0
 20
0.0
 30
0.0
  9
$UCSORGBOTTOM
 10
0.0
 20
0.0
 30
0.0
  9
$UCSORGLEFT
 10
0.0
 20
0.0
 30
0.0
  9
$UCSORGRIGHT
 10
0.0
 20
0.0
 30
0.0
  9
$UCSORGFRONT
 10
0.0
 20
0.0
 30
0.0
  9
$UCSORGBACK
 10
0.0
 20
0.0
 30
0.0
  9
$PUCSBASE
  2

  9
$PUCSNAME
  2

  9
$PUCSORG
 10
0.0
 20
0.0
 30
0.0
  9
$PUCSXDIR
 10
1.0
 20
0.0
 30
0.0
  9
$PUCSYDIR
 10
0.0
 20
1.0
 30
0.0
  9
$PUCSORTHOREF
  2

  9
$PUCSORTHOVIEW
 70
               0
  9
$PUCSORGTOP
 10
0.0
 20
0.0
 30
0.0
  9
$PUCSORGBOTTOM
 10
0.0
 20
0.0
 30
0.0
  9
$PUCSORGLEFT
 10
0.0
 20
0.0
 30
0.0
  9
$PUCSORGRIGHT
 10
0.0
 20
0.0
 30
0.0
  9
$PUCSORGFRONT
 10
0.0
 20
0.0
 30
0.0
  9
$PUCSORGBACK
 10
0.0
 20
0.0
 30
0.0
  9
$USERI1
 70
               0
  9
$USERI2
 70
               0
  9
$USERI3
 70
               0
  9
$USERI4
 70
               0
  9
$USERI5
 70
               0
  9
$USERR1
 40
0.0
  9
$USERR2
 40
0.0
  9
$USERR3
 40
0.0
  9
$USERR4
 40
0.0
  9
$USERR5
 40
0.0
  9
$WORLDVIEW
 70
               1
  9
$SHADEDGE
 70
               3
  9
$SHADEDIF
 70
              70
  9
$TILEMODE
 70
               1
  9
$MAXACTVP
 70
              64
  9
$PINSBASE
 10
0.0
 20
0.0
 30
0.0
  9
$PLIMCHECK
 70
               0
  9
$PEXTMIN
 10
1.0000000000000000E+20
 20
1.0000000000000000E+20
 30
1.0000000000000000E+20
  9
$PEXTMAX
 10
-1.0000000000000000E+20
 20
-1.0000000000000000E+20
 30
-1.0000000000000000E+20
  9
$PLIMMIN
 10
0.0
 20
0.0
  9
$PLIMMAX
 10
12.0
 20
9.0
  9
$UNITMODE
 70
               0
  9
$VISRETAIN
 70
               0
  9
$PLINEGEN
 70
               1
  9
$PSLTSCALE
 70
               0
  9
$TREEDEPTH
 70
            3020
  9
$CMLSTYLE
  2
Standard
  9
$CMLJUST
 70
               0
  9
$CMLSCALE
 40
1.0
  9
$PROXYGRAPHICS
 70
               0
  9
$MEASUREMENT
 70
               1
  9
$CELWEIGHT
370
               0
  9
$ENDCAPS
280
               0
  9
$JOINSTYLE
280
               0
  9
$LWDISPLAY
290
               1
  9
$INSUNITS
 70
               4
  9
$HYPERLINKBASE
  1

  9
$STYLESHEET
  1

  9
$XEDIT
290
               1
  9
$CEPSNTYPE
380
               0
  9
$PSTYLEMODE
290
               1
  9
$FINGERPRINTGUID
  2

  9
$VERSIONGUID
  2

  9
$EXTNAMES
290
               1
  9
$PSVPSCALE
 40
0.0
  0
ENDSEC
  0
SECTION
  2
CLASSES
  0
CLASS
  1
LWPOLYLINE
  2
AcDbPolyline
  3
AutoCAD 2000
 90
        0
280
               0
281
               1
  0
CLASS
  1
IMAGE
  2
AcDbRasterImage
  3
ISM
 90
    32895
280
               0
281
               1
  0
CLASS
  1
OLE2FRAME
  2
AcDbOle2Frame
  3
AutoCAD 2000
 90
    32768
280
               0
281
               1
  0
CLASS
  1
HATCH
  2
AcDbHatch
  3
AutoCAD 2000
 90
    32768
280
               0
281
               1
  0
CLASS
  1
DICTIONARYVAR
  2
AcDbDictionaryVar
  3
AutoCAD 2000
 90
    32768
280
               0
281
               0
  0
CLASS
  1
RASTERVARIABLES
  2
AcDbRasterVariables
  3
ISM
 90
    32768
280
               0
281
               0
  0
CLASS
  1
IMAGEDEF
  2
AcDbRasterImageDef
  3
ISM
 90
    32768
280
               0
281
               0
  0
CLASS
  1
IMAGEDEF_REACTOR
  2
AcDbRasterImageDefReactor
  3
ISM
 90
    32769
280
               0
281
               0
  0
CLASS
  1
IDBUFFER
  2
AcDbIdBuffer
  3
AutoCAD 2000
 90
    32768
280
               0
281
               0
  0
CLASS
  1
SPATIAL_FILTER
  2
AcDbSpatialFilter
  3
AutoCAD 2000
 90
    32768
280
               0
281
               0
  0
CLASS
  1
XRECORD
  2
AcDbXrecord
  3
AutoCAD 2000
 90
    32768
280
               0
281
               0
  0
CLASS
  1
SORTENTSTABLE
  2
AcDbSortentsTable
  3
AutoCAD 2000
 90
    32768
280
               0
281
               0
  0
CLASS
  1
LAYER_INDEX
  2
AcDbLayerIndex
  3
AutoCAD 2000
 90
    32768
280
               0
281
               0
  0
CLASS
  1
SPATIAL_INDEX
  2
AcDbSpatialIndex
  3
AutoCAD 2000
 90
    32768
280
               0
281
               0
  0
CLASS
  1
OBJECT_PTR
  2
CAseDLPNTableRecord
  3
"ASE-LPNTableRecord"
 90
    32769
280
               0
281
               0
  0
CLASS
  1
LAYOUT
  2
AcDbLayout
  3
AutoCAD 2000
 90
        0
280
               0
281
               0
  0
CLASS
  1
PLOTSETTINGS
  2
AcDbPlotSettings
  3
AutoCAD 2000
 90
    32768
280
               0
281
               0
  0
CLASS
  1
ACDBDICTIONARYWDFLT
  2
AcDbDictionaryWithDefault
  3
AutoCAD 2000
 90
        0
280
               0
281
               0
  0
CLASS
  1
ACDBPLACEHOLDER
  2
AcDbPlaceHolder
  3
AutoCAD 2000
 90
        0
280
               0
281
               0
  0
CLASS
  1
VBA_PROJECT
  2
AcDbVbaProject
  3
acadvba
 90
    32768
280
               0
281
               0
  0
CLASS
  1
WIPEOUT
  2
AcDbWipeout
  3
WipeOut|AutoCAD Express Tool|expresstools@autodesk.com
 90
    32895
280
               0
281
               1
  0
CLASS
  1
WIPEOUTVARIABLES
  2
AcDbWipeoutVariables
  3
WipeOut|AutoCAD Express Tool|expresstools@autodesk.com
 90
        0
280
               0
281
               0
  0
CLASS
  1
RTEXT
  2
RText
  3
RText|AutoCAD Express Tool|expresstools@autodesk.com
 90
    32768
280
               0
281
               1
  0
CLASS
  1
ARCALIGNEDTEXT
  2
AcDbArcAlignedText
  3
ATEXT|AutoCAD Express Tool|expresstools@autodesk.com
 90
    32768
280
               0
281
               1
  0
ENDSEC
  0
SECTION
  2
TABLES
  0
TABLE
  2
VPORT
  5
7
100
AcDbSymbolTable
 70
               1
  0
VPORT
  5
15
100
AcDbSymbolTableRecord
100
AcDbViewportTableRecord
  2
*ACTIVE
 70
               0
 10
0.0
 20
0.0
 11
1.0
 21
1.0
 12
1479.6316308879536
 22
1039.5710110871696
 13
0.0
 23
0.0
 14
1.0
 24
1.0
 15
0.0
 25
0.0
 16
0.0
 26
0.0
 36
1.0
 17
0.0
 27
0.0
 37
0.0
 40
600.35341431133361
 41
0.688564
 42
50.0
 43
0.0
 44
0.0
 50
0.0
 51
0.0
 71
               0
 72
            2000
 73
               1
 74
               1
 75
               0
 76
               0
 77
               0
 78
               0
281
               0
 65
               0
110
0.0
120
0.0
130
0.0
111
1.0
121
0.0
131
0.0
112
0.0
122
1.0
132
0.0
345
0
346
0
 79
               0
146
0.0
  0
ENDTAB
  0
TABLE
  2
LTYPE
  5
4
100
AcDbSymbolTable
 70
              13
  0
LTYPE
  5
11
100
AcDbSymbolTableRecord
100
AcDbLinetypeTableRecord
  2
ByBlock
 70
              64
  3

 72
              65
 73
               0
 40
0.0
  0
LTYPE
  5
12
100
AcDbSymbolTableRecord
100
AcDbLinetypeTableRecord
  2
ByLayer
 70
              64
  3

 72
              65
 73
               0
 40
0.0
  0
LTYPE
  5
13
100
AcDbSymbolTableRecord
100
AcDbLinetypeTableRecord
  2
Continuous
 70
              64
  3
Solid line
 72
              65
 73
               0
 40
0.0
  0
LTYPE
  5
2B
100
AcDbSymbolTableRecord
100
AcDbLinetypeTableRecord
  2
STYLE_01
 70
               0
  3

 72
              65
 73
               2
 40
0.41664
 49
0.20828
 74
               0
 49
-0.20836
 74
               0
  0
LTYPE
  5
2C
100
AcDbSymbolTableRecord
100
AcDbLinetypeTableRecord
  2
STYLE_02
 70
               0
  3

 72
              65
 73
               2
 40
0.6944250000000001
 49
0.48607
 74
               0
 49
-0.2083550000000001
 74
               0
  0
LTYPE
  5
2D
100
AcDbSymbolTableRecord
100
AcDbLinetypeTableRecord
  2
STYLE_03
 70
               0
  3

 72
              65
 73
               2
 40
1.25
 49
1.0416400000000001
 74
               0
 49
-0.2083599999999999
 74
               0
  0
LTYPE
  5
2E
100
AcDbSymbolTableRecord
100
AcDbLinetypeTableRecord
  2
STYLE_04
 70
               0
  3

 72
              65
 73
               2
 40
1.5277099999999999
 49
1.3194249999999998
 74
               0
 49
-0.208285
 74
               0
  0
LTYPE
  5
2F
100
AcDbSymbolTableRecord
100
AcDbLinetypeTableRecord
  2
STYLE_05
 70
               0
  3

 72
              65
 73
               2
 40
0.20828
 49
0.069425
 74
               0
 49
-0.138855
 74
               0
  0
LTYPE
  5
30
100
AcDbSymbolTableRecord
100
AcDbLinetypeTableRecord
  2
STYLE_06
 70
               0
  3

 72
              65
 73
               4
 40
1.0416400000000001
 49
0.625
 74
               0
 49
-0.20828
 74
               0
 49
0.06943
 74
               0
 49
-0.13893
 74
               0
  0
LTYPE
  5
31
100
AcDbSymbolTableRecord
100
AcDbLinetypeTableRecord
  2
STYLE_07
 70
               0
  3

 72
              65
 73
               6
 40
1.875
 49
0.625
 74
               0
 49
-0.20828
 74
               0
 49
0.6250000000000001
 74
               0
 49
-0.2083599999999999
 74
               0
 49
0.06943
 74
               0
 49
-0.1389299999999999
 74
               0
  0
LTYPE
  5
32
100
AcDbSymbolTableRecord
100
AcDbLinetypeTableRecord
  2
STYLE_08
 70
               0
  3

 72
              65
 73
               6
 40
1.25
 49
0.625
 74
               0
 49
-0.20828
 74
               0
 49
0.06943
 74
               0
 49
-0.13893
 74
               0
 49
0.0694299999999999
 74
               0
 49
-0.13893
 74
               0
  0
LTYPE
  5
33
100
AcDbSymbolTableRecord
100
AcDbLinetypeTableRecord
  2
STYLE_09
 70
               0
  3

 72
              65
 73
               4
 40
5.0
 49
3.75
 74
               0
 49
-0.2777849999999998
 74
               0
 49
0.6944300000000003
 74
               0
 49
-0.2777849999999998
 74
               0
  0
LTYPE
  5
34
100
AcDbSymbolTableRecord
100
AcDbLinetypeTableRecord
  2
STYLE_10
 70
               0
  3

 72
              65
 73
               6
 40
5.9375
 49
3.75
 74
               0
 49
-0.2777849999999998
 74
               0
 49
0.6944300000000003
 74
               0
 49
-0.2777849999999998
 74
               0
 49
0.625
 74
               0
 49
-0.3125
 74
               0
  0
ENDTAB
  0
TABLE
  2
LAYER
  5
2
100
AcDbSymbolTable
 70
               4
  0
LAYER
  5
14
100
AcDbSymbolTableRecord
100
AcDbLayerTableRecord
  2
0
 70
               0
 62
               7
  6
Continuous
290
               1
370
              -3
390
1D
  0
LAYER
  5
35
100
AcDbSymbolTableRecord
100
AcDbLayerTableRecord
  2
一般
 70
               0
 62
               7
  6
Continuous
290
               1
370
               5
390
1D
  0
LAYER
  5
36
100
AcDbSymbolTableRecord
100
AcDbLayerTableRecord
  2
寸法
 70
               0
 62
               7
  6
Continuous
290
               1
370
               5
390
1D
  0
LAYER
  5
37
100
AcDbSymbolTableRecord
100
AcDbLayerTableRecord
  2
排水
 70
               0
 62
               7
  6
Continuous
290
               1
370
              15
390
1D
  0
ENDTAB
  0
TABLE
  2
STYLE
  5
3
100
AcDbSymbolTable
 70
               3
  0
STYLE
  5
17
100
AcDbSymbolTableRecord
100
AcDbTextStyleTableRecord
  2
Standard
 70
               0
 40
0.0
 41
1.0
 50
0.0
 71
               0
 42
0.0
  3
txt
  4
BIGFONT.SHX
  0
STYLE
  5
29
100
AcDbSymbolTableRecord
100
AcDbTextStyleTableRecord
  2
Arial
 70
               0
 40
0.0
 41
1.0
 50
0.0
 71
               0
 42
0.0
  3

  4
Arial
1001
ACAD
1000
Arial
1071
        0
  0
STYLE
  5
2A
100
AcDbSymbolTableRecord
100
AcDbTextStyleTableRecord
  2
ＭＳ ゴシック
 70
               0
 40
0.0
 41
1.0
 50
0.0
 71
               0
 42
0.0
  3

  4
ＭＳ ゴシック
1001
ACAD
1000
ＭＳ ゴシック
1071
        0
  0
ENDTAB
  0
TABLE
  2
VIEW
  5
5
100
AcDbSymbolTable
 70
               0
  0
ENDTAB
  0
TABLE
  2
UCS
  5
6
100
AcDbSymbolTable
 70
               0
  0
ENDTAB
  0
TABLE
  2
APPID
  5
8
100
AcDbSymbolTable
 70
               1
  0
APPID
  5
16
100
AcDbSymbolTableRecord
100
AcDbRegAppTableRecord
  2
ACAD
 70
               0
  0
ENDTAB
  0
TABLE
  2
DIMSTYLE
  5
9
100
AcDbSymbolTable
 70
               1
100
AcDbDimStyleTable
 71
               0
  0
DIMSTYLE
105
18
100
AcDbSymbolTableRecord
100
AcDbDimStyleTableRecord
  2
Standard
 70
               0
  3

  4

 40
1.0
 41
0.18
 42
0.0625
 43
0.38
 44
0.18
 45
0.0
 46
0.0
 47
0.0
 48
0.0
 71
               0
 72
               0
 73
               1
 74
               1
 75
               0
 76
               0
 77
               0
 78
               0
 79
               0
140
0.18
141
0.09
142
0.0
143
25.399999999999999
144
1.0
145
0.0
146
1.0
147
0.09
148
0.0
170
               0
171
               2
172
               0
173
               0
174
               0
175
               0
176
               0
177
               0
178
               0
179
               0
271
               4
272
               4
273
               2
274
               2
275
               0
276
               0
277
               2
278
              46
279
               0
280
               0
281
               0
282
               0
283
               1
284
               0
285
               0
286
               0
288
               0
340
17
341
0
342
0
343
0
344
0
371
              -2
372
              -2
  0
ENDTAB
  0
TABLE
  2
BLOCK_RECORD
  5
1
100
AcDbSymbolTable
 70
               5
  0
BLOCK_RECORD
  5
A
100
AcDbSymbolTableRecord
100
AcDbBlockTableRecord
  2
*MODEL_SPACE
340
20
  0
BLOCK_RECORD
  5
B
100
AcDbSymbolTableRecord
100
AcDbBlockTableRecord
  2
*PAPER_SPACE
340
21
  0
BLOCK_RECORD
  5
24
100
AcDbSymbolTableRecord
100
AcDbBlockTableRecord
  2
グループ
340
0
102
{BLKREFS
331
45
102
}
  0
BLOCK_RECORD
  5
25
100
AcDbSymbolTableRecord
100
AcDbBlockTableRecord
  2
スケール1：5
340
0
102
{BLKREFS
331
54
102
}
  0
BLOCK_RECORD
  5
26
100
AcDbSymbolTableRecord
100
AcDbBlockTableRecord
  2
グループ-1
340
0
102
{BLKREFS
331
55
102
}
  0
BLOCK_RECORD
  5
27
100
AcDbSymbolTableRecord
100
AcDbBlockTableRecord
  2
グループ-2
340
0
102
{BLKREFS
331
C5
102
}
  0
BLOCK_RECORD
  5
28
100
AcDbSymbolTableRecord
100
AcDbBlockTableRecord
  2
グループ-3
340
0
102
{BLKREFS
331
C6
102
}
  0
ENDTAB
  0
ENDSEC
  0
SECTION
  2
BLOCKS
  0
BLOCK
  5
D
100
AcDbEntity
  8
0
100
AcDbBlockBegin
  2
*MODEL_SPACE
 70
               0
 10
0.0
 20
0.0
 30
0.0
  3
*MODEL_SPACE
  1

  0
ENDBLK
  5
E
100
AcDbEntity
  8
0
100
AcDbBlockEnd
  0
BLOCK
  5
F
100
AcDbEntity
 67
               1
  8
0
100
AcDbBlockBegin
  2
*PAPER_SPACE
 70
               0
 10
0.0
 20
0.0
 30
0.0
  3
*PAPER_SPACE
  1

  0
ENDBLK
  5
10
100
AcDbEntity
 67
               1
  8
0
100
AcDbBlockEnd
  0
BLOCK
  5
38
100
AcDbEntity
  8
一般
100
AcDbBlockBegin
  2
グループ
 70
               0
 10
0.0
 20
0.0
 30
0.0
  3
グループ
  1

  0
MTEXT
  5
39
100
AcDbEntity
  8
一般
 62
               8
100
AcDbMText
 10
-61.590303983041849
 20
8.3342057291666851
 30
0.0
 40
8.1442057291666661
 41
7.3612159321675676
 71
               1
 72
               1
  1
0
  7
ＭＳ ゴシック
 73
               1
 44
0.7828267384257843
  0
MTEXT
  5
3A
100
AcDbEntity
  8
一般
 62
               8
100
AcDbMText
 10
-12.909696016958151
 20
8.3342057291666851
 30
0.0
 40
8.1442057291666661
 41
12.75
 71
               1
 72
               1
  1
50
  7
ＭＳ ゴシック
 73
               1
 44
0.7828267384257843
  0
MTEXT
  5
3B
100
AcDbEntity
  8
一般
 62
               8
100
AcDbMText
 10
33.590303983041849
 20
8.3342057291666851
 30
0.0
 40
8.1442057291666661
 41
27.999999999999972
 71
               1
 72
               1
  1
100mm
  7
ＭＳ ゴシック
 73
               1
 44
0.7828267384257843
  0
LINE
  5
3C
100
AcDbEntity
  8
寸法
370
              15
 62
               8
100
AcDbLine
 10
-7.9096960169581507
 20
-1.2916666666666288
 30
0.0
 11
-7.9096960169581507
 21
-9.2916666666666288
 31
0.0
  0
POLYLINE
  5
3D
100
AcDbEntity
  8
一般
370
              15
  6
Continuous
 62
               8
100
AcDb2dPolyline
 66
               1
 10
0.0
 20
0.0
 30
0.0
 75
               5
  0
VERTEX
  5
3E
100
AcDbEntity
  8
一般
370
              15
  6
Continuous
 62
               8
100
AcDbVertex
100
AcDb2dVertex
 10
-57.909696016958151
 20
-1.2916666666666288
 30
0.0
  0
VERTEX
  5
3F
100
AcDbEntity
  8
一般
370
              15
  6
Continuous
 62
               8
100
AcDbVertex
100
AcDb2dVertex
 10
-57.909696016958151
 20
-9.2916666666666288
 30
0.0
  0
VERTEX
  5
40
100
AcDbEntity
  8
一般
370
              15
  6
Continuous
 62
               8
100
AcDbVertex
100
AcDb2dVertex
 10
42.090303983041849
 20
-9.2916666666666288
 30
0.0
  0
VERTEX
  5
41
100
AcDbEntity
  8
一般
370
              15
  6
Continuous
 62
               8
100
AcDbVertex
100
AcDb2dVertex
 10
42.090303983041849
 20
-1.2916666666666288
 30
0.0
  0
SEQEND
  5
42
100
AcDbEntity
  8
一般
370
              15
  6
Continuous
 62
               8
  0
ENDBLK
  5
43
100
AcDbEntity
  8
一般
100
AcDbBlockEnd
  0
BLOCK
  5
44
100
AcDbEntity
  8
一般
100
AcDbBlockBegin
  2
スケール1：5
 70
               0
 10
0.0
 20
0.0
 30
0.0
  3
スケール1：5
  1

  0
INSERT
  5
45
100
AcDbEntity
  8
一般
 62
               7
100
AcDbBlockReference
  2
グループ
 10
0.0
 20
0.0
 30
0.0
  0
ENDBLK
  5
46
100
AcDbEntity
  8
一般
100
AcDbBlockEnd
  0
BLOCK
  5
47
100
AcDbEntity
  8
一般
100
AcDbBlockBegin
  2
グループ-1
 70
               0
 10
0.0
 20
0.0
 30
0.0
  3
グループ-1
  1

  0
LINE
  5
48
100
AcDbEntity
  8
一般
370
               5
  6
Continuous
 62
               7
100
AcDbLine
 10
-290.49815156978758
 20
-266.46356044476642
 30
0.0
 11
-304.64028719351853
 21
-280.60569606849737
 31
0.0
  0
LINE
  5
49
100
AcDbEntity
  8
一般
370
               5
  6
Continuous
 62
               7
100
AcDbLine
 10
-290.49815156978758
 20
-280.60569606849737
 30
0.0
 11
-304.64028719351853
 21
-266.46356044476642
 31
0.0
  0
ENDBLK
  5
4A
100
AcDbEntity
  8
一般
100
AcDbBlockEnd
  0
BLOCK
  5
4B
100
AcDbEntity
  8
一般
100
AcDbBlockBegin
  2
グループ-2
 70
               0
 10
0.0
 20
0.0
 30
0.0
  3
グループ-2
  1

  0
LINE
  5
4C
100
AcDbEntity
  8
一般
370
               5
  6
Continuous
 62
               7
100
AcDbLine
 10
-66.928932188134524
 20
-266.46356044476642
 30
0.0
 11
-81.071067811865476
 21
-280.60569606849737
 31
0.0
  0
LINE
  5
4D
100
AcDbEntity
  8
一般
370
               5
  6
Continuous
 62
               7
100
AcDbLine
 10
-66.928932188134524
 20
-280.60569606849737
 30
0.0
 11
-81.071067811865476
 21
-266.46356044476642
 31
0.0
  0
ENDBLK
  5
4E
100
AcDbEntity
  8
一般
100
AcDbBlockEnd
  0
BLOCK
  5
4F
100
AcDbEntity
  8
一般
100
AcDbBlockBegin
  2
グループ-3
 70
               0
 10
0.0
 20
0.0
 30
0.0
  3
グループ-3
  1

  0
LINE
  5
50
100
AcDbEntity
  8
一般
370
               5
  6
Continuous
 62
               7
100
AcDbLine
 10
-290.49815156978758
 20
297.31878605470177
 30
0.0
 11
-304.64028719351853
 21
283.17665043097082
 31
0.0
  0
LINE
  5
51
100
AcDbEntity
  8
一般
370
               5
  6
Continuous
 62
               7
100
AcDbLine
 10
-290.49815156978758
 20
283.17665043097082
 30
0.0
 11
-304.64028719351853
 21
297.31878605470177
 31
0.0
  0
ENDBLK
  5
52
100
AcDbEntity
  8
一般
100
AcDbBlockEnd
  0
ENDSEC
  0
SECTION
  2
ENTITIES
  0
MTEXT
  5
53
100
AcDbEntity
  8
一般
 62
               7
100
AcDbMText
 10
1671.2324838490408
 20
1291.5910654350243
 30
0.0
 40
30.316840277777771
 41
0.0
 71
               1
 72
               1
  1
BX-5207
  7
Arial
 73
               1
 44
0.9673603504928806
  0
INSERT
  5
54
100
AcDbEntity
  8
一般
 62
               7
100
AcDbBlockReference
  2
スケール1：5
 10
1416.9096960169586
 20
1199.2916666666665
 30
0.0
  0
INSERT
  5
55
100
AcDbEntity
  8
一般
 62
               7
100
AcDbBlockReference
  2
グループ-1
 10
1450.0
 20
1020.0
 30
0.0
  0
POLYLINE
  5
56
100
AcDbEntity
  8
寸法
370
              15
100
AcDb2dPolyline
 66
               1
 10
0.0
 20
0.0
 30
0.0
 70
               1
 75
               5
  0
VERTEX
  5
57
100
AcDbEntity
  8
寸法
370
              15
100
AcDbVertex
100
AcDb2dVertex
 10
1128.4307806183469
 20
1038.465371743368
 30
0.0
  0
VERTEX
  5
58
100
AcDbEntity
  8
寸法
370
              15
100
AcDbVertex
100
AcDb2dVertex
 10
1176.4307806183469
 20
1038.465371743368
 30
0.0
  0
VERTEX
  5
59
100
AcDbEntity
  8
寸法
370
              15
100
AcDbVertex
100
AcDb2dVertex
 10
1176.4307806183469
 20
754.46537174336811
 30
0.0
  0
VERTEX
  5
5A
100
AcDbEntity
  8
寸法
370
              15
100
AcDbVertex
100
AcDb2dVertex
 10
1128.4307806183469
 20
754.46537174336811
 30
0.0
  0
SEQEND
  5
5B
100
AcDbEntity
  8
寸法
370
              15
  0
ARC
  5
5C
100
AcDbEntity
  8
寸法
370
              15
100
AcDbCircle
 10
1152.4307806183469
 20
988.90332263010362
 30
0.0
 40
14.999999999999895
100
AcDbArc
 50
317.39477541161665
 51
216.86989764584411
  0
ARC
  5
5D
100
AcDbEntity
  8
寸法
370
              15
100
AcDbCircle
 10
1152.4307806183469
 20
1310.2477182428363
 30
0.0
 40
29.5
100
AcDbArc
 50
300.56227535173281
 51
239.43772464826696
  0
POLYLINE
  5
5E
100
AcDbEntity
  8
寸法
370
              15
  6
Continuous
100
AcDb2dPolyline
 66
               1
 10
0.0
 20
0.0
 30
0.0
 75
               5
  0
VERTEX
  5
5F
100
AcDbEntity
  8
寸法
370
              15
  6
Continuous
100
AcDbVertex
100
AcDb2dVertex
 10
1167.1581977234996
 20
1291.2977001581271
 30
0.0
  0
VERTEX
  5
60
100
AcDbEntity
  8
寸法
370
              15
  6
Continuous
100
AcDbVertex
100
AcDb2dVertex
 10
1167.4307806183469
 20
1291.2977001581271
 30
0.0
  0
VERTEX
  5
61
100
AcDbEntity
  8
寸法
370
              15
  6
Continuous
100
AcDbVertex
100
AcDb2dVertex
 10
1167.4307806183469
 20
1171.2477182428363
 30
0.0
  0
VERTEX
  5
62
100
AcDbEntity
  8
寸法
370
              15
  6
Continuous
100
AcDbVertex
100
AcDb2dVertex
 10
1137.4307806183469
 20
1171.2477182428363
 30
0.0
  0
VERTEX
  5
63
100
AcDbEntity
  8
寸法
370
              15
  6
Continuous
100
AcDbVertex
100
AcDb2dVertex
 10
1137.4307806183469
 20
1291.2977001581271
 30
0.0
  0
VERTEX
  5
64
100
AcDbEntity
  8
寸法
370
              15
  6
Continuous
100
AcDbVertex
100
AcDb2dVertex
 10
1137.7033635131943
 20
1291.2977001581271
 30
0.0
  0
SEQEND
  5
65
100
AcDbEntity
  8
寸法
370
              15
  6
Continuous
  0
ARC
  5
66
100
AcDbEntity
  8
寸法
370
              15
100
AcDbCircle
 10
1376.0
 20
1037.965371743368
 30
0.0
 40
23.0
100
AcDbArc
 50
0.0
 51
6.240131098257792
  0
ARC
  5
67
100
AcDbEntity
  8
寸法
370
              15
100
AcDbCircle
 10
1376.0
 20
1037.965371743368
 30
0.0
 40
23.000000000000039
100
AcDbArc
 50
151.6217052439705
 51
180.0
  0
POLYLINE
  5
68
100
AcDbEntity
  8
寸法
370
              15
100
AcDb2dPolyline
 66
               1
 10
0.0
 20
0.0
 30
0.0
 70
               1
 75
               5
  0
VERTEX
  5
69
100
AcDbEntity
  8
寸法
370
              15
100
AcDbVertex
100
AcDb2dVertex
 10
1126.4307806183469
 20
754.46537174336811
 30
0.0
  0
VERTEX
  5
6A
100
AcDbEntity
  8
寸法
370
              15
100
AcDbVertex
100
AcDb2dVertex
 10
1178.4307806183469
 20
754.46537174336811
 30
0.0
  0
VERTEX
  5
6B
100
AcDbEntity
  8
寸法
370
              15
100
AcDbVertex
100
AcDb2dVertex
 10
1178.4307806183469
 20
746.46537174336811
 30
0.0
  0
VERTEX
  5
6C
100
AcDbEntity
  8
寸法
370
              15
100
AcDbVertex
100
AcDb2dVertex
 10
1126.4307806183469
 20
746.46537174336811
 30
0.0
  0
SEQEND
  5
6D
100
AcDbEntity
  8
寸法
370
              15
  0
POLYLINE
  5
6E
100
AcDbEntity
  8
寸法
370
              15
100
AcDb2dPolyline
 66
               1
 10
0.0
 20
0.0
 30
0.0
 75
               5
  0
VERTEX
  5
6F
100
AcDbEntity
  8
寸法
370
              15
100
AcDbVertex
100
AcDb2dVertex
 10
1400.0
 20
973.90332263010373
 30
0.0
  0
VERTEX
  5
70
100
AcDbEntity
  8
寸法
370
              15
100
AcDbVertex
100
AcDb2dVertex
 10
1400.0
 20
754.46537174336811
 30
0.0
  0
VERTEX
  5
71
100
AcDbEntity
  8
寸法
370
              15
100
AcDbVertex
100
AcDb2dVertex
 10
1352.0
 20
754.46537174336811
 30
0.0
  0
VERTEX
  5
72
100
AcDbEntity
  8
寸法
370
              15
100
AcDbVertex
100
AcDb2dVertex
 10
1352.0
 20
1038.465371743368
 30
0.0
  0
VERTEX
  5
73
100
AcDbEntity
  8
寸法
370
              15
100
AcDbVertex
100
AcDb2dVertex
 10
1400.0
 20
1038.465371743368
 30
0.0
  0
VERTEX
  5
74
100
AcDbEntity
  8
寸法
370
              15
100
AcDbVertex
100
AcDb2dVertex
 10
1400.0
 20
1003.9033226301036
 30
0.0
  0
SEQEND
  5
75
100
AcDbEntity
  8
寸法
370
              15
  0
POLYLINE
  5
76
100
AcDbEntity
  8
寸法
370
              15
100
AcDb2dPolyline
 66
               1
 10
0.0
 20
0.0
 30
0.0
 75
               5
  0
VERTEX
  5
77
100
AcDbEntity
  8
寸法
370
              15
100
AcDbVertex
100
AcDb2dVertex
 10
1400.0
 20
1053.465371743368
 30
0.0
  0
VERTEX
  5
78
100
AcDbEntity
  8
寸法
370
              15
100
AcDbVertex
100
AcDb2dVertex
 10
1400.0
 20
1040.465371743368
 30
0.0
  0
VERTEX
  5
79
100
AcDbEntity
  8
寸法
370
              15
100
AcDbVertex
100
AcDb2dVertex
 10
1376.0
 20
1040.465371743368
 30
0.0
  0
VERTEX
  5
7A
100
AcDbEntity
  8
寸法
370
              15
100
AcDbVertex
100
AcDb2dVertex
 10
1352.0
 20
1050.465371743368
 30
0.0
  0
VERTEX
  5
7B
100
AcDbEntity
  8
寸法
370
              15
100
AcDbVertex
100
AcDb2dVertex
 10
1352.0
 20
1070.465371743368
 30
0.0
  0
VERTEX
  5
7C
100
AcDbEntity
  8
寸法
370
              15
100
AcDbVertex
100
AcDb2dVertex
 10
1400.0
 20
1070.465371743368
 30
0.0
  0
VERTEX
  5
7D
100
AcDbEntity
  8
寸法
370
              15
100
AcDbVertex
100
AcDb2dVertex
 10
1400.0
 20
1063.465371743368
 30
0.0
  0
SEQEND
  5
7E
100
AcDbEntity
  8
寸法
370
              15
  0
POLYLINE
  5
7F
100
AcDbEntity
  8
寸法
370
              15
100
AcDb2dPolyline
 66
               1
 10
0.0
 20
0.0
 30
0.0
 70
               1
 75
               5
  0
VERTEX
  5
80
100
AcDbEntity
  8
寸法
370
              15
100
AcDbVertex
100
AcDb2dVertex
 10
1352.5
 20
1038.465371743368
 30
0.0
  0
VERTEX
  5
81
100
AcDbEntity
  8
寸法
370
              15
100
AcDbVertex
100
AcDb2dVertex
 10
1399.5
 20
1038.465371743368
 30
0.0
  0
VERTEX
  5
82
100
AcDbEntity
  8
寸法
370
              15
100
AcDbVertex
100
AcDb2dVertex
 10
1399.5
 20
1037.465371743368
 30
0.0
  0
VERTEX
  5
83
100
AcDbEntity
  8
寸法
370
              15
100
AcDbVertex
100
AcDb2dVertex
 10
1352.5
 20
1037.465371743368
 30
0.0
  0
SEQEND
  5
84
100
AcDbEntity
  8
寸法
370
              15
  0
LWPOLYLINE
  5
85
100
AcDbEntity
  8
寸法
370
              15
100
AcDbPolyline
 90
        5
 70
             129
 10
1419.0
 20
1063.465371743368
 10
1419.0
 20
1053.465371743368
 10
1400.0
 20
1053.465371743368
 42
-0.1316524975873978
 10
1398.6602540378444
 20
1058.465371743368
 42
-0.1316524975874007
 10
1400.0
 20
1063.465371743368
  0
POLYLINE
  5
86
100
AcDbEntity
  8
寸法
370
              15
100
AcDb2dPolyline
 66
               1
 10
0.0
 20
0.0
 30
0.0
 70
               1
 75
               5
  0
VERTEX
  5
87
100
AcDbEntity
  8
寸法
370
              15
100
AcDbVertex
100
AcDb2dVertex
 10
1419.0
 20
1064.465371743368
 30
0.0
  0
VERTEX
  5
88
100
AcDbEntity
  8
寸法
370
              15
100
AcDbVertex
100
AcDb2dVertex
 10
1474.0
 20
1064.465371743368
 30
0.0
  0
VERTEX
  5
89
100
AcDbEntity
  8
寸法
370
              15
100
AcDbVertex
100
AcDb2dVertex
 10
1474.0
 20
1052.465371743368
 30
0.0
  0
VERTEX
  5
8A
100
AcDbEntity
  8
寸法
370
              15
100
AcDbVertex
100
AcDb2dVertex
 10
1419.0
 20
1052.465371743368
 30
0.0
  0
SEQEND
  5
8B
100
AcDbEntity
  8
寸法
370
              15
  0
LWPOLYLINE
  5
8C
100
AcDbEntity
  8
寸法
370
              15
100
AcDbPolyline
 90
        7
 70
             128
 10
1488.0
 20
973.90332263010362
 10
1400.0
 20
973.90332263010362
 42
-0.1622776601683793
 10
1395.0
 20
988.90332263010362
 42
-0.1622776601683807
 10
1400.0
 20
1003.9033226301036
 10
1515.0
 20
1003.9033226301036
 10
1515.0
 20
988.90332263010362
 10
1487.9392836709287
 20
973.90332263010362
  0
POLYLINE
  5
8D
100
AcDbEntity
  8
寸法
370
              15
100
AcDb2dPolyline
 66
               1
 10
0.0
 20
0.0
 30
0.0
 70
               1
 75
               5
  0
VERTEX
  5
8E
100
AcDbEntity
  8
寸法
370
              15
100
AcDbVertex
100
AcDb2dVertex
 10
1493.1108961726027
 20
976.76999425038787
 30
0.0
  0
VERTEX
  5
8F
100
AcDbEntity
  8
寸法
370
              15
100
AcDbVertex
100
AcDb2dVertex
 10
1514.1017691439483
 20
988.40542513629998
 30
0.0
  0
VERTEX
  5
90
100
AcDbEntity
  8
寸法
370
              15
100
AcDbVertex
100
AcDb2dVertex
 10
1517.4954364856726
 20
982.28308718632422
 30
0.0
  0
VERTEX
  5
91
100
AcDbEntity
  8
寸法
370
              15
100
AcDbVertex
100
AcDb2dVertex
 10
1496.5045635143274
 20
970.64765630041211
 30
0.0
  0
SEQEND
  5
92
100
AcDbEntity
  8
寸法
370
              15
  0
POLYLINE
  5
93
100
AcDbEntity
  8
寸法
370
              15
100
AcDb2dPolyline
 66
               1
 10
0.0
 20
0.0
 30
0.0
 70
               1
 75
               5
  0
VERTEX
  5
94
100
AcDbEntity
  8
寸法
370
              15
100
AcDbVertex
100
AcDb2dVertex
 10
1350.0
 20
754.46537174336811
 30
0.0
  0
VERTEX
  5
95
100
AcDbEntity
  8
寸法
370
              15
100
AcDbVertex
100
AcDb2dVertex
 10
1402.0
 20
754.46537174336811
 30
0.0
  0
VERTEX
  5
96
100
AcDbEntity
  8
寸法
370
              15
100
AcDbVertex
100
AcDb2dVertex
 10
1402.0
 20
746.46537174336811
 30
0.0
  0
VERTEX
  5
97
100
AcDbEntity
  8
寸法
370
              15
100
AcDbVertex
100
AcDb2dVertex
 10
1350.0
 20
746.46537174336811
 30
0.0
  0
SEQEND
  5
98
100
AcDbEntity
  8
寸法
370
              15
  0
ARC
  5
99
100
AcDbEntity
  8
寸法
370
              15
100
AcDbCircle
 10
1152.4307806183469
 20
1037.965371743368
 30
0.0
 40
23.0
100
AcDbArc
 50
0.0
 51
6.240131098257792
  0
ARC
  5
9A
100
AcDbEntity
  8
寸法
370
              15
100
AcDbCircle
 10
1152.4307806183469
 20
1037.965371743368
 30
0.0
 40
23.000000000000014
100
AcDbArc
 50
173.75986890174229
 51
180.0
  0
POLYLINE
  5
9B
100
AcDbEntity
  8
寸法
370
              15
100
AcDb2dPolyline
 66
               1
 10
0.0
 20
0.0
 30
0.0
 70
               1
 75
               5
  0
VERTEX
  5
9C
100
AcDbEntity
  8
寸法
370
              15
100
AcDbVertex
100
AcDb2dVertex
 10
1128.9307806183469
 20
1038.465371743368
 30
0.0
  0
VERTEX
  5
9D
100
AcDbEntity
  8
寸法
370
              15
100
AcDbVertex
100
AcDb2dVertex
 10
1175.9307806183469
 20
1038.465371743368
 30
0.0
  0
VERTEX
  5
9E
100
AcDbEntity
  8
寸法
370
              15
100
AcDbVertex
100
AcDb2dVertex
 10
1175.9307806183469
 20
1037.465371743368
 30
0.0
  0
VERTEX
  5
9F
100
AcDbEntity
  8
寸法
370
              15
100
AcDbVertex
100
AcDb2dVertex
 10
1128.9307806183469
 20
1037.465371743368
 30
0.0
  0
SEQEND
  5
A0
100
AcDbEntity
  8
寸法
370
              15
  0
POLYLINE
  5
A1
100
AcDbEntity
  8
寸法
370
              15
100
AcDb2dPolyline
 66
               1
 10
0.0
 20
0.0
 30
0.0
 70
               1
 75
               5
  0
VERTEX
  5
A2
100
AcDbEntity
  8
寸法
370
              15
100
AcDbVertex
100
AcDb2dVertex
 10
1128.4307806183469
 20
1070.465371743368
 30
0.0
  0
VERTEX
  5
A3
100
AcDbEntity
  8
寸法
370
              15
100
AcDbVertex
100
AcDb2dVertex
 10
1176.4307806183469
 20
1070.465371743368
 30
0.0
  0
VERTEX
  5
A4
100
AcDbEntity
  8
寸法
370
              15
100
AcDbVertex
100
AcDb2dVertex
 10
1176.4307806183469
 20
1040.465371743368
 30
0.0
  0
VERTEX
  5
A5
100
AcDbEntity
  8
寸法
370
              15
100
AcDbVertex
100
AcDb2dVertex
 10
1128.4307806183469
 20
1040.465371743368
 30
0.0
  0
SEQEND
  5
A6
100
AcDbEntity
  8
寸法
370
              15
  0
CIRCLE
  5
A7
100
AcDbEntity
  8
寸法
370
              15
100
AcDbCircle
 10
1152.4307806183469
 20
1058.465371743368
 30
0.0
 40
6.0
  0
LWPOLYLINE
  5
A8
100
AcDbEntity
  8
寸法
370
              15
100
AcDbPolyline
 90
        3
 70
             129
 10
1167.4307806183469
 20
988.90332263010362
 42
0.4142135623731006
 10
1152.4307806183469
 20
1003.9033226301035
 42
0.4142135623730956
 10
1137.4307806183469
 20
988.90332263010362
  0
SPLINE
  5
A9
100
AcDbEntity
  8
寸法
370
              15
100
AcDbSpline
210
0.0
220
0.0
230
1.0
 70
               8
 71
               2
 72
              15
 73
              12
 74
               0
 42
0.000001
 43
0.000001
 40
0.0
 40
0.0
 40
0.0
 40
1.0
 40
1.0
 40
2.0
 40
3.0
 40
4.0
 40
5.0
 40
6.0
 40
7.0
 40
7.0
 40
8.0
 40
8.0
 40
8.0
 10
1140.4307806184738
 20
982.58768200261056
 30
0.0
 10
1140.4307806183469
 20
982.58769586734672
 30
0.0
 10
1140.4307806183469
 20
982.58770969334398
 30
0.0
 10
1140.4307806183469
 20
984.14656184807814
 30
0.0
 10
1143.6461709275204
 20
986.84657298156583
 30
0.0
 10
1149.2153903091735
 20
988.40542513629998
 30
0.0
 10
1155.6461709275204
 20
988.40542513629998
 30
0.0
 10
1161.2153903091735
 20
986.84657298156583
 30
0.0
 10
1164.4307806183469
 20
984.14656184807814
 30
0.0
 10
1164.4307806183469
 20
982.58770969334398
 30
0.0
 10
1164.4307806183469
 20
982.02286092534962
 30
0.0
 10
1164.2196952069207
 20
981.48543306972476
 30
0.0
  0
POLYLINE
  5
AA
100
AcDbEntity
  8
寸法
370
              15
  6
Continuous
 62
             255
100
AcDb2dPolyline
 66
               1
 10
0.0
 20
0.0
 30
0.0
 70
               1
 75
               5
  0
VERTEX
  5
AB
100
AcDbEntity
  8
寸法
370
              15
  6
Continuous
 62
             255
100
AcDbVertex
100
AcDb2dVertex
 10
1140.4307806183469
 20
982.68434718673586
 30
0.0
  0
VERTEX
  5
AC
100
AcDbEntity
  8
寸法
370
              15
  6
Continuous
 62
             255
100
AcDbVertex
100
AcDb2dVertex
 10
1164.4307806183469
 20
982.68434718673586
 30
0.0
  0
VERTEX
  5
AD
100
AcDbEntity
  8
寸法
370
              15
  6
Continuous
 62
             255
100
AcDbVertex
100
AcDb2dVertex
 10
1164.4307806183469
 20
976.46537174336822
 30
0.0
  0
VERTEX
  5
AE
100
AcDbEntity
  8
寸法
370
              15
  6
Continuous
 62
             255
100
AcDbVertex
100
AcDb2dVertex
 10
1140.4307806183469
 20
976.46537174336822
 30
0.0
  0
SEQEND
  5
AF
100
AcDbEntity
  8
寸法
370
              15
  6
Continuous
 62
             255
  0
SPLINE
  5
B0
100
AcDbEntity
  8
寸法
370
              15
100
AcDbSpline
210
0.0
220
0.0
230
1.0
 70
               9
 71
               2
 72
              17
 73
              14
 74
               0
 42
0.000001
 43
0.000001
 40
0.0
 40
0.0
 40
0.0
 40
1.0
 40
2.0
 40
3.0
 40
4.0
 40
5.0
 40
6.0
 40
7.0
 40
8.0
 40
9.0
 40
10.0
 40
11.0
 40
12.0
 40
12.0
 40
12.0
 10
1146.4307806183469
 20
981.50366110895709
 30
0.0
 10
1149.2153903091735
 20
982.28308718632422
 30
0.0
 10
1155.6461709275204
 20
982.28308718632422
 30
0.0
 10
1161.2153903091735
 20
980.72423503159007
 30
0.0
 10
1164.4307806183469
 20
978.02422389810226
 30
0.0
 10
1164.4307806183469
 20
974.90651958863407
 30
0.0
 10
1161.2153903091735
 20
972.20650845514626
 30
0.0
 10
1155.6461709275204
 20
970.64765630041211
 30
0.0
 10
1149.2153903091735
 20
970.64765630041211
 30
0.0
 10
1143.6461709275204
 20
972.20650845514626
 30
0.0
 10
1140.4307806183469
 20
974.90651958863407
 30
0.0
 10
1140.4307806183469
 20
978.02422389810226
 30
0.0
 10
1143.6461709275204
 20
980.72423503159007
 30
0.0
 10
1146.4307806183469
 20
981.50366110895709
 30
0.0
  0
LINE
  5
B1
100
AcDbEntity
  8
寸法
370
              15
100
AcDbLine
 10
1164.4307806183469
 20
982.68434718673586
 30
0.0
 11
1164.4307806183469
 21
976.46537174336822
 31
0.0
  0
LINE
  5
B2
100
AcDbEntity
  8
寸法
370
              15
100
AcDbLine
 10
1140.4307806183469
 20
982.68434718673586
 30
0.0
 11
1140.4307806183469
 21
976.46537174336822
 31
0.0
  0
LINE
  5
B3
100
AcDbEntity
  8
寸法
370
              15
100
AcDbLine
 10
1167.4307806183469
 20
988.90332263010362
 30
0.0
 11
1164.4307806183469
 21
981.40332263010362
 31
0.0
  0
LINE
  5
B4
100
AcDbEntity
  8
寸法
370
              15
100
AcDbLine
 10
1137.4307806183469
 20
988.90332263010362
 30
0.0
 11
1140.4307806183469
 21
981.40332263010362
 31
0.0
  0
SPLINE
  5
B5
100
AcDbEntity
  8
寸法
370
              15
100
AcDbSpline
210
0.0
220
0.0
230
1.0
 70
               9
 71
               2
 72
              17
 73
              14
 74
               0
 42
0.000001
 43
0.000001
 40
0.0
 40
0.0
 40
0.0
 40
1.0
 40
2.0
 40
3.0
 40
4.0
 40
5.0
 40
6.0
 40
7.0
 40
8.0
 40
9.0
 40
10.0
 40
11.0
 40
12.0
 40
12.0
 40
12.0
 10
1147.4307806183469
 20
980.46561689793043
 30
0.0
 10
1149.7512886940358
 20
981.11513862906963
 30
0.0
 10
1155.1102725426581
 20
981.11513862906963
 30
0.0
 10
1159.7512886940358
 20
979.81609516679123
 30
0.0
 10
1162.4307806183469
 20
977.56608588888469
 30
0.0
 10
1162.4307806183469
 20
974.96799896432776
 30
0.0
 10
1159.7512886940358
 20
972.71798968642133
 30
0.0
 10
1155.1102725426581
 20
971.41894622414293
 30
0.0
 10
1149.7512886940358
 20
971.41894622414293
 30
0.0
 10
1145.1102725426581
 20
972.71798968642133
 30
0.0
 10
1142.4307806183469
 20
974.96799896432776
 30
0.0
 10
1142.4307806183469
 20
977.56608588888469
 30
0.0
 10
1145.1102725426581
 20
979.81609516679123
 30
0.0
 10
1147.4307806183469
 20
980.46561689793043
 30
0.0
  0
SPLINE
  5
B6
100
AcDbEntity
  8
寸法
100
AcDbSpline
210
0.0
220
0.0
230
1.0
 70
               9
 71
               2
 72
              17
 73
              14
 74
               0
 42
0.000001
 43
0.000001
 40
0.0
 40
0.0
 40
0.0
 40
1.0
 40
2.0
 40
3.0
 40
4.0
 40
5.0
 40
6.0
 40
7.0
 40
8.0
 40
9.0
 40
10.0
 40
11.0
 40
12.0
 40
12.0
 40
12.0
 10
1148.3057806183469
 20
979.91411987593904
 30
0.0
 10
1150.2201997807902
 20
980.4650511104004
 30
0.0
 10
1154.6413614559037
 20
980.4650511104004
 30
0.0
 10
1158.4701997807902
 20
979.36318864147756
 30
0.0
 10
1160.6807806183469
 20
977.45470686235001
 30
0.0
 10
1160.6807806183469
 20
975.25098192450434
 30
0.0
 10
1158.4701997807902
 20
973.34250014537668
 30
0.0
 10
1154.6413614559037
 20
972.24063767645384
 30
0.0
 10
1150.2201997807902
 20
972.24063767645384
 30
0.0
 10
1146.3913614559037
 20
973.34250014537668
 30
0.0
 10
1144.1807806183469
 20
975.25098192450434
 30
0.0
 10
1144.1807806183469
 20
977.45470686235001
 30
0.0
 10
1146.3913614559037
 20
979.36318864147756
 30
0.0
 10
1148.3057806183469
 20
979.91411987593904
 30
0.0
  0
LWPOLYLINE
  5
B7
100
AcDbEntity
  8
寸法
370
              15
100
AcDbPolyline
 90
        5
 70
             129
 10
1157.4307806183469
 20
1267.2743290542244
 10
1147.4307806183469
 20
1267.2743290542244
 10
1147.4307806183469
 20
1286.2743290542244
 42
-0.1316524975874019
 10
1152.4307806183469
 20
1287.6140750163802
 42
-0.1316524975874033
 10
1157.4307806183469
 20
1286.2743290542244
  0
POLYLINE
  5
B8
100
AcDbEntity
  8
寸法
370
              15
100
AcDb2dPolyline
 66
               1
 10
0.0
 20
0.0
 30
0.0
 70
               1
 75
               5
  0
VERTEX
  5
B9
100
AcDbEntity
  8
寸法
370
              15
100
AcDbVertex
100
AcDb2dVertex
 10
1146.4307806183469
 20
1267.2743290542244
 30
0.0
  0
VERTEX
  5
BA
100
AcDbEntity
  8
寸法
370
              15
100
AcDbVertex
100
AcDb2dVertex
 10
1158.4307806183469
 20
1267.2743290542244
 30
0.0
  0
VERTEX
  5
BB
100
AcDbEntity
  8
寸法
370
              15
100
AcDbVertex
100
AcDb2dVertex
 10
1158.4307806183469
 20
1212.2743290542244
 30
0.0
  0
VERTEX
  5
BC
100
AcDbEntity
  8
寸法
370
              15
100
AcDbVertex
100
AcDb2dVertex
 10
1146.4307806183469
 20
1212.2743290542244
 30
0.0
  0
SEQEND
  5
BD
100
AcDbEntity
  8
寸法
370
              15
  0
ARC
  5
BE
100
AcDbEntity
  8
寸法
370
              15
100
AcDbCircle
 10
1152.4307806183469
 20
1310.2477182428363
 30
0.0
 40
23.999999999999968
100
AcDbArc
 50
280.34439704650976
 51
259.65560295349053
  0
POLYLINE
  5
BF
100
AcDbEntity
  8
寸法
370
              15
100
AcDb2dPolyline
 66
               1
 10
0.0
 20
0.0
 30
0.0
 70
               1
 75
               5
  0
VERTEX
  5
C0
100
AcDbEntity
  8
寸法
370
              15
100
AcDbVertex
100
AcDb2dVertex
 10
1140.4307806183469
 20
1171.2477182428363
 30
0.0
  0
VERTEX
  5
C1
100
AcDbEntity
  8
寸法
370
              15
100
AcDbVertex
100
AcDb2dVertex
 10
1164.4307806183469
 20
1171.2477182428363
 30
0.0
  0
VERTEX
  5
C2
100
AcDbEntity
  8
寸法
370
              15
100
AcDbVertex
100
AcDb2dVertex
 10
1164.4307806183469
 20
1168.7522817571637
 30
0.0
  0
VERTEX
  5
C3
100
AcDbEntity
  8
寸法
370
              15
100
AcDbVertex
100
AcDb2dVertex
 10
1140.4307806183469
 20
1168.7522817571637
 30
0.0
  0
SEQEND
  5
C4
100
AcDbEntity
  8
寸法
370
              15
  0
INSERT
  5
C5
100
AcDbEntity
  8
一般
 62
               7
100
AcDbBlockReference
  2
グループ-2
 10
1450.0
 20
1020.0
 30
0.0
  0
INSERT
  5
C6
100
AcDbEntity
  8
一般
 62
               7
100
AcDbBlockReference
  2
グループ-3
 10
1450.0
 20
1020.0
 30
0.0
  0
ENDSEC
  0
SECTION
  2
OBJECTS
  0
DICTIONARY
  5
19
100
AcDbDictionary
280
               0
281
               1
  3
ACAD_GROUP
350
1A
  3
ACAD_MLINESTYLE
350
1B
  3
ACAD_LAYOUT
350
1E
  3
ACAD_PLOTSETTINGS
350
22
  3
ACAD_PLOTSTYLENAME
350
1F
  3
ACAD_WIPEOUT_VARS
350
23
  0
DICTIONARY
  5
1A
102
{ACAD_REACTORS
330
19
102
}
100
AcDbDictionary
280
               0
281
               1
  0
DICTIONARY
  5
1B
102
{ACAD_REACTORS
330
19
102
}
100
AcDbDictionary
280
               0
281
               1
  3
Standard
350
1C
  0
MLINESTYLE
  5
1C
102
{ACAD_REACTORS
330
1B
102
}
100
AcDbMlineStyle
  2
Standard
 70
               0
  3

 62
               0
 51
90.0
 52
90.0
 71
               2
 49
0.5
 62
             256
  6
ByLayer
 49
-0.5
 62
             256
  6
ByLayer
  0
ACDBDICTIONARYWDFLT
  5
1F
102
{ACAD_REACTORS
330
19
102
}
100
AcDbDictionary
281
               1
  3
Normal
350
1D
100
AcDbDictionaryWithDefault
340
1D
  0
ACDBPLACEHOLDER
  5
1D
102
{ACAD_REACTORS
330
1F
102
}
  0
LAYOUT
  5
20
102
{ACAD_REACTORS
330
1E
102
}
100
AcDbPlotSettings
  1

  2

  4

  6

 40
0.0
 41
0.0
 42
0.0
 43
0.0
 44
0.0
 45
0.0
 46
0.0
 47
0.0
 48
0.0
 49
0.0
140
0.0
141
0.0
142
1.0
143
1.0
 70
            1024
 72
               0
 73
               0
 74
               0
  7

 75
               0
147
1.0
148
0.0
149
0.0
100
AcDbLayout
  1
Model
 70
               0
 71
               0
 10
0.0
 20
0.0
 11
0.0
 21
0.0
 12
0.0
 22
0.0
 32
0.0
 14
0.0
 24
0.0
 34
0.0
 15
0.0
 25
0.0
 35
0.0
146
0.0
 13
0.0
 23
0.0
 33
0.0
 16
0.0
 26
0.0
 36
0.0
 17
0.0
 27
0.0
 37
0.0
 76
               0
330
A
331
0
345
0
346
0
  0
LAYOUT
  5
21
102
{ACAD_REACTORS
330
1E
102
}
100
AcDbPlotSettings
  1

  2

  4

  6

 40
0.0
 41
0.0
 42
0.0
 43
0.0
 44
0.0
 45
0.0
 46
0.0
 47
0.0
 48
0.0
 49
0.0
140
0.0
141
0.0
142
1.0
143
1.0
 70
               0
 72
               0
 73
               0
 74
               0
  7

 75
               0
147
1.0
148
0.0
149
0.0
100
AcDbLayout
  1
Layout1
 70
               0
 71
               0
 10
0.0
 20
0.0
 11
0.0
 21
0.0
 12
0.0
 22
0.0
 32
0.0
 14
0.0
 24
0.0
 34
0.0
 15
0.0
 25
0.0
 35
0.0
146
0.0
 13
0.0
 23
0.0
 33
0.0
 16
0.0
 26
0.0
 36
0.0
 17
0.0
 27
0.0
 37
0.0
 76
               0
330
B
331
0
345
0
346
0
  0
DICTIONARY
  5
1E
102
{ACAD_REACTORS
330
19
102
}
100
AcDbDictionary
280
               0
281
               1
  3
Layout1
350
21
  3
Model
350
20
  0
DICTIONARY
  5
22
102
{ACAD_REACTORS
330
19
102
}
100
AcDbDictionary
280
               0
281
               1
  0
WIPEOUTVARIABLES
  5
23
100
AcDbWipeoutVariables
 70
               0
  0
ENDSEC
  0
EOF
