  0
SECTION
  2
HEADER
  9
$ACADVER
  1
AC1015
  9
$ACADMAINTVER
 70
               6
  9
$DWGCODEPAGE
  3
ANSI_932
  9
$INSBASE
 10
0.0
 20
0.0
 30
0.0
  9
$EXTMIN
 10
180.70936368141338
 20
122.0
 30
0.0
  9
$EXTMAX
 10
2358.9849320938051
 20
1924.0
 30
0.0
  9
$LIMMIN
 10
0.0
 20
0.0
  9
$LIMMAX
 10
0.0
 20
0.0
  9
$ORTHOMODE
 70
               0
  9
$REGENMODE
 70
               1
  9
$FILLMODE
 70
               1
  9
$QTEXTMODE
 70
               0
  9
$MIRRTEXT
 70
               1
  9
$LTSCALE
 40
50.799999999999997
  9
$ATTMODE
 70
               1
  9
$TEXTSIZE
 40
0.2
  9
$TRACEWID
 40
1.0
  9
$TEXTSTYLE
  7
Standard
  9
$CLAYER
  8
一般
  9
$CELTYPE
  6
Continuous
  9
$CECOLOR
 62
             256
  9
$CELTSCALE
 40
1.0
  9
$DISPSILH
 70
               0
  9
$DIMSCALE
 40
1.0
  9
$DIMASZ
 40
0.18
  9
$DIMEXO
 40
0.0625
  9
$DIMDLI
 40
0.38
  9
$DIMRND
 40
0.0
  9
$DIMDLE
 40
0.0
  9
$DIMEXE
 40
0.18
  9
$DIMTP
 40
0.0
  9
$DIMTM
 40
0.0
  9
$DIMTXT
 40
0.18
  9
$DIMCEN
 40
0.09
  9
$DIMTSZ
 40
0.0
  9
$DIMTOL
 70
               0
  9
$DIMLIM
 70
               0
  9
$DIMTIH
 70
               1
  9
$DIMTOH
 70
               1
  9
$DIMSE1
 70
               0
  9
$DIMSE2
 70
               0
  9
$DIMTAD
 70
               0
  9
$DIMZIN
 70
               0
  9
$DIMBLK
  1

  9
$DIMASO
 70
               1
  9
$DIMSHO
 70
               1
  9
$DIMPOST
  1

  9
$DIMAPOST
  1

  9
$DIMALT
 70
               0
  9
$DIMALTD
 70
               2
  9
$DIMALTF
 40
25.399999999999999
  9
$DIMLFAC
 40
1.0
  9
$DIMTOFL
 70
               0
  9
$DIMTVP
 40
0.0
  9
$DIMTIX
 70
               0
  9
$DIMSOXD
 70
               0
  9
$DIMSAH
 70
               0
  9
$DIMBLK1
  1

  9
$DIMBLK2
  1

  9
$DIMSTYLE
  2
Standard
  9
$DIMCLRD
 70
               0
  9
$DIMCLRE
 70
               0
  9
$DIMCLRT
 70
               0
  9
$DIMTFAC
 40
1.0
  9
$DIMGAP
 40
0.09
  9
$DIMJUST
 70
               0
  9
$DIMSD1
 70
               0
  9
$DIMSD2
 70
               0
  9
$DIMTOLJ
 70
               1
  9
$DIMTZIN
 70
               0
  9
$DIMALTZ
 70
               0
  9
$DIMALTTZ
 70
               0
  9
$DIMUPT
 70
               0
  9
$DIMDEC
 70
               4
  9
$DIMTDEC
 70
               4
  9
$DIMALTU
 70
               2
  9
$DIMALTTD
 70
               2
  9
$DIMTXSTY
  7
Standard
  9
$DIMAUNIT
 70
               0
  9
$DIMADEC
 70
               0
  9
$DIMALTRND
 40
0.0
  9
$DIMAZIN
 70
               0
  9
$DIMDSEP
 70
               0
  9
$DIMATFIT
 70
               3
  9
$DIMFRAC
 70
               0
  9
$DIMLDRBLK
  1

  9
$DIMLUNIT
 70
               2
  9
$DIMLWD
 70
               0
  9
$DIMLWE
 70
               0
  9
$DIMTMOVE
 70
               0
  9
$LUNITS
 70
               2
  9
$LUPREC
 70
               4
  9
$SKETCHINC
 40
0.1
  9
$FILLETRAD
 40
0.0
  9
$AUNITS
 70
               0
  9
$AUPREC
 70
               0
  9
$MENU
  1
acad
  9
$ELEVATION
 40
0.0
  9
$PELEVATION
 40
0.0
  9
$THICKNESS
 40
0.0
  9
$LIMCHECK
 70
               0
  9
$CHAMFERA
 40
0.0
  9
$CHAMFERB
 40
0.0
  9
$CHAMFERC
 40
0.0
  9
$CHAMFERD
 40
0.0
  9
$SKPOLY
 70
               0
  9
$TDCREATE
 40
2455813.496793982
  9
$TDUCREATE
 40
0.000000000
  9
$TDUPDATE
 40
2455813.496793982
  9
$TDUUPDATE
 40
0.000000000
  9
$TDINDWG
 40
0.0000000000
  9
$TDUSRTIMER
 40
0.0000000000
  9
$USRTIMER
 70
               1
  9
$ANGBASE
 50
0.0
  9
$ANGDIR
 70
               0
  9
$PDMODE
 70
               1
  9
$PDSIZE
 40
-2.0
  9
$PLINEWID
 40
0.0
  9
$SPLFRAME
 70
               0
  9
$SPLINETYPE
 70
               6
  9
$SPLINESEGS
 70
               8
  9
$HANDSEED
  5
100
  9
$SURFTAB1
 70
               6
  9
$SURFTAB2
 70
               6
  9
$SURFTYPE
 70
               6
  9
$SURFU
 70
               6
  9
$SURFV
 70
               6
  9
$UCSBASE
  2

  9
$UCSNAME
  2

  9
$UCSORG
 10
0.0
 20
0.0
 30
0.0
  9
$UCSXDIR
 10
1.0
 20
0.0
 30
0.0
  9
$UCSYDIR
 10
0.0
 20
1.0
 30
0.0
  9
$UCSORTHOREF
  2

  9
$UCSORTHOVIEW
 70
               0
  9
$UCSORGTOP
 10
0.0
 20
0.0
 30
0.0
  9
$UCSORGBOTTOM
 10
0.0
 20
0.0
 30
0.0
  9
$UCSORGLEFT
 10
0.0
 20
0.0
 30
0.0
  9
$UCSORGRIGHT
 10
0.0
 20
0.0
 30
0.0
  9
$UCSORGFRONT
 10
0.0
 20
0.0
 30
0.0
  9
$UCSORGBACK
 10
0.0
 20
0.0
 30
0.0
  9
$PUCSBASE
  2

  9
$PUCSNAME
  2

  9
$PUCSORG
 10
0.0
 20
0.0
 30
0.0
  9
$PUCSXDIR
 10
1.0
 20
0.0
 30
0.0
  9
$PUCSYDIR
 10
0.0
 20
1.0
 30
0.0
  9
$PUCSORTHOREF
  2

  9
$PUCSORTHOVIEW
 70
               0
  9
$PUCSORGTOP
 10
0.0
 20
0.0
 30
0.0
  9
$PUCSORGBOTTOM
 10
0.0
 20
0.0
 30
0.0
  9
$PUCSORGLEFT
 10
0.0
 20
0.0
 30
0.0
  9
$PUCSORGRIGHT
 10
0.0
 20
0.0
 30
0.0
  9
$PUCSORGFRONT
 10
0.0
 20
0.0
 30
0.0
  9
$PUCSORGBACK
 10
0.0
 20
0.0
 30
0.0
  9
$USERI1
 70
               0
  9
$USERI2
 70
               0
  9
$USERI3
 70
               0
  9
$USERI4
 70
               0
  9
$USERI5
 70
               0
  9
$USERR1
 40
0.0
  9
$USERR2
 40
0.0
  9
$USERR3
 40
0.0
  9
$USERR4
 40
0.0
  9
$USERR5
 40
0.0
  9
$WORLDVIEW
 70
               1
  9
$SHADEDGE
 70
               3
  9
$SHADEDIF
 70
              70
  9
$TILEMODE
 70
               1
  9
$MAXACTVP
 70
              64
  9
$PINSBASE
 10
0.0
 20
0.0
 30
0.0
  9
$PLIMCHECK
 70
               0
  9
$PEXTMIN
 10
1.0000000000000000E+20
 20
1.0000000000000000E+20
 30
1.0000000000000000E+20
  9
$PEXTMAX
 10
-1.0000000000000000E+20
 20
-1.0000000000000000E+20
 30
-1.0000000000000000E+20
  9
$PLIMMIN
 10
0.0
 20
0.0
  9
$PLIMMAX
 10
12.0
 20
9.0
  9
$UNITMODE
 70
               0
  9
$VISRETAIN
 70
               0
  9
$PLINEGEN
 70
               1
  9
$PSLTSCALE
 70
               0
  9
$TREEDEPTH
 70
            3020
  9
$CMLSTYLE
  2
Standard
  9
$CMLJUST
 70
               0
  9
$CMLSCALE
 40
1.0
  9
$PROXYGRAPHICS
 70
               0
  9
$MEASUREMENT
 70
               1
  9
$CELWEIGHT
370
               0
  9
$ENDCAPS
280
               0
  9
$JOINSTYLE
280
               0
  9
$LWDISPLAY
290
               1
  9
$INSUNITS
 70
               4
  9
$HYPERLINKBASE
  1

  9
$STYLESHEET
  1

  9
$XEDIT
290
               1
  9
$CEPSNTYPE
380
               0
  9
$PSTYLEMODE
290
               1
  9
$FINGERPRINTGUID
  2

  9
$VERSIONGUID
  2

  9
$EXTNAMES
290
               1
  9
$PSVPSCALE
 40
0.0
  0
ENDSEC
  0
SECTION
  2
CLASSES
  0
CLASS
  1
LWPOLYLINE
  2
AcDbPolyline
  3
AutoCAD 2000
 90
        0
280
               0
281
               1
  0
CLASS
  1
IMAGE
  2
AcDbRasterImage
  3
ISM
 90
    32895
280
               0
281
               1
  0
CLASS
  1
OLE2FRAME
  2
AcDbOle2Frame
  3
AutoCAD 2000
 90
    32768
280
               0
281
               1
  0
CLASS
  1
HATCH
  2
AcDbHatch
  3
AutoCAD 2000
 90
    32768
280
               0
281
               1
  0
CLASS
  1
DICTIONARYVAR
  2
AcDbDictionaryVar
  3
AutoCAD 2000
 90
    32768
280
               0
281
               0
  0
CLASS
  1
RASTERVARIABLES
  2
AcDbRasterVariables
  3
ISM
 90
    32768
280
               0
281
               0
  0
CLASS
  1
IMAGEDEF
  2
AcDbRasterImageDef
  3
ISM
 90
    32768
280
               0
281
               0
  0
CLASS
  1
IMAGEDEF_REACTOR
  2
AcDbRasterImageDefReactor
  3
ISM
 90
    32769
280
               0
281
               0
  0
CLASS
  1
IDBUFFER
  2
AcDbIdBuffer
  3
AutoCAD 2000
 90
    32768
280
               0
281
               0
  0
CLASS
  1
SPATIAL_FILTER
  2
AcDbSpatialFilter
  3
AutoCAD 2000
 90
    32768
280
               0
281
               0
  0
CLASS
  1
XRECORD
  2
AcDbXrecord
  3
AutoCAD 2000
 90
    32768
280
               0
281
               0
  0
CLASS
  1
SORTENTSTABLE
  2
AcDbSortentsTable
  3
AutoCAD 2000
 90
    32768
280
               0
281
               0
  0
CLASS
  1
LAYER_INDEX
  2
AcDbLayerIndex
  3
AutoCAD 2000
 90
    32768
280
               0
281
               0
  0
CLASS
  1
SPATIAL_INDEX
  2
AcDbSpatialIndex
  3
AutoCAD 2000
 90
    32768
280
               0
281
               0
  0
CLASS
  1
OBJECT_PTR
  2
CAseDLPNTableRecord
  3
"ASE-LPNTableRecord"
 90
    32769
280
               0
281
               0
  0
CLASS
  1
LAYOUT
  2
AcDbLayout
  3
AutoCAD 2000
 90
        0
280
               0
281
               0
  0
CLASS
  1
PLOTSETTINGS
  2
AcDbPlotSettings
  3
AutoCAD 2000
 90
    32768
280
               0
281
               0
  0
CLASS
  1
ACDBDICTIONARYWDFLT
  2
AcDbDictionaryWithDefault
  3
AutoCAD 2000
 90
        0
280
               0
281
               0
  0
CLASS
  1
ACDBPLACEHOLDER
  2
AcDbPlaceHolder
  3
AutoCAD 2000
 90
        0
280
               0
281
               0
  0
CLASS
  1
VBA_PROJECT
  2
AcDbVbaProject
  3
acadvba
 90
    32768
280
               0
281
               0
  0
CLASS
  1
WIPEOUT
  2
AcDbWipeout
  3
WipeOut|AutoCAD Express Tool|expresstools@autodesk.com
 90
    32895
280
               0
281
               1
  0
CLASS
  1
WIPEOUTVARIABLES
  2
AcDbWipeoutVariables
  3
WipeOut|AutoCAD Express Tool|expresstools@autodesk.com
 90
        0
280
               0
281
               0
  0
CLASS
  1
RTEXT
  2
RText
  3
RText|AutoCAD Express Tool|expresstools@autodesk.com
 90
    32768
280
               0
281
               1
  0
CLASS
  1
ARCALIGNEDTEXT
  2
AcDbArcAlignedText
  3
ATEXT|AutoCAD Express Tool|expresstools@autodesk.com
 90
    32768
280
               0
281
               1
  0
ENDSEC
  0
SECTION
  2
TABLES
  0
TABLE
  2
VPORT
  5
7
100
AcDbSymbolTable
 70
               1
  0
VPORT
  5
15
100
AcDbSymbolTableRecord
100
AcDbViewportTableRecord
  2
*ACTIVE
 70
               0
 10
0.0
 20
0.0
 11
1.0
 21
1.0
 12
1269.8471478876093
 22
1023.0
 13
0.0
 23
0.0
 14
1.0
 24
1.0
 15
0.0
 25
0.0
 16
0.0
 26
0.0
 36
1.0
 17
0.0
 27
0.0
 37
0.0
 40
1802.0
 41
0.688564
 42
50.0
 43
0.0
 44
0.0
 50
0.0
 51
0.0
 71
               0
 72
            2000
 73
               1
 74
               1
 75
               0
 76
               0
 77
               0
 78
               0
281
               0
 65
               0
110
0.0
120
0.0
130
0.0
111
1.0
121
0.0
131
0.0
112
0.0
122
1.0
132
0.0
345
0
346
0
 79
               0
146
0.0
  0
ENDTAB
  0
TABLE
  2
LTYPE
  5
4
100
AcDbSymbolTable
 70
              13
  0
LTYPE
  5
11
100
AcDbSymbolTableRecord
100
AcDbLinetypeTableRecord
  2
ByBlock
 70
              64
  3

 72
              65
 73
               0
 40
0.0
  0
LTYPE
  5
12
100
AcDbSymbolTableRecord
100
AcDbLinetypeTableRecord
  2
ByLayer
 70
              64
  3

 72
              65
 73
               0
 40
0.0
  0
LTYPE
  5
13
100
AcDbSymbolTableRecord
100
AcDbLinetypeTableRecord
  2
Continuous
 70
              64
  3
Solid line
 72
              65
 73
               0
 40
0.0
  0
LTYPE
  5
28
100
AcDbSymbolTableRecord
100
AcDbLinetypeTableRecord
  2
STYLE_01
 70
               0
  3

 72
              65
 73
               2
 40
0.41664
 49
0.20828
 74
               0
 49
-0.20836
 74
               0
  0
LTYPE
  5
29
100
AcDbSymbolTableRecord
100
AcDbLinetypeTableRecord
  2
STYLE_02
 70
               0
  3

 72
              65
 73
               2
 40
0.6944250000000001
 49
0.48607
 74
               0
 49
-0.2083550000000001
 74
               0
  0
LTYPE
  5
2A
100
AcDbSymbolTableRecord
100
AcDbLinetypeTableRecord
  2
STYLE_03
 70
               0
  3

 72
              65
 73
               2
 40
1.25
 49
1.0416400000000001
 74
               0
 49
-0.2083599999999999
 74
               0
  0
LTYPE
  5
2B
100
AcDbSymbolTableRecord
100
AcDbLinetypeTableRecord
  2
STYLE_04
 70
               0
  3

 72
              65
 73
               2
 40
1.5277099999999999
 49
1.3194249999999998
 74
               0
 49
-0.208285
 74
               0
  0
LTYPE
  5
2C
100
AcDbSymbolTableRecord
100
AcDbLinetypeTableRecord
  2
STYLE_05
 70
               0
  3

 72
              65
 73
               2
 40
0.20828
 49
0.069425
 74
               0
 49
-0.138855
 74
               0
  0
LTYPE
  5
2D
100
AcDbSymbolTableRecord
100
AcDbLinetypeTableRecord
  2
STYLE_06
 70
               0
  3

 72
              65
 73
               4
 40
1.0416400000000001
 49
0.625
 74
               0
 49
-0.20828
 74
               0
 49
0.06943
 74
               0
 49
-0.13893
 74
               0
  0
LTYPE
  5
2E
100
AcDbSymbolTableRecord
100
AcDbLinetypeTableRecord
  2
STYLE_07
 70
               0
  3

 72
              65
 73
               6
 40
1.875
 49
0.625
 74
               0
 49
-0.20828
 74
               0
 49
0.6250000000000001
 74
               0
 49
-0.2083599999999999
 74
               0
 49
0.06943
 74
               0
 49
-0.1389299999999999
 74
               0
  0
LTYPE
  5
2F
100
AcDbSymbolTableRecord
100
AcDbLinetypeTableRecord
  2
STYLE_08
 70
               0
  3

 72
              65
 73
               6
 40
1.25
 49
0.625
 74
               0
 49
-0.20828
 74
               0
 49
0.06943
 74
               0
 49
-0.13893
 74
               0
 49
0.0694299999999999
 74
               0
 49
-0.13893
 74
               0
  0
LTYPE
  5
30
100
AcDbSymbolTableRecord
100
AcDbLinetypeTableRecord
  2
STYLE_09
 70
               0
  3

 72
              65
 73
               4
 40
5.0
 49
3.75
 74
               0
 49
-0.2777849999999998
 74
               0
 49
0.6944300000000003
 74
               0
 49
-0.2777849999999998
 74
               0
  0
LTYPE
  5
31
100
AcDbSymbolTableRecord
100
AcDbLinetypeTableRecord
  2
STYLE_10
 70
               0
  3

 72
              65
 73
               6
 40
5.9375
 49
3.75
 74
               0
 49
-0.2777849999999998
 74
               0
 49
0.6944300000000003
 74
               0
 49
-0.2777849999999998
 74
               0
 49
0.625
 74
               0
 49
-0.3125
 74
               0
  0
ENDTAB
  0
TABLE
  2
LAYER
  5
2
100
AcDbSymbolTable
 70
               5
  0
LAYER
  5
14
100
AcDbSymbolTableRecord
100
AcDbLayerTableRecord
  2
0
 70
               0
 62
               7
  6
Continuous
290
               1
370
              15
390
1D
  0
LAYER
  5
32
100
AcDbSymbolTableRecord
100
AcDbLayerTableRecord
  2
一般
 70
               0
 62
               7
  6
Continuous
290
               1
370
               5
390
1D
  0
LAYER
  5
33
100
AcDbSymbolTableRecord
100
AcDbLayerTableRecord
  2
寸法
 70
               0
 62
               7
  6
Continuous
290
               1
370
               5
390
1D
  0
LAYER
  5
34
100
AcDbSymbolTableRecord
100
AcDbLayerTableRecord
  2
補助グリッド
 70
               0
 62
             203
  6
Continuous
290
               1
370
              13
390
1D
  0
LAYER
  5
35
100
AcDbSymbolTableRecord
100
AcDbLayerTableRecord
  2
排水
 70
               0
 62
               7
  6
Continuous
290
               1
370
              15
390
1D
  0
ENDTAB
  0
TABLE
  2
STYLE
  5
3
100
AcDbSymbolTable
 70
               3
  0
STYLE
  5
17
100
AcDbSymbolTableRecord
100
AcDbTextStyleTableRecord
  2
Standard
 70
               0
 40
0.0
 41
1.0
 50
0.0
 71
               0
 42
0.0
  3
txt
  4
BIGFONT.SHX
  0
STYLE
  5
26
100
AcDbSymbolTableRecord
100
AcDbTextStyleTableRecord
  2
Arial
 70
               0
 40
0.0
 41
1.0
 50
0.0
 71
               0
 42
0.0
  3

  4
Arial
1001
ACAD
1000
Arial
1071
        0
  0
STYLE
  5
27
100
AcDbSymbolTableRecord
100
AcDbTextStyleTableRecord
  2
ＭＳ ゴシック
 70
               0
 40
0.0
 41
1.0
 50
0.0
 71
               0
 42
0.0
  3

  4
ＭＳ ゴシック
1001
ACAD
1000
ＭＳ ゴシック
1071
        0
  0
ENDTAB
  0
TABLE
  2
VIEW
  5
5
100
AcDbSymbolTable
 70
               0
  0
ENDTAB
  0
TABLE
  2
UCS
  5
6
100
AcDbSymbolTable
 70
               0
  0
ENDTAB
  0
TABLE
  2
APPID
  5
8
100
AcDbSymbolTable
 70
               1
  0
APPID
  5
16
100
AcDbSymbolTableRecord
100
AcDbRegAppTableRecord
  2
ACAD
 70
               0
  0
ENDTAB
  0
TABLE
  2
DIMSTYLE
  5
9
100
AcDbSymbolTable
 70
               1
100
AcDbDimStyleTable
 71
               0
  0
DIMSTYLE
105
18
100
AcDbSymbolTableRecord
100
AcDbDimStyleTableRecord
  2
Standard
 70
               0
  3

  4

 40
1.0
 41
0.18
 42
0.0625
 43
0.38
 44
0.18
 45
0.0
 46
0.0
 47
0.0
 48
0.0
 71
               0
 72
               0
 73
               1
 74
               1
 75
               0
 76
               0
 77
               0
 78
               0
 79
               0
140
0.18
141
0.09
142
0.0
143
25.399999999999999
144
1.0
145
0.0
146
1.0
147
0.09
148
0.0
170
               0
171
               2
172
               0
173
               0
174
               0
175
               0
176
               0
177
               0
178
               0
179
               0
271
               4
272
               4
273
               2
274
               2
275
               0
276
               0
277
               2
278
              46
279
               0
280
               0
281
               0
282
               0
283
               1
284
               0
285
               0
286
               0
288
               0
340
17
341
0
342
0
343
0
344
0
371
              -2
372
              -2
  0
ENDTAB
  0
TABLE
  2
BLOCK_RECORD
  5
1
100
AcDbSymbolTable
 70
               2
  0
BLOCK_RECORD
  5
A
100
AcDbSymbolTableRecord
100
AcDbBlockTableRecord
  2
*MODEL_SPACE
340
20
  0
BLOCK_RECORD
  5
B
100
AcDbSymbolTableRecord
100
AcDbBlockTableRecord
  2
*PAPER_SPACE
340
21
  0
BLOCK_RECORD
  5
24
100
AcDbSymbolTableRecord
100
AcDbBlockTableRecord
  2
グループ
340
0
102
{BLKREFS
331
43
102
}
  0
BLOCK_RECORD
  5
25
100
AcDbSymbolTableRecord
100
AcDbBlockTableRecord
  2
scal 1_5
340
0
102
{BLKREFS
331
77
102
}
  0
ENDTAB
  0
ENDSEC
  0
SECTION
  2
BLOCKS
  0
BLOCK
  5
D
100
AcDbEntity
  8
0
100
AcDbBlockBegin
  2
*MODEL_SPACE
 70
               0
 10
0.0
 20
0.0
 30
0.0
  3
*MODEL_SPACE
  1

  0
ENDBLK
  5
E
100
AcDbEntity
  8
0
100
AcDbBlockEnd
  0
BLOCK
  5
F
100
AcDbEntity
 67
               1
  8
0
100
AcDbBlockBegin
  2
*PAPER_SPACE
 70
               0
 10
0.0
 20
0.0
 30
0.0
  3
*PAPER_SPACE
  1

  0
ENDBLK
  5
10
100
AcDbEntity
 67
               1
  8
0
100
AcDbBlockEnd
  0
BLOCK
  5
36
100
AcDbEntity
  8
一般
100
AcDbBlockBegin
  2
グループ
 70
               0
 10
0.0
 20
0.0
 30
0.0
  3
グループ
  1

  0
MTEXT
  5
37
100
AcDbEntity
  8
一般
 62
               8
100
AcDbMText
 10
-61.590303983041849
 20
6.8342057291666851
 30
0.0
 40
8.1442057291666661
 41
7.3612159321675676
 71
               1
 72
               1
  1
0
  7
ＭＳ ゴシック
 73
               1
 44
0.7828267384257843
  0
MTEXT
  5
38
100
AcDbEntity
  8
一般
 62
               8
100
AcDbMText
 10
-12.909696016958151
 20
6.8342057291666851
 30
0.0
 40
8.1442057291666661
 41
12.75
 71
               1
 72
               1
  1
50
  7
ＭＳ ゴシック
 73
               1
 44
0.7828267384257843
  0
MTEXT
  5
39
100
AcDbEntity
  8
一般
 62
               8
100
AcDbMText
 10
33.590303983041849
 20
6.8342057291666851
 30
0.0
 40
8.1442057291666661
 41
27.999999999999972
 71
               1
 72
               1
  1
100mm
  7
ＭＳ ゴシック
 73
               1
 44
0.7828267384257843
  0
LINE
  5
3A
100
AcDbEntity
  8
寸法
370
              15
 62
               8
100
AcDbLine
 10
-7.9096960169581507
 20
-2.7916666666666288
 30
0.0
 11
-7.9096960169581507
 21
-7.7916666666666288
 31
0.0
  0
POLYLINE
  5
3B
100
AcDbEntity
  8
一般
370
              15
  6
Continuous
 62
               9
100
AcDb2dPolyline
 66
               1
 10
0.0
 20
0.0
 30
0.0
 75
               5
  0
VERTEX
  5
3C
100
AcDbEntity
  8
一般
370
              15
  6
Continuous
 62
               9
100
AcDbVertex
100
AcDb2dVertex
 10
-57.909696016958037
 20
-2.7916666666666288
 30
0.0
  0
VERTEX
  5
3D
100
AcDbEntity
  8
一般
370
              15
  6
Continuous
 62
               9
100
AcDbVertex
100
AcDb2dVertex
 10
-57.909696016958151
 20
-7.7916666666666288
 30
0.0
  0
VERTEX
  5
3E
100
AcDbEntity
  8
一般
370
              15
  6
Continuous
 62
               9
100
AcDbVertex
100
AcDb2dVertex
 10
42.090303983041849
 20
-7.7916666666666288
 30
0.0
  0
VERTEX
  5
3F
100
AcDbEntity
  8
一般
370
              15
  6
Continuous
 62
               9
100
AcDbVertex
100
AcDb2dVertex
 10
42.090303983041849
 20
-2.7916666666666288
 30
0.0
  0
SEQEND
  5
40
100
AcDbEntity
  8
一般
370
              15
  6
Continuous
 62
               9
  0
ENDBLK
  5
41
100
AcDbEntity
  8
一般
100
AcDbBlockEnd
  0
BLOCK
  5
42
100
AcDbEntity
  8
一般
100
AcDbBlockBegin
  2
scal 1_5
 70
               0
 10
0.0
 20
0.0
 30
0.0
  3
scal 1_5
  1

  0
INSERT
  5
43
100
AcDbEntity
  8
一般
 62
               7
100
AcDbBlockReference
  2
グループ
 10
0.0
 20
0.0
 30
0.0
  0
ENDBLK
  5
44
100
AcDbEntity
  8
一般
100
AcDbBlockEnd
  0
ENDSEC
  0
SECTION
  2
ENTITIES
  0
MTEXT
  5
45
100
AcDbEntity
  8
一般
 62
               7
100
AcDbMText
 10
2327.3760430703423
 20
344.81122685185187
 30
0.0
 40
20.211226851851851
 41
0.0
 71
               1
 72
               1
  1
    
  7
Arial
 73
               1
 44
0.9673603504928809
  0
LINE
  5
46
100
AcDbEntity
  8
一般
370
              15
  6
Continuous
 62
               7
100
AcDbLine
 10
252.73997164749699
 20
1178.2263573917767
 30
0.0
 11
707.13997164749719
 21
1178.2263573917767
 31
0.0
  0
LWPOLYLINE
  5
47
100
AcDbEntity
  8
一般
370
              15
  6
Continuous
 62
               7
100
AcDbPolyline
 90
        8
 70
             129
 10
208.21786457679036
 20
575.84775934128493
 42
-0.414213562373095
 10
212.21786457679036
 20
579.84775934128493
 10
744.21786457679002
 20
579.84775934128493
 42
-0.414213562373095
 10
748.21786457679002
 20
575.84775934128493
 10
748.21786457679002
 20
483.84775934128538
 42
-0.4142135623731034
 10
744.21786457679002
 20
479.84775934128538
 10
212.21786457679036
 20
479.84775934128538
 42
-0.414213562373095
 10
208.21786457679036
 20
483.84775934128538
  0
POLYLINE
  5
48
100
AcDbEntity
  8
一般
370
               5
  6
Continuous
 62
               7
100
AcDb2dPolyline
 66
               1
 10
0.0
 20
0.0
 30
0.0
 75
               5
  0
VERTEX
  5
49
100
AcDbEntity
  8
一般
370
               5
  6
Continuous
 62
               7
100
AcDbVertex
100
AcDb2dVertex
 10
664.24059113423857
 20
1588.2833696302305
 30
0.0
  0
VERTEX
  5
4A
100
AcDbEntity
  8
一般
370
               5
  6
Continuous
 62
               7
100
AcDbVertex
100
AcDb2dVertex
 10
704.24987114255441
 20
1588.2833696302305
 30
0.0
  0
VERTEX
  5
4B
100
AcDbEntity
  8
一般
370
               5
  6
Continuous
 62
               7
100
AcDbVertex
100
AcDb2dVertex
 10
704.24987114255441
 20
1609.2833696302305
 30
0.0
  0
VERTEX
  5
4C
100
AcDbEntity
  8
一般
370
               5
  6
Continuous
 62
               7
100
AcDbVertex
100
AcDb2dVertex
 10
666.34059113423859
 20
1609.2833696302305
 30
0.0
  0
SEQEND
  5
4D
100
AcDbEntity
  8
一般
370
               5
  6
Continuous
 62
               7
  0
LINE
  5
4E
100
AcDbEntity
  8
一般
370
               5
  6
Continuous
 62
               7
100
AcDbLine
 10
510.86382292498456
 20
1588.2833696302305
 30
0.0
 11
503.51758968514605
 21
1588.2833696302305
 31
0.0
  0
LINE
  5
4F
100
AcDbEntity
  8
一般
370
               5
  6
Continuous
 62
               7
100
AcDbLine
 10
453.45342835042709
 20
1588.2833696302305
 30
0.0
 11
445.04740840525835
 21
1588.2833696302305
 31
0.0
  0
LINE
  5
50
100
AcDbEntity
  8
一般
370
               5
  6
Continuous
 62
               7
100
AcDbLine
 10
513.48882292498445
 20
1609.2833696302305
 30
0.0
 11
503.8013734689298
 21
1609.2833696302305
 31
0.0
  0
LINE
  5
51
100
AcDbEntity
  8
一般
370
               5
  6
Continuous
 62
               7
100
AcDbLine
 10
453.16964456664323
 20
1609.2833696302305
 30
0.0
 11
442.42240840525722
 21
1609.2833696302305
 31
0.0
  0
POLYLINE
  5
52
100
AcDbEntity
  8
一般
370
               5
  6
Continuous
 62
               7
100
AcDb2dPolyline
 66
               1
 10
0.0
 20
0.0
 30
0.0
 75
               5
  0
VERTEX
  5
53
100
AcDbEntity
  8
一般
370
               5
  6
Continuous
 62
               7
100
AcDbVertex
100
AcDb2dVertex
 10
293.014339961715
 20
1588.2833696302305
 30
0.0
  0
VERTEX
  5
54
100
AcDbEntity
  8
一般
370
               5
  6
Continuous
 62
               7
100
AcDbVertex
100
AcDb2dVertex
 10
254.24987114256419
 20
1588.2833696302305
 30
0.0
  0
VERTEX
  5
55
100
AcDbEntity
  8
一般
370
               5
  6
Continuous
 62
               7
100
AcDbVertex
100
AcDb2dVertex
 10
254.24987114256419
 20
1609.2833696302305
 30
0.0
  0
VERTEX
  5
56
100
AcDbEntity
  8
一般
370
               5
  6
Continuous
 62
               7
100
AcDbVertex
100
AcDb2dVertex
 10
290.91433996171486
 20
1609.2833696302305
 30
0.0
  0
SEQEND
  5
57
100
AcDbEntity
  8
一般
370
               5
  6
Continuous
 62
               7
  0
POLYLINE
  5
58
100
AcDbEntity
  8
一般
370
               5
  6
Continuous
 62
               7
100
AcDb2dPolyline
 66
               1
 10
0.0
 20
0.0
 30
0.0
 75
               5
  0
VERTEX
  5
59
100
AcDbEntity
  8
一般
370
               5
  6
Continuous
 62
               7
100
AcDbVertex
100
AcDb2dVertex
 10
246.21127624297128
 20
1682.7656312863724
 30
0.0
  0
VERTEX
  5
5A
100
AcDbEntity
  8
一般
370
               5
  6
Continuous
 62
               7
100
AcDbVertex
100
AcDb2dVertex
 10
246.21127624297128
 20
1683.2813641153139
 30
0.0
  0
VERTEX
  5
5B
100
AcDbEntity
  8
一般
370
               5
  6
Continuous
 62
               7
100
AcDbVertex
100
AcDb2dVertex
 10
234.21127624297105
 20
1683.2813641153139
 30
0.0
  0
VERTEX
  5
5C
100
AcDbEntity
  8
一般
370
               5
  6
Continuous
 62
               7
100
AcDbVertex
100
AcDb2dVertex
 10
234.21127624297105
 20
1682.7656312863724
 30
0.0
  0
SEQEND
  5
5D
100
AcDbEntity
  8
一般
370
               5
  6
Continuous
 62
               7
  0
LWPOLYLINE
  5
5E
100
AcDbEntity
  8
一般
370
               5
  6
Continuous
 62
               7
100
AcDbPolyline
 90
        9
 70
             128
 10
246.21127624297128
 20
1681.2656312863724
 10
246.21127624297128
 20
1609.2738915702744
 10
254.21054999053013
 20
1609.2738915702744
 10
254.21054999053013
 20
1588.2738915702744
 10
236.21054999053013
 20
1588.2738915702744
 42
-0.414213562373095
 10
234.21054999053013
 20
1590.2738915702744
 10
234.21054999053013
 20
1609.2738915702744
 10
234.21127624297105
 20
1609.2738915702744
 10
234.21127624297105
 20
1681.2656312863724
  0
LWPOLYLINE
  5
5F
100
AcDbEntity
  8
一般
370
               5
  6
Continuous
 62
               7
100
AcDbPolyline
 90
        9
 70
             128
 10
724.23751142561889
 20
1681.0331254928985
 10
724.23751142561889
 20
1609.2845755447936
 10
724.23823767806005
 20
1609.2845755447936
 10
724.23823767806005
 20
1590.2845755447936
 42
-0.414213562373095
 10
722.23823767806005
 20
1588.2845755447936
 10
704.23823767806005
 20
1588.2845755447936
 10
704.23823767806005
 20
1609.2845755447936
 10
712.23751142561889
 20
1609.2845755447936
 10
712.23751142561889
 20
1681.0331254928985
  0
LINE
  5
60
100
AcDbEntity
  8
一般
370
               5
  6
Continuous
 62
               7
100
AcDbLine
 10
724.23751142561889
 20
1682.5331254928985
 30
0.0
 11
724.23751142561889
 21
1683.0
 31
0.0
  0
LINE
  5
61
100
AcDbEntity
  8
一般
370
               5
  6
Continuous
 62
               7
100
AcDbLine
 10
712.23751142561889
 20
1683.0
 30
0.0
 11
712.23751142561889
 21
1682.5331254928985
 31
0.0
  0
POLYLINE
  5
62
100
AcDbEntity
  8
一般
370
               5
  6
Continuous
 62
               7
100
AcDb2dPolyline
 66
               1
 10
0.0
 20
0.0
 30
0.0
 70
               1
 75
               5
  0
VERTEX
  5
63
100
AcDbEntity
  8
一般
370
               5
  6
Continuous
 62
               7
100
AcDbVertex
100
AcDb2dVertex
 10
227.61127624297137
 20
1682.7656312863724
 30
0.0
  0
VERTEX
  5
64
100
AcDbEntity
  8
一般
370
               5
  6
Continuous
 62
               7
100
AcDbVertex
100
AcDb2dVertex
 10
252.61127624297114
 20
1682.7656312863724
 30
0.0
  0
VERTEX
  5
65
100
AcDbEntity
  8
一般
370
               5
  6
Continuous
 62
               7
100
AcDbVertex
100
AcDb2dVertex
 10
252.61127624297114
 20
1681.2656312863724
 30
0.0
  0
VERTEX
  5
66
100
AcDbEntity
  8
一般
370
               5
  6
Continuous
 62
               7
100
AcDbVertex
100
AcDb2dVertex
 10
227.61127624297137
 20
1681.2656312863724
 30
0.0
  0
SEQEND
  5
67
100
AcDbEntity
  8
一般
370
               5
  6
Continuous
 62
               7
  0
LINE
  5
68
100
AcDbEntity
  8
一般
370
               5
  6
Continuous
 62
               7
100
AcDbLine
 10
246.21127624297128
 20
1609.2738915702744
 30
0.0
 11
235.03335937276711
 21
1588.9349960473596
 31
0.0
  0
LINE
  5
69
100
AcDbEntity
  8
一般
370
               5
  6
Continuous
 62
               7
100
AcDbLine
 10
712.23751142561889
 20
1609.2845755447936
 30
0.0
 11
723.69767149176346
 21
1589.4349960473596
 31
0.0
  0
POLYLINE
  5
6A
100
AcDbEntity
  8
一般
370
               5
  6
Continuous
 62
               7
100
AcDb2dPolyline
 66
               1
 10
0.0
 20
0.0
 30
0.0
 70
               1
 75
               5
  0
VERTEX
  5
6B
100
AcDbEntity
  8
一般
370
               5
  6
Continuous
 62
               7
100
AcDbVertex
100
AcDb2dVertex
 10
705.81786461495801
 20
1682.5331254928985
 30
0.0
  0
VERTEX
  5
6C
100
AcDbEntity
  8
一般
370
               5
  6
Continuous
 62
               7
100
AcDbVertex
100
AcDb2dVertex
 10
730.81786461495801
 20
1682.5331254928985
 30
0.0
  0
VERTEX
  5
6D
100
AcDbEntity
  8
一般
370
               5
  6
Continuous
 62
               7
100
AcDbVertex
100
AcDb2dVertex
 10
730.81786461495801
 20
1681.0331254928985
 30
0.0
  0
VERTEX
  5
6E
100
AcDbEntity
  8
一般
370
               5
  6
Continuous
 62
               7
100
AcDbVertex
100
AcDb2dVertex
 10
705.81786461495801
 20
1681.0331254928985
 30
0.0
  0
SEQEND
  5
6F
100
AcDbEntity
  8
一般
370
               5
  6
Continuous
 62
               7
  0
LINE
  5
70
100
AcDbEntity
  8
一般
370
               5
  6
Continuous
 62
               7
100
AcDbLine
 10
504.02539027749651
 20
1623.6790277964874
 30
0.0
 11
503.99590939009556
 21
1623.6790277964874
 31
0.0
  0
LINE
  5
71
100
AcDbEntity
  8
一般
370
               5
  6
Continuous
 62
               7
100
AcDbLine
 10
452.97510864547758
 20
1623.6790277964874
 30
0.0
 11
452.94562775807628
 21
1623.6790277964874
 31
0.0
  0
LINE
  5
72
100
AcDbEntity
  8
一般
370
               5
  6
Continuous
 62
               7
100
AcDbLine
 10
512.29158227645098
 20
1697.8989209961837
 30
0.0
 11
512.29156365515439
 21
1697.8978409609845
 31
0.0
  0
LINE
  5
73
100
AcDbEntity
  8
一般
370
               5
  6
Continuous
 62
               7
100
AcDbLine
 10
502.16045997637377
 20
1583.7278145779389
 30
0.0
 11
454.8105580592437
 21
1583.7278145779389
 31
0.0
  0
LINE
  5
74
100
AcDbEntity
  8
一般
370
               5
  6
Continuous
 62
               7
100
AcDbLine
 10
453.46032379951441
 20
1587.7731063977508
 30
0.0
 11
451.96922630856488
 21
1698.114320728017
 31
0.0
  0
LINE
  5
75
100
AcDbEntity
  8
一般
370
               5
  6
Continuous
 62
               7
100
AcDbLine
 10
505.00179659693106
 20
1698.1146811023241
 30
0.0
 11
503.51070564741497
 21
1587.7739508381374
 31
0.0
  0
LWPOLYLINE
  5
76
100
AcDbEntity
  8
一般
370
              15
  6
Continuous
 62
               7
100
AcDbPolyline
 90
        8
 70
             129
 10
208.42109163112673
 20
1294.0
 42
-0.414213562373095
 10
218.42109163112673
 20
1304.0
 10
738.42109163112593
 20
1304.0
 42
-0.414213562373095
 10
748.42109163112593
 20
1294.0
 10
748.42109163112593
 20
824.0
 42
-0.414213562373095
 10
738.42109163112593
 20
814.0
 10
218.42109163112673
 20
814.0
 42
-0.414213562373095
 10
208.42109163112673
 20
824.0
  0
INSERT
  5
77
100
AcDbEntity
  8
寸法
 62
               7
100
AcDbBlockReference
  2
scal 1_5
 10
242.29966766445523
 20
129.79166666666663
 30
0.0
  0
LINE
  5
78
100
AcDbEntity
  8
一般
370
              15
  6
Continuous
 62
               7
100
AcDbLine
 10
238.36931320445456
 20
858.83342081703756
 30
0.0
 11
238.36931320445456
 21
1163.695434394519
 31
0.0
  0
LWPOLYLINE
  5
79
100
AcDbEntity
  8
一般
370
              15
  6
Continuous
 62
               7
100
AcDbPolyline
 90
        8
 70
             129
 10
343.43298999377907
 20
918.54882109831237
 42
-0.4201364433991868
 10
323.43706199881876
 20
938.95238474925236
 10
327.47352033215202
 20
1138.9523847492521
 42
-0.4083153835647457
 10
347.46944832711233
 20
1158.5488210983121
 10
608.58109432523975
 20
1158.5488210983121
 42
-0.4083153835647381
 10
628.57702232020017
 20
1138.9523847492521
 10
632.61348065353343
 20
938.95238474925236
 42
-0.420136443399188
 10
612.617552658573
 20
918.54882109831237
  0
LINE
  5
7A
100
AcDbEntity
  8
一般
370
               5
  6
STYLE_06
 62
               7
100
AcDbLine
 10
253.36931320445456
 20
843.57660057360033
 30
0.0
 11
703.36931320445956
 21
843.57660057360033
 31
0.0
  0
CIRCLE
  5
7B
100
AcDbEntity
  8
一般
370
              15
  6
Continuous
 62
               7
100
AcDbCircle
 10
477.84159745502711
 20
1109.6239818833119
 30
0.0
 40
34.999999999999964
  0
CIRCLE
  5
7C
100
AcDbEntity
  8
一般
370
              15
  6
Continuous
 62
               7
100
AcDbCircle
 10
477.84159745502711
 20
1109.6239818833119
 30
0.0
 40
22.499999999999986
  0
ARC
  5
7D
100
AcDbEntity
  8
一般
370
              15
  6
Continuous
 62
               7
100
AcDbCircle
 10
253.36931320445456
 20
1163.16845771154
 30
0.0
 40
15.0
100
AcDbArc
 50
90.0
 51
180.0
  0
ARC
  5
7E
100
AcDbEntity
  8
一般
370
              15
  6
Continuous
 62
               7
100
AcDbCircle
 10
703.36931320445956
 20
1163.4386141510818
 30
0.0
 40
15.0
100
AcDbArc
 50
0.0
 51
90.0
  0
ARC
  5
7F
100
AcDbEntity
  8
一般
370
              15
  6
Continuous
 62
               7
100
AcDbCircle
 10
253.36931320445456
 20
858.57660057360033
 30
0.0
 40
15.0
100
AcDbArc
 50
180.0
 51
270.0
  0
ARC
  5
80
100
AcDbEntity
  8
一般
370
              15
  6
Continuous
 62
               7
100
AcDbCircle
 10
703.36931320445956
 20
858.57660057360033
 30
0.0
 40
15.0
100
AcDbArc
 50
270.0
 51
0.0
  0
LINE
  5
81
100
AcDbEntity
  8
一般
370
              15
  6
Continuous
 62
               7
100
AcDbLine
 10
718.36861727966061
 20
858.4321109209618
 30
0.0
 11
718.36861727966061
 21
1163.8321109209619
 31
0.0
  0
LINE
  5
82
100
AcDbEntity
  8
一般
370
              15
  6
Continuous
 62
               7
100
AcDbLine
 10
704.33997164749712
 20
843.47643131769667
 30
0.0
 11
251.93997164749726
 21
843.47643131769667
 31
0.0
  0
ARC
  5
83
100
AcDbEntity
  8
一般
370
              15
  6
Continuous
 62
               7
100
AcDbCircle
 10
347.46722409835957
 20
1138.4386141510818
 30
0.0
 40
20.000000000000014
100
AcDbArc
 50
90.0
 51
178.84379683299528
  0
LINE
  5
84
100
AcDbEntity
  8
一般
370
               5
  6
Continuous
 62
               7
100
AcDbLine
 10
249.33997164749712
 20
1167.8321109209619
 30
0.0
 11
326.33997164749712
 21
1153.8321109209619
 31
0.0
  0
LINE
  5
85
100
AcDbEntity
  8
一般
370
               5
  6
Continuous
 62
               7
100
AcDbLine
 10
629.93997164749715
 20
1154.8321109209619
 30
0.0
 11
708.93997164749715
 21
1170.8321109209619
 31
0.0
  0
LINE
  5
86
100
AcDbEntity
  8
一般
370
               5
  6
Continuous
 62
               7
100
AcDbLine
 10
253.13997164749708
 20
858.63211092096185
 30
0.0
 11
320.13997164749708
 21
917.63211092096185
 31
0.0
  0
LINE
  5
87
100
AcDbEntity
  8
一般
370
               5
  6
Continuous
 62
               7
100
AcDbLine
 10
700.13997164749708
 20
858.63211092096185
 30
0.0
 11
635.13997164749708
 21
917.63211092096185
 31
0.0
  0
CIRCLE
  5
88
100
AcDbEntity
  8
一般
370
               5
  6
Continuous
 62
               7
100
AcDbCircle
 10
478.13997164749708
 20
1243.8065032301199
 30
0.0
 40
17.5
  0
LINE
  5
89
100
AcDbEntity
  8
寸法
370
              15
100
AcDbLine
 10
353.53345882910526
 20
1683.0
 30
0.0
 11
353.29313373304399
 21
1683.0
 31
0.0
  0
LWPOLYLINE
  5
8A
100
AcDbEntity
  8
寸法
370
              15
100
AcDbPolyline
 90
        8
 70
             128
 10
207.71807121748452
 20
1687.4021931163802
 10
207.71807121748452
 20
1779.0
 42
-0.414213562373095
 10
211.71807121748452
 20
1783.0
 10
743.71807121746724
 20
1783.0
 42
-0.414213562373095
 10
747.71807121746724
 20
1779.0
 10
747.71807121746724
 20
1687.0
 42
-0.414213562373095
 10
743.71807121746724
 20
1683.0
 10
673.53345882910537
 20
1683.0
  0
LINE
  5
8B
100
AcDbEntity
  8
寸法
370
              15
100
AcDbLine
 10
603.77448849525661
 20
1683.0
 30
0.0
 11
603.53345882910537
 21
1683.0
 31
0.0
  0
POLYLINE
  5
8C
100
AcDbEntity
  8
一般
370
              15
  6
Continuous
 62
               7
100
AcDb2dPolyline
 66
               1
 10
0.0
 20
0.0
 30
0.0
 75
               5
  0
VERTEX
  5
8D
100
AcDbEntity
  8
一般
370
              15
  6
Continuous
 62
               7
100
AcDbVertex
100
AcDb2dVertex
 10
353.44978017054518
 20
1683.4945743145927
 30
0.0
  0
VERTEX
  5
8E
100
AcDbEntity
  8
一般
370
              15
  6
Continuous
 62
               7
100
AcDbVertex
100
AcDb2dVertex
 10
343.47149983191184
 20
1583.711770928262
 30
0.0
  0
VERTEX
  5
8F
100
AcDbEntity
  8
一般
370
              15
  6
Continuous
 62
               7
100
AcDbVertex
100
AcDb2dVertex
 10
293.47149983191184
 20
1583.711770928262
 30
0.0
  0
VERTEX
  5
90
100
AcDbEntity
  8
一般
370
              15
  6
Continuous
 62
               7
100
AcDbVertex
100
AcDb2dVertex
 10
283.47149983191184
 20
1683.711770928262
 30
0.0
  0
VERTEX
  5
91
100
AcDbEntity
  8
一般
370
              15
  6
Continuous
 62
               7
100
AcDbVertex
100
AcDb2dVertex
 10
283.47149983191184
 20
1683.711770928262
 30
0.0
  0
VERTEX
  5
92
100
AcDbEntity
  8
一般
370
              15
  6
Continuous
 62
               7
100
AcDbVertex
100
AcDb2dVertex
 10
283.64988595496834
 20
1683.711770928262
 30
0.0
  0
SEQEND
  5
93
100
AcDbEntity
  8
一般
370
              15
  6
Continuous
 62
               7
  0
POLYLINE
  5
94
100
AcDbEntity
  8
一般
370
              15
  6
Continuous
 62
               7
100
AcDb2dPolyline
 66
               1
 10
0.0
 20
0.0
 30
0.0
 75
               5
  0
VERTEX
  5
95
100
AcDbEntity
  8
一般
370
              15
  6
Continuous
 62
               7
100
AcDbVertex
100
AcDb2dVertex
 10
673.53345882910537
 20
1683.3111716202059
 30
0.0
  0
VERTEX
  5
96
100
AcDbEntity
  8
一般
370
              15
  6
Continuous
 62
               7
100
AcDbVertex
100
AcDb2dVertex
 10
673.74337133323604
 20
1683.3111716202059
 30
0.0
  0
VERTEX
  5
97
100
AcDbEntity
  8
一般
370
              15
  6
Continuous
 62
               7
100
AcDbVertex
100
AcDb2dVertex
 10
673.74337133323604
 20
1683.3111716202059
 30
0.0
  0
VERTEX
  5
98
100
AcDbEntity
  8
一般
370
              15
  6
Continuous
 62
               7
100
AcDbVertex
100
AcDb2dVertex
 10
663.74337133323604
 20
1583.3111716202059
 30
0.0
  0
VERTEX
  5
99
100
AcDbEntity
  8
一般
370
              15
  6
Continuous
 62
               7
100
AcDbVertex
100
AcDb2dVertex
 10
613.74337133323604
 20
1583.3111716202059
 30
0.0
  0
VERTEX
  5
9A
100
AcDbEntity
  8
一般
370
              15
  6
Continuous
 62
               7
100
AcDbVertex
100
AcDb2dVertex
 10
603.77448849525661
 20
1683.0
 30
0.0
  0
SEQEND
  5
9B
100
AcDbEntity
  8
一般
370
              15
  6
Continuous
 62
               7
  0
LINE
  5
9C
100
AcDbEntity
  8
一般
370
              15
  6
Continuous
 62
               7
100
AcDbLine
 10
211.71807121748452
 20
1683.4021931163802
 30
0.0
 11
283.53345882910526
 21
1683.4021931163802
 31
0.0
  0
LINE
  5
9D
100
AcDbEntity
  8
一般
370
               5
  6
Continuous
 62
               7
100
AcDbLine
 10
353.3333530446821
 20
1683.4021931163802
 30
0.0
 11
353.53345882910526
 21
1683.4021931163802
 31
0.0
  0
LINE
  5
9E
100
AcDbEntity
  8
一般
370
               5
  6
Continuous
 62
               7
100
AcDbLine
 10
673.53345882910537
 20
1683.4021931163802
 30
0.0
 11
743.71807121746724
 21
1683.4021931163802
 31
0.0
  0
SPLINE
  5
9F
100
AcDbEntity
  8
一般
370
               5
  6
Continuous
 62
               7
100
AcDbSpline
210
0.0
220
0.0
230
1.0
 70
               8
 71
               2
 72
               6
 73
               3
 74
               0
 42
0.000001
 43
0.000001
 40
0.0
 40
0.0
 40
0.0
 40
1.0
 40
1.0
 40
1.0
 10
478.51718133372947
 20
1683.1407486238497
 30
0.0
 10
478.52251062553114
 20
1683.1407576353131
 30
0.0
 10
478.52783979085245
 20
1683.1407666980185
 30
0.0
  0
SPLINE
  5
A0
100
AcDbEntity
  8
一般
370
              15
  6
Continuous
 62
               7
100
AcDbSpline
210
0.0
220
0.0
230
1.0
 70
               8
 71
               2
 72
              13
 73
              10
 74
               0
 42
0.000001
 43
0.000001
 40
0.0
 40
0.0
 40
0.0
 40
1.0
 40
1.0
 40
2.0
 40
3.0
 40
4.0
 40
5.0
 40
5.0
 40
6.0
 40
6.0
 40
6.0
 10
353.51547898163858
 20
1683.7112932886982
 30
0.0
 10
354.04685801541518
 20
1687.5815885535396
 30
0.0
 10
370.24427957707485
 20
1690.9481594051085
 30
0.0
 10
386.99110410402
 20
1694.4289215186416
 30
0.0
 10
445.00380599623941
 20
1698.4481594051085
 30
0.0
 10
511.99110410402011
 20
1698.4481594051085
 30
0.0
 10
570.00380599623941
 20
1694.4289215186416
 30
0.0
 10
586.75063052318455
 20
1690.9481594051085
 30
0.0
 10
602.94830762110746
 20
1687.5815354413248
 30
0.0
 10
603.47944788116956
 20
1683.7111711702735
 30
0.0
  0
SPLINE
  5
A1
100
AcDbEntity
  8
一般
370
               5
  6
Continuous
 62
               7
100
AcDbSpline
210
0.0
220
0.0
230
1.0
 70
               8
 71
               2
 72
               6
 73
               3
 74
               0
 42
0.000001
 43
0.000001
 40
0.0
 40
0.0
 40
0.0
 40
1.0
 40
1.0
 40
1.0
 10
353.53344371986395
 20
1695.4971037865469
 30
0.0
 10
353.53346288645253
 20
1695.4970907226148
 30
0.0
 10
353.53348206176929
 20
1695.4970776528726
 30
0.0
  0
LINE
  5
A2
100
AcDbEntity
  8
一般
370
               5
  6
Continuous
 62
               7
100
AcDbLine
 10
347.46226171209082
 20
1623.6193897300495
 30
0.0
 11
425.65700172633569
 21
1623.6193897300495
 31
0.0
  0
LINE
  5
A3
100
AcDbEntity
  8
一般
370
               5
  6
Continuous
 62
               7
100
AcDbLine
 10
444.76501563156808
 20
1696.0
 30
0.0
 11
444.7322364048789
 21
1697.9011951479697
 31
0.0
  0
LINE
  5
A4
100
AcDbEntity
  8
一般
370
               5
  6
Continuous
 62
               7
100
AcDbLine
 10
513.13997164749719
 20
1696.4000000000001
 30
0.0
 11
513.13997164749719
 21
1697.8699478202591
 31
0.0
  0
LINE
  5
A5
100
AcDbEntity
  8
一般
370
               5
  6
Continuous
 62
               7
100
AcDbLine
 10
444.49000826080066
 20
1697.9011951484304
 30
0.0
 11
445.41185347922953
 21
1643.9611434343892
 31
0.0
  0
LINE
  5
A6
100
AcDbEntity
  8
一般
370
               5
  6
Continuous
 62
               7
100
AcDbLine
 10
531.53640804438021
 20
1623.874562100541
 30
0.0
 11
609.68703228520258
 21
1623.874562100541
 31
0.0
  0
LINE
  5
A7
100
AcDbEntity
  8
一般
370
               5
  6
Continuous
 62
               7
100
AcDbLine
 10
511.54560021011719
 20
1644.480864115686
 30
0.0
 11
513.13997164749719
 21
1697.0500000000002
 31
0.0
  0
LINE
  5
A8
100
AcDbEntity
  8
一般
370
               5
  6
Continuous
 62
               7
100
AcDbLine
 10
441.72536247454298
 20
1614.8597370759421
 30
0.0
 11
445.39787209404165
 21
1585.479660119965
 31
0.0
  0
LINE
  5
A9
100
AcDbEntity
  8
一般
370
               5
  6
Continuous
 62
               7
100
AcDbLine
 10
514.21776540200972
 20
1615.1149094464331
 30
0.0
 11
510.43339856358114
 21
1584.8399747390031
 31
0.0
  0
ARC
  5
AA
100
AcDbEntity
  8
一般
370
               5
  6
Continuous
 62
               7
100
AcDbCircle
 10
431.80258370740637
 20
1613.6193897300495
 30
0.0
 40
9.9999999999999929
100
AcDbArc
 50
7.1250163489047065
 51
90.0
  0
ARC
  5
AB
100
AcDbEntity
  8
一般
370
               5
  6
Continuous
 62
               7
100
AcDbCircle
 10
524.14054416914644
 20
1613.874562100541
 30
0.0
 40
9.9999999999998863
100
AcDbArc
 50
90.0
 51
172.87498365109926
  0
LINE
  5
AC
100
AcDbEntity
  8
一般
370
               5
  6
Continuous
 62
               7
100
AcDbLine
 10
452.14399299856939
 20
1683.0
 30
0.0
 11
451.94263033415609
 21
1697.9008371665827
 31
0.0
  0
LINE
  5
AD
100
AcDbEntity
  8
一般
370
               5
  6
Continuous
 62
               7
100
AcDbLine
 10
504.82702503700341
 20
1683.0
 30
0.0
 11
505.02835208518127
 21
1697.8982015651238
 31
0.0
  0
LINE
  5
AE
100
AcDbEntity
  8
一般
370
               5
  6
Continuous
 62
               7
100
AcDbLine
 10
455.28997164749717
 20
1583.7278145779389
 30
0.0
 11
343.43997164749726
 21
1583.7278145779389
 31
0.0
  0
LINE
  5
AF
100
AcDbEntity
  8
一般
370
               5
  6
Continuous
 62
               7
100
AcDbLine
 10
501.7399716474971
 20
1583.6325528491602
 30
0.0
 11
569.78997164749717
 21
1583.6325528491602
 31
0.0
  0
LINE
  5
B0
100
AcDbEntity
  8
一般
370
               5
  6
Continuous
 62
               7
100
AcDbLine
 10
569.68997164749715
 20
1583.6325528491602
 30
0.0
 11
613.63997164749719
 21
1583.6325528491602
 31
0.0
  0
ARC
  5
B1
100
AcDbEntity
  8
一般
370
               5
  6
Continuous
 62
               7
100
AcDbCircle
 10
508.51690639027618
 20
1585.6325528491604
 30
0.0
 40
2.0000000000001137
100
AcDbArc
 50
270.0
 51
352.87498365109542
  0
ARC
  5
B2
100
AcDbEntity
  8
一般
370
               5
  6
Continuous
 62
               7
100
AcDbCircle
 10
447.38241722386977
 20
1585.7278145779389
 30
0.0
 40
2.0000000000001337
100
AcDbArc
 50
187.12501634890421
 51
269.99999999999676
  0
LINE
  5
B3
100
AcDbEntity
  8
一般
370
               5
  6
Continuous
 62
               7
100
AcDbLine
 10
509.16467752985
 20
1622.4000000000001
 30
0.0
 11
507.63997164749708
 21
1590.0
 31
0.0
  0
LINE
  5
B4
100
AcDbEntity
  8
一般
370
               5
  6
Continuous
 62
               7
100
AcDbLine
 10
446.86665607970826
 20
1624.8845689335817
 30
0.0
 11
448.86665607970826
 21
1589.3845689335817
 31
0.0
  0
CIRCLE
  5
B5
100
AcDbEntity
  8
一般
370
              15
  6
Continuous
 62
               7
100
AcDbCircle
 10
732.41075161437323
 20
1757.7704602599454
 30
0.0
 40
9.9999999999999911
  0
ARC
  5
B6
100
AcDbEntity
  8
一般
370
               5
  6
Continuous
 62
               7
100
AcDbCircle
 10
446.74151109915874
 20
1594.2403473458926
 30
0.0
 40
10.0
100
AcDbArc
 50
270.0
 51
312.33064162293141
  0
ARC
  5
B7
100
AcDbEntity
  8
一般
370
               5
  6
Continuous
 62
               7
100
AcDbCircle
 10
510.17622253978971
 20
1594.4927106401215
 30
0.0
 40
10.000000000000046
100
AcDbArc
 50
227.66935837706862
 51
270.0
  0
LINE
  5
B8
100
AcDbEntity
  8
一般
370
               5
  6
Continuous
 62
               7
100
AcDbLine
 10
462.32952034520179
 20
1586.5999999999999
 30
0.0
 11
495.02952034520172
 21
1586.5999999999999
 31
0.0
  0
ARC
  5
B9
100
AcDbEntity
  8
一般
370
               5
  6
Continuous
 62
               7
100
AcDbCircle
 10
441.93278103743637
 20
1627.6193897300495
 30
0.0
 40
4.0000000000001137
100
AcDbArc
 50
270.0
 51
0.9790998962528192
  0
LINE
  5
BA
100
AcDbEntity
  8
一般
370
               5
  6
Continuous
 62
               7
100
AcDbLine
 10
425.33997164749712
 20
1623.6193897300495
 30
0.0
 11
442.33997164749712
 21
1623.6193897300495
 31
0.0
  0
LINE
  5
BB
100
AcDbEntity
  8
一般
370
               5
  6
Continuous
 62
               7
100
AcDbLine
 10
445.40777137741657
 20
1644.2
 30
0.0
 11
446.18708826645957
 21
1627.5
 31
0.0
  0
ARC
  5
BC
100
AcDbEntity
  8
一般
370
               5
  6
Continuous
 62
               7
100
AcDbCircle
 10
515.04378628663233
 20
1627.874562100541
 30
0.0
 40
3.99999999999996
100
AcDbArc
 50
178.2628065200995
 51
270.0
  0
LINE
  5
BD
100
AcDbEntity
  8
一般
370
               5
  6
Continuous
 62
               7
100
AcDbLine
 10
511.54618058312258
 20
1644.5
 30
0.0
 11
511.04563907923887
 21
1627.9962959593104
 31
0.0
  0
LINE
  5
BE
100
AcDbEntity
  8
一般
370
               5
  6
Continuous
 62
               7
100
AcDbLine
 10
514.7399716474971
 20
1623.8861167060254
 30
0.0
 11
532.63997164749719
 21
1623.8861167060254
 31
0.0
  0
SPLINE
  5
BF
100
AcDbEntity
  8
一般
370
              15
  6
Continuous
 62
               7
100
AcDbSpline
210
0.0
220
0.0
230
1.0
 70
               9
 71
               2
 72
              17
 73
              14
 74
               0
 42
0.000001
 43
0.000001
 40
0.0
 40
0.0
 40
0.0
 40
1.0
 40
2.0
 40
3.0
 40
4.0
 40
5.0
 40
6.0
 40
7.0
 40
8.0
 40
9.0
 40
10.0
 40
11.0
 40
12.0
 40
12.0
 40
12.0
 10
393.03345882910526
 20
1734.5395287741826
 30
0.0
 10
395.58601771236295
 20
1735.5443382457993
 30
0.0
 10
401.48089994584757
 20
1735.5443382457993
 30
0.0
 10
406.58601771236295
 20
1733.5347193025659
 30
0.0
 10
409.53345882910526
 20
1730.0539571890326
 30
0.0
 10
409.53345882910526
 20
1726.0347193025659
 30
0.0
 10
406.58601771236295
 20
1722.5539571890326
 30
0.0
 10
401.48089994584757
 20
1720.5443382457993
 30
0.0
 10
395.58601771236295
 20
1720.5443382457993
 30
0.0
 10
390.48089994584757
 20
1722.5539571890326
 30
0.0
 10
387.53345882910526
 20
1726.0347193025659
 30
0.0
 10
387.53345882910526
 20
1730.0539571890326
 30
0.0
 10
390.48089994584757
 20
1733.5347193025659
 30
0.0
 10
393.03345882910526
 20
1734.5395287741826
 30
0.0
  0
SPLINE
  5
C0
100
AcDbEntity
  8
一般
370
              15
  6
Continuous
 62
               7
100
AcDbSpline
210
0.0
220
0.0
230
1.0
 70
               9
 71
               2
 72
              17
 73
              14
 74
               0
 42
0.000001
 43
0.000001
 40
0.0
 40
0.0
 40
0.0
 40
1.0
 40
2.0
 40
3.0
 40
4.0
 40
5.0
 40
6.0
 40
7.0
 40
8.0
 40
9.0
 40
10.0
 40
11.0
 40
12.0
 40
12.0
 40
12.0
 10
553.03345882910537
 20
1734.5395287741826
 30
0.0
 10
555.58601771236306
 20
1735.5443382457993
 30
0.0
 10
561.48089994584768
 20
1735.5443382457993
 30
0.0
 10
566.58601771236306
 20
1733.5347193025659
 30
0.0
 10
569.53345882910537
 20
1730.0539571890326
 30
0.0
 10
569.53345882910537
 20
1726.0347193025659
 30
0.0
 10
566.58601771236306
 20
1722.5539571890326
 30
0.0
 10
561.48089994584768
 20
1720.5443382457993
 30
0.0
 10
555.58601771236306
 20
1720.5443382457993
 30
0.0
 10
550.48089994584768
 20
1722.5539571890326
 30
0.0
 10
547.53345882910537
 20
1726.0347193025659
 30
0.0
 10
547.53345882910537
 20
1730.0539571890326
 30
0.0
 10
550.48089994584768
 20
1733.5347193025659
 30
0.0
 10
553.03345882910537
 20
1734.5395287741826
 30
0.0
  0
ARC
  5
C1
100
AcDbEntity
  8
一般
370
               5
  6
Continuous
 62
               7
100
AcDbCircle
 10
743.71807121746724
 20
1687.4021931163802
 30
0.0
 40
4.0
100
AcDbArc
 50
270.0
 51
0.0
  0
ARC
  5
C2
100
AcDbEntity
  8
寸法
370
              15
100
AcDbCircle
 10
211.71807121748452
 20
1687.4021931163802
 30
0.0
 40
4.0
100
AcDbArc
 50
180.0
 51
270.0
  0
POLYLINE
  5
C3
100
AcDbEntity
  8
一般
370
              15
  6
Continuous
 62
               7
100
AcDb2dPolyline
 66
               1
 10
0.0
 20
0.0
 30
0.0
 75
               5
  0
VERTEX
  5
C4
100
AcDbEntity
  8
一般
370
              15
  6
Continuous
 62
               7
100
AcDbVertex
100
AcDb2dVertex
 10
666.61486159290257
 20
405.94837358287077
 30
0.0
  0
VERTEX
  5
C5
100
AcDbEntity
  8
一般
370
              15
  6
Continuous
 62
               7
100
AcDbVertex
100
AcDb2dVertex
 10
673.98930964771398
 20
479.69285413098578
 30
0.0
  0
VERTEX
  5
C6
100
AcDbEntity
  8
一般
370
              15
  6
Continuous
 62
               7
100
AcDbVertex
100
AcDb2dVertex
 10
283.98930964771398
 20
479.69285413098578
 30
0.0
  0
VERTEX
  5
C7
100
AcDbEntity
  8
一般
370
              15
  6
Continuous
 62
               7
100
AcDbVertex
100
AcDb2dVertex
 10
291.36375770252539
 20
405.94837358287077
 30
0.0
  0
SEQEND
  5
C8
100
AcDbEntity
  8
一般
370
              15
  6
Continuous
 62
               7
  0
LWPOLYLINE
  5
C9
100
AcDbEntity
  8
一般
370
              15
  6
Continuous
 62
               7
100
AcDbPolyline
 90
        6
 70
             128
 10
664.51486159290266
 20
384.94837358287077
 10
664.34950816010576
 20
383.29483925490183
 42
-0.3853135861201826
 10
660.36935939926582
 20
379.69285413098578
 10
297.60925989616226
 20
379.69285413098578
 42
-0.3853135861201599
 10
293.62911113532232
 20
383.29483925490183
 10
293.46375770252553
 20
384.94837358287077
  0
POLYLINE
  5
CA
100
AcDbEntity
  8
一般
370
               5
  6
Continuous
 62
               7
100
AcDb2dPolyline
 66
               1
 10
0.0
 20
0.0
 30
0.0
 70
               1
 75
               5
  0
VERTEX
  5
CB
100
AcDbEntity
  8
一般
370
               5
  6
Continuous
 62
               7
100
AcDbVertex
100
AcDb2dVertex
 10
253.70648341729429
 20
405.94837358287077
 30
0.0
  0
VERTEX
  5
CC
100
AcDbEntity
  8
一般
370
               5
  6
Continuous
 62
               7
100
AcDbVertex
100
AcDb2dVertex
 10
703.70648341729384
 20
405.94837358287077
 30
0.0
  0
VERTEX
  5
CD
100
AcDbEntity
  8
一般
370
               5
  6
Continuous
 62
               7
100
AcDbVertex
100
AcDb2dVertex
 10
703.70648341729384
 20
384.94837358287077
 30
0.0
  0
VERTEX
  5
CE
100
AcDbEntity
  8
一般
370
               5
  6
Continuous
 62
               7
100
AcDbVertex
100
AcDb2dVertex
 10
253.70648341729429
 20
384.94837358287077
 30
0.0
  0
SEQEND
  5
CF
100
AcDbEntity
  8
一般
370
               5
  6
Continuous
 62
               7
  0
LWPOLYLINE
  5
D0
100
AcDbEntity
  8
一般
370
               5
  6
Continuous
 62
               7
100
AcDbPolyline
 90
        9
 70
             128
 10
245.66788851770116
 20
477.93063523901253
 10
245.66788851770116
 20
405.93889552291455
 10
253.66716226526023
 20
405.93889552291455
 10
253.66716226526023
 20
384.93889552291455
 10
235.66716226526023
 20
384.93889552291455
 42
-0.414213562373095
 10
233.66716226526023
 20
386.93889552291455
 10
233.66716226526023
 20
405.93889552291455
 10
233.66788851770116
 20
405.93889552291455
 10
233.66788851770116
 20
477.93063523901253
  0
LINE
  5
D1
100
AcDbEntity
  8
一般
370
               5
  6
Continuous
 62
               7
100
AcDbLine
 10
245.66788851770116
 20
479.43063523901253
 30
0.0
 11
245.66788851770116
 21
479.84775934128538
 31
0.0
  0
LINE
  5
D2
100
AcDbEntity
  8
一般
370
               5
  6
Continuous
 62
               7
100
AcDbLine
 10
233.66788851770116
 20
479.43063523901253
 30
0.0
 11
233.66788851770116
 21
479.84775934128538
 31
0.0
  0
LINE
  5
D3
100
AcDbEntity
  8
一般
370
               5
  6
Continuous
 62
               7
100
AcDbLine
 10
711.69412370035832
 20
479.84775934128538
 30
0.0
 11
711.69412370035832
 21
479.19812944553871
 31
0.0
  0
LWPOLYLINE
  5
D4
100
AcDbEntity
  8
一般
370
               5
  6
Continuous
 62
               7
100
AcDbPolyline
 90
        9
 70
             128
 10
723.69412370035832
 20
477.69812944553871
 10
723.69412370035832
 20
405.94957949743377
 10
723.69484995279947
 20
405.94957949743377
 10
723.69484995279947
 20
386.94957949743377
 42
-0.414213562373095
 10
721.69484995279947
 20
384.94957949743377
 10
703.69484995279947
 20
384.94957949743377
 10
703.69484995279947
 20
405.94957949743377
 10
711.69412370035832
 20
405.94957949743377
 10
711.69412370035832
 20
477.69812944553871
  0
LINE
  5
D5
100
AcDbEntity
  8
一般
370
               5
  6
Continuous
 62
               7
100
AcDbLine
 10
723.69412370035832
 20
479.19812944553871
 30
0.0
 11
723.69412370035832
 21
479.84775934128538
 31
0.0
  0
POLYLINE
  5
D6
100
AcDbEntity
  8
一般
370
               5
  6
Continuous
 62
               7
100
AcDb2dPolyline
 66
               1
 10
0.0
 20
0.0
 30
0.0
 70
               1
 75
               5
  0
VERTEX
  5
D7
100
AcDbEntity
  8
一般
370
               5
  6
Continuous
 62
               7
100
AcDbVertex
100
AcDb2dVertex
 10
227.06788851770125
 20
479.43063523901253
 30
0.0
  0
VERTEX
  5
D8
100
AcDbEntity
  8
一般
370
               5
  6
Continuous
 62
               7
100
AcDbVertex
100
AcDb2dVertex
 10
252.06788851770125
 20
479.43063523901253
 30
0.0
  0
VERTEX
  5
D9
100
AcDbEntity
  8
一般
370
               5
  6
Continuous
 62
               7
100
AcDbVertex
100
AcDb2dVertex
 10
252.06788851770125
 20
477.93063523901253
 30
0.0
  0
VERTEX
  5
DA
100
AcDbEntity
  8
一般
370
               5
  6
Continuous
 62
               7
100
AcDbVertex
100
AcDb2dVertex
 10
227.06788851770125
 20
477.93063523901253
 30
0.0
  0
SEQEND
  5
DB
100
AcDbEntity
  8
一般
370
               5
  6
Continuous
 62
               7
  0
LINE
  5
DC
100
AcDbEntity
  8
一般
370
               5
  6
Continuous
 62
               7
100
AcDbLine
 10
245.66788851770116
 20
405.93889552291455
 30
0.0
 11
234.48997164749699
 21
385.59999999999991
 31
0.0
  0
LINE
  5
DD
100
AcDbEntity
  8
一般
370
               5
  6
Continuous
 62
               7
100
AcDbLine
 10
711.69412370035832
 20
405.94957949743377
 30
0.0
 11
723.15428376650289
 21
386.09999999999991
 31
0.0
  0
POLYLINE
  5
DE
100
AcDbEntity
  8
一般
370
               5
  6
Continuous
 62
               7
100
AcDb2dPolyline
 66
               1
 10
0.0
 20
0.0
 30
0.0
 70
               1
 75
               5
  0
VERTEX
  5
DF
100
AcDbEntity
  8
一般
370
               5
  6
Continuous
 62
               7
100
AcDbVertex
100
AcDb2dVertex
 10
705.27447688969744
 20
479.19812944553871
 30
0.0
  0
VERTEX
  5
E0
100
AcDbEntity
  8
一般
370
               5
  6
Continuous
 62
               7
100
AcDbVertex
100
AcDb2dVertex
 10
730.27447688969744
 20
479.19812944553871
 30
0.0
  0
VERTEX
  5
E1
100
AcDbEntity
  8
一般
370
               5
  6
Continuous
 62
               7
100
AcDbVertex
100
AcDb2dVertex
 10
730.27447688969744
 20
477.69812944553871
 30
0.0
  0
VERTEX
  5
E2
100
AcDbEntity
  8
一般
370
               5
  6
Continuous
 62
               7
100
AcDbVertex
100
AcDb2dVertex
 10
705.27447688969744
 20
477.69812944553871
 30
0.0
  0
SEQEND
  5
E3
100
AcDbEntity
  8
一般
370
               5
  6
Continuous
 62
               7
  0
LWPOLYLINE
  5
E4
100
AcDbEntity
  8
一般
370
              15
  6
Continuous
 62
               7
100
AcDbPolyline
 90
       10
 70
             128
 10
1155.9857217614456
 20
480.31099373736788
 10
1588.1533817331274
 20
480.31099373736788
 42
0.414213562373095
 10
1590.1533817331274
 20
482.31099373736788
 10
1590.1533817331274
 20
578.31099373736788
 42
0.414213562373095
 10
1588.1533817331274
 20
580.31099373736788
 10
1104.1533817331278
 20
580.31099373736788
 42
0.414213562373095
 10
1100.1533817331278
 20
576.31099373736788
 10
1100.1533817331278
 20
484.31099373736788
 42
0.414213562373095
 10
1104.1533817331278
 20
480.31099373736788
 10
1111.9857217614456
 20
480.31099373736788
  0
LWPOLYLINE
  5
E5
100
AcDbEntity
  8
一般
370
              15
  6
Continuous
 62
               7
100
AcDbPolyline
 90
        6
 70
             129
 10
1175.1584509063541
 20
480.36843147174488
 10
1590.1584509063555
 20
480.36843147174488
 10
1590.1584509063555
 20
382.36843147174488
 42
-0.414213562373095
 10
1588.1584509063555
 20
380.36843147174488
 10
1179.1584509063541
 20
380.36843147174488
 42
-0.414213562373095
 10
1175.1584509063541
 20
384.36843147174488
  0
LINE
  5
E6
100
AcDbEntity
  8
一般
370
               5
  6
Continuous
 62
               7
100
AcDbLine
 10
1590.1584509063555
 20
480.36137618202645
 30
0.0
 11
1590.1584509063555
 21
482.69099373736788
 31
0.0
  0
LWPOLYLINE
  5
E7
100
AcDbEntity
  8
一般
370
               5
  6
Continuous
 62
               7
100
AcDbPolyline
 90
        8
 70
             128
 10
1134.9857217614456
 20
478.9428870457823
 10
1134.9857217614456
 20
395.43424415242021
 42
-0.0133619504241638
 10
1135.0
 20
394.90005233011902
 42
-0.414213562373095
 10
1125.0
 20
384.90005233011902
 42
-0.414213562373095
 10
1115.0
 20
394.90005233012198
 42
-0.0078577572038107
 10
1115.0049389379401
 20
395.21430440361394
 10
1114.9857217614456
 20
395.21430440361394
 10
1114.9857217614456
 20
478.9428870457823
  0
POLYLINE
  5
E8
100
AcDbEntity
  8
一般
370
               5
  6
Continuous
 62
               7
100
AcDb2dPolyline
 66
               1
 10
0.0
 20
0.0
 30
0.0
 70
               1
 75
               5
  0
VERTEX
  5
E9
100
AcDbEntity
  8
一般
370
               5
  6
Continuous
 62
               7
100
AcDbVertex
100
AcDb2dVertex
 10
1111.9857217614456
 20
480.4428870457823
 30
0.0
  0
VERTEX
  5
EA
100
AcDbEntity
  8
一般
370
               5
  6
Continuous
 62
               7
100
AcDbVertex
100
AcDb2dVertex
 10
1155.9857217614456
 20
480.4428870457823
 30
0.0
  0
VERTEX
  5
EB
100
AcDbEntity
  8
一般
370
               5
  6
Continuous
 62
               7
100
AcDbVertex
100
AcDb2dVertex
 10
1155.9857217614456
 20
478.9428870457823
 30
0.0
  0
VERTEX
  5
EC
100
AcDbEntity
  8
一般
370
               5
  6
Continuous
 62
               7
100
AcDbVertex
100
AcDb2dVertex
 10
1111.9857217614456
 20
478.9428870457823
 30
0.0
  0
SEQEND
  5
ED
100
AcDbEntity
  8
一般
370
               5
  6
Continuous
 62
               7
  0
LINE
  5
EE
100
AcDbEntity
  8
一般
370
              15
  6
STYLE_01
 62
               7
100
AcDbLine
 10
715.16428825933747
 20
575.3674792333851
 30
0.0
 11
635.05909283657388
 21
454.35276827907512
 31
0.0
  0
LINE
  5
EF
100
AcDbEntity
  8
一般
370
              15
  6
STYLE_01
 62
               7
100
AcDbLine
 10
241.34183453851665
 20
575.35469752876963
 30
0.0
 11
320.63463210880695
 21
454.39027881358095
 31
0.0
  0
LINE
  5
F0
100
AcDbEntity
  8
一般
370
              15
  6
STYLE_01
 62
               7
100
AcDbLine
 10
328.99796760127083
 20
449.87248817117529
 30
0.0
 11
626.72046631221428
 21
449.87248817117529
 31
0.0
  0
ARC
  5
F1
100
AcDbEntity
  8
一般
370
              15
  6
STYLE_01
 62
               7
100
AcDbCircle
 10
328.99796760127083
 20
459.87248817117529
 30
0.0
 40
10.000000000000046
100
AcDbArc
 50
213.2450471379172
 51
270.0
  0
ARC
  5
F2
100
AcDbEntity
  8
一般
370
              15
  6
STYLE_01
 62
               7
100
AcDbCircle
 10
626.7204663122144
 20
459.87248817117541
 30
0.0
 40
10.000000000000114
100
AcDbArc
 50
269.99999999999932
 51
326.49759487038875
  0
ARC
  5
F3
100
AcDbEntity
  8
一般
370
              15
  6
Continuous
 62
               7
100
AcDbCircle
 10
232.97849904605278
 20
569.87248817117529
 30
0.0
 40
10.000000000000046
100
AcDbArc
 50
33.245047137917169
 51
90.000000000001307
  0
ARC
  5
F4
100
AcDbEntity
  8
一般
370
              15
  6
Continuous
 62
               7
100
AcDbCircle
 10
723.50291478369695
 20
569.84775934128481
 30
0.0
 40
10.000000000000114
100
AcDbArc
 50
89.999999999999346
 51
146.49759487038878
  0
LINE
  5
F5
100
AcDbEntity
  8
一般
370
              15
  6
STYLE_01
 62
               7
100
AcDbLine
 10
1129.2847564783615
 20
580.31099373736788
 30
0.0
 11
1204.5934627796969
 21
449.87248817117529
 31
0.0
  0
LINE
  5
F6
100
AcDbEntity
  8
一般
370
              15
  6
STYLE_01
 62
               7
100
AcDbLine
 10
1463.9345132965382
 20
580.31099373736788
 30
0.0
 11
1443.6439561845555
 21
429.87248817117529
 31
0.0
  0
LINE
  5
F7
100
AcDbEntity
  8
一般
370
              15
  6
STYLE_01
 62
               7
100
AcDbLine
 10
1443.6439561845555
 20
429.87248817117529
 30
0.0
 11
1430.8000000000002
 21
429.87248817117529
 31
0.0
  0
LINE
  5
F8
100
AcDbEntity
  8
一般
370
              15
  6
STYLE_01
 62
               7
100
AcDbLine
 10
1361.1044328700746
 20
435.44807018232291
 30
0.0
 11
1373.1307028437593
 21
414.61795956236165
 31
0.0
  0
LINE
  5
F9
100
AcDbEntity
  8
一般
370
              15
  6
STYLE_01
 62
               7
100
AcDbLine
 10
1372.9837506829442
 20
414.87248817117529
 30
0.0
 11
1372.9837506829442
 21
380.36843147174488
 31
0.0
  0
LINE
  5
FA
100
AcDbEntity
  8
一般
370
              15
  6
STYLE_01
 62
               7
100
AcDbLine
 10
1417.7991067590206
 20
414.87248817117529
 30
0.0
 11
1417.7991067590206
 21
380.36843147174488
 31
0.0
  0
LINE
  5
FB
100
AcDbEntity
  8
一般
370
              15
  6
STYLE_01
 62
               7
100
AcDbLine
 10
1417.7991067590206
 20
414.87248817117529
 30
0.0
 11
1430.8000000000002
 21
429.87248817117529
 31
0.0
  0
LINE
  5
FC
100
AcDbEntity
  8
一般
370
              15
  6
STYLE_01
 62
               7
100
AcDbLine
 10
1204.2762277271156
 20
450.42195540018804
 30
0.0
 11
1361.1044328700746
 21
435.44807018232291
 31
0.0
  0
SPLINE
  5
FD
100
AcDbEntity
  8
寸法
100
AcDbSpline
210
0.0
220
0.0
230
1.0
 70
               9
 71
               2
 72
              17
 73
              14
 74
               0
 42
0.000001
 43
0.000001
 40
0.0
 40
0.0
 40
0.0
 40
1.0
 40
2.0
 40
3.0
 40
4.0
 40
5.0
 40
6.0
 40
7.0
 40
8.0
 40
9.0
 40
10.0
 40
11.0
 40
12.0
 40
12.0
 40
12.0
 10
472.09159745502711
 20
1173.9815273136267
 30
0.0
 10
474.76018174206922
 20
1174.3164638041656
 30
0.0
 10
480.923013167985
 20
1174.3164638041656
 30
0.0
 10
486.26018174206922
 20
1173.6465908230878
 30
0.0
 10
489.34159745502711
 20
1172.4863367852433
 30
0.0
 10
489.34159745502711
 20
1171.1465908230878
 30
0.0
 10
486.26018174206922
 20
1169.9863367852433
 30
0.0
 10
480.923013167985
 20
1169.3164638041656
 30
0.0
 10
474.76018174206922
 20
1169.3164638041656
 30
0.0
 10
469.423013167985
 20
1169.9863367852433
 30
0.0
 10
466.34159745502711
 20
1171.1465908230878
 30
0.0
 10
466.34159745502711
 20
1172.4863367852433
 30
0.0
 10
469.423013167985
 20
1173.6465908230878
 30
0.0
 10
472.09159745502711
 20
1173.9815273136267
 30
0.0
  0
CIRCLE
  5
FE
100
AcDbEntity
  8
一般
370
              15
  6
STYLE_01
 62
               7
100
AcDbCircle
 10
478.21786457679013
 20
550.0
 30
0.0
 40
11.499999999999993
  0
MTEXT
  5
FF
100
AcDbEntity
  8
一般
 62
               7
100
AcDbMText
 10
1952.0
 20
1905.8392939814814
 30
0.0
 40
70.739293981481481
 41
0.0
 71
               1
 72
               1
  1
B1-F501
  7
Arial
 73
               1
 44
0.9673603504928806
  0
ENDSEC
  0
SECTION
  2
OBJECTS
  0
DICTIONARY
  5
19
100
AcDbDictionary
280
               0
281
               1
  3
ACAD_GROUP
350
1A
  3
ACAD_MLINESTYLE
350
1B
  3
ACAD_LAYOUT
350
1E
  3
ACAD_PLOTSETTINGS
350
22
  3
ACAD_PLOTSTYLENAME
350
1F
  3
ACAD_WIPEOUT_VARS
350
23
  0
DICTIONARY
  5
1A
102
{ACAD_REACTORS
330
19
102
}
100
AcDbDictionary
280
               0
281
               1
  0
DICTIONARY
  5
1B
102
{ACAD_REACTORS
330
19
102
}
100
AcDbDictionary
280
               0
281
               1
  3
Standard
350
1C
  0
MLINESTYLE
  5
1C
102
{ACAD_REACTORS
330
1B
102
}
100
AcDbMlineStyle
  2
Standard
 70
               0
  3

 62
               0
 51
90.0
 52
90.0
 71
               2
 49
0.5
 62
             256
  6
ByLayer
 49
-0.5
 62
             256
  6
ByLayer
  0
ACDBDICTIONARYWDFLT
  5
1F
102
{ACAD_REACTORS
330
19
102
}
100
AcDbDictionary
281
               1
  3
Normal
350
1D
100
AcDbDictionaryWithDefault
340
1D
  0
ACDBPLACEHOLDER
  5
1D
102
{ACAD_REACTORS
330
1F
102
}
  0
LAYOUT
  5
20
102
{ACAD_REACTORS
330
1E
102
}
100
AcDbPlotSettings
  1

  2

  4

  6

 40
0.0
 41
0.0
 42
0.0
 43
0.0
 44
0.0
 45
0.0
 46
0.0
 47
0.0
 48
0.0
 49
0.0
140
0.0
141
0.0
142
1.0
143
1.0
 70
            1024
 72
               0
 73
               0
 74
               0
  7

 75
               0
147
1.0
148
0.0
149
0.0
100
AcDbLayout
  1
Model
 70
               0
 71
               0
 10
0.0
 20
0.0
 11
0.0
 21
0.0
 12
0.0
 22
0.0
 32
0.0
 14
0.0
 24
0.0
 34
0.0
 15
0.0
 25
0.0
 35
0.0
146
0.0
 13
0.0
 23
0.0
 33
0.0
 16
0.0
 26
0.0
 36
0.0
 17
0.0
 27
0.0
 37
0.0
 76
               0
330
A
331
0
345
0
346
0
  0
LAYOUT
  5
21
102
{ACAD_REACTORS
330
1E
102
}
100
AcDbPlotSettings
  1

  2

  4

  6

 40
0.0
 41
0.0
 42
0.0
 43
0.0
 44
0.0
 45
0.0
 46
0.0
 47
0.0
 48
0.0
 49
0.0
140
0.0
141
0.0
142
1.0
143
1.0
 70
               0
 72
               0
 73
               0
 74
               0
  7

 75
               0
147
1.0
148
0.0
149
0.0
100
AcDbLayout
  1
Layout1
 70
               0
 71
               0
 10
0.0
 20
0.0
 11
0.0
 21
0.0
 12
0.0
 22
0.0
 32
0.0
 14
0.0
 24
0.0
 34
0.0
 15
0.0
 25
0.0
 35
0.0
146
0.0
 13
0.0
 23
0.0
 33
0.0
 16
0.0
 26
0.0
 36
0.0
 17
0.0
 27
0.0
 37
0.0
 76
               0
330
B
331
0
345
0
346
0
  0
DICTIONARY
  5
1E
102
{ACAD_REACTORS
330
19
102
}
100
AcDbDictionary
280
               0
281
               1
  3
Layout1
350
21
  3
Model
350
20
  0
DICTIONARY
  5
22
102
{ACAD_REACTORS
330
19
102
}
100
AcDbDictionary
280
               0
281
               1
  0
WIPEOUTVARIABLES
  5
23
100
AcDbWipeoutVariables
 70
               0
  0
ENDSEC
  0
EOF
