  0
SECTION
  2
HEADER
  9
$ACADVER
  1
AC1015
  9
$ACADMAINTVER
 70
               6
  9
$DWGCODEPAGE
  3
ANSI_932
  9
$INSBASE
 10
0.0
 20
0.0
 30
0.0
  9
$EXTMIN
 10
290.60000000000014
 20
129.41666666666674
 30
-14.816666666666665
  9
$EXTMAX
 10
2848.0
 20
1862.6973284113378
 30
14.816666666666665
  9
$LIMMIN
 10
0.0
 20
0.0
  9
$LIMMAX
 10
0.0
 20
0.0
  9
$ORTHOMODE
 70
               0
  9
$REGENMODE
 70
               1
  9
$FILLMODE
 70
               1
  9
$QTEXTMODE
 70
               0
  9
$MIRRTEXT
 70
               1
  9
$LTSCALE
 40
50.799999999999997
  9
$ATTMODE
 70
               1
  9
$TEXTSIZE
 40
0.2
  9
$TRACEWID
 40
1.0
  9
$TEXTSTYLE
  7
Standard
  9
$CLAYER
  8
一般
  9
$CELTYPE
  6
Continuous
  9
$CECOLOR
 62
             256
  9
$CELTSCALE
 40
1.0
  9
$DISPSILH
 70
               0
  9
$DIMSCALE
 40
1.0
  9
$DIMASZ
 40
0.18
  9
$DIMEXO
 40
0.0625
  9
$DIMDLI
 40
0.38
  9
$DIMRND
 40
0.0
  9
$DIMDLE
 40
0.0
  9
$DIMEXE
 40
0.18
  9
$DIMTP
 40
0.0
  9
$DIMTM
 40
0.0
  9
$DIMTXT
 40
0.18
  9
$DIMCEN
 40
0.09
  9
$DIMTSZ
 40
0.0
  9
$DIMTOL
 70
               0
  9
$DIMLIM
 70
               0
  9
$DIMTIH
 70
               1
  9
$DIMTOH
 70
               1
  9
$DIMSE1
 70
               0
  9
$DIMSE2
 70
               0
  9
$DIMTAD
 70
               0
  9
$DIMZIN
 70
               0
  9
$DIMBLK
  1

  9
$DIMASO
 70
               1
  9
$DIMSHO
 70
               1
  9
$DIMPOST
  1

  9
$DIMAPOST
  1

  9
$DIMALT
 70
               0
  9
$DIMALTD
 70
               2
  9
$DIMALTF
 40
25.399999999999999
  9
$DIMLFAC
 40
1.0
  9
$DIMTOFL
 70
               0
  9
$DIMTVP
 40
0.0
  9
$DIMTIX
 70
               0
  9
$DIMSOXD
 70
               0
  9
$DIMSAH
 70
               0
  9
$DIMBLK1
  1

  9
$DIMBLK2
  1

  9
$DIMSTYLE
  2
Standard
  9
$DIMCLRD
 70
               0
  9
$DIMCLRE
 70
               0
  9
$DIMCLRT
 70
               0
  9
$DIMTFAC
 40
1.0
  9
$DIMGAP
 40
0.09
  9
$DIMJUST
 70
               0
  9
$DIMSD1
 70
               0
  9
$DIMSD2
 70
               0
  9
$DIMTOLJ
 70
               1
  9
$DIMTZIN
 70
               0
  9
$DIMALTZ
 70
               0
  9
$DIMALTTZ
 70
               0
  9
$DIMUPT
 70
               0
  9
$DIMDEC
 70
               4
  9
$DIMTDEC
 70
               4
  9
$DIMALTU
 70
               2
  9
$DIMALTTD
 70
               2
  9
$DIMTXSTY
  7
Standard
  9
$DIMAUNIT
 70
               0
  9
$DIMADEC
 70
               0
  9
$DIMALTRND
 40
0.0
  9
$DIMAZIN
 70
               0
  9
$DIMDSEP
 70
               0
  9
$DIMATFIT
 70
               3
  9
$DIMFRAC
 70
               0
  9
$DIMLDRBLK
  1

  9
$DIMLUNIT
 70
               2
  9
$DIMLWD
 70
               0
  9
$DIMLWE
 70
               0
  9
$DIMTMOVE
 70
               0
  9
$LUNITS
 70
               2
  9
$LUPREC
 70
               4
  9
$SKETCHINC
 40
0.1
  9
$FILLETRAD
 40
0.0
  9
$AUNITS
 70
               0
  9
$AUPREC
 70
               0
  9
$MENU
  1
acad
  9
$ELEVATION
 40
0.0
  9
$PELEVATION
 40
0.0
  9
$THICKNESS
 40
0.0
  9
$LIMCHECK
 70
               0
  9
$CHAMFERA
 40
0.0
  9
$CHAMFERB
 40
0.0
  9
$CHAMFERC
 40
0.0
  9
$CHAMFERD
 40
0.0
  9
$SKPOLY
 70
               0
  9
$TDCREATE
 40
2455551.642465278
  9
$TDUCREATE
 40
0.000000000
  9
$TDUPDATE
 40
2455551.642465278
  9
$TDUUPDATE
 40
0.000000000
  9
$TDINDWG
 40
0.0000000000
  9
$TDUSRTIMER
 40
0.0000000000
  9
$USRTIMER
 70
               1
  9
$ANGBASE
 50
0.0
  9
$ANGDIR
 70
               0
  9
$PDMODE
 70
               1
  9
$PDSIZE
 40
-2.0
  9
$PLINEWID
 40
0.0
  9
$SPLFRAME
 70
               0
  9
$SPLINETYPE
 70
               6
  9
$SPLINESEGS
 70
               8
  9
$HANDSEED
  5
212
  9
$SURFTAB1
 70
               6
  9
$SURFTAB2
 70
               6
  9
$SURFTYPE
 70
               6
  9
$SURFU
 70
               6
  9
$SURFV
 70
               6
  9
$UCSBASE
  2

  9
$UCSNAME
  2

  9
$UCSORG
 10
0.0
 20
0.0
 30
0.0
  9
$UCSXDIR
 10
1.0
 20
0.0
 30
0.0
  9
$UCSYDIR
 10
0.0
 20
1.0
 30
0.0
  9
$UCSORTHOREF
  2

  9
$UCSORTHOVIEW
 70
               0
  9
$UCSORGTOP
 10
0.0
 20
0.0
 30
0.0
  9
$UCSORGBOTTOM
 10
0.0
 20
0.0
 30
0.0
  9
$UCSORGLEFT
 10
0.0
 20
0.0
 30
0.0
  9
$UCSORGRIGHT
 10
0.0
 20
0.0
 30
0.0
  9
$UCSORGFRONT
 10
0.0
 20
0.0
 30
0.0
  9
$UCSORGBACK
 10
0.0
 20
0.0
 30
0.0
  9
$PUCSBASE
  2

  9
$PUCSNAME
  2

  9
$PUCSORG
 10
0.0
 20
0.0
 30
0.0
  9
$PUCSXDIR
 10
1.0
 20
0.0
 30
0.0
  9
$PUCSYDIR
 10
0.0
 20
1.0
 30
0.0
  9
$PUCSORTHOREF
  2

  9
$PUCSORTHOVIEW
 70
               0
  9
$PUCSORGTOP
 10
0.0
 20
0.0
 30
0.0
  9
$PUCSORGBOTTOM
 10
0.0
 20
0.0
 30
0.0
  9
$PUCSORGLEFT
 10
0.0
 20
0.0
 30
0.0
  9
$PUCSORGRIGHT
 10
0.0
 20
0.0
 30
0.0
  9
$PUCSORGFRONT
 10
0.0
 20
0.0
 30
0.0
  9
$PUCSORGBACK
 10
0.0
 20
0.0
 30
0.0
  9
$USERI1
 70
               0
  9
$USERI2
 70
               0
  9
$USERI3
 70
               0
  9
$USERI4
 70
               0
  9
$USERI5
 70
               0
  9
$USERR1
 40
0.0
  9
$USERR2
 40
0.0
  9
$USERR3
 40
0.0
  9
$USERR4
 40
0.0
  9
$USERR5
 40
0.0
  9
$WORLDVIEW
 70
               1
  9
$SHADEDGE
 70
               3
  9
$SHADEDIF
 70
              70
  9
$TILEMODE
 70
               1
  9
$MAXACTVP
 70
              64
  9
$PINSBASE
 10
0.0
 20
0.0
 30
0.0
  9
$PLIMCHECK
 70
               0
  9
$PEXTMIN
 10
1.0000000000000000E+20
 20
1.0000000000000000E+20
 30
1.0000000000000000E+20
  9
$PEXTMAX
 10
-1.0000000000000000E+20
 20
-1.0000000000000000E+20
 30
-1.0000000000000000E+20
  9
$PLIMMIN
 10
0.0
 20
0.0
  9
$PLIMMAX
 10
12.0
 20
9.0
  9
$UNITMODE
 70
               0
  9
$VISRETAIN
 70
               0
  9
$PLINEGEN
 70
               1
  9
$PSLTSCALE
 70
               0
  9
$TREEDEPTH
 70
            3020
  9
$CMLSTYLE
  2
Standard
  9
$CMLJUST
 70
               0
  9
$CMLSCALE
 40
1.0
  9
$PROXYGRAPHICS
 70
               0
  9
$MEASUREMENT
 70
               1
  9
$CELWEIGHT
370
               0
  9
$ENDCAPS
280
               0
  9
$JOINSTYLE
280
               0
  9
$LWDISPLAY
290
               1
  9
$INSUNITS
 70
               4
  9
$HYPERLINKBASE
  1

  9
$STYLESHEET
  1

  9
$XEDIT
290
               1
  9
$CEPSNTYPE
380
               0
  9
$PSTYLEMODE
290
               1
  9
$FINGERPRINTGUID
  2

  9
$VERSIONGUID
  2

  9
$EXTNAMES
290
               1
  9
$PSVPSCALE
 40
0.0
  0
ENDSEC
  0
SECTION
  2
CLASSES
  0
CLASS
  1
LWPOLYLINE
  2
AcDbPolyline
  3
AutoCAD 2000
 90
    32768
280
               0
281
               1
  0
CLASS
  1
IMAGE
  2
AcDbRasterImage
  3
ISM
 90
    32895
280
               0
281
               1
  0
CLASS
  1
OLE2FRAME
  2
AcDbOle2Frame
  3
AutoCAD 2000
 90
    32768
280
               0
281
               1
  0
CLASS
  1
HATCH
  2
AcDbHatch
  3
AutoCAD 2000
 90
    32768
280
               0
281
               1
  0
CLASS
  1
DICTIONARYVAR
  2
AcDbDictionaryVar
  3
AutoCAD 2000
 90
    32768
280
               0
281
               0
  0
CLASS
  1
RASTERVARIABLES
  2
AcDbRasterVariables
  3
ISM
 90
    32768
280
               0
281
               0
  0
CLASS
  1
IMAGEDEF
  2
AcDbRasterImageDef
  3
ISM
 90
    32768
280
               0
281
               0
  0
CLASS
  1
IMAGEDEF_REACTOR
  2
AcDbRasterImageDefReactor
  3
ISM
 90
    32769
280
               0
281
               0
  0
CLASS
  1
IDBUFFER
  2
AcDbIdBuffer
  3
AutoCAD 2000
 90
    32768
280
               0
281
               0
  0
CLASS
  1
SPATIAL_FILTER
  2
AcDbSpatialFilter
  3
AutoCAD 2000
 90
    32768
280
               0
281
               0
  0
CLASS
  1
XRECORD
  2
AcDbXrecord
  3
AutoCAD 2000
 90
    32768
280
               0
281
               0
  0
CLASS
  1
SORTENTSTABLE
  2
AcDbSortentsTable
  3
AutoCAD 2000
 90
    32768
280
               0
281
               0
  0
CLASS
  1
LAYER_INDEX
  2
AcDbLayerIndex
  3
AutoCAD 2000
 90
    32768
280
               0
281
               0
  0
CLASS
  1
SPATIAL_INDEX
  2
AcDbSpatialIndex
  3
AutoCAD 2000
 90
    32768
280
               0
281
               0
  0
CLASS
  1
OBJECT_PTR
  2
CAseDLPNTableRecord
  3
"ASE-LPNTableRecord"
 90
    32769
280
               0
281
               0
  0
CLASS
  1
LAYOUT
  2
AcDbLayout
  3
AutoCAD 2000
 90
        0
280
               0
281
               0
  0
CLASS
  1
PLOTSETTINGS
  2
AcDbPlotSettings
  3
AutoCAD 2000
 90
    32768
280
               0
281
               0
  0
CLASS
  1
ACDBDICTIONARYWDFLT
  2
AcDbDictionaryWithDefault
  3
AutoCAD 2000
 90
        0
280
               0
281
               0
  0
CLASS
  1
ACDBPLACEHOLDER
  2
AcDbPlaceHolder
  3
AutoCAD 2000
 90
        0
280
               0
281
               0
  0
CLASS
  1
VBA_PROJECT
  2
AcDbVbaProject
  3
acadvba
 90
    32768
280
               0
281
               0
  0
CLASS
  1
WIPEOUT
  2
AcDbWipeout
  3
WipeOut|AutoCAD Express Tool|expresstools@autodesk.com
 90
    32895
280
               0
281
               1
  0
CLASS
  1
WIPEOUTVARIABLES
  2
AcDbWipeoutVariables
  3
WipeOut|AutoCAD Express Tool|expresstools@autodesk.com
 90
        0
280
               0
281
               0
  0
CLASS
  1
RTEXT
  2
RText
  3
RText|AutoCAD Express Tool|expresstools@autodesk.com
 90
    32768
280
               0
281
               1
  0
CLASS
  1
ARCALIGNEDTEXT
  2
AcDbArcAlignedText
  3
ATEXT|AutoCAD Express Tool|expresstools@autodesk.com
 90
    32768
280
               0
281
               1
  0
ENDSEC
  0
SECTION
  2
TABLES
  0
TABLE
  2
VPORT
  5
7
100
AcDbSymbolTable
 70
               1
  0
VPORT
  5
15
100
AcDbSymbolTableRecord
100
AcDbViewportTableRecord
  2
*ACTIVE
 70
               0
 10
0.0
 20
0.0
 11
1.0
 21
1.0
 12
1569.3
 22
996.05699753900228
 13
0.0
 23
0.0
 14
1.0
 24
1.0
 15
0.0
 25
0.0
 16
0.0
 26
0.0
 36
1.0
 17
0.0
 27
0.0
 37
0.0
 40
1733.2806617446711
 41
0.688564
 42
50.0
 43
0.0
 44
0.0
 50
0.0
 51
0.0
 71
               0
 72
            2000
 73
               1
 74
               1
 75
               0
 76
               0
 77
               0
 78
               0
281
               0
 65
               0
110
0.0
120
0.0
130
0.0
111
1.0
121
0.0
131
0.0
112
0.0
122
1.0
132
0.0
345
0
346
0
 79
               0
146
0.0
  0
ENDTAB
  0
TABLE
  2
LTYPE
  5
4
100
AcDbSymbolTable
 70
              13
  0
LTYPE
  5
11
100
AcDbSymbolTableRecord
100
AcDbLinetypeTableRecord
  2
ByBlock
 70
              64
  3

 72
              65
 73
               0
 40
0.0
  0
LTYPE
  5
12
100
AcDbSymbolTableRecord
100
AcDbLinetypeTableRecord
  2
ByLayer
 70
              64
  3

 72
              65
 73
               0
 40
0.0
  0
LTYPE
  5
13
100
AcDbSymbolTableRecord
100
AcDbLinetypeTableRecord
  2
Continuous
 70
              64
  3
Solid line
 72
              65
 73
               0
 40
0.0
  0
LTYPE
  5
2C
100
AcDbSymbolTableRecord
100
AcDbLinetypeTableRecord
  2
STYLE_01
 70
               0
  3

 72
              65
 73
               2
 40
0.41664
 49
0.20828
 74
               0
 49
-0.20836
 74
               0
  0
LTYPE
  5
2D
100
AcDbSymbolTableRecord
100
AcDbLinetypeTableRecord
  2
STYLE_02
 70
               0
  3

 72
              65
 73
               2
 40
0.6944250000000001
 49
0.48607
 74
               0
 49
-0.2083550000000001
 74
               0
  0
LTYPE
  5
2E
100
AcDbSymbolTableRecord
100
AcDbLinetypeTableRecord
  2
STYLE_03
 70
               0
  3

 72
              65
 73
               2
 40
1.25
 49
1.0416400000000001
 74
               0
 49
-0.2083599999999999
 74
               0
  0
LTYPE
  5
2F
100
AcDbSymbolTableRecord
100
AcDbLinetypeTableRecord
  2
STYLE_04
 70
               0
  3

 72
              65
 73
               2
 40
1.5277099999999999
 49
1.3194249999999998
 74
               0
 49
-0.208285
 74
               0
  0
LTYPE
  5
30
100
AcDbSymbolTableRecord
100
AcDbLinetypeTableRecord
  2
STYLE_05
 70
               0
  3

 72
              65
 73
               2
 40
0.20828
 49
0.069425
 74
               0
 49
-0.138855
 74
               0
  0
LTYPE
  5
31
100
AcDbSymbolTableRecord
100
AcDbLinetypeTableRecord
  2
STYLE_06
 70
               0
  3

 72
              65
 73
               4
 40
1.0416400000000001
 49
0.625
 74
               0
 49
-0.20828
 74
               0
 49
0.06943
 74
               0
 49
-0.13893
 74
               0
  0
LTYPE
  5
32
100
AcDbSymbolTableRecord
100
AcDbLinetypeTableRecord
  2
STYLE_07
 70
               0
  3

 72
              65
 73
               6
 40
1.875
 49
0.625
 74
               0
 49
-0.20828
 74
               0
 49
0.6250000000000001
 74
               0
 49
-0.2083599999999999
 74
               0
 49
0.06943
 74
               0
 49
-0.1389299999999999
 74
               0
  0
LTYPE
  5
33
100
AcDbSymbolTableRecord
100
AcDbLinetypeTableRecord
  2
STYLE_08
 70
               0
  3

 72
              65
 73
               6
 40
1.25
 49
0.625
 74
               0
 49
-0.20828
 74
               0
 49
0.06943
 74
               0
 49
-0.13893
 74
               0
 49
0.0694299999999999
 74
               0
 49
-0.13893
 74
               0
  0
LTYPE
  5
34
100
AcDbSymbolTableRecord
100
AcDbLinetypeTableRecord
  2
STYLE_09
 70
               0
  3

 72
              65
 73
               4
 40
5.0
 49
3.75
 74
               0
 49
-0.2777849999999998
 74
               0
 49
0.6944300000000003
 74
               0
 49
-0.2777849999999998
 74
               0
  0
LTYPE
  5
35
100
AcDbSymbolTableRecord
100
AcDbLinetypeTableRecord
  2
STYLE_10
 70
               0
  3

 72
              65
 73
               6
 40
5.9375
 49
3.75
 74
               0
 49
-0.2777849999999998
 74
               0
 49
0.6944300000000003
 74
               0
 49
-0.2777849999999998
 74
               0
 49
0.625
 74
               0
 49
-0.3125
 74
               0
  0
ENDTAB
  0
TABLE
  2
LAYER
  5
2
100
AcDbSymbolTable
 70
               4
  0
LAYER
  5
14
100
AcDbSymbolTableRecord
100
AcDbLayerTableRecord
  2
0
 70
               0
 62
               7
  6
Continuous
290
               1
370
              -3
390
1D
  0
LAYER
  5
36
100
AcDbSymbolTableRecord
100
AcDbLayerTableRecord
  2
一般
 70
               0
 62
               7
  6
Continuous
290
               1
370
               5
390
1D
  0
LAYER
  5
37
100
AcDbSymbolTableRecord
100
AcDbLayerTableRecord
  2
寸法
 70
               0
 62
               7
  6
Continuous
290
               1
370
               5
390
1D
  0
LAYER
  5
38
100
AcDbSymbolTableRecord
100
AcDbLayerTableRecord
  2
排水
 70
               0
 62
               7
  6
Continuous
290
               1
370
              15
390
1D
  0
ENDTAB
  0
TABLE
  2
STYLE
  5
3
100
AcDbSymbolTable
 70
               3
  0
STYLE
  5
17
100
AcDbSymbolTableRecord
100
AcDbTextStyleTableRecord
  2
Standard
 70
               0
 40
0.0
 41
1.0
 50
0.0
 71
               0
 42
0.0
  3
txt
  4
BIGFONT.SHX
  0
STYLE
  5
2A
100
AcDbSymbolTableRecord
100
AcDbTextStyleTableRecord
  2
Arial
 70
               0
 40
0.0
 41
1.0
 50
0.0
 71
               0
 42
0.0
  3

  4
Arial
1001
ACAD
1000
Arial
1071
        0
  0
STYLE
  5
2B
100
AcDbSymbolTableRecord
100
AcDbTextStyleTableRecord
  2
ＭＳ ゴシック
 70
               0
 40
0.0
 41
1.0
 50
0.0
 71
               0
 42
0.0
  3

  4
ＭＳ ゴシック
1001
ACAD
1000
ＭＳ ゴシック
1071
        0
  0
ENDTAB
  0
TABLE
  2
VIEW
  5
5
100
AcDbSymbolTable
 70
               0
  0
ENDTAB
  0
TABLE
  2
UCS
  5
6
100
AcDbSymbolTable
 70
               0
  0
ENDTAB
  0
TABLE
  2
APPID
  5
8
100
AcDbSymbolTable
 70
               1
  0
APPID
  5
16
100
AcDbSymbolTableRecord
100
AcDbRegAppTableRecord
  2
ACAD
 70
               0
  0
ENDTAB
  0
TABLE
  2
DIMSTYLE
  5
9
100
AcDbSymbolTable
 70
               1
100
AcDbDimStyleTable
 71
               0
  0
DIMSTYLE
105
18
100
AcDbSymbolTableRecord
100
AcDbDimStyleTableRecord
  2
Standard
 70
               0
  3

  4

 40
1.0
 41
0.18
 42
0.0625
 43
0.38
 44
0.18
 45
0.0
 46
0.0
 47
0.0
 48
0.0
 71
               0
 72
               0
 73
               1
 74
               1
 75
               0
 76
               0
 77
               0
 78
               0
 79
               0
140
0.18
141
0.09
142
0.0
143
25.399999999999999
144
1.0
145
0.0
146
1.0
147
0.09
148
0.0
170
               0
171
               2
172
               0
173
               0
174
               0
175
               0
176
               0
177
               0
178
               0
179
               0
271
               4
272
               4
273
               2
274
               2
275
               0
276
               0
277
               2
278
              46
279
               0
280
               0
281
               0
282
               0
283
               1
284
               0
285
               0
286
               0
288
               0
340
17
341
0
342
0
343
0
344
0
371
              -2
372
              -2
  0
ENDTAB
  0
TABLE
  2
BLOCK_RECORD
  5
1
100
AcDbSymbolTable
 70
               6
  0
BLOCK_RECORD
  5
A
100
AcDbSymbolTableRecord
100
AcDbBlockTableRecord
  2
*MODEL_SPACE
340
20
  0
BLOCK_RECORD
  5
B
100
AcDbSymbolTableRecord
100
AcDbBlockTableRecord
  2
*PAPER_SPACE
340
21
  0
BLOCK_RECORD
  5
24
100
AcDbSymbolTableRecord
100
AcDbBlockTableRecord
  2
グループ
340
0
102
{BLKREFS
331
46
102
}
  0
BLOCK_RECORD
  5
25
100
AcDbSymbolTableRecord
100
AcDbBlockTableRecord
  2
スケール1：5
340
0
102
{BLKREFS
331
20E
102
}
  0
BLOCK_RECORD
  5
26
100
AcDbSymbolTableRecord
100
AcDbBlockTableRecord
  2
グループ-1
340
0
102
{BLKREFS
331
155
102
}
  0
BLOCK_RECORD
  5
27
100
AcDbSymbolTableRecord
100
AcDbBlockTableRecord
  2
グループ-2
340
0
102
{BLKREFS
331
20F
102
}
  0
BLOCK_RECORD
  5
28
100
AcDbSymbolTableRecord
100
AcDbBlockTableRecord
  2
グループ-3
340
0
102
{BLKREFS
331
210
102
}
  0
BLOCK_RECORD
  5
29
100
AcDbSymbolTableRecord
100
AcDbBlockTableRecord
  2
グループ-4
340
0
102
{BLKREFS
331
211
102
}
  0
ENDTAB
  0
ENDSEC
  0
SECTION
  2
BLOCKS
  0
BLOCK
  5
D
100
AcDbEntity
  8
0
100
AcDbBlockBegin
  2
*MODEL_SPACE
 70
               0
 10
0.0
 20
0.0
 30
0.0
  3
*MODEL_SPACE
  1

  0
ENDBLK
  5
E
100
AcDbEntity
  8
0
100
AcDbBlockEnd
  0
BLOCK
  5
F
100
AcDbEntity
 67
               1
  8
0
100
AcDbBlockBegin
  2
*PAPER_SPACE
 70
               0
 10
0.0
 20
0.0
 30
0.0
  3
*PAPER_SPACE
  1

  0
ENDBLK
  5
10
100
AcDbEntity
 67
               1
  8
0
100
AcDbBlockEnd
  0
BLOCK
  5
39
100
AcDbEntity
  8
一般
100
AcDbBlockBegin
  2
グループ
 70
               0
 10
0.0
 20
0.0
 30
0.0
  3
グループ
  1

  0
MTEXT
  5
3A
100
AcDbEntity
  8
一般
 62
               8
100
AcDbMText
 10
-61.590303983041849
 20
8.3342057291666851
 30
0.0
 40
8.1442057291666661
 41
7.3612159321675676
 71
               1
 72
               1
  1
0
  7
ＭＳ ゴシック
 73
               1
 44
0.7828267384257843
  0
MTEXT
  5
3B
100
AcDbEntity
  8
一般
 62
               8
100
AcDbMText
 10
-12.909696016958151
 20
8.3342057291666851
 30
0.0
 40
8.1442057291666661
 41
12.75
 71
               1
 72
               1
  1
50
  7
ＭＳ ゴシック
 73
               1
 44
0.7828267384257843
  0
MTEXT
  5
3C
100
AcDbEntity
  8
一般
 62
               8
100
AcDbMText
 10
33.590303983041849
 20
8.3342057291666851
 30
0.0
 40
8.1442057291666661
 41
27.999999999999972
 71
               1
 72
               1
  1
100mm
  7
ＭＳ ゴシック
 73
               1
 44
0.7828267384257843
  0
LINE
  5
3D
100
AcDbEntity
  8
寸法
370
              15
 62
               8
100
AcDbLine
 10
-7.9096960169581507
 20
-1.2916666666666288
 30
0.0
 11
-7.9096960169581507
 21
-9.2916666666666288
 31
0.0
  0
POLYLINE
  5
3E
100
AcDbEntity
  8
一般
370
              15
  6
Continuous
 62
               8
100
AcDb2dPolyline
 66
               1
 10
0.0
 20
0.0
 30
0.0
 75
               5
  0
VERTEX
  5
3F
100
AcDbEntity
  8
一般
370
              15
  6
Continuous
 62
               8
100
AcDbVertex
100
AcDb2dVertex
 10
-57.909696016958151
 20
-1.2916666666666288
 30
0.0
  0
VERTEX
  5
40
100
AcDbEntity
  8
一般
370
              15
  6
Continuous
 62
               8
100
AcDbVertex
100
AcDb2dVertex
 10
-57.909696016958151
 20
-9.2916666666666288
 30
0.0
  0
VERTEX
  5
41
100
AcDbEntity
  8
一般
370
              15
  6
Continuous
 62
               8
100
AcDbVertex
100
AcDb2dVertex
 10
42.090303983041849
 20
-9.2916666666666288
 30
0.0
  0
VERTEX
  5
42
100
AcDbEntity
  8
一般
370
              15
  6
Continuous
 62
               8
100
AcDbVertex
100
AcDb2dVertex
 10
42.090303983041849
 20
-1.2916666666666288
 30
0.0
  0
SEQEND
  5
43
100
AcDbEntity
  8
一般
370
              15
  6
Continuous
 62
               8
  0
ENDBLK
  5
44
100
AcDbEntity
  8
一般
100
AcDbBlockEnd
  0
BLOCK
  5
45
100
AcDbEntity
  8
一般
100
AcDbBlockBegin
  2
スケール1：5
 70
               0
 10
0.0
 20
0.0
 30
0.0
  3
スケール1：5
  1

  0
INSERT
  5
46
100
AcDbEntity
  8
一般
 62
               7
100
AcDbBlockReference
  2
グループ
 10
0.0
 20
0.0
 30
0.0
  0
ENDBLK
  5
47
100
AcDbEntity
  8
一般
100
AcDbBlockEnd
  0
BLOCK
  5
48
100
AcDbEntity
  8
一般
100
AcDbBlockBegin
  2
グループ-1
 70
               0
 10
0.0
 20
0.0
 30
0.0
  3
グループ-1
  1

  0
LINE
  5
49
100
AcDbEntity
  8
一般
370
              15
  6
Continuous
 62
               7
100
AcDbLine
 10
-449.21030627838434
 20
79.499999999999886
 30
0.0
 11
-449.21030627838434
 21
75.499999999999886
 31
0.0
  0
LINE
  5
4A
100
AcDbEntity
  8
一般
370
              15
  6
Continuous
 62
               7
100
AcDbLine
 10
-422.21030627838434
 20
79.499999999999886
 30
0.0
 11
-419.71030627838434
 21
79.499999999999886
 31
0.0
  0
LINE
  5
4B
100
AcDbEntity
  8
一般
370
              15
  6
Continuous
 62
               7
100
AcDbLine
 10
-419.71030627838434
 20
106.5
 30
0.0
 11
-451.71030627838434
 21
106.5
 31
0.0
  0
LINE
  5
4C
100
AcDbEntity
  8
一般
370
              15
  6
Continuous
 62
               7
100
AcDbLine
 10
-452.01030627838429
 20
79.5
 30
0.0
 11
-449.21030627838434
 21
79.499999999999886
 31
0.0
  0
LINE
  5
4D
100
AcDbEntity
  8
一般
370
               5
  6
Continuous
 62
               7
100
AcDbLine
 10
-413.71030627838434
 20
100.5
 30
0.0
 11
-418.71030627838434
 21
100.5
 31
0.0
  0
LINE
  5
4E
100
AcDbEntity
  8
一般
370
               5
  6
Continuous
 62
               7
100
AcDbLine
 10
-413.71030627838434
 20
100.5
 30
0.0
 11
-409.71030627838434
 21
104.5
 31
0.0
  0
LINE
  5
4F
100
AcDbEntity
  8
一般
370
               5
  6
Continuous
 62
               7
100
AcDbLine
 10
-413.71030627838434
 20
85.5
 30
0.0
 11
-418.71030627838434
 21
85.5
 31
0.0
  0
LINE
  5
50
100
AcDbEntity
  8
一般
370
               5
  6
Continuous
 62
               7
100
AcDbLine
 10
-413.71030627838434
 20
85.5
 30
0.0
 11
-409.71030627838434
 21
81.5
 31
0.0
  0
LINE
  5
51
100
AcDbEntity
  8
一般
370
              15
  6
Continuous
 62
               7
100
AcDbLine
 10
-418.71030627838434
 20
108.0
 30
0.0
 11
-411.71030627838434
 21
108.0
 31
0.0
  0
LINE
  5
52
100
AcDbEntity
  8
一般
370
              15
  6
Continuous
 62
               7
100
AcDbLine
 10
-409.71030627838434
 20
106.0
 30
0.0
 11
-409.71030627838434
 21
80.0
 31
0.0
  0
LINE
  5
53
100
AcDbEntity
  8
一般
370
              15
  6
Continuous
 62
               7
100
AcDbLine
 10
-409.71030627838434
 20
80.0
 30
0.0
 11
-411.71030627838434
 21
78.0
 31
0.0
  0
LINE
  5
54
100
AcDbEntity
  8
一般
370
              15
  6
Continuous
 62
               7
100
AcDbLine
 10
-409.71030627838434
 20
106.0
 30
0.0
 11
-411.71030627838434
 21
108.0
 31
0.0
  0
LINE
  5
55
100
AcDbEntity
  8
一般
370
               5
  6
Continuous
 62
               7
100
AcDbLine
 10
-409.71030627838434
 20
89.5
 30
0.0
 11
-413.71030627838434
 21
85.5
 31
0.0
  0
LINE
  5
56
100
AcDbEntity
  8
一般
370
               5
  6
Continuous
 62
               7
100
AcDbLine
 10
-409.71030627838434
 20
96.5
 30
0.0
 11
-413.71030627838434
 21
100.5
 31
0.0
  0
LINE
  5
57
100
AcDbEntity
  8
一般
370
              15
  6
Continuous
 62
               7
100
AcDbLine
 10
-411.71030627838434
 20
78.0
 30
0.0
 11
-418.71030627838434
 21
78.0
 31
0.0
  0
LINE
  5
58
100
AcDbEntity
  8
一般
370
              15
  6
Continuous
 62
               7
100
AcDbLine
 10
-418.71030627838434
 20
108.0
 30
0.0
 11
-418.71030627838434
 21
107.5
 31
0.0
  0
LINE
  5
59
100
AcDbEntity
  8
一般
370
               5
  6
Continuous
 62
               7
100
AcDbLine
 10
-418.71030627838434
 20
104.77297077300904
 30
0.0
 11
-418.71030627838434
 21
95.672970773009069
 31
0.0
  0
LINE
  5
5A
100
AcDbEntity
  8
一般
370
              15
  6
Continuous
 62
               7
100
AcDbLine
 10
-418.71030627838434
 20
78.499999999999886
 30
0.0
 11
-418.71030627838434
 21
78.0
 31
0.0
  0
LINE
  5
5B
100
AcDbEntity
  8
一般
370
               5
  6
Continuous
 62
               7
100
AcDbLine
 10
-418.71030627838434
 20
89.072970773009047
 30
0.0
 11
-418.71030627838434
 21
80.272970773009035
 31
0.0
  0
ARC
  5
5C
100
AcDbEntity
  8
一般
370
              15
  6
Continuous
 62
               7
100
AcDbCircle
 10
-419.71030627838434
 20
78.499999999999886
 30
0.0
 40
1.0
100
AcDbArc
 50
0.0
 51
90.0
  0
ARC
  5
5D
100
AcDbEntity
  8
一般
370
              15
  6
Continuous
 62
               7
100
AcDbCircle
 10
-419.71030627838434
 20
107.5
 30
0.0
 40
1.0
100
AcDbArc
 50
270.0
 51
0.0
  0
LINE
  5
5E
100
AcDbEntity
  8
一般
370
               5
  6
Continuous
 62
               7
100
AcDbLine
 10
-457.71030627838434
 20
100.5
 30
0.0
 11
-452.71030627838434
 21
100.5
 31
0.0
  0
LINE
  5
5F
100
AcDbEntity
  8
一般
370
               5
  6
Continuous
 62
               7
100
AcDbLine
 10
-457.71030627838434
 20
100.5
 30
0.0
 11
-461.71030627838434
 21
104.5
 31
0.0
  0
LINE
  5
60
100
AcDbEntity
  8
一般
370
               5
  6
Continuous
 62
               7
100
AcDbLine
 10
-457.71030627838434
 20
85.5
 30
0.0
 11
-452.71030627838434
 21
85.5
 31
0.0
  0
LINE
  5
61
100
AcDbEntity
  8
一般
370
               5
  6
Continuous
 62
               7
100
AcDbLine
 10
-457.71030627838434
 20
85.5
 30
0.0
 11
-461.71030627838434
 21
81.5
 31
0.0
  0
LINE
  5
62
100
AcDbEntity
  8
一般
370
              15
  6
Continuous
 62
               7
100
AcDbLine
 10
-452.71030627838434
 20
108.0
 30
0.0
 11
-459.71030627838434
 21
108.0
 31
0.0
  0
LINE
  5
63
100
AcDbEntity
  8
一般
370
              15
  6
Continuous
 62
               7
100
AcDbLine
 10
-461.71030627838434
 20
80.0
 30
0.0
 11
-459.71030627838434
 21
78.0
 31
0.0
  0
LINE
  5
64
100
AcDbEntity
  8
一般
370
              15
  6
Continuous
 62
               7
100
AcDbLine
 10
-461.71030627838434
 20
106.0
 30
0.0
 11
-459.71030627838434
 21
108.0
 31
0.0
  0
LINE
  5
65
100
AcDbEntity
  8
一般
370
               5
  6
Continuous
 62
               7
100
AcDbLine
 10
-461.71030627838434
 20
89.5
 30
0.0
 11
-457.71030627838434
 21
85.5
 31
0.0
  0
LINE
  5
66
100
AcDbEntity
  8
一般
370
               5
  6
Continuous
 62
               7
100
AcDbLine
 10
-461.71030627838434
 20
96.5
 30
0.0
 11
-457.71030627838434
 21
100.5
 31
0.0
  0
LINE
  5
67
100
AcDbEntity
  8
一般
370
              15
  6
Continuous
 62
               7
100
AcDbLine
 10
-459.71030627838434
 20
78.0
 30
0.0
 11
-452.71030627838434
 21
78.0
 31
0.0
  0
LINE
  5
68
100
AcDbEntity
  8
一般
370
              15
  6
Continuous
 62
               7
100
AcDbLine
 10
-452.71030627838434
 20
108.0
 30
0.0
 11
-452.71030627838434
 21
107.5
 31
0.0
  0
LINE
  5
69
100
AcDbEntity
  8
一般
370
               5
  6
Continuous
 62
               7
100
AcDbLine
 10
-452.71030627838434
 20
104.77297077300904
 30
0.0
 11
-452.71030627838434
 21
95.672970773009069
 31
0.0
  0
LINE
  5
6A
100
AcDbEntity
  8
一般
370
              15
  6
Continuous
 62
               7
100
AcDbLine
 10
-452.71030627838434
 20
78.499999999999886
 30
0.0
 11
-452.71030627838434
 21
78.0
 31
0.0
  0
LINE
  5
6B
100
AcDbEntity
  8
一般
370
               5
  6
Continuous
 62
               7
100
AcDbLine
 10
-452.71030627838434
 20
89.072970773009047
 30
0.0
 11
-452.71030627838434
 21
80.272970773009035
 31
0.0
  0
ARC
  5
6C
100
AcDbEntity
  8
一般
370
              15
  6
Continuous
 62
               7
100
AcDbCircle
 10
-451.71030627838434
 20
78.499999999999886
 30
0.0
 40
1.0
100
AcDbArc
 50
90.0
 51
180.0
  0
ARC
  5
6D
100
AcDbEntity
  8
一般
370
              15
  6
Continuous
 62
               7
100
AcDbCircle
 10
-451.71030627838434
 20
107.5
 30
0.0
 40
1.0
100
AcDbArc
 50
180.0
 51
270.0
  0
LINE
  5
6E
100
AcDbEntity
  8
一般
370
              15
  6
Continuous
 62
               7
100
AcDbLine
 10
-422.21030627838434
 20
79.499999999999886
 30
0.0
 11
-422.21030627838434
 21
75.499999999999886
 31
0.0
  0
LINE
  5
6F
100
AcDbEntity
  8
一般
370
              15
  6
Continuous
 62
               7
100
AcDbLine
 10
-461.71030627838434
 20
106.0
 30
0.0
 11
-461.71030627838434
 21
80.0
 31
0.0
  0
ENDBLK
  5
70
100
AcDbEntity
  8
一般
100
AcDbBlockEnd
  0
BLOCK
  5
71
100
AcDbEntity
  8
一般
100
AcDbBlockBegin
  2
グループ-2
 70
               0
 10
0.0
 20
0.0
 30
0.0
  3
グループ-2
  1

  0
LINE
  5
72
100
AcDbEntity
  8
一般
370
              15
  6
Continuous
 62
               7
100
AcDbLine
 10
-538.95000000000005
 20
63.0
 30
0.0
 11
-562.44999999999993
 21
63.0
 31
0.0
  0
POLYLINE
  5
73
100
AcDbEntity
  8
一般
370
              15
  6
Continuous
 62
               7
100
AcDb2dPolyline
 66
               1
 10
0.0
 20
0.0
 30
0.0
 70
               1
 75
               5
  0
VERTEX
  5
74
100
AcDbEntity
  8
一般
370
              15
  6
Continuous
 62
               7
100
AcDbVertex
100
AcDb2dVertex
 10
-579.69999999999993
 20
58.061104882508516
 30
0.0
  0
VERTEX
  5
75
100
AcDbEntity
  8
一般
370
              15
  6
Continuous
 62
               7
100
AcDbVertex
100
AcDb2dVertex
 10
-521.70000000000005
 20
58.061104882508516
 30
0.0
  0
VERTEX
  5
76
100
AcDbEntity
  8
一般
370
              15
  6
Continuous
 62
               7
100
AcDbVertex
100
AcDb2dVertex
 10
-521.70000000000005
 20
48.061104882508459
 30
0.0
  0
VERTEX
  5
77
100
AcDbEntity
  8
一般
370
              15
  6
Continuous
 62
               7
100
AcDbVertex
100
AcDb2dVertex
 10
-579.69999999999993
 20
48.061104882508459
 30
0.0
  0
SEQEND
  5
78
100
AcDbEntity
  8
一般
370
              15
  6
Continuous
 62
               7
  0
POLYLINE
  5
79
100
AcDbEntity
  8
一般
370
              15
  6
Continuous
 62
               7
100
AcDb2dPolyline
 66
               1
 10
0.0
 20
0.0
 30
0.0
 70
               1
 75
               5
  0
VERTEX
  5
7A
100
AcDbEntity
  8
一般
370
              15
  6
Continuous
 62
               7
100
AcDbVertex
100
AcDb2dVertex
 10
-561.69999999999993
 20
65.0
 30
0.0
  0
VERTEX
  5
7B
100
AcDbEntity
  8
一般
370
              15
  6
Continuous
 62
               7
100
AcDbVertex
100
AcDb2dVertex
 10
-539.70000000000005
 20
65.0
 30
0.0
  0
VERTEX
  5
7C
100
AcDbEntity
  8
一般
370
              15
  6
Continuous
 62
               7
100
AcDbVertex
100
AcDb2dVertex
 10
-539.70000000000005
 20
63.0
 30
0.0
  0
VERTEX
  5
7D
100
AcDbEntity
  8
一般
370
              15
  6
Continuous
 62
               7
100
AcDbVertex
100
AcDb2dVertex
 10
-561.69999999999993
 20
63.0
 30
0.0
  0
SEQEND
  5
7E
100
AcDbEntity
  8
一般
370
              15
  6
Continuous
 62
               7
  0
SPLINE
  5
7F
100
AcDbEntity
  8
一般
370
              15
  6
Continuous
 62
               7
100
AcDbSpline
210
0.0
220
0.0
230
1.0
 70
               9
 71
               2
 72
              21
 73
              18
 74
               0
 42
0.000001
 43
0.000001
 40
0.0
 40
0.0
 40
0.0
 40
1.0
 40
2.0
 40
3.0
 40
4.0
 40
5.0
 40
6.0
 40
6.0
 40
7.0
 40
7.0
 40
8.0
 40
8.0
 40
9.0
 40
9.0
 40
10.0
 40
10.0
 40
11.0
 40
11.0
 40
11.0
 10
-538.95000000000005
 20
-151.95162111680884
 30
0.0
 10
-538.95000000000005
 20
-155.08662666825296
 30
0.0
 10
-542.09840301106578
 20
-160.5166155653647
 30
0.0
 10
-547.55159698893419
 20
-163.65162111680883
 30
0.0
 10
-553.84840301106567
 20
-163.65162111680883
 30
0.0
 10
-559.30159698893419
 20
-160.5166155653647
 30
0.0
 10
-562.44999999999993
 20
-155.08662666825296
 30
0.0
 10
-562.44999999999993
 20
-151.95162111680884
 30
0.0
 10
-562.44999999999993
 20
-151.94702883334037
 30
0.0
 10
-562.44999999999993
 20
-151.93889511749154
 30
0.0
 10
-562.44999999999993
 20
-51.938895117491541
 30
0.0
 10
-562.44999999999993
 20
48.061104882508459
 30
0.0
 10
-550.70000000000005
 20
48.061104882508459
 30
0.0
 10
-538.95000000000005
 20
48.061104882508459
 30
0.0
 10
-538.95000000000005
 20
-51.938895117491541
 30
0.0
 10
-538.95000000000005
 20
-151.93889511749154
 30
0.0
 10
-538.95000000000005
 20
-151.94348553607148
 30
0.0
 10
-538.95000000000005
 20
-151.95162111680884
 30
0.0
  0
SPLINE
  5
80
100
AcDbEntity
  8
一般
370
              15
  6
Continuous
 62
               7
100
AcDbSpline
210
0.0
220
0.0
230
1.0
 70
               8
 71
               2
 72
              12
 73
               9
 74
               0
 42
0.000001
 43
0.000001
 40
0.0
 40
0.0
 40
0.0
 40
1.0
 40
2.0
 40
3.0
 40
4.0
 40
5.0
 40
6.0
 40
7.0
 40
7.0
 40
7.0
 10
-538.95000000000186
 20
-150.76576106315866
 30
0.0
 10
-538.95000000000005
 20
-150.40880510172633
 30
0.0
 10
-538.95000000000005
 20
-153.90076661460279
 30
0.0
 10
-542.09840301106578
 20
-159.33075551171453
 30
0.0
 10
-547.55159698893419
 20
-162.46576106315865
 30
0.0
 10
-553.84840301106567
 20
-162.46576106315865
 30
0.0
 10
-559.30159698893419
 20
-159.33075551171453
 30
0.0
 10
-562.27075929287014
 20
-154.20989954523611
 30
0.0
 10
-562.44999999999811
 20
-150.76576106315866
 30
0.0
  0
LINE
  5
81
100
AcDbEntity
  8
一般
370
              15
  6
Continuous
 62
               7
100
AcDbLine
 10
-562.44999999999993
 20
63.0
 30
0.0
 11
-562.44999999999993
 21
58.061104882508516
 31
0.0
  0
LINE
  5
82
100
AcDbEntity
  8
一般
370
              15
  6
Continuous
 62
               7
100
AcDbLine
 10
-538.95000000000005
 20
63.0
 30
0.0
 11
-538.95000000000005
 21
58.061104882508516
 31
0.0
  0
POLYLINE
  5
83
100
AcDbEntity
  8
一般
370
              15
  6
Continuous
 62
               7
100
AcDb2dPolyline
 66
               1
 10
0.0
 20
0.0
 30
0.0
 70
               1
 75
               5
  0
VERTEX
  5
84
100
AcDbEntity
  8
一般
370
              15
  6
Continuous
 62
               7
100
AcDbVertex
100
AcDb2dVertex
 10
-449.71030627838434
 20
35.499999999999886
 30
0.0
  0
VERTEX
  5
85
100
AcDbEntity
  8
一般
370
              15
  6
Continuous
 62
               7
100
AcDbVertex
100
AcDb2dVertex
 10
-421.71030627838434
 20
35.499999999999886
 30
0.0
  0
VERTEX
  5
86
100
AcDbEntity
  8
一般
370
              15
  6
Continuous
 62
               7
100
AcDbVertex
100
AcDb2dVertex
 10
-421.71030627838434
 20
5.4999999999998792
 30
0.0
  0
VERTEX
  5
87
100
AcDbEntity
  8
一般
370
              15
  6
Continuous
 62
               7
100
AcDbVertex
100
AcDb2dVertex
 10
-449.71030627838434
 20
5.4999999999998792
 30
0.0
  0
SEQEND
  5
88
100
AcDbEntity
  8
一般
370
              15
  6
Continuous
 62
               7
  0
SPLINE
  5
89
100
AcDbEntity
  8
一般
370
              15
  6
Continuous
 62
               7
100
AcDbSpline
210
0.0
220
0.0
230
1.0
 70
               8
 71
               2
 72
              20
 73
              17
 74
               0
 42
0.000001
 43
0.000001
 40
0.0
 40
0.0
 40
0.0
 40
1.0
 40
1.0
 40
2.0
 40
2.0
 40
3.0
 40
3.0
 40
4.0
 40
4.0
 40
5.0
 40
5.0
 40
6.0
 40
6.0
 40
7.0
 40
7.0
 40
8.0
 40
8.0
 40
8.0
 10
-431.70493652488972
 20
-11.585732908689359
 30
0.0
 10
-431.32921877826789
 20
-11.500000000000121
 30
0.0
 10
-430.93733550537513
 20
-11.500000000000121
 30
0.0
 10
-420.93733550537513
 20
-11.500000000000121
 30
0.0
 10
-410.93733550537513
 20
-11.500000000000121
 30
0.0
 10
-410.93733550537513
 20
-18.250000000000121
 30
0.0
 10
-410.93733550537513
 20
-25.000000000000121
 30
0.0
 10
-420.93733550537513
 20
-25.000000000000121
 30
0.0
 10
-430.93733550537513
 20
-25.000000000000121
 30
0.0
 10
-435.68733550537513
 20
-25.000000000000121
 30
0.0
 10
-440.43733550537513
 20
-25.000000000000121
 30
0.0
 10
-450.43733550537513
 20
-25.000000000000121
 30
0.0
 10
-460.43733550537513
 20
-25.000000000000121
 30
0.0
 10
-460.43733550537513
 20
-18.250000000000121
 30
0.0
 10
-460.43733550537513
 20
-11.500000000000121
 30
0.0
 10
-450.43733550537513
 20
-11.500000000000121
 30
0.0
 10
-440.43733550537513
 20
-11.500000000000121
 30
0.0
  0
SPLINE
  5
8A
100
AcDbEntity
  8
一般
370
              15
  6
Continuous
 62
               7
100
AcDbSpline
210
0.0
220
0.0
230
1.0
 70
               9
 71
               2
 72
              17
 73
              14
 74
               0
 42
0.000001
 43
0.000001
 40
0.0
 40
0.0
 40
0.0
 40
1.0
 40
2.0
 40
3.0
 40
4.0
 40
5.0
 40
6.0
 40
7.0
 40
8.0
 40
9.0
 40
10.0
 40
11.0
 40
12.0
 40
12.0
 40
12.0
 10
-462.81233550537513
 20
-12.40432852445516
 30
0.0
 10
-461.71009416942297
 20
-11.500000000000121
 30
0.0
 10
-459.16457684132729
 20
-11.500000000000121
 30
0.0
 10
-456.96009416942297
 20
-13.308657048910199
 30
0.0
 10
-455.68733550537513
 20
-16.441342951090043
 30
0.0
 10
-455.68733550537513
 20
-20.058657048910199
 30
0.0
 10
-456.96009416942297
 20
-23.191342951090043
 30
0.0
 10
-459.16457684132729
 20
-25.000000000000121
 30
0.0
 10
-461.71009416942297
 20
-25.000000000000121
 30
0.0
 10
-463.91457684132729
 20
-23.191342951090043
 30
0.0
 10
-465.18733550537513
 20
-20.058657048910199
 30
0.0
 10
-465.18733550537513
 20
-16.441342951090043
 30
0.0
 10
-463.91457684132729
 20
-13.308657048910199
 30
0.0
 10
-462.81233550537513
 20
-12.40432852445516
 30
0.0
  0
SPLINE
  5
8B
100
AcDbEntity
  8
一般
370
              15
  6
Continuous
 62
               7
100
AcDbSpline
210
0.0
220
0.0
230
1.0
 70
               9
 71
               2
 72
              17
 73
              14
 74
               0
 42
0.000001
 43
0.000001
 40
0.0
 40
0.0
 40
0.0
 40
1.0
 40
2.0
 40
3.0
 40
4.0
 40
5.0
 40
6.0
 40
7.0
 40
8.0
 40
9.0
 40
10.0
 40
11.0
 40
12.0
 40
12.0
 40
12.0
 10
-413.31233550537513
 20
-12.40432852445516
 30
0.0
 10
-412.21009416942297
 20
-11.500000000000121
 30
0.0
 10
-409.66457684132729
 20
-11.500000000000121
 30
0.0
 10
-407.46009416942297
 20
-13.308657048910199
 30
0.0
 10
-406.18733550537513
 20
-16.441342951090043
 30
0.0
 10
-406.18733550537513
 20
-20.058657048910199
 30
0.0
 10
-407.46009416942297
 20
-23.191342951090043
 30
0.0
 10
-409.66457684132729
 20
-25.000000000000121
 30
0.0
 10
-412.21009416942297
 20
-25.000000000000121
 30
0.0
 10
-414.41457684132729
 20
-23.191342951090043
 30
0.0
 10
-415.68733550537513
 20
-20.058657048910199
 30
0.0
 10
-415.68733550537513
 20
-16.441342951090043
 30
0.0
 10
-414.41457684132729
 20
-13.308657048910199
 30
0.0
 10
-413.31233550537513
 20
-12.40432852445516
 30
0.0
  0
POLYLINE
  5
8C
100
AcDbEntity
  8
一般
370
              15
  6
Continuous
 62
               7
100
AcDb2dPolyline
 66
               1
 10
0.0
 20
0.0
 30
0.0
 75
               5
  0
VERTEX
  5
8D
100
AcDbEntity
  8
一般
370
              15
  6
Continuous
 62
               7
100
AcDbVertex
100
AcDb2dVertex
 10
-443.21030627838434
 20
-11.500000000000121
 30
0.0
  0
VERTEX
  5
8E
100
AcDbEntity
  8
一般
370
              15
  6
Continuous
 62
               7
100
AcDbVertex
100
AcDb2dVertex
 10
-443.21030627838434
 20
5.4999999999998792
 30
0.0
  0
VERTEX
  5
8F
100
AcDbEntity
  8
一般
370
              15
  6
Continuous
 62
               7
100
AcDbVertex
100
AcDb2dVertex
 10
-428.21030627838434
 20
5.4999999999998792
 30
0.0
  0
VERTEX
  5
90
100
AcDbEntity
  8
一般
370
              15
  6
Continuous
 62
               7
100
AcDbVertex
100
AcDb2dVertex
 10
-428.21030627838434
 20
-11.500000000000121
 30
0.0
  0
SEQEND
  5
91
100
AcDbEntity
  8
一般
370
              15
  6
Continuous
 62
               7
  0
LINE
  5
92
100
AcDbEntity
  8
一般
370
               5
  6
Continuous
 62
               7
100
AcDbLine
 10
-435.68749087142294
 20
-18.200000000000109
 30
0.0
 11
-435.68733550537513
 21
-25.000000000000121
 31
0.0
  0
SPLINE
  5
93
100
AcDbEntity
  8
一般
370
               5
  6
Continuous
 62
               7
100
AcDbSpline
210
0.0
220
0.0
230
1.0
 70
               8
 71
               2
 72
               9
 73
               6
 74
               0
 42
0.000001
 43
0.000001
 40
0.0
 40
0.0
 40
0.0
 40
1.0
 40
1.0
 40
2.0
 40
3.0
 40
3.0
 40
3.0
 10
-440.24929712525932
 20
-11.504984223195045
 30
0.0
 10
-439.08274688489882
 20
-11.567136988370471
 30
0.0
 10
-438.06233550537513
 20
-12.404328524455146
 30
0.0
 10
-436.96009416942297
 20
-13.30865704891017
 30
0.0
 10
-435.72070108054425
 20
-16.359219081182239
 30
0.0
 10
-435.68850848971317
 20
-18.100000000000087
 30
0.0
  0
SPLINE
  5
94
100
AcDbEntity
  8
一般
370
               5
  6
Continuous
 62
               7
100
AcDbSpline
210
0.0
220
0.0
230
1.0
 70
               8
 71
               2
 72
               9
 73
               6
 74
               0
 42
0.000001
 43
0.000001
 40
0.0
 40
0.0
 40
0.0
 40
1.0
 40
1.0
 40
2.0
 40
3.0
 40
3.0
 40
3.0
 10
-431.12771985416691
 20
-11.504984223195045
 30
0.0
 10
-432.29427009452741
 20
-11.567136988370471
 30
0.0
 10
-433.3146814740511
 20
-12.404328524455146
 30
0.0
 10
-434.41692281000326
 20
-13.30865704891017
 30
0.0
 10
-435.6563158988821
 20
-16.359219081182239
 30
0.0
 10
-435.68850848971317
 20
-18.100000000000087
 30
0.0
  0
LINE
  5
95
100
AcDbEntity
  8
一般
370
              15
  6
Continuous
 62
               7
100
AcDbLine
 10
-449.71030627838434
 20
35.499999999999886
 30
0.0
 11
-449.71030627838434
 21
48.061104882508459
 31
0.0
  0
LINE
  5
96
100
AcDbEntity
  8
一般
370
              15
  6
Continuous
 62
               7
100
AcDbLine
 10
-449.71030627838434
 20
58.061104882508516
 30
0.0
 11
-449.71030627838434
 21
75.499999999999886
 31
0.0
  0
LINE
  5
97
100
AcDbEntity
  8
一般
370
              15
  6
Continuous
 62
               7
100
AcDbLine
 10
-421.71030627838434
 20
35.499999999999886
 30
0.0
 11
-449.71030627838434
 21
35.499999999999886
 31
0.0
  0
LINE
  5
98
100
AcDbEntity
  8
一般
370
              15
  6
Continuous
 62
               7
100
AcDbLine
 10
-421.71030627838434
 20
75.499999999999886
 30
0.0
 11
-421.71030627838434
 21
58.061104882508516
 31
0.0
  0
LINE
  5
99
100
AcDbEntity
  8
一般
370
              15
  6
Continuous
 62
               7
100
AcDbLine
 10
-421.71030627838434
 20
48.061104882508459
 30
0.0
 11
-421.71030627838434
 21
35.499999999999886
 31
0.0
  0
LINE
  5
9A
100
AcDbEntity
  8
一般
370
              15
  6
Continuous
 62
               7
100
AcDbLine
 10
-449.71030627838434
 20
75.499999999999886
 30
0.0
 11
-421.71030627838434
 21
75.499999999999886
 31
0.0
  0
POLYLINE
  5
9B
100
AcDbEntity
  8
一般
370
              15
  6
Continuous
 62
               7
100
AcDb2dPolyline
 66
               1
 10
0.0
 20
0.0
 30
0.0
 70
               1
 75
               5
  0
VERTEX
  5
9C
100
AcDbEntity
  8
一般
370
              15
  6
Continuous
 62
               7
100
AcDbVertex
100
AcDb2dVertex
 10
-464.70010111959732
 20
58.061104882508516
 30
0.0
  0
VERTEX
  5
9D
100
AcDbEntity
  8
一般
370
              15
  6
Continuous
 62
               7
100
AcDbVertex
100
AcDb2dVertex
 10
-406.70010111959732
 20
58.061104882508516
 30
0.0
  0
VERTEX
  5
9E
100
AcDbEntity
  8
一般
370
              15
  6
Continuous
 62
               7
100
AcDbVertex
100
AcDb2dVertex
 10
-406.70010111959732
 20
48.061104882508459
 30
0.0
  0
VERTEX
  5
9F
100
AcDbEntity
  8
一般
370
              15
  6
Continuous
 62
               7
100
AcDbVertex
100
AcDb2dVertex
 10
-464.70010111959732
 20
48.061104882508459
 30
0.0
  0
SEQEND
  5
A0
100
AcDbEntity
  8
一般
370
              15
  6
Continuous
 62
               7
  0
POLYLINE
  5
A1
100
AcDbEntity
  8
一般
370
              15
  6
STYLE_05
 62
               7
100
AcDb2dPolyline
 66
               1
 10
0.0
 20
0.0
 30
0.0
 70
               1
 75
               5
  0
VERTEX
  5
A2
100
AcDbEntity
  8
一般
370
              15
  6
STYLE_05
 62
               7
100
AcDbVertex
100
AcDb2dVertex
 10
-565.69999999999993
 20
74.0
 30
0.0
  0
VERTEX
  5
A3
100
AcDbEntity
  8
一般
370
              15
  6
STYLE_05
 62
               7
100
AcDbVertex
100
AcDb2dVertex
 10
-535.70000000000005
 20
74.0
 30
0.0
  0
VERTEX
  5
A4
100
AcDbEntity
  8
一般
370
              15
  6
STYLE_05
 62
               7
100
AcDbVertex
100
AcDb2dVertex
 10
-535.70000000000005
 20
68.0
 30
0.0
  0
VERTEX
  5
A5
100
AcDbEntity
  8
一般
370
              15
  6
STYLE_05
 62
               7
100
AcDbVertex
100
AcDb2dVertex
 10
-565.69999999999993
 20
68.0
 30
0.0
  0
SEQEND
  5
A6
100
AcDbEntity
  8
一般
370
              15
  6
STYLE_05
 62
               7
  0
POLYLINE
  5
A7
100
AcDbEntity
  8
一般
370
              15
  6
STYLE_05
 62
               7
100
AcDb2dPolyline
 66
               1
 10
0.0
 20
0.0
 30
0.0
 70
               1
 75
               5
  0
VERTEX
  5
A8
100
AcDbEntity
  8
一般
370
              15
  6
STYLE_05
 62
               7
100
AcDbVertex
100
AcDb2dVertex
 10
-531.70000000000005
 20
107.5
 30
0.0
  0
VERTEX
  5
A9
100
AcDbEntity
  8
一般
370
              15
  6
STYLE_05
 62
               7
100
AcDbVertex
100
AcDb2dVertex
 10
-525.70000000000005
 20
107.5
 30
0.0
  0
VERTEX
  5
AA
100
AcDbEntity
  8
一般
370
              15
  6
STYLE_05
 62
               7
100
AcDbVertex
100
AcDb2dVertex
 10
-525.70000000000005
 20
78.5
 30
0.0
  0
VERTEX
  5
AB
100
AcDbEntity
  8
一般
370
              15
  6
STYLE_05
 62
               7
100
AcDbVertex
100
AcDb2dVertex
 10
-531.70000000000005
 20
78.5
 30
0.0
  0
SEQEND
  5
AC
100
AcDbEntity
  8
一般
370
              15
  6
STYLE_05
 62
               7
  0
ARC
  5
AD
100
AcDbEntity
  8
一般
370
              15
  6
STYLE_05
 62
               7
100
AcDbCircle
 10
-531.70000000000005
 20
74.0
 30
0.0
 40
33.0
100
AcDbArc
 50
90.0
 51
180.0
  0
ARC
  5
AE
100
AcDbEntity
  8
一般
370
              15
  6
STYLE_05
 62
               7
100
AcDbCircle
 10
-531.70000000000005
 20
74.0
 30
0.0
 40
5.0
100
AcDbArc
 50
90.0
 51
180.0
  0
POLYLINE
  5
AF
100
AcDbEntity
  8
一般
370
               5
  6
Continuous
 62
               7
100
AcDb2dPolyline
 66
               1
 10
0.0
 20
0.0
 30
0.0
 70
               1
 75
               5
  0
VERTEX
  5
B0
100
AcDbEntity
  8
一般
370
               5
  6
Continuous
 62
               7
100
AcDbVertex
100
AcDb2dVertex
 10
-513.70515313919213
 20
104.39999999999993
 30
0.0
  0
VERTEX
  5
B1
100
AcDbEntity
  8
一般
370
               5
  6
Continuous
 62
               7
100
AcDbVertex
100
AcDb2dVertex
 10
-512.70515313919213
 20
104.39999999999993
 30
0.0
  0
VERTEX
  5
B2
100
AcDbEntity
  8
一般
370
               5
  6
Continuous
 62
               7
100
AcDbVertex
100
AcDb2dVertex
 10
-512.70515313919213
 20
83.399999999999935
 30
0.0
  0
VERTEX
  5
B3
100
AcDbEntity
  8
一般
370
               5
  6
Continuous
 62
               7
100
AcDbVertex
100
AcDb2dVertex
 10
-513.70515313919213
 20
83.399999999999935
 30
0.0
  0
SEQEND
  5
B4
100
AcDbEntity
  8
一般
370
               5
  6
Continuous
 62
               7
  0
POLYLINE
  5
B5
100
AcDbEntity
  8
一般
370
              15
  6
STYLE_05
 62
               7
100
AcDb2dPolyline
 66
               1
 10
0.0
 20
0.0
 30
0.0
 70
               1
 75
               5
  0
VERTEX
  5
B6
100
AcDbEntity
  8
一般
370
              15
  6
STYLE_05
 62
               7
100
AcDbVertex
100
AcDb2dVertex
 10
-511.70515313919213
 20
104.39999999999993
 30
0.0
  0
VERTEX
  5
B7
100
AcDbEntity
  8
一般
370
              15
  6
STYLE_05
 62
               7
100
AcDbVertex
100
AcDb2dVertex
 10
-510.70515313919213
 20
104.39999999999993
 30
0.0
  0
VERTEX
  5
B8
100
AcDbEntity
  8
一般
370
              15
  6
STYLE_05
 62
               7
100
AcDbVertex
100
AcDb2dVertex
 10
-510.70515313919213
 20
83.399999999999935
 30
0.0
  0
VERTEX
  5
B9
100
AcDbEntity
  8
一般
370
              15
  6
STYLE_05
 62
               7
100
AcDbVertex
100
AcDb2dVertex
 10
-511.70515313919213
 20
83.399999999999935
 30
0.0
  0
SEQEND
  5
BA
100
AcDbEntity
  8
一般
370
              15
  6
STYLE_05
 62
               7
  0
POLYLINE
  5
BB
100
AcDbEntity
  8
一般
370
              15
  6
STYLE_05
 62
               7
100
AcDb2dPolyline
 66
               1
 10
0.0
 20
0.0
 30
0.0
 70
               1
 75
               5
  0
VERTEX
  5
BC
100
AcDbEntity
  8
一般
370
              15
  6
STYLE_05
 62
               7
100
AcDbVertex
100
AcDb2dVertex
 10
-509.70515313919213
 20
104.39999999999993
 30
0.0
  0
VERTEX
  5
BD
100
AcDbEntity
  8
一般
370
              15
  6
STYLE_05
 62
               7
100
AcDbVertex
100
AcDb2dVertex
 10
-508.70515313919213
 20
104.39999999999993
 30
0.0
  0
VERTEX
  5
BE
100
AcDbEntity
  8
一般
370
              15
  6
STYLE_05
 62
               7
100
AcDbVertex
100
AcDb2dVertex
 10
-508.70515313919213
 20
83.399999999999935
 30
0.0
  0
VERTEX
  5
BF
100
AcDbEntity
  8
一般
370
              15
  6
STYLE_05
 62
               7
100
AcDbVertex
100
AcDb2dVertex
 10
-509.70515313919213
 20
83.399999999999935
 30
0.0
  0
SEQEND
  5
C0
100
AcDbEntity
  8
一般
370
              15
  6
STYLE_05
 62
               7
  0
POLYLINE
  5
C1
100
AcDbEntity
  8
一般
370
              15
  6
STYLE_05
 62
               7
100
AcDb2dPolyline
 66
               1
 10
0.0
 20
0.0
 30
0.0
 70
               1
 75
               5
  0
VERTEX
  5
C2
100
AcDbEntity
  8
一般
370
              15
  6
STYLE_05
 62
               7
100
AcDbVertex
100
AcDb2dVertex
 10
-507.70515313919213
 20
104.39999999999993
 30
0.0
  0
VERTEX
  5
C3
100
AcDbEntity
  8
一般
370
              15
  6
STYLE_05
 62
               7
100
AcDbVertex
100
AcDb2dVertex
 10
-506.70515313919213
 20
104.39999999999993
 30
0.0
  0
VERTEX
  5
C4
100
AcDbEntity
  8
一般
370
              15
  6
STYLE_05
 62
               7
100
AcDbVertex
100
AcDb2dVertex
 10
-506.70515313919213
 20
83.399999999999935
 30
0.0
  0
VERTEX
  5
C5
100
AcDbEntity
  8
一般
370
              15
  6
STYLE_05
 62
               7
100
AcDbVertex
100
AcDb2dVertex
 10
-507.70515313919213
 20
83.399999999999935
 30
0.0
  0
SEQEND
  5
C6
100
AcDbEntity
  8
一般
370
              15
  6
STYLE_05
 62
               7
  0
POLYLINE
  5
C7
100
AcDbEntity
  8
一般
370
              15
  6
STYLE_05
 62
               7
100
AcDb2dPolyline
 66
               1
 10
0.0
 20
0.0
 30
0.0
 70
               1
 75
               5
  0
VERTEX
  5
C8
100
AcDbEntity
  8
一般
370
              15
  6
STYLE_05
 62
               7
100
AcDbVertex
100
AcDb2dVertex
 10
-505.70515313919213
 20
104.39999999999993
 30
0.0
  0
VERTEX
  5
C9
100
AcDbEntity
  8
一般
370
              15
  6
STYLE_05
 62
               7
100
AcDbVertex
100
AcDb2dVertex
 10
-504.70515313919213
 20
104.39999999999993
 30
0.0
  0
VERTEX
  5
CA
100
AcDbEntity
  8
一般
370
              15
  6
STYLE_05
 62
               7
100
AcDbVertex
100
AcDb2dVertex
 10
-504.70515313919213
 20
83.399999999999935
 30
0.0
  0
VERTEX
  5
CB
100
AcDbEntity
  8
一般
370
              15
  6
STYLE_05
 62
               7
100
AcDbVertex
100
AcDb2dVertex
 10
-505.70515313919213
 20
83.399999999999935
 30
0.0
  0
SEQEND
  5
CC
100
AcDbEntity
  8
一般
370
              15
  6
STYLE_05
 62
               7
  0
POLYLINE
  5
CD
100
AcDbEntity
  8
一般
370
              15
  6
STYLE_05
 62
               7
100
AcDb2dPolyline
 66
               1
 10
0.0
 20
0.0
 30
0.0
 70
               1
 75
               5
  0
VERTEX
  5
CE
100
AcDbEntity
  8
一般
370
              15
  6
STYLE_05
 62
               7
100
AcDbVertex
100
AcDb2dVertex
 10
-503.70515313919208
 20
104.39999999999993
 30
0.0
  0
VERTEX
  5
CF
100
AcDbEntity
  8
一般
370
              15
  6
STYLE_05
 62
               7
100
AcDbVertex
100
AcDb2dVertex
 10
-502.70515313919208
 20
104.39999999999993
 30
0.0
  0
VERTEX
  5
D0
100
AcDbEntity
  8
一般
370
              15
  6
STYLE_05
 62
               7
100
AcDbVertex
100
AcDb2dVertex
 10
-502.70515313919208
 20
83.399999999999935
 30
0.0
  0
VERTEX
  5
D1
100
AcDbEntity
  8
一般
370
              15
  6
STYLE_05
 62
               7
100
AcDbVertex
100
AcDb2dVertex
 10
-503.70515313919208
 20
83.399999999999935
 30
0.0
  0
SEQEND
  5
D2
100
AcDbEntity
  8
一般
370
              15
  6
STYLE_05
 62
               7
  0
POLYLINE
  5
D3
100
AcDbEntity
  8
一般
370
              15
  6
STYLE_05
 62
               7
100
AcDb2dPolyline
 66
               1
 10
0.0
 20
0.0
 30
0.0
 70
               1
 75
               5
  0
VERTEX
  5
D4
100
AcDbEntity
  8
一般
370
              15
  6
STYLE_05
 62
               7
100
AcDbVertex
100
AcDb2dVertex
 10
-501.70515313919208
 20
104.39999999999993
 30
0.0
  0
VERTEX
  5
D5
100
AcDbEntity
  8
一般
370
              15
  6
STYLE_05
 62
               7
100
AcDbVertex
100
AcDb2dVertex
 10
-500.70515313919208
 20
104.39999999999993
 30
0.0
  0
VERTEX
  5
D6
100
AcDbEntity
  8
一般
370
              15
  6
STYLE_05
 62
               7
100
AcDbVertex
100
AcDb2dVertex
 10
-500.70515313919208
 20
83.399999999999935
 30
0.0
  0
VERTEX
  5
D7
100
AcDbEntity
  8
一般
370
              15
  6
STYLE_05
 62
               7
100
AcDbVertex
100
AcDb2dVertex
 10
-501.70515313919208
 20
83.399999999999935
 30
0.0
  0
SEQEND
  5
D8
100
AcDbEntity
  8
一般
370
              15
  6
STYLE_05
 62
               7
  0
POLYLINE
  5
D9
100
AcDbEntity
  8
一般
370
              15
  6
STYLE_05
 62
               7
100
AcDb2dPolyline
 66
               1
 10
0.0
 20
0.0
 30
0.0
 70
               1
 75
               5
  0
VERTEX
  5
DA
100
AcDbEntity
  8
一般
370
              15
  6
STYLE_05
 62
               7
100
AcDbVertex
100
AcDb2dVertex
 10
-499.70515313919208
 20
104.39999999999993
 30
0.0
  0
VERTEX
  5
DB
100
AcDbEntity
  8
一般
370
              15
  6
STYLE_05
 62
               7
100
AcDbVertex
100
AcDb2dVertex
 10
-498.70515313919208
 20
104.39999999999993
 30
0.0
  0
VERTEX
  5
DC
100
AcDbEntity
  8
一般
370
              15
  6
STYLE_05
 62
               7
100
AcDbVertex
100
AcDb2dVertex
 10
-498.70515313919208
 20
83.399999999999935
 30
0.0
  0
VERTEX
  5
DD
100
AcDbEntity
  8
一般
370
              15
  6
STYLE_05
 62
               7
100
AcDbVertex
100
AcDb2dVertex
 10
-499.70515313919208
 20
83.399999999999935
 30
0.0
  0
SEQEND
  5
DE
100
AcDbEntity
  8
一般
370
              15
  6
STYLE_05
 62
               7
  0
POLYLINE
  5
DF
100
AcDbEntity
  8
一般
370
              15
  6
STYLE_05
 62
               7
100
AcDb2dPolyline
 66
               1
 10
0.0
 20
0.0
 30
0.0
 70
               1
 75
               5
  0
VERTEX
  5
E0
100
AcDbEntity
  8
一般
370
              15
  6
STYLE_05
 62
               7
100
AcDbVertex
100
AcDb2dVertex
 10
-497.70515313919208
 20
104.39999999999993
 30
0.0
  0
VERTEX
  5
E1
100
AcDbEntity
  8
一般
370
              15
  6
STYLE_05
 62
               7
100
AcDbVertex
100
AcDb2dVertex
 10
-496.70515313919208
 20
104.39999999999993
 30
0.0
  0
VERTEX
  5
E2
100
AcDbEntity
  8
一般
370
              15
  6
STYLE_05
 62
               7
100
AcDbVertex
100
AcDb2dVertex
 10
-496.70515313919208
 20
83.399999999999935
 30
0.0
  0
VERTEX
  5
E3
100
AcDbEntity
  8
一般
370
              15
  6
STYLE_05
 62
               7
100
AcDbVertex
100
AcDb2dVertex
 10
-497.70515313919208
 20
83.399999999999935
 30
0.0
  0
SEQEND
  5
E4
100
AcDbEntity
  8
一般
370
              15
  6
STYLE_05
 62
               7
  0
POLYLINE
  5
E5
100
AcDbEntity
  8
一般
370
              15
  6
STYLE_05
 62
               7
100
AcDb2dPolyline
 66
               1
 10
0.0
 20
0.0
 30
0.0
 70
               1
 75
               5
  0
VERTEX
  5
E6
100
AcDbEntity
  8
一般
370
              15
  6
STYLE_05
 62
               7
100
AcDbVertex
100
AcDb2dVertex
 10
-495.70515313919208
 20
104.39999999999993
 30
0.0
  0
VERTEX
  5
E7
100
AcDbEntity
  8
一般
370
              15
  6
STYLE_05
 62
               7
100
AcDbVertex
100
AcDb2dVertex
 10
-494.70515313919208
 20
104.39999999999993
 30
0.0
  0
VERTEX
  5
E8
100
AcDbEntity
  8
一般
370
              15
  6
STYLE_05
 62
               7
100
AcDbVertex
100
AcDb2dVertex
 10
-494.70515313919208
 20
83.399999999999935
 30
0.0
  0
VERTEX
  5
E9
100
AcDbEntity
  8
一般
370
              15
  6
STYLE_05
 62
               7
100
AcDbVertex
100
AcDb2dVertex
 10
-495.70515313919208
 20
83.399999999999935
 30
0.0
  0
SEQEND
  5
EA
100
AcDbEntity
  8
一般
370
              15
  6
STYLE_05
 62
               7
  0
POLYLINE
  5
EB
100
AcDbEntity
  8
一般
370
              15
  6
STYLE_05
 62
               7
100
AcDb2dPolyline
 66
               1
 10
0.0
 20
0.0
 30
0.0
 70
               1
 75
               5
  0
VERTEX
  5
EC
100
AcDbEntity
  8
一般
370
              15
  6
STYLE_05
 62
               7
100
AcDbVertex
100
AcDb2dVertex
 10
-493.70515313919208
 20
104.39999999999993
 30
0.0
  0
VERTEX
  5
ED
100
AcDbEntity
  8
一般
370
              15
  6
STYLE_05
 62
               7
100
AcDbVertex
100
AcDb2dVertex
 10
-492.70515313919208
 20
104.39999999999993
 30
0.0
  0
VERTEX
  5
EE
100
AcDbEntity
  8
一般
370
              15
  6
STYLE_05
 62
               7
100
AcDbVertex
100
AcDb2dVertex
 10
-492.70515313919208
 20
83.399999999999935
 30
0.0
  0
VERTEX
  5
EF
100
AcDbEntity
  8
一般
370
              15
  6
STYLE_05
 62
               7
100
AcDbVertex
100
AcDb2dVertex
 10
-493.70515313919208
 20
83.399999999999935
 30
0.0
  0
SEQEND
  5
F0
100
AcDbEntity
  8
一般
370
              15
  6
STYLE_05
 62
               7
  0
POLYLINE
  5
F1
100
AcDbEntity
  8
一般
370
              15
  6
STYLE_05
 62
               7
100
AcDb2dPolyline
 66
               1
 10
0.0
 20
0.0
 30
0.0
 70
               1
 75
               5
  0
VERTEX
  5
F2
100
AcDbEntity
  8
一般
370
              15
  6
STYLE_05
 62
               7
100
AcDbVertex
100
AcDb2dVertex
 10
-491.70515313919208
 20
104.39999999999993
 30
0.0
  0
VERTEX
  5
F3
100
AcDbEntity
  8
一般
370
              15
  6
STYLE_05
 62
               7
100
AcDbVertex
100
AcDb2dVertex
 10
-490.70515313919208
 20
104.39999999999993
 30
0.0
  0
VERTEX
  5
F4
100
AcDbEntity
  8
一般
370
              15
  6
STYLE_05
 62
               7
100
AcDbVertex
100
AcDb2dVertex
 10
-490.70515313919208
 20
83.399999999999935
 30
0.0
  0
VERTEX
  5
F5
100
AcDbEntity
  8
一般
370
              15
  6
STYLE_05
 62
               7
100
AcDbVertex
100
AcDb2dVertex
 10
-491.70515313919208
 20
83.399999999999935
 30
0.0
  0
SEQEND
  5
F6
100
AcDbEntity
  8
一般
370
              15
  6
STYLE_05
 62
               7
  0
POLYLINE
  5
F7
100
AcDbEntity
  8
一般
370
              15
  6
STYLE_05
 62
               7
100
AcDb2dPolyline
 66
               1
 10
0.0
 20
0.0
 30
0.0
 70
               1
 75
               5
  0
VERTEX
  5
F8
100
AcDbEntity
  8
一般
370
              15
  6
STYLE_05
 62
               7
100
AcDbVertex
100
AcDb2dVertex
 10
-489.70515313919208
 20
104.39999999999993
 30
0.0
  0
VERTEX
  5
F9
100
AcDbEntity
  8
一般
370
              15
  6
STYLE_05
 62
               7
100
AcDbVertex
100
AcDb2dVertex
 10
-488.70515313919208
 20
104.39999999999993
 30
0.0
  0
VERTEX
  5
FA
100
AcDbEntity
  8
一般
370
              15
  6
STYLE_05
 62
               7
100
AcDbVertex
100
AcDb2dVertex
 10
-488.70515313919208
 20
83.399999999999935
 30
0.0
  0
VERTEX
  5
FB
100
AcDbEntity
  8
一般
370
              15
  6
STYLE_05
 62
               7
100
AcDbVertex
100
AcDb2dVertex
 10
-489.70515313919208
 20
83.399999999999935
 30
0.0
  0
SEQEND
  5
FC
100
AcDbEntity
  8
一般
370
              15
  6
STYLE_05
 62
               7
  0
POLYLINE
  5
FD
100
AcDbEntity
  8
一般
370
              15
  6
STYLE_05
 62
               7
100
AcDb2dPolyline
 66
               1
 10
0.0
 20
0.0
 30
0.0
 70
               1
 75
               5
  0
VERTEX
  5
FE
100
AcDbEntity
  8
一般
370
              15
  6
STYLE_05
 62
               7
100
AcDbVertex
100
AcDb2dVertex
 10
-487.70515313919208
 20
104.39999999999993
 30
0.0
  0
VERTEX
  5
FF
100
AcDbEntity
  8
一般
370
              15
  6
STYLE_05
 62
               7
100
AcDbVertex
100
AcDb2dVertex
 10
-486.70515313919208
 20
104.39999999999993
 30
0.0
  0
VERTEX
  5
100
100
AcDbEntity
  8
一般
370
              15
  6
STYLE_05
 62
               7
100
AcDbVertex
100
AcDb2dVertex
 10
-486.70515313919208
 20
83.399999999999935
 30
0.0
  0
VERTEX
  5
101
100
AcDbEntity
  8
一般
370
              15
  6
STYLE_05
 62
               7
100
AcDbVertex
100
AcDb2dVertex
 10
-487.70515313919208
 20
83.399999999999935
 30
0.0
  0
SEQEND
  5
102
100
AcDbEntity
  8
一般
370
              15
  6
STYLE_05
 62
               7
  0
POLYLINE
  5
103
100
AcDbEntity
  8
一般
370
              15
  6
STYLE_05
 62
               7
100
AcDb2dPolyline
 66
               1
 10
0.0
 20
0.0
 30
0.0
 70
               1
 75
               5
  0
VERTEX
  5
104
100
AcDbEntity
  8
一般
370
              15
  6
STYLE_05
 62
               7
100
AcDbVertex
100
AcDb2dVertex
 10
-485.70515313919208
 20
104.39999999999993
 30
0.0
  0
VERTEX
  5
105
100
AcDbEntity
  8
一般
370
              15
  6
STYLE_05
 62
               7
100
AcDbVertex
100
AcDb2dVertex
 10
-484.70515313919208
 20
104.39999999999993
 30
0.0
  0
VERTEX
  5
106
100
AcDbEntity
  8
一般
370
              15
  6
STYLE_05
 62
               7
100
AcDbVertex
100
AcDb2dVertex
 10
-484.70515313919208
 20
83.399999999999935
 30
0.0
  0
VERTEX
  5
107
100
AcDbEntity
  8
一般
370
              15
  6
STYLE_05
 62
               7
100
AcDbVertex
100
AcDb2dVertex
 10
-485.70515313919208
 20
83.399999999999935
 30
0.0
  0
SEQEND
  5
108
100
AcDbEntity
  8
一般
370
              15
  6
STYLE_05
 62
               7
  0
POLYLINE
  5
109
100
AcDbEntity
  8
一般
370
              15
  6
STYLE_05
 62
               7
100
AcDb2dPolyline
 66
               1
 10
0.0
 20
0.0
 30
0.0
 70
               1
 75
               5
  0
VERTEX
  5
10A
100
AcDbEntity
  8
一般
370
              15
  6
STYLE_05
 62
               7
100
AcDbVertex
100
AcDb2dVertex
 10
-483.70515313919208
 20
104.39999999999993
 30
0.0
  0
VERTEX
  5
10B
100
AcDbEntity
  8
一般
370
              15
  6
STYLE_05
 62
               7
100
AcDbVertex
100
AcDb2dVertex
 10
-482.70515313919208
 20
104.39999999999993
 30
0.0
  0
VERTEX
  5
10C
100
AcDbEntity
  8
一般
370
              15
  6
STYLE_05
 62
               7
100
AcDbVertex
100
AcDb2dVertex
 10
-482.70515313919208
 20
83.399999999999935
 30
0.0
  0
VERTEX
  5
10D
100
AcDbEntity
  8
一般
370
              15
  6
STYLE_05
 62
               7
100
AcDbVertex
100
AcDb2dVertex
 10
-483.70515313919208
 20
83.399999999999935
 30
0.0
  0
SEQEND
  5
10E
100
AcDbEntity
  8
一般
370
              15
  6
STYLE_05
 62
               7
  0
POLYLINE
  5
10F
100
AcDbEntity
  8
一般
370
              15
  6
STYLE_05
 62
               7
100
AcDb2dPolyline
 66
               1
 10
0.0
 20
0.0
 30
0.0
 70
               1
 75
               5
  0
VERTEX
  5
110
100
AcDbEntity
  8
一般
370
              15
  6
STYLE_05
 62
               7
100
AcDbVertex
100
AcDb2dVertex
 10
-481.70515313919208
 20
104.39999999999993
 30
0.0
  0
VERTEX
  5
111
100
AcDbEntity
  8
一般
370
              15
  6
STYLE_05
 62
               7
100
AcDbVertex
100
AcDb2dVertex
 10
-480.70515313919208
 20
104.39999999999993
 30
0.0
  0
VERTEX
  5
112
100
AcDbEntity
  8
一般
370
              15
  6
STYLE_05
 62
               7
100
AcDbVertex
100
AcDb2dVertex
 10
-480.70515313919208
 20
83.399999999999935
 30
0.0
  0
VERTEX
  5
113
100
AcDbEntity
  8
一般
370
              15
  6
STYLE_05
 62
               7
100
AcDbVertex
100
AcDb2dVertex
 10
-481.70515313919208
 20
83.399999999999935
 30
0.0
  0
SEQEND
  5
114
100
AcDbEntity
  8
一般
370
              15
  6
STYLE_05
 62
               7
  0
POLYLINE
  5
115
100
AcDbEntity
  8
一般
370
               5
  6
Continuous
 62
               7
100
AcDb2dPolyline
 66
               1
 10
0.0
 20
0.0
 30
0.0
 70
               1
 75
               5
  0
VERTEX
  5
116
100
AcDbEntity
  8
一般
370
               5
  6
Continuous
 62
               7
100
AcDbVertex
100
AcDb2dVertex
 10
-479.70515313919208
 20
104.39999999999993
 30
0.0
  0
VERTEX
  5
117
100
AcDbEntity
  8
一般
370
               5
  6
Continuous
 62
               7
100
AcDbVertex
100
AcDb2dVertex
 10
-478.70515313919208
 20
104.39999999999993
 30
0.0
  0
VERTEX
  5
118
100
AcDbEntity
  8
一般
370
               5
  6
Continuous
 62
               7
100
AcDbVertex
100
AcDb2dVertex
 10
-478.70515313919208
 20
83.399999999999935
 30
0.0
  0
VERTEX
  5
119
100
AcDbEntity
  8
一般
370
               5
  6
Continuous
 62
               7
100
AcDbVertex
100
AcDb2dVertex
 10
-479.70515313919208
 20
83.399999999999935
 30
0.0
  0
SEQEND
  5
11A
100
AcDbEntity
  8
一般
370
               5
  6
Continuous
 62
               7
  0
POLYLINE
  5
11B
100
AcDbEntity
  8
一般
370
              15
  6
STYLE_05
 62
               7
100
AcDb2dPolyline
 66
               1
 10
0.0
 20
0.0
 30
0.0
 70
               1
 75
               5
  0
VERTEX
  5
11C
100
AcDbEntity
  8
一般
370
              15
  6
STYLE_05
 62
               7
100
AcDbVertex
100
AcDb2dVertex
 10
-516.20515313919213
 20
104.89999999999993
 30
0.0
  0
VERTEX
  5
11D
100
AcDbEntity
  8
一般
370
              15
  6
STYLE_05
 62
               7
100
AcDbVertex
100
AcDb2dVertex
 10
-474.20515313919213
 20
104.89999999999993
 30
0.0
  0
VERTEX
  5
11E
100
AcDbEntity
  8
一般
370
              15
  6
STYLE_05
 62
               7
100
AcDbVertex
100
AcDb2dVertex
 10
-474.20515313919213
 20
82.899999999999935
 30
0.0
  0
VERTEX
  5
11F
100
AcDbEntity
  8
一般
370
              15
  6
STYLE_05
 62
               7
100
AcDbVertex
100
AcDb2dVertex
 10
-516.20515313919213
 20
82.899999999999935
 30
0.0
  0
SEQEND
  5
120
100
AcDbEntity
  8
一般
370
              15
  6
STYLE_05
 62
               7
  0
POLYLINE
  5
121
100
AcDbEntity
  8
一般
370
               5
  6
Continuous
 62
               7
100
AcDb2dPolyline
 66
               1
 10
0.0
 20
0.0
 30
0.0
 70
               1
 75
               5
  0
VERTEX
  5
122
100
AcDbEntity
  8
一般
370
               5
  6
Continuous
 62
               7
100
AcDbVertex
100
AcDb2dVertex
 10
-560.69999999999993
 20
78.0
 30
0.0
  0
VERTEX
  5
123
100
AcDbEntity
  8
一般
370
               5
  6
Continuous
 62
               7
100
AcDbVertex
100
AcDb2dVertex
 10
-540.70000000000005
 20
78.0
 30
0.0
  0
VERTEX
  5
124
100
AcDbEntity
  8
一般
370
               5
  6
Continuous
 62
               7
100
AcDbVertex
100
AcDb2dVertex
 10
-540.70000000000005
 20
65.0
 30
0.0
  0
VERTEX
  5
125
100
AcDbEntity
  8
一般
370
               5
  6
Continuous
 62
               7
100
AcDbVertex
100
AcDb2dVertex
 10
-560.69999999999993
 20
65.0
 30
0.0
  0
SEQEND
  5
126
100
AcDbEntity
  8
一般
370
               5
  6
Continuous
 62
               7
  0
POLYLINE
  5
127
100
AcDbEntity
  8
一般
370
               5
  6
Continuous
 62
               7
100
AcDb2dPolyline
 66
               1
 10
0.0
 20
0.0
 30
0.0
 70
               1
 75
               5
  0
VERTEX
  5
128
100
AcDbEntity
  8
一般
370
               5
  6
Continuous
 62
               7
100
AcDbVertex
100
AcDb2dVertex
 10
-561.19999999999993
 20
67.0
 30
0.0
  0
VERTEX
  5
129
100
AcDbEntity
  8
一般
370
               5
  6
Continuous
 62
               7
100
AcDbVertex
100
AcDb2dVertex
 10
-540.20000000000005
 20
67.0
 30
0.0
  0
VERTEX
  5
12A
100
AcDbEntity
  8
一般
370
               5
  6
Continuous
 62
               7
100
AcDbVertex
100
AcDb2dVertex
 10
-540.20000000000005
 20
66.0
 30
0.0
  0
VERTEX
  5
12B
100
AcDbEntity
  8
一般
370
               5
  6
Continuous
 62
               7
100
AcDbVertex
100
AcDb2dVertex
 10
-561.19999999999993
 20
66.0
 30
0.0
  0
SEQEND
  5
12C
100
AcDbEntity
  8
一般
370
               5
  6
Continuous
 62
               7
  0
POLYLINE
  5
12D
100
AcDbEntity
  8
一般
370
               5
  6
Continuous
 62
               7
100
AcDb2dPolyline
 66
               1
 10
0.0
 20
0.0
 30
0.0
 70
               1
 75
               5
  0
VERTEX
  5
12E
100
AcDbEntity
  8
一般
370
               5
  6
Continuous
 62
               7
100
AcDbVertex
100
AcDb2dVertex
 10
-561.19999999999993
 20
69.0
 30
0.0
  0
VERTEX
  5
12F
100
AcDbEntity
  8
一般
370
               5
  6
Continuous
 62
               7
100
AcDbVertex
100
AcDb2dVertex
 10
-540.20000000000005
 20
69.0
 30
0.0
  0
VERTEX
  5
130
100
AcDbEntity
  8
一般
370
               5
  6
Continuous
 62
               7
100
AcDbVertex
100
AcDb2dVertex
 10
-540.20000000000005
 20
68.0
 30
0.0
  0
VERTEX
  5
131
100
AcDbEntity
  8
一般
370
               5
  6
Continuous
 62
               7
100
AcDbVertex
100
AcDb2dVertex
 10
-561.19999999999993
 20
68.0
 30
0.0
  0
SEQEND
  5
132
100
AcDbEntity
  8
一般
370
               5
  6
Continuous
 62
               7
  0
POLYLINE
  5
133
100
AcDbEntity
  8
一般
370
               5
  6
Continuous
 62
               7
100
AcDb2dPolyline
 66
               1
 10
0.0
 20
0.0
 30
0.0
 70
               1
 75
               5
  0
VERTEX
  5
134
100
AcDbEntity
  8
一般
370
               5
  6
Continuous
 62
               7
100
AcDbVertex
100
AcDb2dVertex
 10
-561.19999999999993
 20
71.0
 30
0.0
  0
VERTEX
  5
135
100
AcDbEntity
  8
一般
370
               5
  6
Continuous
 62
               7
100
AcDbVertex
100
AcDb2dVertex
 10
-540.20000000000005
 20
71.0
 30
0.0
  0
VERTEX
  5
136
100
AcDbEntity
  8
一般
370
               5
  6
Continuous
 62
               7
100
AcDbVertex
100
AcDb2dVertex
 10
-540.20000000000005
 20
70.0
 30
0.0
  0
VERTEX
  5
137
100
AcDbEntity
  8
一般
370
               5
  6
Continuous
 62
               7
100
AcDbVertex
100
AcDb2dVertex
 10
-561.19999999999993
 20
70.0
 30
0.0
  0
SEQEND
  5
138
100
AcDbEntity
  8
一般
370
               5
  6
Continuous
 62
               7
  0
POLYLINE
  5
139
100
AcDbEntity
  8
一般
370
               5
  6
Continuous
 62
               7
100
AcDb2dPolyline
 66
               1
 10
0.0
 20
0.0
 30
0.0
 70
               1
 75
               5
  0
VERTEX
  5
13A
100
AcDbEntity
  8
一般
370
               5
  6
Continuous
 62
               7
100
AcDbVertex
100
AcDb2dVertex
 10
-561.19999999999993
 20
73.0
 30
0.0
  0
VERTEX
  5
13B
100
AcDbEntity
  8
一般
370
               5
  6
Continuous
 62
               7
100
AcDbVertex
100
AcDb2dVertex
 10
-540.20000000000005
 20
73.0
 30
0.0
  0
VERTEX
  5
13C
100
AcDbEntity
  8
一般
370
               5
  6
Continuous
 62
               7
100
AcDbVertex
100
AcDb2dVertex
 10
-540.20000000000005
 20
72.0
 30
0.0
  0
VERTEX
  5
13D
100
AcDbEntity
  8
一般
370
               5
  6
Continuous
 62
               7
100
AcDbVertex
100
AcDb2dVertex
 10
-561.19999999999993
 20
72.0
 30
0.0
  0
SEQEND
  5
13E
100
AcDbEntity
  8
一般
370
               5
  6
Continuous
 62
               7
  0
POLYLINE
  5
13F
100
AcDbEntity
  8
一般
370
               5
  6
Continuous
 62
               7
100
AcDb2dPolyline
 66
               1
 10
0.0
 20
0.0
 30
0.0
 70
               1
 75
               5
  0
VERTEX
  5
140
100
AcDbEntity
  8
一般
370
               5
  6
Continuous
 62
               7
100
AcDbVertex
100
AcDb2dVertex
 10
-561.19999999999993
 20
75.0
 30
0.0
  0
VERTEX
  5
141
100
AcDbEntity
  8
一般
370
               5
  6
Continuous
 62
               7
100
AcDbVertex
100
AcDb2dVertex
 10
-540.20000000000005
 20
75.0
 30
0.0
  0
VERTEX
  5
142
100
AcDbEntity
  8
一般
370
               5
  6
Continuous
 62
               7
100
AcDbVertex
100
AcDb2dVertex
 10
-540.20000000000005
 20
74.0
 30
0.0
  0
VERTEX
  5
143
100
AcDbEntity
  8
一般
370
               5
  6
Continuous
 62
               7
100
AcDbVertex
100
AcDb2dVertex
 10
-561.19999999999993
 20
74.0
 30
0.0
  0
SEQEND
  5
144
100
AcDbEntity
  8
一般
370
               5
  6
Continuous
 62
               7
  0
POLYLINE
  5
145
100
AcDbEntity
  8
一般
370
               5
  6
Continuous
 62
               7
100
AcDb2dPolyline
 66
               1
 10
0.0
 20
0.0
 30
0.0
 70
               1
 75
               5
  0
VERTEX
  5
146
100
AcDbEntity
  8
一般
370
               5
  6
Continuous
 62
               7
100
AcDbVertex
100
AcDb2dVertex
 10
-561.19999999999993
 20
77.0
 30
0.0
  0
VERTEX
  5
147
100
AcDbEntity
  8
一般
370
               5
  6
Continuous
 62
               7
100
AcDbVertex
100
AcDb2dVertex
 10
-540.20000000000005
 20
77.0
 30
0.0
  0
VERTEX
  5
148
100
AcDbEntity
  8
一般
370
               5
  6
Continuous
 62
               7
100
AcDbVertex
100
AcDb2dVertex
 10
-540.20000000000005
 20
76.0
 30
0.0
  0
VERTEX
  5
149
100
AcDbEntity
  8
一般
370
               5
  6
Continuous
 62
               7
100
AcDbVertex
100
AcDb2dVertex
 10
-561.19999999999993
 20
76.0
 30
0.0
  0
SEQEND
  5
14A
100
AcDbEntity
  8
一般
370
               5
  6
Continuous
 62
               7
  0
POLYLINE
  5
14B
100
AcDbEntity
  8
一般
370
               5
  6
Continuous
 62
               7
100
AcDb2dPolyline
 66
               1
 10
0.0
 20
0.0
 30
0.0
 70
               1
 75
               5
  0
VERTEX
  5
14C
100
AcDbEntity
  8
一般
370
               5
  6
Continuous
 62
               7
100
AcDbVertex
100
AcDb2dVertex
 10
-561.19999999999993
 20
79.0
 30
0.0
  0
VERTEX
  5
14D
100
AcDbEntity
  8
一般
370
               5
  6
Continuous
 62
               7
100
AcDbVertex
100
AcDb2dVertex
 10
-540.20000000000005
 20
79.0
 30
0.0
  0
VERTEX
  5
14E
100
AcDbEntity
  8
一般
370
               5
  6
Continuous
 62
               7
100
AcDbVertex
100
AcDb2dVertex
 10
-540.20000000000005
 20
78.0
 30
0.0
  0
VERTEX
  5
14F
100
AcDbEntity
  8
一般
370
               5
  6
Continuous
 62
               7
100
AcDbVertex
100
AcDb2dVertex
 10
-561.19999999999993
 20
78.0
 30
0.0
  0
SEQEND
  5
150
100
AcDbEntity
  8
一般
370
               5
  6
Continuous
 62
               7
  0
LINE
  5
151
100
AcDbEntity
  8
一般
370
              15
  6
STYLE_05
 62
               7
100
AcDbLine
 10
-525.70515313919213
 20
103.89999999999993
 30
0.0
 11
-516.20515313919213
 21
103.89999999999993
 31
0.0
  0
LINE
  5
152
100
AcDbEntity
  8
一般
370
              15
  6
STYLE_05
 62
               7
100
AcDbLine
 10
-474.20515313919213
 20
103.89999999999993
 30
0.0
 11
-461.70515313919213
 21
103.89999999999993
 31
0.0
  0
LINE
  5
153
100
AcDbEntity
  8
一般
370
              15
  6
STYLE_05
 62
               7
100
AcDbLine
 10
-474.20515313919213
 20
83.899999999999935
 30
0.0
 11
-461.70515313919213
 21
83.899999999999935
 31
0.0
  0
LINE
  5
154
100
AcDbEntity
  8
一般
370
              15
  6
STYLE_05
 62
               7
100
AcDbLine
 10
-525.70515313919213
 20
83.899999999999935
 30
0.0
 11
-516.20515313919213
 21
83.899999999999935
 31
0.0
  0
INSERT
  5
155
100
AcDbEntity
  8
一般
 62
               7
100
AcDbBlockReference
  2
グループ-1
 10
0.0
 20
0.0
 30
0.0
  0
ENDBLK
  5
156
100
AcDbEntity
  8
一般
100
AcDbBlockEnd
  0
BLOCK
  5
157
100
AcDbEntity
  8
一般
100
AcDbBlockBegin
  2
グループ-3
 70
               0
 10
0.0
 20
0.0
 30
0.0
  3
グループ-3
  1

  0
ARC
  5
158
100
AcDbEntity
  8
一般
370
              15
  6
Continuous
 62
               7
100
AcDbCircle
 10
-550.69999999999993
 20
-328.0
 30
0.0
 40
28.999999999999968
100
AcDbArc
 50
293.90193192595945
 51
246.09806807404038
  0
ARC
  5
159
100
AcDbEntity
  8
一般
370
              15
  6
Continuous
 62
               7
100
AcDbCircle
 10
-550.69999999999993
 20
-328.0
 30
0.0
 40
11.749999999999776
100
AcDbArc
 50
1.1713588047400985
 51
180.0
  0
LINE
  5
15A
100
AcDbEntity
  8
一般
370
              15
  6
Continuous
 62
               7
100
AcDbLine
 10
-550.69999999999993
 20
-394.98279738324669
 30
0.0
 11
-550.69999999999993
 21
-396.7324429743133
 31
0.0
  0
SPLINE
  5
15B
100
AcDbEntity
  8
一般
370
              15
  6
Continuous
 62
               7
100
AcDbSpline
210
0.0
220
0.0
230
1.0
 70
               8
 71
               2
 72
              12
 73
               9
 74
               0
 42
0.000001
 43
0.000001
 40
0.0
 40
0.0
 40
0.0
 40
1.0
 40
2.0
 40
3.0
 40
4.0
 40
5.0
 40
6.0
 40
7.0
 40
7.0
 40
7.0
 10
-562.45000000000039
 20
-394.98279738324669
 30
0.0
 10
-562.44999999999993
 20
-395.02299623768477
 30
0.0
 10
-562.44999999999993
 20
-394.76843802930176
 30
0.0
 10
-559.30159698893419
 20
-394.39715673719161
 30
0.0
 10
-553.84840301106567
 20
-394.18279738324668
 30
0.0
 10
-547.55159698893419
 20
-394.18279738324668
 30
0.0
 10
-542.09840301106578
 20
-394.39715673719161
 30
0.0
 10
-539.24521033727933
 20
-394.73362480015538
 30
0.0
 10
-538.94999999999959
 20
-394.98279738324669
 30
0.0
  0
SPLINE
  5
15C
100
AcDbEntity
  8
一般
370
              15
  6
Continuous
 62
               7
100
AcDbSpline
210
0.0
220
0.0
230
1.0
 70
               9
 71
               2
 72
              17
 73
              14
 74
               0
 42
0.000001
 43
0.000001
 40
0.0
 40
0.0
 40
0.0
 40
1.0
 40
2.0
 40
3.0
 40
4.0
 40
5.0
 40
6.0
 40
7.0
 40
8.0
 40
9.0
 40
10.0
 40
11.0
 40
12.0
 40
12.0
 40
12.0
 10
-555.95000000000005
 20
-395.33292392147496
 30
0.0
 10
-553.51346652052678
 20
-395.2324429743133
 30
0.0
 10
-547.8865334794732
 20
-395.2324429743133
 30
0.0
 10
-543.01346652052678
 20
-395.43340486863667
 30
0.0
 10
-540.20000000000005
 20
-395.78148107998993
 30
0.0
 10
-540.20000000000005
 20
-396.18340486863667
 30
0.0
 10
-543.01346652052678
 20
-396.53148107998993
 30
0.0
 10
-547.8865334794732
 20
-396.7324429743133
 30
0.0
 10
-553.51346652052678
 20
-396.7324429743133
 30
0.0
 10
-558.3865334794732
 20
-396.53148107998993
 30
0.0
 10
-561.19999999999993
 20
-396.18340486863667
 30
0.0
 10
-561.19999999999993
 20
-395.78148107998993
 30
0.0
 10
-558.3865334794732
 20
-395.43340486863667
 30
0.0
 10
-555.95000000000005
 20
-395.33292392147496
 30
0.0
  0
LINE
  5
15D
100
AcDbEntity
  8
一般
370
              15
  6
Continuous
 62
               7
100
AcDbLine
 10
-562.44999999999993
 20
-394.98279738324669
 30
0.0
 11
-561.19999999999993
 21
-395.9824429743133
 31
0.0
  0
LINE
  5
15E
100
AcDbEntity
  8
一般
370
              15
  6
Continuous
 62
               7
100
AcDbLine
 10
-538.95000000000005
 20
-394.98279738324669
 30
0.0
 11
-540.20000000000005
 21
-395.9824429743133
 31
0.0
  0
SPLINE
  5
15F
100
AcDbEntity
  8
一般
370
              15
  6
Continuous
 62
               7
100
AcDbSpline
210
0.0
220
0.0
230
1.0
 70
               8
 71
               2
 72
              12
 73
               9
 74
               0
 42
0.000001
 43
0.000001
 40
0.0
 40
0.0
 40
0.0
 40
1.0
 40
2.0
 40
3.0
 40
4.0
 40
5.0
 40
6.0
 40
7.0
 40
7.0
 40
7.0
 10
-562.45000000000039
 20
-378.02420852882966
 30
0.0
 10
-562.44999999999993
 20
-378.06440738326773
 30
0.0
 10
-562.44999999999993
 20
-377.80984917488473
 30
0.0
 10
-559.30159698893419
 20
-377.43856788277458
 30
0.0
 10
-553.84840301106567
 20
-377.22420852882965
 30
0.0
 10
-547.55159698893419
 20
-377.22420852882965
 30
0.0
 10
-542.09840301106578
 20
-377.43856788277458
 30
0.0
 10
-539.24521033727933
 20
-377.77503594573835
 30
0.0
 10
-538.94999999999959
 20
-378.02420852882966
 30
0.0
  0
LINE
  5
160
100
AcDbEntity
  8
一般
370
              15
  6
Continuous
 62
               7
100
AcDbLine
 10
-562.44999999999993
 20
-328.0
 30
0.0
 11
-562.44999999999993
 21
-395.02299623768477
 31
0.0
  0
LINE
  5
161
100
AcDbEntity
  8
一般
370
              15
  6
Continuous
 62
               7
100
AcDbLine
 10
-538.95000000000005
 20
-328.0
 30
0.0
 11
-538.94999999999959
 21
-394.98279738324669
 31
0.0
  0
ARC
  5
162
100
AcDbEntity
  8
一般
370
               5
  6
STYLE_06
 62
               7
100
AcDbCircle
 10
-419.57779489814402
 20
-318.99999999999989
 30
0.0
 40
1.0000000000000924
100
AcDbArc
 50
211.96571875079951
 51
270.0
  0
ARC
  5
163
100
AcDbEntity
  8
一般
370
              15
  6
Continuous
 62
               7
100
AcDbCircle
 10
-434.00000000000023
 20
-328.0
 30
0.0
 40
14.000000000000023
100
AcDbArc
 50
253.82544916042539
 51
286.17455083958384
  0
ARC
  5
164
100
AcDbEntity
  8
一般
370
              15
  6
Continuous
 62
               7
100
AcDbCircle
 10
-434.00000000000023
 20
-328.0
 30
0.0
 40
14.000000000000023
100
AcDbArc
 50
343.82544916041786
 51
16.174550839591124
  0
ARC
  5
165
100
AcDbEntity
  8
一般
370
              15
  6
Continuous
 62
               7
100
AcDbCircle
 10
-434.00000000000023
 20
-328.0
 30
0.0
 40
14.000000000000069
100
AcDbArc
 50
73.825449160417207
 51
106.17455083959085
  0
ARC
  5
166
100
AcDbEntity
  8
一般
370
              15
  6
Continuous
 62
               7
100
AcDbCircle
 10
-434.00000000000023
 20
-328.0
 30
0.0
 40
14.000000000000037
100
AcDbArc
 50
163.8254491604043
 51
196.1745508395833
  0
ARC
  5
167
100
AcDbEntity
  8
一般
370
              15
  6
Continuous
 62
               7
100
AcDbCircle
 10
-434.0
 20
-328.0
 30
0.0
 40
29.000000000000007
100
AcDbArc
 50
148.45953787522862
 51
211.54046212477246
  0
ARC
  5
168
100
AcDbEntity
  8
一般
370
              15
  6
Continuous
 62
               7
100
AcDbCircle
 10
-434.0
 20
-328.0
 30
0.0
 40
29.000000000000021
100
AcDbArc
 50
238.45953787522771
 51
301.54046212477181
  0
ARC
  5
169
100
AcDbEntity
  8
一般
370
              15
  6
Continuous
 62
               7
100
AcDbCircle
 10
-434.0
 20
-328.0
 30
0.0
 40
29.000000000000007
100
AcDbArc
 50
328.45953787522865
 51
31.540462124773114
  0
ARC
  5
16A
100
AcDbEntity
  8
一般
370
              15
  6
Continuous
 62
               7
100
AcDbCircle
 10
-434.0
 20
-328.0
 30
0.0
 40
29.000000000000018
100
AcDbArc
 50
58.459537875228349
 51
121.54046212477191
  0
POLYLINE
  5
16B
100
AcDbEntity
  8
一般
370
              15
  6
Continuous
 62
               7
100
AcDb2dPolyline
 66
               1
 10
0.0
 20
0.0
 30
0.0
 70
               1
 75
               5
  0
VERTEX
  5
16C
100
AcDbEntity
  8
一般
370
              15
  6
Continuous
 62
               7
100
AcDbVertex
100
AcDb2dVertex
 10
-434.0
 20
-318.45405845398147
 30
0.0
  0
VERTEX
  5
16D
100
AcDbEntity
  8
一般
370
              15
  6
Continuous
 62
               7
100
AcDbVertex
100
AcDb2dVertex
 10
-414.0242334314803
 20
-298.47829188546143
 30
0.0
  0
VERTEX
  5
16E
100
AcDbEntity
  8
一般
370
              15
  6
Continuous
 62
               7
100
AcDbVertex
100
AcDb2dVertex
 10
-404.47829188546189
 20
-308.02423343147984
 30
0.0
  0
VERTEX
  5
16F
100
AcDbEntity
  8
一般
370
              15
  6
Continuous
 62
               7
100
AcDbVertex
100
AcDb2dVertex
 10
-424.45405845398159
 20
-327.99999999999989
 30
0.0
  0
VERTEX
  5
170
100
AcDbEntity
  8
一般
370
              15
  6
Continuous
 62
               7
100
AcDbVertex
100
AcDb2dVertex
 10
-404.47829188546166
 20
-347.9757665685197
 30
0.0
  0
VERTEX
  5
171
100
AcDbEntity
  8
一般
370
              15
  6
Continuous
 62
               7
100
AcDbVertex
100
AcDb2dVertex
 10
-414.02423343148007
 20
-357.52170811453811
 30
0.0
  0
VERTEX
  5
172
100
AcDbEntity
  8
一般
370
              15
  6
Continuous
 62
               7
100
AcDbVertex
100
AcDb2dVertex
 10
-434.0
 20
-337.5459415460183
 30
0.0
  0
VERTEX
  5
173
100
AcDbEntity
  8
一般
370
              15
  6
Continuous
 62
               7
100
AcDbVertex
100
AcDb2dVertex
 10
-453.97576656851993
 20
-357.52170811453834
 30
0.0
  0
VERTEX
  5
174
100
AcDbEntity
  8
一般
370
              15
  6
Continuous
 62
               7
100
AcDbVertex
100
AcDb2dVertex
 10
-463.52170811453828
 20
-347.97576656852004
 30
0.0
  0
VERTEX
  5
175
100
AcDbEntity
  8
一般
370
              15
  6
Continuous
 62
               7
100
AcDbVertex
100
AcDb2dVertex
 10
-443.54594154601841
 20
-327.99999999999989
 30
0.0
  0
VERTEX
  5
176
100
AcDbEntity
  8
一般
370
              15
  6
Continuous
 62
               7
100
AcDbVertex
100
AcDb2dVertex
 10
-463.52170811453851
 20
-308.02423343148007
 30
0.0
  0
VERTEX
  5
177
100
AcDbEntity
  8
一般
370
              15
  6
Continuous
 62
               7
100
AcDbVertex
100
AcDb2dVertex
 10
-453.97576656852016
 20
-298.47829188546166
 30
0.0
  0
SEQEND
  5
178
100
AcDbEntity
  8
一般
370
              15
  6
Continuous
 62
               7
  0
LINE
  5
179
100
AcDbEntity
  8
一般
370
               5
  6
Continuous
 62
               7
100
AcDbLine
 10
-434.0
 20
-318.45405845398147
 30
0.0
 11
-434.0
 21
-337.5459415460183
 31
0.0
  0
LINE
  5
17A
100
AcDbEntity
  8
一般
370
               5
  6
Continuous
 62
               7
100
AcDbLine
 10
-443.54594154601841
 20
-327.99999999999989
 30
0.0
 11
-424.45405845398159
 21
-327.99999999999989
 31
0.0
  0
ENDBLK
  5
17B
100
AcDbEntity
  8
一般
100
AcDbBlockEnd
  0
BLOCK
  5
17C
100
AcDbEntity
  8
一般
100
AcDbBlockBegin
  2
グループ-4
 70
               0
 10
0.0
 20
0.0
 30
0.0
  3
グループ-4
  1

  0
POLYLINE
  5
17D
100
AcDbEntity
  8
一般
370
              15
  6
Continuous
 62
               7
100
AcDb2dPolyline
 66
               1
 10
0.0
 20
0.0
 30
0.0
 75
               5
  0
VERTEX
  5
17E
100
AcDbEntity
  8
一般
370
              15
  6
Continuous
 62
               7
100
AcDbVertex
100
AcDb2dVertex
 10
-237.70000000000005
 20
-339.66725907710008
 30
0.0
  0
VERTEX
  5
17F
100
AcDbEntity
  8
一般
370
              15
  6
Continuous
 62
               7
100
AcDbVertex
100
AcDb2dVertex
 10
-237.70000000000005
 20
-342.0
 30
0.0
  0
VERTEX
  5
180
100
AcDbEntity
  8
一般
370
              15
  6
Continuous
 62
               7
100
AcDbVertex
100
AcDb2dVertex
 10
-207.70000000000005
 20
-342.0
 30
0.0
  0
VERTEX
  5
181
100
AcDbEntity
  8
一般
370
              15
  6
Continuous
 62
               7
100
AcDbVertex
100
AcDb2dVertex
 10
-207.70000000000005
 20
-339.66725907710008
 30
0.0
  0
SEQEND
  5
182
100
AcDbEntity
  8
一般
370
              15
  6
Continuous
 62
               7
  0
POLYLINE
  5
183
100
AcDbEntity
  8
一般
370
              15
  6
Continuous
 62
               7
100
AcDb2dPolyline
 66
               1
 10
0.0
 20
0.0
 30
0.0
 75
               5
  0
VERTEX
  5
184
100
AcDbEntity
  8
一般
370
              15
  6
Continuous
 62
               7
100
AcDbVertex
100
AcDb2dVertex
 10
-237.70000000000005
 20
-316.16725907710008
 30
0.0
  0
VERTEX
  5
185
100
AcDbEntity
  8
一般
370
              15
  6
Continuous
 62
               7
100
AcDbVertex
100
AcDb2dVertex
 10
-237.70000000000005
 20
-314.0
 30
0.0
  0
VERTEX
  5
186
100
AcDbEntity
  8
一般
370
              15
  6
Continuous
 62
               7
100
AcDbVertex
100
AcDb2dVertex
 10
-207.70000000000005
 20
-314.0
 30
0.0
  0
VERTEX
  5
187
100
AcDbEntity
  8
一般
370
              15
  6
Continuous
 62
               7
100
AcDbVertex
100
AcDb2dVertex
 10
-207.70000000000005
 20
-316.16725907710008
 30
0.0
  0
SEQEND
  5
188
100
AcDbEntity
  8
一般
370
              15
  6
Continuous
 62
               7
  0
POLYLINE
  5
189
100
AcDbEntity
  8
一般
370
              15
  6
Continuous
 62
               7
100
AcDb2dPolyline
 66
               1
 10
0.0
 20
0.0
 30
0.0
 75
               5
  0
VERTEX
  5
18A
100
AcDbEntity
  8
一般
370
              15
  6
Continuous
 62
               7
100
AcDbVertex
100
AcDb2dVertex
 10
-190.70000000000005
 20
-316.16725907710008
 30
0.0
  0
VERTEX
  5
18B
100
AcDbEntity
  8
一般
370
              15
  6
Continuous
 62
               7
100
AcDbVertex
100
AcDb2dVertex
 10
-190.70000000000005
 20
-303.22702922699079
 30
0.0
  0
VERTEX
  5
18C
100
AcDbEntity
  8
一般
370
              15
  6
Continuous
 62
               7
100
AcDbVertex
100
AcDb2dVertex
 10
-177.20000000000002
 20
-303.22702922699079
 30
0.0
  0
VERTEX
  5
18D
100
AcDbEntity
  8
一般
370
              15
  6
Continuous
 62
               7
100
AcDbVertex
100
AcDb2dVertex
 10
-177.20000000000002
 20
-316.16725907710008
 30
0.0
  0
SEQEND
  5
18E
100
AcDbEntity
  8
一般
370
              15
  6
Continuous
 62
               7
  0
POLYLINE
  5
18F
100
AcDbEntity
  8
一般
370
              15
  6
Continuous
 62
               7
100
AcDb2dPolyline
 66
               1
 10
0.0
 20
0.0
 30
0.0
 75
               5
  0
VERTEX
  5
190
100
AcDbEntity
  8
一般
370
              15
  6
Continuous
 62
               7
100
AcDbVertex
100
AcDb2dVertex
 10
-190.70000000000005
 20
-339.66725907710008
 30
0.0
  0
VERTEX
  5
191
100
AcDbEntity
  8
一般
370
              15
  6
Continuous
 62
               7
100
AcDbVertex
100
AcDb2dVertex
 10
-190.70000000000005
 20
-352.72702922699079
 30
0.0
  0
VERTEX
  5
192
100
AcDbEntity
  8
一般
370
              15
  6
Continuous
 62
               7
100
AcDbVertex
100
AcDb2dVertex
 10
-177.20000000000002
 20
-352.72702922699079
 30
0.0
  0
VERTEX
  5
193
100
AcDbEntity
  8
一般
370
              15
  6
Continuous
 62
               7
100
AcDbVertex
100
AcDb2dVertex
 10
-177.20000000000002
 20
-339.66725907710008
 30
0.0
  0
SEQEND
  5
194
100
AcDbEntity
  8
一般
370
              15
  6
Continuous
 62
               7
  0
SPLINE
  5
195
100
AcDbEntity
  8
一般
370
              15
  6
Continuous
 62
               7
100
AcDbSpline
210
0.0
220
0.0
230
1.0
 70
               9
 71
               2
 72
              17
 73
              14
 74
               0
 42
0.000001
 43
0.000001
 40
0.0
 40
0.0
 40
0.0
 40
1.0
 40
2.0
 40
3.0
 40
4.0
 40
5.0
 40
6.0
 40
7.0
 40
8.0
 40
9.0
 40
10.0
 40
11.0
 40
12.0
 40
12.0
 40
12.0
 10
-187.32500000000005
 20
-348.61340855901472
 30
0.0
 10
-185.75865704891012
 20
-347.97702922699079
 30
0.0
 10
-182.14134295108994
 20
-347.97702922699079
 30
0.0
 10
-179.00865704891009
 20
-349.24978789103864
 30
0.0
 10
-177.20000000000002
 20
-351.45427056294295
 30
0.0
 10
-177.20000000000002
 20
-353.99978789103864
 30
0.0
 10
-179.00865704891009
 20
-356.20427056294295
 30
0.0
 10
-182.14134295108994
 20
-357.47702922699079
 30
0.0
 10
-185.75865704891012
 20
-357.47702922699079
 30
0.0
 10
-188.89134295108997
 20
-356.20427056294295
 30
0.0
 10
-190.70000000000005
 20
-353.99978789103864
 30
0.0
 10
-190.70000000000005
 20
-351.45427056294295
 30
0.0
 10
-188.89134295108997
 20
-349.24978789103864
 30
0.0
 10
-187.32500000000005
 20
-348.61340855901472
 30
0.0
  0
SPLINE
  5
196
100
AcDbEntity
  8
一般
370
              15
  6
Continuous
 62
               7
100
AcDbSpline
210
0.0
220
0.0
230
1.0
 70
               9
 71
               2
 72
              17
 73
              14
 74
               0
 42
0.000001
 43
0.000001
 40
0.0
 40
0.0
 40
0.0
 40
1.0
 40
2.0
 40
3.0
 40
4.0
 40
5.0
 40
6.0
 40
7.0
 40
8.0
 40
9.0
 40
10.0
 40
11.0
 40
12.0
 40
12.0
 40
12.0
 10
-187.32500000000005
 20
-299.11340855901472
 30
0.0
 10
-185.75865704891012
 20
-298.47702922699079
 30
0.0
 10
-182.14134295108994
 20
-298.47702922699079
 30
0.0
 10
-179.00865704891009
 20
-299.74978789103864
 30
0.0
 10
-177.20000000000002
 20
-301.95427056294295
 30
0.0
 10
-177.20000000000002
 20
-304.49978789103864
 30
0.0
 10
-179.00865704891009
 20
-306.70427056294295
 30
0.0
 10
-182.14134295108994
 20
-307.97702922699079
 30
0.0
 10
-185.75865704891012
 20
-307.97702922699079
 30
0.0
 10
-188.89134295108997
 20
-306.70427056294295
 30
0.0
 10
-190.70000000000005
 20
-304.49978789103864
 30
0.0
 10
-190.70000000000005
 20
-301.95427056294295
 30
0.0
 10
-188.89134295108997
 20
-299.74978789103864
 30
0.0
 10
-187.32500000000005
 20
-299.11340855901472
 30
0.0
  0
SPLINE
  5
197
100
AcDbEntity
  8
一般
370
               5
  6
Continuous
 62
               7
100
AcDbSpline
210
0.0
220
0.0
230
1.0
 70
               8
 71
               2
 72
               6
 73
               3
 74
               0
 42
0.000001
 43
0.000001
 40
0.0
 40
0.0
 40
0.0
 40
1.0
 40
1.0
 40
1.0
 10
-184.74521667610352
 20
-328.01092886875955
 30
0.0
 10
-184.426396422278
 20
-327.98423832210966
 30
0.0
 10
-184.10000000000005
 20
-327.97820221132883
 30
0.0
  0
SPLINE
  5
198
100
AcDbEntity
  8
一般
370
               5
  6
Continuous
 62
               7
100
AcDbSpline
210
0.0
220
0.0
230
1.0
 70
               8
 71
               2
 72
               6
 73
               3
 74
               0
 42
0.000001
 43
0.000001
 40
0.0
 40
0.0
 40
0.0
 40
1.0
 40
1.0
 40
1.0
 10
-184.10000135816856
 20
-327.97820218621189
 30
0.0
 10
-184.09999852726725
 20
-327.97820223856456
 30
0.0
 10
-184.10000047934921
 20
-327.97820220246416
 30
0.0
  0
SPLINE
  5
199
100
AcDbEntity
  8
一般
370
               5
  6
Continuous
 62
               7
100
AcDbSpline
210
0.0
220
0.0
230
1.0
 70
               8
 71
               2
 72
               6
 73
               3
 74
               0
 42
0.000001
 43
0.000001
 40
0.0
 40
0.0
 40
0.0
 40
1.0
 40
1.0
 40
1.0
 10
-184.10000061926536
 20
-327.97820219987665
 30
0.0
 10
-184.09998657442856
 20
-327.97820245961077
 30
0.0
 10
-184.10000168313229
 20
-327.97820218020229
 30
0.0
  0
SPLINE
  5
19A
100
AcDbEntity
  8
一般
370
               5
  6
Continuous
 62
               7
100
AcDbSpline
210
0.0
220
0.0
230
1.0
 70
               8
 71
               2
 72
               6
 73
               3
 74
               0
 42
0.000001
 43
0.000001
 40
0.0
 40
0.0
 40
0.0
 40
1.0
 40
1.0
 40
1.0
 10
-184.1000007401162
 20
-327.97820219764174
 30
0.0
 10
-184.0999997862784
 20
-327.97820221528127
 30
0.0
 10
-184.10000000000005
 20
-327.97820221132883
 30
0.0
  0
POLYLINE
  5
19B
100
AcDbEntity
  8
一般
370
              15
  6
Continuous
 62
               7
100
AcDb2dPolyline
 66
               1
 10
0.0
 20
0.0
 30
0.0
 75
               5
  0
VERTEX
  5
19C
100
AcDbEntity
  8
一般
370
              15
  6
Continuous
 62
               7
100
AcDbVertex
100
AcDb2dVertex
 10
-265.20000000000005
 20
-342.0
 30
0.0
  0
VERTEX
  5
19D
100
AcDbEntity
  8
一般
370
              15
  6
Continuous
 62
               7
100
AcDbVertex
100
AcDb2dVertex
 10
-277.70000000000005
 20
-342.0
 30
0.0
  0
VERTEX
  5
19E
100
AcDbEntity
  8
一般
370
              15
  6
Continuous
 62
               7
100
AcDbVertex
100
AcDb2dVertex
 10
-277.70000000000005
 20
-314.0
 30
0.0
  0
VERTEX
  5
19F
100
AcDbEntity
  8
一般
370
              15
  6
Continuous
 62
               7
100
AcDbVertex
100
AcDb2dVertex
 10
-265.20000000000005
 20
-314.0
 30
0.0
  0
SEQEND
  5
1A0
100
AcDbEntity
  8
一般
370
              15
  6
Continuous
 62
               7
  0
POLYLINE
  5
1A1
100
AcDbEntity
  8
一般
370
              15
  6
Continuous
 62
               7
100
AcDb2dPolyline
 66
               1
 10
0.0
 20
0.0
 30
0.0
 75
               5
  0
VERTEX
  5
1A2
100
AcDbEntity
  8
一般
370
              15
  6
Continuous
 62
               7
100
AcDbVertex
100
AcDb2dVertex
 10
-255.19999999999999
 20
-342.0
 30
0.0
  0
VERTEX
  5
1A3
100
AcDbEntity
  8
一般
370
              15
  6
Continuous
 62
               7
100
AcDbVertex
100
AcDb2dVertex
 10
-237.70000000000005
 20
-342.0
 30
0.0
  0
VERTEX
  5
1A4
100
AcDbEntity
  8
一般
370
              15
  6
Continuous
 62
               7
100
AcDbVertex
100
AcDb2dVertex
 10
-237.70000000000005
 20
-339.66725907710008
 30
0.0
  0
SEQEND
  5
1A5
100
AcDbEntity
  8
一般
370
              15
  6
Continuous
 62
               7
  0
POLYLINE
  5
1A6
100
AcDbEntity
  8
一般
370
              15
  6
Continuous
 62
               7
100
AcDb2dPolyline
 66
               1
 10
0.0
 20
0.0
 30
0.0
 75
               5
  0
VERTEX
  5
1A7
100
AcDbEntity
  8
一般
370
              15
  6
Continuous
 62
               7
100
AcDbVertex
100
AcDb2dVertex
 10
-255.19999999999999
 20
-314.0
 30
0.0
  0
VERTEX
  5
1A8
100
AcDbEntity
  8
一般
370
              15
  6
Continuous
 62
               7
100
AcDbVertex
100
AcDb2dVertex
 10
-237.70000000000005
 20
-314.0
 30
0.0
  0
VERTEX
  5
1A9
100
AcDbEntity
  8
一般
370
              15
  6
Continuous
 62
               7
100
AcDbVertex
100
AcDb2dVertex
 10
-237.70000000000005
 20
-316.16725907710008
 30
0.0
  0
SEQEND
  5
1AA
100
AcDbEntity
  8
一般
370
              15
  6
Continuous
 62
               7
  0
LINE
  5
1AB
100
AcDbEntity
  8
一般
370
              15
  6
Continuous
 62
               7
100
AcDbLine
 10
-295.19999999999993
 20
-315.00961894323336
 30
0.0
 11
-277.70000000000005
 21
-314.5
 31
0.0
  0
LINE
  5
1AC
100
AcDbEntity
  8
一般
370
              15
  6
Continuous
 62
               7
100
AcDbLine
 10
-295.2000000000001
 20
-340.99038105676652
 30
0.0
 11
-277.70000000000005
 21
-341.5
 31
0.0
  0
POLYLINE
  5
1AD
100
AcDbEntity
  8
一般
370
              15
  6
Continuous
 62
               7
100
AcDb2dPolyline
 66
               1
 10
0.0
 20
0.0
 30
0.0
 75
               5
  0
VERTEX
  5
1AE
100
AcDbEntity
  8
一般
370
              15
  6
Continuous
 62
               7
100
AcDbVertex
100
AcDb2dVertex
 10
-302.69999999999999
 20
-315.00961894323331
 30
0.0
  0
VERTEX
  5
1AF
100
AcDbEntity
  8
一般
370
              15
  6
Continuous
 62
               7
100
AcDbVertex
100
AcDb2dVertex
 10
-310.2000000000001
 20
-327.99999999999989
 30
0.0
  0
VERTEX
  5
1B0
100
AcDbEntity
  8
一般
370
              15
  6
Continuous
 62
               7
100
AcDbVertex
100
AcDb2dVertex
 10
-302.70000000000016
 20
-340.99038105676652
 30
0.0
  0
VERTEX
  5
1B1
100
AcDbEntity
  8
一般
370
              15
  6
Continuous
 62
               7
100
AcDbVertex
100
AcDb2dVertex
 10
-287.7000000000001
 20
-340.99038105676652
 30
0.0
  0
VERTEX
  5
1B2
100
AcDbEntity
  8
一般
370
              15
  6
Continuous
 62
               7
100
AcDbVertex
100
AcDb2dVertex
 10
-280.19999999999999
 20
-328.0
 30
0.0
  0
VERTEX
  5
1B3
100
AcDbEntity
  8
一般
370
              15
  6
Continuous
 62
               7
100
AcDbVertex
100
AcDb2dVertex
 10
-287.69999999999993
 20
-315.00961894323336
 30
0.0
  0
VERTEX
  5
1B4
100
AcDbEntity
  8
一般
370
              15
  6
Continuous
 62
               7
100
AcDbVertex
100
AcDb2dVertex
 10
-302.69999999999999
 20
-315.00961894323331
 30
0.0
  0
SEQEND
  5
1B5
100
AcDbEntity
  8
一般
370
              15
  6
Continuous
 62
               7
  0
CIRCLE
  5
1B6
100
AcDbEntity
  8
一般
370
              15
  6
Continuous
 62
               7
100
AcDbCircle
 10
-295.20000000000005
 20
-327.99999999999989
 30
0.0
 40
13.0
  0
CIRCLE
  5
1B7
100
AcDbEntity
  8
一般
370
              15
  6
Continuous
 62
               7
100
AcDbCircle
 10
-295.20000000000005
 20
-327.99999999999989
 30
0.0
 40
10.0
  0
LINE
  5
1B8
100
AcDbEntity
  8
一般
370
              15
  6
Continuous
 62
               7
100
AcDbLine
 10
-73.174422527728098
 20
-396.64970205141344
 30
0.0
 11
-52.225577472271766
 21
-395.18481610278684
 31
0.0
  0
POLYLINE
  5
1B9
100
AcDbEntity
  8
一般
370
              15
  6
Continuous
 62
               7
100
AcDb2dPolyline
 66
               1
 10
0.0
 20
0.0
 30
0.0
 70
               1
 75
               5
  0
VERTEX
  5
1BA
100
AcDbEntity
  8
一般
370
              15
  6
Continuous
 62
               7
100
AcDbVertex
100
AcDb2dVertex
 10
-75.676994117947174
 20
-378.78074473891672
 30
0.0
  0
VERTEX
  5
1BB
100
AcDbEntity
  8
一般
370
              15
  6
Continuous
 62
               7
100
AcDbVertex
100
AcDb2dVertex
 10
-74.491134064297
 20
-395.73933359333375
 30
0.0
  0
VERTEX
  5
1BC
100
AcDbEntity
  8
一般
370
              15
  6
Continuous
 62
               7
100
AcDbVertex
100
AcDb2dVertex
 10
-73.174422527728098
 20
-396.64970205141344
 30
0.0
  0
VERTEX
  5
1BD
100
AcDbEntity
  8
一般
370
              15
  6
Continuous
 62
               7
100
AcDbVertex
100
AcDb2dVertex
 10
-52.225577472271766
 20
-395.18481610278684
 30
0.0
  0
VERTEX
  5
1BE
100
AcDbEntity
  8
一般
370
              15
  6
Continuous
 62
               7
100
AcDbVertex
100
AcDb2dVertex
 10
-51.048378883191106
 20
-394.10005646034676
 30
0.0
  0
VERTEX
  5
1BF
100
AcDbEntity
  8
一般
370
              15
  6
Continuous
 62
               7
100
AcDbVertex
100
AcDb2dVertex
 10
-52.23423893684128
 20
-377.14146760592973
 30
0.0
  0
SEQEND
  5
1C0
100
AcDbEntity
  8
一般
370
              15
  6
Continuous
 62
               7
  0
LINE
  5
1C1
100
AcDbEntity
  8
一般
370
               5
  6
Continuous
 62
               7
100
AcDbLine
 10
-74.491134064297
 20
-395.73933359333375
 30
0.0
 11
-51.048378883191106
 21
-394.10005646034676
 31
0.0
  0
LINE
  5
1C2
100
AcDbEntity
  8
一般
370
              15
  6
Continuous
 62
               7
100
AcDbLine
 10
-76.02577648666778
 20
-373.7929244876176
 30
0.0
 11
-75.676994117947174
 21
-378.78074473891672
 31
0.0
  0
LINE
  5
1C3
100
AcDbEntity
  8
一般
370
              15
  6
Continuous
 62
               7
100
AcDbLine
 10
-52.583021305561886
 20
-372.15364735463061
 30
0.0
 11
-52.23423893684128
 21
-377.14146760592973
 31
0.0
  0
LINE
  5
1C4
100
AcDbEntity
  8
一般
370
              15
  6
Continuous
 62
               7
100
AcDbLine
 10
-277.69999999999993
 20
-316.16725907710008
 30
0.0
 11
-277.69999999999993
 21
-339.66725907710008
 31
0.0
  0
ARC
  5
1C5
100
AcDbEntity
  8
一般
370
              15
  6
Continuous
 62
               7
100
AcDbCircle
 10
-114.26110488250845
 20
-378.13465757842448
 30
0.0
 40
61.967398501324325
100
AcDbArc
 50
5.5387343014985611
 51
90.0
  0
ARC
  5
1C6
100
AcDbEntity
  8
一般
370
              15
  6
Continuous
 62
               7
100
AcDbCircle
 10
-112.69999999999993
 20
-376.43664774436093
 30
0.0
 40
36.769388667260849
100
AcDbArc
 50
4.1231308346970286
 51
89.999999999999986
  0
POLYLINE
  5
1C7
100
AcDbEntity
  8
一般
370
              15
  6
Continuous
 62
               7
100
AcDb2dPolyline
 66
               1
 10
0.0
 20
0.0
 30
0.0
 70
               1
 75
               5
  0
VERTEX
  5
1C8
100
AcDbEntity
  8
一般
370
              15
  6
Continuous
 62
               7
100
AcDbVertex
100
AcDb2dVertex
 10
-279.69999999999993
 20
-316.91725907710008
 30
0.0
  0
VERTEX
  5
1C9
100
AcDbEntity
  8
一般
370
              15
  6
Continuous
 62
               7
100
AcDbVertex
100
AcDb2dVertex
 10
-277.69999999999993
 20
-316.91725907710008
 30
0.0
  0
VERTEX
  5
1CA
100
AcDbEntity
  8
一般
370
              15
  6
Continuous
 62
               7
100
AcDbVertex
100
AcDb2dVertex
 10
-277.69999999999993
 20
-338.91725907710008
 30
0.0
  0
VERTEX
  5
1CB
100
AcDbEntity
  8
一般
370
              15
  6
Continuous
 62
               7
100
AcDbVertex
100
AcDb2dVertex
 10
-279.69999999999993
 20
-338.91725907710008
 30
0.0
  0
SEQEND
  5
1CC
100
AcDbEntity
  8
一般
370
              15
  6
Continuous
 62
               7
  0
POLYLINE
  5
1CD
100
AcDbEntity
  8
一般
370
               5
  6
Continuous
 62
               7
100
AcDb2dPolyline
 66
               1
 10
0.0
 20
0.0
 30
0.0
 70
               1
 75
               5
  0
VERTEX
  5
1CE
100
AcDbEntity
  8
一般
370
               5
  6
Continuous
 62
               7
100
AcDbVertex
100
AcDb2dVertex
 10
-292.69999999999993
 20
-317.91725907710008
 30
0.0
  0
VERTEX
  5
1CF
100
AcDbEntity
  8
一般
370
               5
  6
Continuous
 62
               7
100
AcDbVertex
100
AcDb2dVertex
 10
-279.69999999999993
 20
-317.91725907710008
 30
0.0
  0
VERTEX
  5
1D0
100
AcDbEntity
  8
一般
370
               5
  6
Continuous
 62
               7
100
AcDbVertex
100
AcDb2dVertex
 10
-279.69999999999993
 20
-337.91725907710008
 30
0.0
  0
VERTEX
  5
1D1
100
AcDbEntity
  8
一般
370
               5
  6
Continuous
 62
               7
100
AcDbVertex
100
AcDb2dVertex
 10
-292.69999999999993
 20
-337.91725907710008
 30
0.0
  0
SEQEND
  5
1D2
100
AcDbEntity
  8
一般
370
               5
  6
Continuous
 62
               7
  0
POLYLINE
  5
1D3
100
AcDbEntity
  8
一般
370
               5
  6
Continuous
 62
               7
100
AcDb2dPolyline
 66
               1
 10
0.0
 20
0.0
 30
0.0
 70
               1
 75
               5
  0
VERTEX
  5
1D4
100
AcDbEntity
  8
一般
370
               5
  6
Continuous
 62
               7
100
AcDbVertex
100
AcDb2dVertex
 10
-281.69999999999993
 20
-317.41725907710008
 30
0.0
  0
VERTEX
  5
1D5
100
AcDbEntity
  8
一般
370
               5
  6
Continuous
 62
               7
100
AcDbVertex
100
AcDb2dVertex
 10
-280.69999999999993
 20
-317.41725907710008
 30
0.0
  0
VERTEX
  5
1D6
100
AcDbEntity
  8
一般
370
               5
  6
Continuous
 62
               7
100
AcDbVertex
100
AcDb2dVertex
 10
-280.69999999999993
 20
-338.41725907710008
 30
0.0
  0
VERTEX
  5
1D7
100
AcDbEntity
  8
一般
370
               5
  6
Continuous
 62
               7
100
AcDbVertex
100
AcDb2dVertex
 10
-281.69999999999993
 20
-338.41725907710008
 30
0.0
  0
SEQEND
  5
1D8
100
AcDbEntity
  8
一般
370
               5
  6
Continuous
 62
               7
  0
POLYLINE
  5
1D9
100
AcDbEntity
  8
一般
370
               5
  6
Continuous
 62
               7
100
AcDb2dPolyline
 66
               1
 10
0.0
 20
0.0
 30
0.0
 70
               1
 75
               5
  0
VERTEX
  5
1DA
100
AcDbEntity
  8
一般
370
               5
  6
Continuous
 62
               7
100
AcDbVertex
100
AcDb2dVertex
 10
-283.69999999999993
 20
-317.41725907710008
 30
0.0
  0
VERTEX
  5
1DB
100
AcDbEntity
  8
一般
370
               5
  6
Continuous
 62
               7
100
AcDbVertex
100
AcDb2dVertex
 10
-282.69999999999993
 20
-317.41725907710008
 30
0.0
  0
VERTEX
  5
1DC
100
AcDbEntity
  8
一般
370
               5
  6
Continuous
 62
               7
100
AcDbVertex
100
AcDb2dVertex
 10
-282.69999999999993
 20
-338.41725907710008
 30
0.0
  0
VERTEX
  5
1DD
100
AcDbEntity
  8
一般
370
               5
  6
Continuous
 62
               7
100
AcDbVertex
100
AcDb2dVertex
 10
-283.69999999999993
 20
-338.41725907710008
 30
0.0
  0
SEQEND
  5
1DE
100
AcDbEntity
  8
一般
370
               5
  6
Continuous
 62
               7
  0
POLYLINE
  5
1DF
100
AcDbEntity
  8
一般
370
               5
  6
Continuous
 62
               7
100
AcDb2dPolyline
 66
               1
 10
0.0
 20
0.0
 30
0.0
 70
               1
 75
               5
  0
VERTEX
  5
1E0
100
AcDbEntity
  8
一般
370
               5
  6
Continuous
 62
               7
100
AcDbVertex
100
AcDb2dVertex
 10
-285.69999999999993
 20
-317.41725907710008
 30
0.0
  0
VERTEX
  5
1E1
100
AcDbEntity
  8
一般
370
               5
  6
Continuous
 62
               7
100
AcDbVertex
100
AcDb2dVertex
 10
-284.69999999999993
 20
-317.41725907710008
 30
0.0
  0
VERTEX
  5
1E2
100
AcDbEntity
  8
一般
370
               5
  6
Continuous
 62
               7
100
AcDbVertex
100
AcDb2dVertex
 10
-284.69999999999993
 20
-338.41725907710008
 30
0.0
  0
VERTEX
  5
1E3
100
AcDbEntity
  8
一般
370
               5
  6
Continuous
 62
               7
100
AcDbVertex
100
AcDb2dVertex
 10
-285.69999999999993
 20
-338.41725907710008
 30
0.0
  0
SEQEND
  5
1E4
100
AcDbEntity
  8
一般
370
               5
  6
Continuous
 62
               7
  0
POLYLINE
  5
1E5
100
AcDbEntity
  8
一般
370
               5
  6
Continuous
 62
               7
100
AcDb2dPolyline
 66
               1
 10
0.0
 20
0.0
 30
0.0
 70
               1
 75
               5
  0
VERTEX
  5
1E6
100
AcDbEntity
  8
一般
370
               5
  6
Continuous
 62
               7
100
AcDbVertex
100
AcDb2dVertex
 10
-287.69999999999993
 20
-317.41725907710008
 30
0.0
  0
VERTEX
  5
1E7
100
AcDbEntity
  8
一般
370
               5
  6
Continuous
 62
               7
100
AcDbVertex
100
AcDb2dVertex
 10
-286.69999999999993
 20
-317.41725907710008
 30
0.0
  0
VERTEX
  5
1E8
100
AcDbEntity
  8
一般
370
               5
  6
Continuous
 62
               7
100
AcDbVertex
100
AcDb2dVertex
 10
-286.69999999999993
 20
-338.41725907710008
 30
0.0
  0
VERTEX
  5
1E9
100
AcDbEntity
  8
一般
370
               5
  6
Continuous
 62
               7
100
AcDbVertex
100
AcDb2dVertex
 10
-287.69999999999993
 20
-338.41725907710008
 30
0.0
  0
SEQEND
  5
1EA
100
AcDbEntity
  8
一般
370
               5
  6
Continuous
 62
               7
  0
POLYLINE
  5
1EB
100
AcDbEntity
  8
一般
370
               5
  6
Continuous
 62
               7
100
AcDb2dPolyline
 66
               1
 10
0.0
 20
0.0
 30
0.0
 70
               1
 75
               5
  0
VERTEX
  5
1EC
100
AcDbEntity
  8
一般
370
               5
  6
Continuous
 62
               7
100
AcDbVertex
100
AcDb2dVertex
 10
-289.69999999999993
 20
-317.41725907710008
 30
0.0
  0
VERTEX
  5
1ED
100
AcDbEntity
  8
一般
370
               5
  6
Continuous
 62
               7
100
AcDbVertex
100
AcDb2dVertex
 10
-288.69999999999993
 20
-317.41725907710008
 30
0.0
  0
VERTEX
  5
1EE
100
AcDbEntity
  8
一般
370
               5
  6
Continuous
 62
               7
100
AcDbVertex
100
AcDb2dVertex
 10
-288.69999999999993
 20
-338.41725907710008
 30
0.0
  0
VERTEX
  5
1EF
100
AcDbEntity
  8
一般
370
               5
  6
Continuous
 62
               7
100
AcDbVertex
100
AcDb2dVertex
 10
-289.69999999999993
 20
-338.41725907710008
 30
0.0
  0
SEQEND
  5
1F0
100
AcDbEntity
  8
一般
370
               5
  6
Continuous
 62
               7
  0
POLYLINE
  5
1F1
100
AcDbEntity
  8
一般
370
               5
  6
Continuous
 62
               7
100
AcDb2dPolyline
 66
               1
 10
0.0
 20
0.0
 30
0.0
 70
               1
 75
               5
  0
VERTEX
  5
1F2
100
AcDbEntity
  8
一般
370
               5
  6
Continuous
 62
               7
100
AcDbVertex
100
AcDb2dVertex
 10
-291.69999999999993
 20
-317.41725907710008
 30
0.0
  0
VERTEX
  5
1F3
100
AcDbEntity
  8
一般
370
               5
  6
Continuous
 62
               7
100
AcDbVertex
100
AcDb2dVertex
 10
-290.69999999999993
 20
-317.41725907710008
 30
0.0
  0
VERTEX
  5
1F4
100
AcDbEntity
  8
一般
370
               5
  6
Continuous
 62
               7
100
AcDbVertex
100
AcDb2dVertex
 10
-290.69999999999993
 20
-338.41725907710008
 30
0.0
  0
VERTEX
  5
1F5
100
AcDbEntity
  8
一般
370
               5
  6
Continuous
 62
               7
100
AcDbVertex
100
AcDb2dVertex
 10
-291.69999999999993
 20
-338.41725907710008
 30
0.0
  0
SEQEND
  5
1F6
100
AcDbEntity
  8
一般
370
               5
  6
Continuous
 62
               7
  0
POLYLINE
  5
1F7
100
AcDbEntity
  8
一般
370
               5
  6
Continuous
 62
               7
100
AcDb2dPolyline
 66
               1
 10
0.0
 20
0.0
 30
0.0
 70
               1
 75
               5
  0
VERTEX
  5
1F8
100
AcDbEntity
  8
一般
370
               5
  6
Continuous
 62
               7
100
AcDbVertex
100
AcDb2dVertex
 10
-293.69999999999993
 20
-317.41725907710008
 30
0.0
  0
VERTEX
  5
1F9
100
AcDbEntity
  8
一般
370
               5
  6
Continuous
 62
               7
100
AcDbVertex
100
AcDb2dVertex
 10
-292.69999999999993
 20
-317.41725907710008
 30
0.0
  0
VERTEX
  5
1FA
100
AcDbEntity
  8
一般
370
               5
  6
Continuous
 62
               7
100
AcDbVertex
100
AcDb2dVertex
 10
-292.69999999999993
 20
-338.41725907710008
 30
0.0
  0
VERTEX
  5
1FB
100
AcDbEntity
  8
一般
370
               5
  6
Continuous
 62
               7
100
AcDbVertex
100
AcDb2dVertex
 10
-293.69999999999993
 20
-338.41725907710008
 30
0.0
  0
SEQEND
  5
1FC
100
AcDbEntity
  8
一般
370
               5
  6
Continuous
 62
               7
  0
POINT
  5
1FD
100
AcDbEntity
  8
一般
370
               5
  6
Continuous
 62
               7
100
AcDbPoint
 10
-267.76110488250845
 20
-327.91725907710008
 30
0.0
  0
LINE
  5
1FE
100
AcDbEntity
  8
一般
370
              15
  6
Continuous
 62
               7
100
AcDbLine
 10
-112.69999999999993
 20
-316.16725907710008
 30
0.0
 11
-255.19999999999999
 21
-316.16725907710008
 31
0.0
  0
POLYLINE
  5
1FF
100
AcDbEntity
  8
一般
370
              15
  6
Continuous
 62
               7
100
AcDb2dPolyline
 66
               1
 10
0.0
 20
0.0
 30
0.0
 75
               5
  0
VERTEX
  5
200
100
AcDbEntity
  8
一般
370
              15
  6
Continuous
 62
               7
100
AcDbVertex
100
AcDb2dVertex
 10
-265.20000000000005
 20
-339.66725907710008
 30
0.0
  0
VERTEX
  5
201
100
AcDbEntity
  8
一般
370
              15
  6
Continuous
 62
               7
100
AcDbVertex
100
AcDb2dVertex
 10
-277.69999999999993
 20
-339.66725907710008
 30
0.0
  0
VERTEX
  5
202
100
AcDbEntity
  8
一般
370
              15
  6
Continuous
 62
               7
100
AcDbVertex
100
AcDb2dVertex
 10
-277.69999999999993
 20
-316.16725907710008
 30
0.0
  0
VERTEX
  5
203
100
AcDbEntity
  8
一般
370
              15
  6
Continuous
 62
               7
100
AcDbVertex
100
AcDb2dVertex
 10
-265.20000000000005
 20
-316.16725907710008
 30
0.0
  0
SEQEND
  5
204
100
AcDbEntity
  8
一般
370
              15
  6
Continuous
 62
               7
  0
LINE
  5
205
100
AcDbEntity
  8
一般
370
              15
  6
Continuous
 62
               7
100
AcDbLine
 10
-255.19999999999999
 20
-339.66725907710008
 30
0.0
 11
-112.69999999999993
 21
-339.66725907710008
 31
0.0
  0
POLYLINE
  5
206
100
AcDbEntity
  8
一般
370
              15
  6
Continuous
 62
               7
100
AcDb2dPolyline
 66
               1
 10
0.0
 20
0.0
 30
0.0
 70
               1
 75
               5
  0
VERTEX
  5
207
100
AcDbEntity
  8
一般
370
              15
  6
Continuous
 62
               7
100
AcDbVertex
100
AcDb2dVertex
 10
-265.20000000000005
 20
-299.0
 30
0.0
  0
VERTEX
  5
208
100
AcDbEntity
  8
一般
370
              15
  6
Continuous
 62
               7
100
AcDbVertex
100
AcDb2dVertex
 10
-255.19999999999999
 20
-299.0
 30
0.0
  0
VERTEX
  5
209
100
AcDbEntity
  8
一般
370
              15
  6
Continuous
 62
               7
100
AcDbVertex
100
AcDb2dVertex
 10
-255.19999999999999
 20
-357.0
 30
0.0
  0
VERTEX
  5
20A
100
AcDbEntity
  8
一般
370
              15
  6
Continuous
 62
               7
100
AcDbVertex
100
AcDb2dVertex
 10
-265.20000000000005
 20
-357.0
 30
0.0
  0
SEQEND
  5
20B
100
AcDbEntity
  8
一般
370
              15
  6
Continuous
 62
               7
  0
ENDBLK
  5
20C
100
AcDbEntity
  8
一般
100
AcDbBlockEnd
  0
ENDSEC
  0
SECTION
  2
ENTITIES
  0
MTEXT
  5
20D
100
AcDbEntity
  8
一般
 62
               7
100
AcDbMText
 10
1906.1324865405218
 20
1844.536622392819
 30
0.0
 40
70.739293981481481
 41
941.86751345947823
 71
               1
 72
               1
  1
BT-5122\P
  7
Arial
 73
               1
 44
0.9673603504928806
  0
INSERT
  5
20E
100
AcDbEntity
  8
一般
 62
               7
100
AcDbBlockReference
  2
スケール1：5
 10
422.0
 20
148.0
 30
0.0
 41
2.0
 42
2.0
 43
2.0
  0
INSERT
  5
20F
100
AcDbEntity
  8
一般
 62
               7
100
AcDbBlockReference
  2
グループ-2
 10
1450.0
 20
1020.0
 30
0.0
 41
2.0
 42
2.0
 43
2.0
  0
INSERT
  5
210
100
AcDbEntity
  8
一般
 62
               7
100
AcDbBlockReference
  2
グループ-3
 10
1450.0
 20
1020.0
 30
0.0
 41
2.0
 42
2.0
 43
2.0
  0
INSERT
  5
211
100
AcDbEntity
  8
一般
 62
               7
100
AcDbBlockReference
  2
グループ-4
 10
1450.0
 20
1020.0
 30
0.0
 41
2.0
 42
2.0
 43
2.0
  0
ENDSEC
  0
SECTION
  2
OBJECTS
  0
DICTIONARY
  5
19
100
AcDbDictionary
280
               0
281
               1
  3
ACAD_GROUP
350
1A
  3
ACAD_MLINESTYLE
350
1B
  3
ACAD_LAYOUT
350
1E
  3
ACAD_PLOTSETTINGS
350
22
  3
ACAD_PLOTSTYLENAME
350
1F
  3
ACAD_WIPEOUT_VARS
350
23
  0
DICTIONARY
  5
1A
102
{ACAD_REACTORS
330
19
102
}
100
AcDbDictionary
280
               0
281
               1
  0
DICTIONARY
  5
1B
102
{ACAD_REACTORS
330
19
102
}
100
AcDbDictionary
280
               0
281
               1
  3
Standard
350
1C
  0
MLINESTYLE
  5
1C
102
{ACAD_REACTORS
330
1B
102
}
100
AcDbMlineStyle
  2
Standard
 70
               0
  3

 62
               0
 51
90.0
 52
90.0
 71
               2
 49
0.5
 62
             256
  6
ByLayer
 49
-0.5
 62
             256
  6
ByLayer
  0
ACDBDICTIONARYWDFLT
  5
1F
102
{ACAD_REACTORS
330
19
102
}
100
AcDbDictionary
281
               1
  3
Normal
350
1D
100
AcDbDictionaryWithDefault
340
1D
  0
ACDBPLACEHOLDER
  5
1D
102
{ACAD_REACTORS
330
1F
102
}
  0
LAYOUT
  5
20
102
{ACAD_REACTORS
330
1E
102
}
100
AcDbPlotSettings
  1

  2

  4

  6

 40
0.0
 41
0.0
 42
0.0
 43
0.0
 44
0.0
 45
0.0
 46
0.0
 47
0.0
 48
0.0
 49
0.0
140
0.0
141
0.0
142
1.0
143
1.0
 70
            1024
 72
               0
 73
               0
 74
               0
  7

 75
               0
147
1.0
148
0.0
149
0.0
100
AcDbLayout
  1
Model
 70
               0
 71
               0
 10
0.0
 20
0.0
 11
0.0
 21
0.0
 12
0.0
 22
0.0
 32
0.0
 14
0.0
 24
0.0
 34
0.0
 15
0.0
 25
0.0
 35
0.0
146
0.0
 13
0.0
 23
0.0
 33
0.0
 16
0.0
 26
0.0
 36
0.0
 17
0.0
 27
0.0
 37
0.0
 76
               0
330
A
331
0
345
0
346
0
  0
LAYOUT
  5
21
102
{ACAD_REACTORS
330
1E
102
}
100
AcDbPlotSettings
  1

  2

  4

  6

 40
0.0
 41
0.0
 42
0.0
 43
0.0
 44
0.0
 45
0.0
 46
0.0
 47
0.0
 48
0.0
 49
0.0
140
0.0
141
0.0
142
1.0
143
1.0
 70
               0
 72
               0
 73
               0
 74
               0
  7

 75
               0
147
1.0
148
0.0
149
0.0
100
AcDbLayout
  1
Layout1
 70
               0
 71
               0
 10
0.0
 20
0.0
 11
0.0
 21
0.0
 12
0.0
 22
0.0
 32
0.0
 14
0.0
 24
0.0
 34
0.0
 15
0.0
 25
0.0
 35
0.0
146
0.0
 13
0.0
 23
0.0
 33
0.0
 16
0.0
 26
0.0
 36
0.0
 17
0.0
 27
0.0
 37
0.0
 76
               0
330
B
331
0
345
0
346
0
  0
DICTIONARY
  5
1E
102
{ACAD_REACTORS
330
19
102
}
100
AcDbDictionary
280
               0
281
               1
  3
Layout1
350
21
  3
Model
350
20
  0
DICTIONARY
  5
22
102
{ACAD_REACTORS
330
19
102
}
100
AcDbDictionary
280
               0
281
               1
  0
WIPEOUTVARIABLES
  5
23
100
AcDbWipeoutVariables
 70
               0
  0
ENDSEC
  0
EOF
