  0
SECTION
  2
HEADER
  9
$ACADVER
  1
AC1015
  9
$ACADMAINTVER
 70
               6
  9
$DWGCODEPAGE
  3
ANSI_932
  9
$INSBASE
 10
0.0
 20
0.0
 30
0.0
  9
$EXTMIN
 10
234.92234509281343
 20
150.35214356965253
 30
-14.816666666666665
  9
$EXTMAX
 10
2570.0
 20
1862.6973284113374
 30
14.816666666666665
  9
$LIMMIN
 10
0.0
 20
0.0
  9
$LIMMAX
 10
0.0
 20
0.0
  9
$ORTHOMODE
 70
               0
  9
$REGENMODE
 70
               1
  9
$FILLMODE
 70
               1
  9
$QTEXTMODE
 70
               0
  9
$MIRRTEXT
 70
               1
  9
$LTSCALE
 40
50.799999999999997
  9
$ATTMODE
 70
               1
  9
$TEXTSIZE
 40
0.2
  9
$TRACEWID
 40
1.0
  9
$TEXTSTYLE
  7
Standard
  9
$CLAYER
  8
一般
  9
$CELTYPE
  6
Continuous
  9
$CECOLOR
 62
             256
  9
$CELTSCALE
 40
1.0
  9
$DISPSILH
 70
               0
  9
$DIMSCALE
 40
1.0
  9
$DIMASZ
 40
0.18
  9
$DIMEXO
 40
0.0625
  9
$DIMDLI
 40
0.38
  9
$DIMRND
 40
0.0
  9
$DIMDLE
 40
0.0
  9
$DIMEXE
 40
0.18
  9
$DIMTP
 40
0.0
  9
$DIMTM
 40
0.0
  9
$DIMTXT
 40
0.18
  9
$DIMCEN
 40
0.09
  9
$DIMTSZ
 40
0.0
  9
$DIMTOL
 70
               0
  9
$DIMLIM
 70
               0
  9
$DIMTIH
 70
               1
  9
$DIMTOH
 70
               1
  9
$DIMSE1
 70
               0
  9
$DIMSE2
 70
               0
  9
$DIMTAD
 70
               0
  9
$DIMZIN
 70
               0
  9
$DIMBLK
  1

  9
$DIMASO
 70
               1
  9
$DIMSHO
 70
               1
  9
$DIMPOST
  1

  9
$DIMAPOST
  1

  9
$DIMALT
 70
               0
  9
$DIMALTD
 70
               2
  9
$DIMALTF
 40
25.399999999999999
  9
$DIMLFAC
 40
1.0
  9
$DIMTOFL
 70
               0
  9
$DIMTVP
 40
0.0
  9
$DIMTIX
 70
               0
  9
$DIMSOXD
 70
               0
  9
$DIMSAH
 70
               0
  9
$DIMBLK1
  1

  9
$DIMBLK2
  1

  9
$DIMSTYLE
  2
Standard
  9
$DIMCLRD
 70
               0
  9
$DIMCLRE
 70
               0
  9
$DIMCLRT
 70
               0
  9
$DIMTFAC
 40
1.0
  9
$DIMGAP
 40
0.09
  9
$DIMJUST
 70
               0
  9
$DIMSD1
 70
               0
  9
$DIMSD2
 70
               0
  9
$DIMTOLJ
 70
               1
  9
$DIMTZIN
 70
               0
  9
$DIMALTZ
 70
               0
  9
$DIMALTTZ
 70
               0
  9
$DIMUPT
 70
               0
  9
$DIMDEC
 70
               4
  9
$DIMTDEC
 70
               4
  9
$DIMALTU
 70
               2
  9
$DIMALTTD
 70
               2
  9
$DIMTXSTY
  7
Standard
  9
$DIMAUNIT
 70
               0
  9
$DIMADEC
 70
               0
  9
$DIMALTRND
 40
0.0
  9
$DIMAZIN
 70
               0
  9
$DIMDSEP
 70
               0
  9
$DIMATFIT
 70
               3
  9
$DIMFRAC
 70
               0
  9
$DIMLDRBLK
  1

  9
$DIMLUNIT
 70
               2
  9
$DIMLWD
 70
               0
  9
$DIMLWE
 70
               0
  9
$DIMTMOVE
 70
               0
  9
$LUNITS
 70
               2
  9
$LUPREC
 70
               4
  9
$SKETCHINC
 40
0.1
  9
$FILLETRAD
 40
0.0
  9
$AUNITS
 70
               0
  9
$AUPREC
 70
               0
  9
$MENU
  1
acad
  9
$ELEVATION
 40
0.0
  9
$PELEVATION
 40
0.0
  9
$THICKNESS
 40
0.0
  9
$LIMCHECK
 70
               0
  9
$CHAMFERA
 40
0.0
  9
$CHAMFERB
 40
0.0
  9
$CHAMFERC
 40
0.0
  9
$CHAMFERD
 40
0.0
  9
$SKPOLY
 70
               0
  9
$TDCREATE
 40
2455551.623206019
  9
$TDUCREATE
 40
0.000000000
  9
$TDUPDATE
 40
2455551.623206019
  9
$TDUUPDATE
 40
0.000000000
  9
$TDINDWG
 40
0.0000000000
  9
$TDUSRTIMER
 40
0.0000000000
  9
$USRTIMER
 70
               1
  9
$ANGBASE
 50
0.0
  9
$ANGDIR
 70
               0
  9
$PDMODE
 70
               1
  9
$PDSIZE
 40
-2.0
  9
$PLINEWID
 40
0.0
  9
$SPLFRAME
 70
               0
  9
$SPLINETYPE
 70
               6
  9
$SPLINESEGS
 70
               8
  9
$HANDSEED
  5
9B
  9
$SURFTAB1
 70
               6
  9
$SURFTAB2
 70
               6
  9
$SURFTYPE
 70
               6
  9
$SURFU
 70
               6
  9
$SURFV
 70
               6
  9
$UCSBASE
  2

  9
$UCSNAME
  2

  9
$UCSORG
 10
0.0
 20
0.0
 30
0.0
  9
$UCSXDIR
 10
1.0
 20
0.0
 30
0.0
  9
$UCSYDIR
 10
0.0
 20
1.0
 30
0.0
  9
$UCSORTHOREF
  2

  9
$UCSORTHOVIEW
 70
               0
  9
$UCSORGTOP
 10
0.0
 20
0.0
 30
0.0
  9
$UCSORGBOTTOM
 10
0.0
 20
0.0
 30
0.0
  9
$UCSORGLEFT
 10
0.0
 20
0.0
 30
0.0
  9
$UCSORGRIGHT
 10
0.0
 20
0.0
 30
0.0
  9
$UCSORGFRONT
 10
0.0
 20
0.0
 30
0.0
  9
$UCSORGBACK
 10
0.0
 20
0.0
 30
0.0
  9
$PUCSBASE
  2

  9
$PUCSNAME
  2

  9
$PUCSORG
 10
0.0
 20
0.0
 30
0.0
  9
$PUCSXDIR
 10
1.0
 20
0.0
 30
0.0
  9
$PUCSYDIR
 10
0.0
 20
1.0
 30
0.0
  9
$PUCSORTHOREF
  2

  9
$PUCSORTHOVIEW
 70
               0
  9
$PUCSORGTOP
 10
0.0
 20
0.0
 30
0.0
  9
$PUCSORGBOTTOM
 10
0.0
 20
0.0
 30
0.0
  9
$PUCSORGLEFT
 10
0.0
 20
0.0
 30
0.0
  9
$PUCSORGRIGHT
 10
0.0
 20
0.0
 30
0.0
  9
$PUCSORGFRONT
 10
0.0
 20
0.0
 30
0.0
  9
$PUCSORGBACK
 10
0.0
 20
0.0
 30
0.0
  9
$USERI1
 70
               0
  9
$USERI2
 70
               0
  9
$USERI3
 70
               0
  9
$USERI4
 70
               0
  9
$USERI5
 70
               0
  9
$USERR1
 40
0.0
  9
$USERR2
 40
0.0
  9
$USERR3
 40
0.0
  9
$USERR4
 40
0.0
  9
$USERR5
 40
0.0
  9
$WORLDVIEW
 70
               1
  9
$SHADEDGE
 70
               3
  9
$SHADEDIF
 70
              70
  9
$TILEMODE
 70
               1
  9
$MAXACTVP
 70
              64
  9
$PINSBASE
 10
0.0
 20
0.0
 30
0.0
  9
$PLIMCHECK
 70
               0
  9
$PEXTMIN
 10
1.0000000000000000E+20
 20
1.0000000000000000E+20
 30
1.0000000000000000E+20
  9
$PEXTMAX
 10
-1.0000000000000000E+20
 20
-1.0000000000000000E+20
 30
-1.0000000000000000E+20
  9
$PLIMMIN
 10
0.0
 20
0.0
  9
$PLIMMAX
 10
12.0
 20
9.0
  9
$UNITMODE
 70
               0
  9
$VISRETAIN
 70
               0
  9
$PLINEGEN
 70
               1
  9
$PSLTSCALE
 70
               0
  9
$TREEDEPTH
 70
            3020
  9
$CMLSTYLE
  2
Standard
  9
$CMLJUST
 70
               0
  9
$CMLSCALE
 40
1.0
  9
$PROXYGRAPHICS
 70
               0
  9
$MEASUREMENT
 70
               1
  9
$CELWEIGHT
370
               0
  9
$ENDCAPS
280
               0
  9
$JOINSTYLE
280
               0
  9
$LWDISPLAY
290
               1
  9
$INSUNITS
 70
               4
  9
$HYPERLINKBASE
  1

  9
$STYLESHEET
  1

  9
$XEDIT
290
               1
  9
$CEPSNTYPE
380
               0
  9
$PSTYLEMODE
290
               1
  9
$FINGERPRINTGUID
  2

  9
$VERSIONGUID
  2

  9
$EXTNAMES
290
               1
  9
$PSVPSCALE
 40
0.0
  0
ENDSEC
  0
SECTION
  2
CLASSES
  0
CLASS
  1
LWPOLYLINE
  2
AcDbPolyline
  3
AutoCAD 2000
 90
        0
280
               0
281
               1
  0
CLASS
  1
IMAGE
  2
AcDbRasterImage
  3
ISM
 90
    32895
280
               0
281
               1
  0
CLASS
  1
OLE2FRAME
  2
AcDbOle2Frame
  3
AutoCAD 2000
 90
    32768
280
               0
281
               1
  0
CLASS
  1
HATCH
  2
AcDbHatch
  3
AutoCAD 2000
 90
    32768
280
               0
281
               1
  0
CLASS
  1
DICTIONARYVAR
  2
AcDbDictionaryVar
  3
AutoCAD 2000
 90
    32768
280
               0
281
               0
  0
CLASS
  1
RASTERVARIABLES
  2
AcDbRasterVariables
  3
ISM
 90
    32768
280
               0
281
               0
  0
CLASS
  1
IMAGEDEF
  2
AcDbRasterImageDef
  3
ISM
 90
    32768
280
               0
281
               0
  0
CLASS
  1
IMAGEDEF_REACTOR
  2
AcDbRasterImageDefReactor
  3
ISM
 90
    32769
280
               0
281
               0
  0
CLASS
  1
IDBUFFER
  2
AcDbIdBuffer
  3
AutoCAD 2000
 90
    32768
280
               0
281
               0
  0
CLASS
  1
SPATIAL_FILTER
  2
AcDbSpatialFilter
  3
AutoCAD 2000
 90
    32768
280
               0
281
               0
  0
CLASS
  1
XRECORD
  2
AcDbXrecord
  3
AutoCAD 2000
 90
    32768
280
               0
281
               0
  0
CLASS
  1
SORTENTSTABLE
  2
AcDbSortentsTable
  3
AutoCAD 2000
 90
    32768
280
               0
281
               0
  0
CLASS
  1
LAYER_INDEX
  2
AcDbLayerIndex
  3
AutoCAD 2000
 90
    32768
280
               0
281
               0
  0
CLASS
  1
SPATIAL_INDEX
  2
AcDbSpatialIndex
  3
AutoCAD 2000
 90
    32768
280
               0
281
               0
  0
CLASS
  1
OBJECT_PTR
  2
CAseDLPNTableRecord
  3
"ASE-LPNTableRecord"
 90
    32769
280
               0
281
               0
  0
CLASS
  1
LAYOUT
  2
AcDbLayout
  3
AutoCAD 2000
 90
        0
280
               0
281
               0
  0
CLASS
  1
PLOTSETTINGS
  2
AcDbPlotSettings
  3
AutoCAD 2000
 90
    32768
280
               0
281
               0
  0
CLASS
  1
ACDBDICTIONARYWDFLT
  2
AcDbDictionaryWithDefault
  3
AutoCAD 2000
 90
        0
280
               0
281
               0
  0
CLASS
  1
ACDBPLACEHOLDER
  2
AcDbPlaceHolder
  3
AutoCAD 2000
 90
        0
280
               0
281
               0
  0
CLASS
  1
VBA_PROJECT
  2
AcDbVbaProject
  3
acadvba
 90
    32768
280
               0
281
               0
  0
CLASS
  1
WIPEOUT
  2
AcDbWipeout
  3
WipeOut|AutoCAD Express Tool|expresstools@autodesk.com
 90
      127
280
               0
281
               1
  0
CLASS
  1
WIPEOUTVARIABLES
  2
AcDbWipeoutVariables
  3
WipeOut|AutoCAD Express Tool|expresstools@autodesk.com
 90
        0
280
               0
281
               0
  0
CLASS
  1
RTEXT
  2
RText
  3
RText|AutoCAD Express Tool|expresstools@autodesk.com
 90
    32768
280
               0
281
               1
  0
CLASS
  1
ARCALIGNEDTEXT
  2
AcDbArcAlignedText
  3
ATEXT|AutoCAD Express Tool|expresstools@autodesk.com
 90
    32768
280
               0
281
               1
  0
ENDSEC
  0
SECTION
  2
TABLES
  0
TABLE
  2
VPORT
  5
7
100
AcDbSymbolTable
 70
               1
  0
VPORT
  5
15
100
AcDbSymbolTableRecord
100
AcDbViewportTableRecord
  2
*ACTIVE
 70
               0
 10
0.0
 20
0.0
 11
1.0
 21
1.0
 12
1402.4611725464067
 22
1006.5247359904949
 13
0.0
 23
0.0
 14
1.0
 24
1.0
 15
0.0
 25
0.0
 16
0.0
 26
0.0
 36
1.0
 17
0.0
 27
0.0
 37
0.0
 40
1712.3451848416848
 41
0.688564
 42
50.0
 43
0.0
 44
0.0
 50
0.0
 51
0.0
 71
               0
 72
            2000
 73
               1
 74
               1
 75
               0
 76
               0
 77
               0
 78
               0
281
               0
 65
               0
110
0.0
120
0.0
130
0.0
111
1.0
121
0.0
131
0.0
112
0.0
122
1.0
132
0.0
345
0
346
0
 79
               0
146
0.0
  0
ENDTAB
  0
TABLE
  2
LTYPE
  5
4
100
AcDbSymbolTable
 70
              13
  0
LTYPE
  5
11
100
AcDbSymbolTableRecord
100
AcDbLinetypeTableRecord
  2
ByBlock
 70
              64
  3

 72
              65
 73
               0
 40
0.0
  0
LTYPE
  5
12
100
AcDbSymbolTableRecord
100
AcDbLinetypeTableRecord
  2
ByLayer
 70
              64
  3

 72
              65
 73
               0
 40
0.0
  0
LTYPE
  5
13
100
AcDbSymbolTableRecord
100
AcDbLinetypeTableRecord
  2
Continuous
 70
              64
  3
Solid line
 72
              65
 73
               0
 40
0.0
  0
LTYPE
  5
30
100
AcDbSymbolTableRecord
100
AcDbLinetypeTableRecord
  2
STYLE_01
 70
               0
  3

 72
              65
 73
               2
 40
0.41664
 49
0.20828
 74
               0
 49
-0.20836
 74
               0
  0
LTYPE
  5
31
100
AcDbSymbolTableRecord
100
AcDbLinetypeTableRecord
  2
STYLE_02
 70
               0
  3

 72
              65
 73
               2
 40
0.6944250000000001
 49
0.48607
 74
               0
 49
-0.2083550000000001
 74
               0
  0
LTYPE
  5
32
100
AcDbSymbolTableRecord
100
AcDbLinetypeTableRecord
  2
STYLE_03
 70
               0
  3

 72
              65
 73
               2
 40
1.25
 49
1.0416400000000001
 74
               0
 49
-0.2083599999999999
 74
               0
  0
LTYPE
  5
33
100
AcDbSymbolTableRecord
100
AcDbLinetypeTableRecord
  2
STYLE_04
 70
               0
  3

 72
              65
 73
               2
 40
1.5277099999999999
 49
1.3194249999999998
 74
               0
 49
-0.208285
 74
               0
  0
LTYPE
  5
34
100
AcDbSymbolTableRecord
100
AcDbLinetypeTableRecord
  2
STYLE_05
 70
               0
  3

 72
              65
 73
               2
 40
0.20828
 49
0.069425
 74
               0
 49
-0.138855
 74
               0
  0
LTYPE
  5
35
100
AcDbSymbolTableRecord
100
AcDbLinetypeTableRecord
  2
STYLE_06
 70
               0
  3

 72
              65
 73
               4
 40
1.0416400000000001
 49
0.625
 74
               0
 49
-0.20828
 74
               0
 49
0.06943
 74
               0
 49
-0.13893
 74
               0
  0
LTYPE
  5
36
100
AcDbSymbolTableRecord
100
AcDbLinetypeTableRecord
  2
STYLE_07
 70
               0
  3

 72
              65
 73
               6
 40
1.875
 49
0.625
 74
               0
 49
-0.20828
 74
               0
 49
0.6250000000000001
 74
               0
 49
-0.2083599999999999
 74
               0
 49
0.06943
 74
               0
 49
-0.1389299999999999
 74
               0
  0
LTYPE
  5
37
100
AcDbSymbolTableRecord
100
AcDbLinetypeTableRecord
  2
STYLE_08
 70
               0
  3

 72
              65
 73
               6
 40
1.25
 49
0.625
 74
               0
 49
-0.20828
 74
               0
 49
0.06943
 74
               0
 49
-0.13893
 74
               0
 49
0.0694299999999999
 74
               0
 49
-0.13893
 74
               0
  0
LTYPE
  5
38
100
AcDbSymbolTableRecord
100
AcDbLinetypeTableRecord
  2
STYLE_09
 70
               0
  3

 72
              65
 73
               4
 40
5.0
 49
3.75
 74
               0
 49
-0.2777849999999998
 74
               0
 49
0.6944300000000003
 74
               0
 49
-0.2777849999999998
 74
               0
  0
LTYPE
  5
39
100
AcDbSymbolTableRecord
100
AcDbLinetypeTableRecord
  2
STYLE_10
 70
               0
  3

 72
              65
 73
               6
 40
5.9375
 49
3.75
 74
               0
 49
-0.2777849999999998
 74
               0
 49
0.6944300000000003
 74
               0
 49
-0.2777849999999998
 74
               0
 49
0.625
 74
               0
 49
-0.3125
 74
               0
  0
ENDTAB
  0
TABLE
  2
LAYER
  5
2
100
AcDbSymbolTable
 70
               3
  0
LAYER
  5
14
100
AcDbSymbolTableRecord
100
AcDbLayerTableRecord
  2
0
 70
               0
 62
               7
  6
Continuous
290
               1
370
              -3
390
1D
  0
LAYER
  5
3A
100
AcDbSymbolTableRecord
100
AcDbLayerTableRecord
  2
一般
 70
               0
 62
               7
  6
Continuous
290
               1
370
               5
390
1D
  0
LAYER
  5
3B
100
AcDbSymbolTableRecord
100
AcDbLayerTableRecord
  2
寸法
 70
               0
 62
               7
  6
Continuous
290
               1
370
               5
390
1D
  0
ENDTAB
  0
TABLE
  2
STYLE
  5
3
100
AcDbSymbolTable
 70
               3
  0
STYLE
  5
17
100
AcDbSymbolTableRecord
100
AcDbTextStyleTableRecord
  2
Standard
 70
               0
 40
0.0
 41
1.0
 50
0.0
 71
               0
 42
0.0
  3
txt
  4
BIGFONT.SHX
  0
STYLE
  5
2E
100
AcDbSymbolTableRecord
100
AcDbTextStyleTableRecord
  2
Arial
 70
               0
 40
0.0
 41
1.0
 50
0.0
 71
               0
 42
0.0
  3

  4
Arial
1001
ACAD
1000
Arial
1071
        0
  0
STYLE
  5
2F
100
AcDbSymbolTableRecord
100
AcDbTextStyleTableRecord
  2
ＭＳ ゴシック
 70
               0
 40
0.0
 41
1.0
 50
0.0
 71
               0
 42
0.0
  3

  4
ＭＳ ゴシック
1001
ACAD
1000
ＭＳ ゴシック
1071
        0
  0
ENDTAB
  0
TABLE
  2
VIEW
  5
5
100
AcDbSymbolTable
 70
               0
  0
ENDTAB
  0
TABLE
  2
UCS
  5
6
100
AcDbSymbolTable
 70
               0
  0
ENDTAB
  0
TABLE
  2
APPID
  5
8
100
AcDbSymbolTable
 70
               1
  0
APPID
  5
16
100
AcDbSymbolTableRecord
100
AcDbRegAppTableRecord
  2
ACAD
 70
               0
  0
ENDTAB
  0
TABLE
  2
DIMSTYLE
  5
9
100
AcDbSymbolTable
 70
               1
100
AcDbDimStyleTable
 71
               0
  0
DIMSTYLE
105
18
100
AcDbSymbolTableRecord
100
AcDbDimStyleTableRecord
  2
Standard
 70
               0
  3

  4

 40
1.0
 41
0.18
 42
0.0625
 43
0.38
 44
0.18
 45
0.0
 46
0.0
 47
0.0
 48
0.0
 71
               0
 72
               0
 73
               1
 74
               1
 75
               0
 76
               0
 77
               0
 78
               0
 79
               0
140
0.18
141
0.09
142
0.0
143
25.399999999999999
144
1.0
145
0.0
146
1.0
147
0.09
148
0.0
170
               0
171
               2
172
               0
173
               0
174
               0
175
               0
176
               0
177
               0
178
               0
179
               0
271
               4
272
               4
273
               2
274
               2
275
               0
276
               0
277
               2
278
              46
279
               0
280
               0
281
               0
282
               0
283
               1
284
               0
285
               0
286
               0
288
               0
340
17
341
0
342
0
343
0
344
0
371
              -2
372
              -2
  0
ENDTAB
  0
TABLE
  2
BLOCK_RECORD
  5
1
100
AcDbSymbolTable
 70
              10
  0
BLOCK_RECORD
  5
A
100
AcDbSymbolTableRecord
100
AcDbBlockTableRecord
  2
*MODEL_SPACE
340
20
  0
BLOCK_RECORD
  5
B
100
AcDbSymbolTableRecord
100
AcDbBlockTableRecord
  2
*PAPER_SPACE
340
21
  0
BLOCK_RECORD
  5
24
100
AcDbSymbolTableRecord
100
AcDbBlockTableRecord
  2
グループ
340
0
102
{BLKREFS
331
49
102
}
  0
BLOCK_RECORD
  5
25
100
AcDbSymbolTableRecord
100
AcDbBlockTableRecord
  2
scal 1_10
340
0
102
{BLKREFS
331
7F
102
}
  0
BLOCK_RECORD
  5
26
100
AcDbSymbolTableRecord
100
AcDbBlockTableRecord
  2
グループ-1
340
0
102
{BLKREFS
331
50
102
}
  0
BLOCK_RECORD
  5
27
100
AcDbSymbolTableRecord
100
AcDbBlockTableRecord
  2
グループ-2
340
0
102
{BLKREFS
331
80
102
}
  0
BLOCK_RECORD
  5
28
100
AcDbSymbolTableRecord
100
AcDbBlockTableRecord
  2
グループ-3
340
0
102
{BLKREFS
331
57
102
}
  0
BLOCK_RECORD
  5
29
100
AcDbSymbolTableRecord
100
AcDbBlockTableRecord
  2
グループ-4
340
0
102
{BLKREFS
331
96
102
}
  0
BLOCK_RECORD
  5
2A
100
AcDbSymbolTableRecord
100
AcDbBlockTableRecord
  2
グループ-5
340
0
102
{BLKREFS
331
5E
102
}
  0
BLOCK_RECORD
  5
2B
100
AcDbSymbolTableRecord
100
AcDbBlockTableRecord
  2
グループ-6
340
0
102
{BLKREFS
331
97
102
}
  0
BLOCK_RECORD
  5
2C
100
AcDbSymbolTableRecord
100
AcDbBlockTableRecord
  2
グループ-7
340
0
102
{BLKREFS
331
7C
102
}
  0
BLOCK_RECORD
  5
2D
100
AcDbSymbolTableRecord
100
AcDbBlockTableRecord
  2
グループ-8
340
0
102
{BLKREFS
331
98
102
}
  0
ENDTAB
  0
ENDSEC
  0
SECTION
  2
BLOCKS
  0
BLOCK
  5
D
100
AcDbEntity
  8
0
100
AcDbBlockBegin
  2
*MODEL_SPACE
 70
               0
 10
0.0
 20
0.0
 30
0.0
  3
*MODEL_SPACE
  1

  0
ENDBLK
  5
E
100
AcDbEntity
  8
0
100
AcDbBlockEnd
  0
BLOCK
  5
F
100
AcDbEntity
 67
               1
  8
0
100
AcDbBlockBegin
  2
*PAPER_SPACE
 70
               0
 10
0.0
 20
0.0
 30
0.0
  3
*PAPER_SPACE
  1

  0
ENDBLK
  5
10
100
AcDbEntity
 67
               1
  8
0
100
AcDbBlockEnd
  0
BLOCK
  5
3C
100
AcDbEntity
  8
一般
100
AcDbBlockBegin
  2
グループ
 70
               0
 10
0.0
 20
0.0
 30
0.0
  3
グループ
  1

  0
MTEXT
  5
3D
100
AcDbEntity
  8
一般
 62
               9
100
AcDbMText
 10
-126.88010037244908
 20
13.945972804042416
 30
0.0
 40
16.288411458333332
 41
30.0
 71
               1
 72
               1
  1
0
  7
ＭＳ ゴシック
 73
               1
 44
0.7828267384257843
  0
MTEXT
  5
3E
100
AcDbEntity
  8
一般
 62
               9
100
AcDbMText
 10
-38.228066425365569
 20
12.639448705947533
 30
0.0
 40
16.288411458333332
 41
40.0
 71
               1
 72
               1
  1
100
  7
ＭＳ ゴシック
 73
               1
 44
0.7828267384257843
  0
LINE
  5
3F
100
AcDbEntity
  8
一般
370
              15
  6
Continuous
 62
               8
100
AcDbLine
 10
-23.119899627550922
 20
-5.8608946790423033
 30
0.0
 11
-23.119899627550922
 21
-15.860894679042303
 31
0.0
  0
MTEXT
  5
40
100
AcDbEntity
  8
一般
 62
               9
100
AcDbMText
 10
51.771933574634431
 20
12.639448705947533
 30
0.0
 40
16.288411458333332
 41
75.108166797814647
 71
               1
 72
               1
  1
200mm
  7
ＭＳ ゴシック
 73
               1
 44
0.7828267384257843
  0
POLYLINE
  5
41
100
AcDbEntity
  8
一般
370
              15
  6
Continuous
 62
               9
100
AcDb2dPolyline
 66
               1
 10
0.0
 20
0.0
 30
0.0
 75
               5
  0
VERTEX
  5
42
100
AcDbEntity
  8
一般
370
              15
  6
Continuous
 62
               9
100
AcDbVertex
100
AcDb2dVertex
 10
-123.11989962755092
 20
-5.8608946790423033
 30
0.0
  0
VERTEX
  5
43
100
AcDbEntity
  8
一般
370
              15
  6
Continuous
 62
               9
100
AcDbVertex
100
AcDb2dVertex
 10
-123.11989962755092
 20
-15.860894679042303
 30
0.0
  0
VERTEX
  5
44
100
AcDbEntity
  8
一般
370
              15
  6
Continuous
 62
               9
100
AcDbVertex
100
AcDb2dVertex
 10
76.880100372449078
 20
-15.860894679042303
 30
0.0
  0
VERTEX
  5
45
100
AcDbEntity
  8
一般
370
              15
  6
Continuous
 62
               9
100
AcDbVertex
100
AcDb2dVertex
 10
76.880100372449078
 20
-5.8608946790423033
 30
0.0
  0
SEQEND
  5
46
100
AcDbEntity
  8
一般
370
              15
  6
Continuous
 62
               9
  0
ENDBLK
  5
47
100
AcDbEntity
  8
一般
100
AcDbBlockEnd
  0
BLOCK
  5
48
100
AcDbEntity
  8
一般
100
AcDbBlockBegin
  2
scal 1_10
 70
               0
 10
0.0
 20
0.0
 30
0.0
  3
scal 1_10
  1

  0
INSERT
  5
49
100
AcDbEntity
  8
一般
 62
               7
100
AcDbBlockReference
  2
グループ
 10
0.0
 20
0.0
 30
0.0
  0
ENDBLK
  5
4A
100
AcDbEntity
  8
一般
100
AcDbBlockEnd
  0
BLOCK
  5
4B
100
AcDbEntity
  8
一般
100
AcDbBlockBegin
  2
グループ-1
 70
               0
 10
0.0
 20
0.0
 30
0.0
  3
グループ-1
  1

  0
LINE
  5
4C
100
AcDbEntity
  8
一般
370
               5
  6
Continuous
 62
               7
100
AcDbLine
 10
-884.1520816615764
 20
709.65211477011758
 30
0.0
 11
-898.29421728530735
 21
695.50997914638651
 31
0.0
  0
LINE
  5
4D
100
AcDbEntity
  8
一般
370
               5
  6
Continuous
 62
               7
100
AcDbLine
 10
-884.1520816615764
 20
695.50997914638674
 30
0.0
 11
-898.29421728530735
 21
709.65211477011758
 31
0.0
  0
ENDBLK
  5
4E
100
AcDbEntity
  8
一般
100
AcDbBlockEnd
  0
BLOCK
  5
4F
100
AcDbEntity
  8
一般
100
AcDbBlockBegin
  2
グループ-2
 70
               0
 10
0.0
 20
0.0
 30
0.0
  3
グループ-2
  1

  0
INSERT
  5
50
100
AcDbEntity
  8
一般
 62
               7
100
AcDbBlockReference
  2
グループ-1
 10
0.0
 20
0.0
 30
0.0
  0
ENDBLK
  5
51
100
AcDbEntity
  8
一般
100
AcDbBlockEnd
  0
BLOCK
  5
52
100
AcDbEntity
  8
一般
100
AcDbBlockBegin
  2
グループ-3
 70
               0
 10
0.0
 20
0.0
 30
0.0
  3
グループ-3
  1

  0
LINE
  5
53
100
AcDbEntity
  8
一般
370
               5
  6
Continuous
 62
               7
100
AcDbLine
 10
-896.69801497569222
 20
-855.50572080661641
 30
0.0
 11
-910.84015059942317
 21
-869.64785643034747
 31
0.0
  0
LINE
  5
54
100
AcDbEntity
  8
一般
370
               5
  6
Continuous
 62
               7
100
AcDbLine
 10
-896.69801497569222
 20
-869.64785643034725
 30
0.0
 11
-910.84015059942317
 21
-855.50572080661641
 31
0.0
  0
ENDBLK
  5
55
100
AcDbEntity
  8
一般
100
AcDbBlockEnd
  0
BLOCK
  5
56
100
AcDbEntity
  8
一般
100
AcDbBlockBegin
  2
グループ-4
 70
               0
 10
0.0
 20
0.0
 30
0.0
  3
グループ-4
  1

  0
INSERT
  5
57
100
AcDbEntity
  8
一般
 62
               7
100
AcDbBlockReference
  2
グループ-3
 10
0.0
 20
0.0
 30
0.0
  0
ENDBLK
  5
58
100
AcDbEntity
  8
一般
100
AcDbBlockEnd
  0
BLOCK
  5
59
100
AcDbEntity
  8
一般
100
AcDbBlockBegin
  2
グループ-5
 70
               0
 10
0.0
 20
0.0
 30
0.0
  3
グループ-5
  1

  0
LINE
  5
5A
100
AcDbEntity
  8
一般
370
               5
  6
Continuous
 62
               7
100
AcDbLine
 10
140.41852805482279
 20
-855.50572080661641
 30
0.0
 11
126.27639243109184
 21
-869.64785643034747
 31
0.0
  0
LINE
  5
5B
100
AcDbEntity
  8
一般
370
               5
  6
Continuous
 62
               7
100
AcDbLine
 10
140.41852805482279
 20
-869.64785643034725
 30
0.0
 11
126.27639243109184
 21
-855.50572080661641
 31
0.0
  0
ENDBLK
  5
5C
100
AcDbEntity
  8
一般
100
AcDbBlockEnd
  0
BLOCK
  5
5D
100
AcDbEntity
  8
一般
100
AcDbBlockBegin
  2
グループ-6
 70
               0
 10
0.0
 20
0.0
 30
0.0
  3
グループ-6
  1

  0
INSERT
  5
5E
100
AcDbEntity
  8
一般
 62
               7
100
AcDbBlockReference
  2
グループ-5
 10
0.0
 20
0.0
 30
0.0
  0
ENDBLK
  5
5F
100
AcDbEntity
  8
一般
100
AcDbBlockEnd
  0
BLOCK
  5
60
100
AcDbEntity
  8
一般
100
AcDbBlockBegin
  2
グループ-7
 70
               0
 10
0.0
 20
0.0
 30
0.0
  3
グループ-7
  1

  0
LINE
  5
61
100
AcDbEntity
  8
寸法
370
              15
100
AcDbLine
 10
-1123.4971463661673
 20
563.39603617689988
 30
0.0
 11
-658.94915258071751
 21
563.39603617689988
 31
0.0
  0
SPLINE
  5
62
100
AcDbEntity
  8
寸法
370
              15
100
AcDbSpline
210
0.0
220
0.0
230
1.0
 70
               8
 71
               2
 72
               6
 73
               3
 74
               0
 42
0.000001
 43
0.000001
 40
0.0
 40
0.0
 40
0.0
 40
1.0
 40
1.0
 40
1.0
 10
-1143.0557015634249
 20
547.57537294835163
 30
0.0
 10
-1159.422211333449
 20
399.61188845096501
 30
0.0
 10
-1142.9095192035757
 20
284.5276058534763
 30
0.0
  0
SPLINE
  5
63
100
AcDbEntity
  8
寸法
370
              15
100
AcDbSpline
210
0.0
220
0.0
230
1.0
 70
               8
 71
               2
 72
               6
 73
               3
 74
               0
 42
0.000001
 43
0.000001
 40
0.0
 40
0.0
 40
0.0
 40
1.0
 40
1.0
 40
1.0
 10
-639.39049175174796
 20
547.57441796885485
 30
0.0
 10
-623.0180833035065
 20
399.55675227725294
 30
0.0
 10
-639.5490077326067
 20
284.44241946299405
 30
0.0
  0
SPLINE
  5
64
100
AcDbEntity
  8
寸法
370
              15
100
AcDbSpline
210
0.0
220
0.0
230
1.0
 70
               8
 71
               2
 72
               6
 73
               3
 74
               0
 42
0.000001
 43
0.000001
 40
0.0
 40
0.0
 40
0.0
 40
1.0
 40
1.0
 40
1.0
 10
-1128.0348986409585
 20
267.2453304064951
 30
0.0
 10
-891.04924465151862
 20
159.71474743092665
 30
0.0
 10
-654.0635906620787
 20
267.40326249347561
 30
0.0
  0
CIRCLE
  5
65
100
AcDbEntity
  8
寸法
370
              15
100
AcDbCircle
 10
-891.22314947344239
 20
623.39603617689988
 30
0.0
 40
17.5
  0
CIRCLE
  5
66
100
AcDbEntity
  8
寸法
370
              15
100
AcDbCircle
 10
-891.22314947344239
 20
478.39603617689988
 30
0.0
 40
23.0
  0
LINE
  5
67
100
AcDbEntity
  8
寸法
370
               5
100
AcDbLine
 10
-1091.2231494734424
 20
553.39603617689988
 30
0.0
 11
-691.22314947344239
 21
553.39603617689988
 31
0.0
  0
POLYLINE
  5
68
100
AcDbEntity
  8
寸法
370
               5
100
AcDb2dPolyline
 66
               1
 10
0.0
 20
0.0
 30
0.0
 75
               5
  0
VERTEX
  5
69
100
AcDbEntity
  8
寸法
370
               5
100
AcDbVertex
100
AcDb2dVertex
 10
-1112.2315340844643
 20
342.56601692821721
 30
0.0
  0
VERTEX
  5
6A
100
AcDbEntity
  8
寸法
370
               5
100
AcDbVertex
100
AcDb2dVertex
 10
-1053.40107560874
 20
317.90806550536706
 30
0.0
  0
VERTEX
  5
6B
100
AcDbEntity
  8
寸法
370
               5
100
AcDbVertex
100
AcDb2dVertex
 10
-998.78218379915097
 20
301.55611332780506
 30
0.0
  0
VERTEX
  5
6C
100
AcDbEntity
  8
寸法
370
               5
100
AcDbVertex
100
AcDb2dVertex
 10
-944.8208817642053
 20
291.86306462893515
 30
0.0
  0
VERTEX
  5
6D
100
AcDbEntity
  8
寸法
370
               5
100
AcDbVertex
100
AcDb2dVertex
 10
-891.22314947344239
 20
288.65381769547582
 30
0.0
  0
VERTEX
  5
6E
100
AcDbEntity
  8
寸法
370
               5
100
AcDbVertex
100
AcDb2dVertex
 10
-837.62541718267948
 20
291.86306462893515
 30
0.0
  0
VERTEX
  5
6F
100
AcDbEntity
  8
寸法
370
               5
100
AcDbVertex
100
AcDb2dVertex
 10
-783.66411514773336
 20
301.55611332780506
 30
0.0
  0
VERTEX
  5
70
100
AcDbEntity
  8
寸法
370
               5
100
AcDbVertex
100
AcDb2dVertex
 10
-729.0452233381443
 20
317.90806550536706
 30
0.0
  0
VERTEX
  5
71
100
AcDbEntity
  8
寸法
370
               5
100
AcDbVertex
100
AcDb2dVertex
 10
-670.21476486242045
 20
342.56601692821721
 30
0.0
  0
SEQEND
  5
72
100
AcDbEntity
  8
寸法
370
               5
  0
ARC
  5
73
100
AcDbEntity
  8
寸法
370
               5
100
AcDbCircle
 10
-509.34630081447403
 20
388.95257894719168
 30
0.0
 40
604.66711307210255
100
AcDbArc
 50
164.21924669048465
 51
184.39972332781221
  0
ARC
  5
74
100
AcDbEntity
  8
寸法
370
               5
100
AcDbCircle
 10
-1714.3265578461157
 20
344.98608261950346
 30
0.0
 40
1044.1145976211503
100
AcDbArc
 50
359.86702556250418
 51
11.51383118448706
  0
ARC
  5
75
100
AcDbEntity
  8
寸法
370
              15
100
AcDbCircle
 10
-1115.3145987412327
 20
293.13079463226848
 30
0.0
 40
28.800411322326994
100
AcDbArc
 50
197.38074952743483
 51
243.79153135378274
  0
ARC
  5
76
100
AcDbEntity
  8
寸法
370
              15
100
AcDbCircle
 10
-667.00765992261358
 20
293.13079463226848
 30
0.0
 40
28.800411322327388
100
AcDbArc
 50
296.20846864621728
 51
342.61925047256528
  0
ARC
  5
77
100
AcDbEntity
  8
寸法
370
              15
100
AcDbCircle
 10
-658.94915258071751
 20
543.39603617689988
 30
0.0
 40
20.0
100
AcDbArc
 50
6.8988476570201174
 51
90.0
  0
ARC
  5
78
100
AcDbEntity
  8
寸法
370
              15
100
AcDbCircle
 10
-1123.4971463661673
 20
543.39603617689988
 30
0.0
 40
20.0
100
AcDbArc
 50
90.0
 51
173.1011523429799
  0
ENDBLK
  5
79
100
AcDbEntity
  8
一般
100
AcDbBlockEnd
  0
BLOCK
  5
7A
100
AcDbEntity
  8
一般
100
AcDbBlockBegin
  2
グループ-8
 70
               0
 10
0.0
 20
0.0
 30
0.0
  3
グループ-8
  1

  0
LWPOLYLINE
  5
7B
100
AcDbEntity
  8
寸法
370
              15
100
AcDbPolyline
 90
        7
 70
             128
 10
-1189.2801392264482
 20
272.17780448737375
 42
-0.0603643070815339
 10
-1188.7231494734419
 20
702.5810469582533
 10
-593.72314947344194
 20
702.58104695825102
 42
-0.060364307083282
 10
-593.16615972192039
 20
272.1778044748429
 42
-0.2109772985194161
 10
-597.54208877356643
 20
265.38597290617633
 42
-0.264930008637657
 10
-1184.9042101733567
 20
265.3859729062018
 42
-0.2200343840748349
 10
-1189.3281681714452
 20
272.52064214436257
 42
-0.2200343840748349
  0
INSERT
  5
7C
100
AcDbEntity
  8
一般
 62
               7
100
AcDbBlockReference
  2
グループ-7
 10
0.0
 20
0.0
 30
0.0
  0
ENDBLK
  5
7D
100
AcDbEntity
  8
一般
100
AcDbBlockEnd
  0
ENDSEC
  0
SECTION
  2
ENTITIES
  0
MTEXT
  5
7E
100
AcDbEntity
  8
一般
 62
               7
100
AcDbMText
 10
1906.1324865405218
 20
1844.536622392819
 30
0.0
 40
70.739293981481481
 41
663.86751345947823
 71
               1
 72
               1
  1
 B1-C601-1
  7
Arial
 73
               1
 44
0.9673603504928806
  0
INSERT
  5
7F
100
AcDbEntity
  8
一般
 62
               7
100
AcDbBlockReference
  2
scal 1_10
 10
1343.1198996275509
 20
1210.8608946790423
 30
0.0
  0
INSERT
  5
80
100
AcDbEntity
  8
一般
 62
               7
100
AcDbBlockReference
  2
グループ-2
 10
1450.0
 20
1020.0
 30
0.0
  0
ARC
  5
81
100
AcDbEntity
  8
寸法
370
              15
100
AcDbCircle
 10
1617.0077546734769
 20
1172.9073659575408
 30
0.0
 40
571.6496151967259
100
AcDbArc
 50
196.70806916809724
 51
219.09464963881979
  0
POLYLINE
  5
82
100
AcDbEntity
  8
寸法
370
              15
100
AcDb2dPolyline
 66
               1
 10
0.0
 20
0.0
 30
0.0
 75
               5
  0
VERTEX
  5
83
100
AcDbEntity
  8
寸法
370
              15
100
AcDbVertex
100
AcDb2dVertex
 10
1072.3653802056547
 20
1012.4232113815181
 30
0.0
  0
VERTEX
  5
84
100
AcDbEntity
  8
寸法
370
              15
100
AcDbVertex
100
AcDb2dVertex
 10
1583.3474602429574
 20
1012.4232113815181
 30
0.0
  0
VERTEX
  5
85
100
AcDbEntity
  8
寸法
370
              15
100
AcDbVertex
100
AcDb2dVertex
 10
1583.3474602429574
 20
797.42321138151806
 30
0.0
  0
VERTEX
  5
86
100
AcDbEntity
  8
寸法
370
              15
100
AcDbVertex
100
AcDb2dVertex
 10
1198.3474602429574
 20
802.42321138151806
 30
0.0
  0
VERTEX
  5
87
100
AcDbEntity
  8
寸法
370
              15
100
AcDbVertex
100
AcDb2dVertex
 10
1198.3474602429574
 20
812.11833333273785
 30
0.0
  0
VERTEX
  5
88
100
AcDbEntity
  8
寸法
370
              15
100
AcDbVertex
100
AcDb2dVertex
 10
1173.3474602429574
 20
812.42321138151806
 30
0.0
  0
SEQEND
  5
89
100
AcDbEntity
  8
寸法
370
              15
  0
LINE
  5
8A
100
AcDbEntity
  8
寸法
370
              15
100
AcDbLine
 10
1080.8474602429574
 20
1012.4232113815181
 30
0.0
 11
1072.3653802056547
 21
1012.4232113815181
 31
0.0
  0
ARC
  5
8B
100
AcDbEntity
  8
寸法
370
              15
100
AcDbCircle
 10
1072.3653802056547
 20
1009.4232113815181
 30
0.0
 40
3.0
100
AcDbArc
 50
90.0
 51
196.70806916810017
  0
LINE
  5
8C
100
AcDbEntity
  8
寸法
370
              15
100
AcDbLine
 10
237.92234509281343
 20
1007.4232113815181
 30
0.0
 11
854.5394893320713
 21
1007.4232113815181
 31
0.0
  0
LINE
  5
8D
100
AcDbEntity
  8
寸法
370
              15
100
AcDbLine
 10
769.0394893320713
 20
797.42321138151806
 30
0.0
 11
320.0394893320713
 21
797.42321138151806
 31
0.0
  0
LINE
  5
8E
100
AcDbEntity
  8
寸法
370
              15
100
AcDbLine
 10
772.0394893320713
 20
800.42321138151806
 30
0.0
 11
772.0394893320713
 21
807.42321138151806
 31
0.0
  0
ARC
  5
8F
100
AcDbEntity
  8
寸法
370
              15
100
AcDbCircle
 10
216.8492274593691
 20
1082.4935366699199
 30
0.0
 40
642.09378117700373
100
AcDbArc
 50
334.63419884852436
 51
352.98334507949096
  0
ARC
  5
90
100
AcDbEntity
  8
寸法
370
              15
100
AcDbCircle
 10
872.22975120477395
 20
1082.4935366699199
 30
0.0
 40
642.09378117700396
100
AcDbArc
 50
187.01665492050901
 51
205.36580115147564
  0
LINE
  5
91
100
AcDbEntity
  8
寸法
370
              15
100
AcDbLine
 10
807.60085551380098
 20
1007.4232113815181
 30
0.0
 11
851.15663357132917
 21
1007.4232113815181
 31
0.0
  0
WIPEOUT
  5
92
100
AcDbEntity
  8
寸法
370
              15
 92
        0
100
AcDbWipeout
 90
        0
 10
292.0394893320713
 20
1227.4232113815181
 30
0.0
 11
505.0
 21
0.0
 31
0.0
 12
0.0
 22
505.0
 32
0.0
 13
1.0
 23
1.0
340
0
 70
               7
280
               1
281
              50
282
              50
283
               0
360
0
 71
               2
 91
       74
 14
-0.5
 24
1.3316831683168315
 14
-0.4564356435643565
 24
1.3316831683168315
 14
-0.4558533635227949
 24
1.3317117739009572
 14
-0.4552766911563396
 24
1.3317973151659213
 14
-0.4547111801351219
 24
1.3319389683025811
 14
-0.4541622766394152
 24
1.3321353691137943
 14
-0.4536352669099447
 24
1.3323846261523862
 14
-0.4531352263384976
 24
1.3326843389368166
 14
-0.452666970589127
 24
1.3330316210691322
 14
-0.4522350092206742
 24
1.333423128032555
 14
-0.451843502257251
 24
1.3338550894010082
 14
-0.4514962201249352
 24
1.3343233451503789
 14
-0.4511965073405049
 24
1.3348233857218257
 14
-0.4509472503019131
 24
1.3353503954512964
 14
-0.4507508494906998
 24
1.3358992989470031
 14
-0.4506091963540401
 24
1.336464809968221
 14
-0.4505236550890761
 24
1.3370414823346759
 14
-0.4504950495049505
 24
1.3376237623762375
 14
-0.4504950495049505
 24
1.3415841584158414
 14
-0.4504950495049505
 24
1.3455445544554454
 14
-0.450466443920825
 24
1.3461268344970074
 14
-0.4503809026558609
 24
1.3467035068634621
 14
-0.4502392495192011
 24
1.34726901788468
 14
-0.4500428487079878
 24
1.3478179213803867
 14
-0.4497935916693961
 24
1.3483449311098572
 14
-0.4494938788849658
 24
1.3488449716813045
 14
-0.4491465967526501
 24
1.3493132274306752
 14
-0.4487550897892269
 24
1.3497451887991281
 14
-0.448323128420774
 24
1.3501366957625511
 14
-0.4478548726714035
 24
1.3504839778948665
 14
-0.4473548320999564
 24
1.3507836906792972
 14
-0.4468278223704858
 24
1.3510329477178888
 14
-0.4462789188747791
 24
1.351229348529102
 14
-0.4457134078535613
 24
1.3513710016657619
 14
-0.4451367354871061
 24
1.3514565429307259
 14
-0.4445544554455446
 24
1.3514851485148514
 14
0.0
 24
1.3514851485148514
 14
0.4445544554455445
 24
1.3514851485148514
 14
0.4451367354871063
 24
1.3514565429307259
 14
0.4457134078535612
 24
1.3513710016657619
 14
0.4462789188747791
 24
1.351229348529102
 14
0.4468278223704858
 24
1.3510329477178888
 14
0.4473548320999563
 24
1.3507836906792972
 14
0.4478548726714037
 24
1.3504839778948665
 14
0.448323128420774
 24
1.3501366957625511
 14
0.4487550897892271
 24
1.3497451887991281
 14
0.4491465967526498
 24
1.3493132274306752
 14
0.4494938788849656
 24
1.3488449716813045
 14
0.4497935916693961
 24
1.3483449311098572
 14
0.4500428487079878
 24
1.3478179213803867
 14
0.4502392495192011
 24
1.34726901788468
 14
0.4503809026558608
 24
1.3467035068634621
 14
0.4504664439208249
 24
1.3461268344970074
 14
0.4504950495049505
 24
1.3455445544554454
 14
0.4504950495049505
 24
1.3415841584158414
 14
0.4504950495049505
 24
1.3376237623762375
 14
0.450523655089076
 24
1.3370414823346759
 14
0.4506091963540401
 24
1.336464809968221
 14
0.4507508494906999
 24
1.3358992989470031
 14
0.4509472503019132
 24
1.3353503954512964
 14
0.4511965073405049
 24
1.3348233857218257
 14
0.4514962201249354
 24
1.3343233451503789
 14
0.4518435022572511
 24
1.3338550894010082
 14
0.4522350092206739
 24
1.333423128032555
 14
0.452666970589127
 24
1.3330316210691322
 14
0.4531352263384973
 24
1.3326843389368166
 14
0.4536352669099446
 24
1.3323846261523862
 14
0.4541622766394152
 24
1.3321353691137943
 14
0.4547111801351219
 24
1.3319389683025811
 14
0.4552766911563398
 24
1.3317973151659213
 14
0.4558533635227947
 24
1.3317117739009572
 14
0.4564356435643564
 24
1.3316831683168315
 14
0.5
 24
1.3316831683168315
 14
-0.5
 24
1.3316831683168315
  0
LWPOLYLINE
  5
93
100
AcDbEntity
  8
寸法
370
              15
100
AcDbPolyline
 90
       10
 70
             128
 10
292.0394893320713
 20
807.42321138151806
 10
314.0394893320713
 20
807.42321138151806
 42
-0.414213562373095
 10
317.0394893320713
 20
804.42321138151806
 10
317.0394893320713
 20
800.42321138151806
 42
0.414213562373095
 10
320.0394893320713
 20
797.42321138151806
 10
769.0394893320713
 20
797.42321138151806
 42
0.414213562373095
 10
772.0394893320713
 20
800.42321138151806
 10
772.0394893320713
 20
804.42321138151806
 42
-0.414213562373095
 10
775.0394893320713
 20
807.42321138151806
 10
797.0394893320713
 20
807.42321138151806
  0
ARC
  5
94
100
AcDbEntity
  8
寸法
370
              15
100
AcDbCircle
 10
851.15663357132917
 20
1004.4232113815185
 30
0.0
 40
3.0000000000003579
100
AcDbArc
 50
352.98334507948255
 51
90.0
  0
ARC
  5
95
100
AcDbEntity
  8
寸法
370
              15
100
AcDbCircle
 10
237.92234509281343
 20
1004.4232113815181
 30
0.0
 40
3.0
100
AcDbArc
 50
90.0
 51
187.01665492050989
  0
INSERT
  5
96
100
AcDbEntity
  8
一般
 62
               7
100
AcDbBlockReference
  2
グループ-4
 10
1450.0
 20
1020.0
 30
0.0
  0
INSERT
  5
97
100
AcDbEntity
  8
一般
 62
               7
100
AcDbBlockReference
  2
グループ-6
 10
1450.0
 20
1020.0
 30
0.0
  0
INSERT
  5
98
100
AcDbEntity
  8
一般
 62
               7
100
AcDbBlockReference
  2
グループ-8
 10
1450.0
 20
1020.0
 30
0.0
  0
LINE
  5
99
100
AcDbEntity
  8
一般
370
              15
  6
Continuous
 62
               7
100
AcDbLine
 10
784.5394893320713
 20
807.42321138151806
 30
0.0
 11
292.0394893320713
 21
807.42321138151806
 31
0.0
  0
LINE
  5
9A
100
AcDbEntity
  8
一般
370
              15
  6
Continuous
 62
               7
100
AcDbLine
 10
1198.3474602429574
 20
811.53519451459192
 30
0.0
 11
1583.3474602429574
 21
806.53519451459192
 31
0.0
  0
ENDSEC
  0
SECTION
  2
OBJECTS
  0
DICTIONARY
  5
19
100
AcDbDictionary
280
               0
281
               1
  3
ACAD_GROUP
350
1A
  3
ACAD_MLINESTYLE
350
1B
  3
ACAD_LAYOUT
350
1E
  3
ACAD_PLOTSETTINGS
350
22
  3
ACAD_PLOTSTYLENAME
350
1F
  3
ACAD_WIPEOUT_VARS
350
23
  0
DICTIONARY
  5
1A
102
{ACAD_REACTORS
330
19
102
}
100
AcDbDictionary
280
               0
281
               1
  0
DICTIONARY
  5
1B
102
{ACAD_REACTORS
330
19
102
}
100
AcDbDictionary
280
               0
281
               1
  3
Standard
350
1C
  0
MLINESTYLE
  5
1C
102
{ACAD_REACTORS
330
1B
102
}
100
AcDbMlineStyle
  2
Standard
 70
               0
  3

 62
               0
 51
90.0
 52
90.0
 71
               2
 49
0.5
 62
             256
  6
ByLayer
 49
-0.5
 62
             256
  6
ByLayer
  0
ACDBDICTIONARYWDFLT
  5
1F
102
{ACAD_REACTORS
330
19
102
}
100
AcDbDictionary
281
               1
  3
Normal
350
1D
100
AcDbDictionaryWithDefault
340
1D
  0
ACDBPLACEHOLDER
  5
1D
102
{ACAD_REACTORS
330
1F
102
}
  0
LAYOUT
  5
20
102
{ACAD_REACTORS
330
1E
102
}
100
AcDbPlotSettings
  1

  2

  4

  6

 40
0.0
 41
0.0
 42
0.0
 43
0.0
 44
0.0
 45
0.0
 46
0.0
 47
0.0
 48
0.0
 49
0.0
140
0.0
141
0.0
142
1.0
143
1.0
 70
            1024
 72
               0
 73
               0
 74
               0
  7

 75
               0
147
1.0
148
0.0
149
0.0
100
AcDbLayout
  1
Model
 70
               0
 71
               0
 10
0.0
 20
0.0
 11
0.0
 21
0.0
 12
0.0
 22
0.0
 32
0.0
 14
0.0
 24
0.0
 34
0.0
 15
0.0
 25
0.0
 35
0.0
146
0.0
 13
0.0
 23
0.0
 33
0.0
 16
0.0
 26
0.0
 36
0.0
 17
0.0
 27
0.0
 37
0.0
 76
               0
330
A
331
0
345
0
346
0
  0
LAYOUT
  5
21
102
{ACAD_REACTORS
330
1E
102
}
100
AcDbPlotSettings
  1

  2

  4

  6

 40
0.0
 41
0.0
 42
0.0
 43
0.0
 44
0.0
 45
0.0
 46
0.0
 47
0.0
 48
0.0
 49
0.0
140
0.0
141
0.0
142
1.0
143
1.0
 70
               0
 72
               0
 73
               0
 74
               0
  7

 75
               0
147
1.0
148
0.0
149
0.0
100
AcDbLayout
  1
Layout1
 70
               0
 71
               0
 10
0.0
 20
0.0
 11
0.0
 21
0.0
 12
0.0
 22
0.0
 32
0.0
 14
0.0
 24
0.0
 34
0.0
 15
0.0
 25
0.0
 35
0.0
146
0.0
 13
0.0
 23
0.0
 33
0.0
 16
0.0
 26
0.0
 36
0.0
 17
0.0
 27
0.0
 37
0.0
 76
               0
330
B
331
0
345
0
346
0
  0
DICTIONARY
  5
1E
102
{ACAD_REACTORS
330
19
102
}
100
AcDbDictionary
280
               0
281
               1
  3
Layout1
350
21
  3
Model
350
20
  0
DICTIONARY
  5
22
102
{ACAD_REACTORS
330
19
102
}
100
AcDbDictionary
280
               0
281
               1
  0
WIPEOUTVARIABLES
  5
23
100
AcDbWipeoutVariables
 70
               0
  0
ENDSEC
  0
EOF
