  0
SECTION
  2
HEADER
  9
$ACADVER
  1
AC1015
  9
$ACADMAINTVER
 70
               6
  9
$DWGCODEPAGE
  3
ANSI_932
  9
$INSBASE
 10
0.0
 20
0.0
 30
0.0
  9
$EXTMIN
 10
862.0
 20
556.70833333333337
 30
-7.417152777777777
  9
$EXTMAX
 10
2118.0662432702611
 20
1442.6973284113378
 30
7.417152777777777
  9
$LIMMIN
 10
0.0
 20
0.0
  9
$LIMMAX
 10
0.0
 20
0.0
  9
$ORTHOMODE
 70
               0
  9
$REGENMODE
 70
               1
  9
$FILLMODE
 70
               1
  9
$QTEXTMODE
 70
               0
  9
$MIRRTEXT
 70
               1
  9
$LTSCALE
 40
25.399999999999999
  9
$ATTMODE
 70
               1
  9
$TEXTSIZE
 40
0.2
  9
$TRACEWID
 40
1.0
  9
$TEXTSTYLE
  7
Standard
  9
$CLAYER
  8
一般
  9
$CELTYPE
  6
Continuous
  9
$CECOLOR
 62
             256
  9
$CELTSCALE
 40
1.0
  9
$DISPSILH
 70
               0
  9
$DIMSCALE
 40
1.0
  9
$DIMASZ
 40
0.18
  9
$DIMEXO
 40
0.0625
  9
$DIMDLI
 40
0.38
  9
$DIMRND
 40
0.0
  9
$DIMDLE
 40
0.0
  9
$DIMEXE
 40
0.18
  9
$DIMTP
 40
0.0
  9
$DIMTM
 40
0.0
  9
$DIMTXT
 40
0.18
  9
$DIMCEN
 40
0.09
  9
$DIMTSZ
 40
0.0
  9
$DIMTOL
 70
               0
  9
$DIMLIM
 70
               0
  9
$DIMTIH
 70
               1
  9
$DIMTOH
 70
               1
  9
$DIMSE1
 70
               0
  9
$DIMSE2
 70
               0
  9
$DIMTAD
 70
               0
  9
$DIMZIN
 70
               0
  9
$DIMBLK
  1

  9
$DIMASO
 70
               1
  9
$DIMSHO
 70
               1
  9
$DIMPOST
  1

  9
$DIMAPOST
  1

  9
$DIMALT
 70
               0
  9
$DIMALTD
 70
               2
  9
$DIMALTF
 40
25.399999999999999
  9
$DIMLFAC
 40
1.0
  9
$DIMTOFL
 70
               0
  9
$DIMTVP
 40
0.0
  9
$DIMTIX
 70
               0
  9
$DIMSOXD
 70
               0
  9
$DIMSAH
 70
               0
  9
$DIMBLK1
  1

  9
$DIMBLK2
  1

  9
$DIMSTYLE
  2
Standard
  9
$DIMCLRD
 70
               0
  9
$DIMCLRE
 70
               0
  9
$DIMCLRT
 70
               0
  9
$DIMTFAC
 40
1.0
  9
$DIMGAP
 40
0.09
  9
$DIMJUST
 70
               0
  9
$DIMSD1
 70
               0
  9
$DIMSD2
 70
               0
  9
$DIMTOLJ
 70
               1
  9
$DIMTZIN
 70
               0
  9
$DIMALTZ
 70
               0
  9
$DIMALTTZ
 70
               0
  9
$DIMUPT
 70
               0
  9
$DIMDEC
 70
               4
  9
$DIMTDEC
 70
               4
  9
$DIMALTU
 70
               2
  9
$DIMALTTD
 70
               2
  9
$DIMTXSTY
  7
Standard
  9
$DIMAUNIT
 70
               0
  9
$DIMADEC
 70
               0
  9
$DIMALTRND
 40
0.0
  9
$DIMAZIN
 70
               0
  9
$DIMDSEP
 70
               0
  9
$DIMATFIT
 70
               3
  9
$DIMFRAC
 70
               0
  9
$DIMLDRBLK
  1

  9
$DIMLUNIT
 70
               2
  9
$DIMLWD
 70
               0
  9
$DIMLWE
 70
               0
  9
$DIMTMOVE
 70
               0
  9
$LUNITS
 70
               2
  9
$LUPREC
 70
               4
  9
$SKETCHINC
 40
0.1
  9
$FILLETRAD
 40
0.0
  9
$AUNITS
 70
               0
  9
$AUPREC
 70
               0
  9
$MENU
  1
acad
  9
$ELEVATION
 40
0.0
  9
$PELEVATION
 40
0.0
  9
$THICKNESS
 40
0.0
  9
$LIMCHECK
 70
               0
  9
$CHAMFERA
 40
0.0
  9
$CHAMFERB
 40
0.0
  9
$CHAMFERC
 40
0.0
  9
$CHAMFERD
 40
0.0
  9
$SKPOLY
 70
               0
  9
$TDCREATE
 40
2458170.456168981
  9
$TDUCREATE
 40
0.000000000
  9
$TDUPDATE
 40
2458170.456168981
  9
$TDUUPDATE
 40
0.000000000
  9
$TDINDWG
 40
0.0000000000
  9
$TDUSRTIMER
 40
0.0000000000
  9
$USRTIMER
 70
               1
  9
$ANGBASE
 50
0.0
  9
$ANGDIR
 70
               0
  9
$PDMODE
 70
               1
  9
$PDSIZE
 40
-2.0
  9
$PLINEWID
 40
0.0
  9
$SPLFRAME
 70
               0
  9
$SPLINETYPE
 70
               6
  9
$SPLINESEGS
 70
               8
  9
$HANDSEED
  5
C8
  9
$SURFTAB1
 70
               6
  9
$SURFTAB2
 70
               6
  9
$SURFTYPE
 70
               6
  9
$SURFU
 70
               6
  9
$SURFV
 70
               6
  9
$UCSBASE
  2

  9
$UCSNAME
  2

  9
$UCSORG
 10
0.0
 20
0.0
 30
0.0
  9
$UCSXDIR
 10
1.0
 20
0.0
 30
0.0
  9
$UCSYDIR
 10
0.0
 20
1.0
 30
0.0
  9
$UCSORTHOREF
  2

  9
$UCSORTHOVIEW
 70
               0
  9
$UCSORGTOP
 10
0.0
 20
0.0
 30
0.0
  9
$UCSORGBOTTOM
 10
0.0
 20
0.0
 30
0.0
  9
$UCSORGLEFT
 10
0.0
 20
0.0
 30
0.0
  9
$UCSORGRIGHT
 10
0.0
 20
0.0
 30
0.0
  9
$UCSORGFRONT
 10
0.0
 20
0.0
 30
0.0
  9
$UCSORGBACK
 10
0.0
 20
0.0
 30
0.0
  9
$PUCSBASE
  2

  9
$PUCSNAME
  2

  9
$PUCSORG
 10
0.0
 20
0.0
 30
0.0
  9
$PUCSXDIR
 10
1.0
 20
0.0
 30
0.0
  9
$PUCSYDIR
 10
0.0
 20
1.0
 30
0.0
  9
$PUCSORTHOREF
  2

  9
$PUCSORTHOVIEW
 70
               0
  9
$PUCSORGTOP
 10
0.0
 20
0.0
 30
0.0
  9
$PUCSORGBOTTOM
 10
0.0
 20
0.0
 30
0.0
  9
$PUCSORGLEFT
 10
0.0
 20
0.0
 30
0.0
  9
$PUCSORGRIGHT
 10
0.0
 20
0.0
 30
0.0
  9
$PUCSORGFRONT
 10
0.0
 20
0.0
 30
0.0
  9
$PUCSORGBACK
 10
0.0
 20
0.0
 30
0.0
  9
$USERI1
 70
               0
  9
$USERI2
 70
               0
  9
$USERI3
 70
               0
  9
$USERI4
 70
               0
  9
$USERI5
 70
               0
  9
$USERR1
 40
0.0
  9
$USERR2
 40
0.0
  9
$USERR3
 40
0.0
  9
$USERR4
 40
0.0
  9
$USERR5
 40
0.0
  9
$WORLDVIEW
 70
               1
  9
$SHADEDGE
 70
               3
  9
$SHADEDIF
 70
              70
  9
$TILEMODE
 70
               1
  9
$MAXACTVP
 70
              64
  9
$PINSBASE
 10
0.0
 20
0.0
 30
0.0
  9
$PLIMCHECK
 70
               0
  9
$PEXTMIN
 10
1.0000000000000000E+20
 20
1.0000000000000000E+20
 30
1.0000000000000000E+20
  9
$PEXTMAX
 10
-1.0000000000000000E+20
 20
-1.0000000000000000E+20
 30
-1.0000000000000000E+20
  9
$PLIMMIN
 10
0.0
 20
0.0
  9
$PLIMMAX
 10
12.0
 20
9.0
  9
$UNITMODE
 70
               0
  9
$VISRETAIN
 70
               0
  9
$PLINEGEN
 70
               1
  9
$PSLTSCALE
 70
               0
  9
$TREEDEPTH
 70
            3020
  9
$CMLSTYLE
  2
Standard
  9
$CMLJUST
 70
               0
  9
$CMLSCALE
 40
1.0
  9
$PROXYGRAPHICS
 70
               0
  9
$MEASUREMENT
 70
               1
  9
$CELWEIGHT
370
               0
  9
$ENDCAPS
280
               0
  9
$JOINSTYLE
280
               0
  9
$LWDISPLAY
290
               1
  9
$INSUNITS
 70
               4
  9
$HYPERLINKBASE
  1

  9
$STYLESHEET
  1

  9
$XEDIT
290
               1
  9
$CEPSNTYPE
380
               0
  9
$PSTYLEMODE
290
               1
  9
$FINGERPRINTGUID
  2

  9
$VERSIONGUID
  2

  9
$EXTNAMES
290
               1
  9
$PSVPSCALE
 40
0.0
  0
ENDSEC
  0
SECTION
  2
CLASSES
  0
CLASS
  1
LWPOLYLINE
  2
AcDbPolyline
  3
AutoCAD 2000
 90
        0
280
               0
281
               1
  0
CLASS
  1
IMAGE
  2
AcDbRasterImage
  3
ISM
 90
    32895
280
               0
281
               1
  0
CLASS
  1
OLE2FRAME
  2
AcDbOle2Frame
  3
AutoCAD 2000
 90
    32768
280
               0
281
               1
  0
CLASS
  1
HATCH
  2
AcDbHatch
  3
AutoCAD 2000
 90
    32768
280
               0
281
               1
  0
CLASS
  1
DICTIONARYVAR
  2
AcDbDictionaryVar
  3
AutoCAD 2000
 90
    32768
280
               0
281
               0
  0
CLASS
  1
RASTERVARIABLES
  2
AcDbRasterVariables
  3
ISM
 90
    32768
280
               0
281
               0
  0
CLASS
  1
IMAGEDEF
  2
AcDbRasterImageDef
  3
ISM
 90
    32768
280
               0
281
               0
  0
CLASS
  1
IMAGEDEF_REACTOR
  2
AcDbRasterImageDefReactor
  3
ISM
 90
    32769
280
               0
281
               0
  0
CLASS
  1
IDBUFFER
  2
AcDbIdBuffer
  3
AutoCAD 2000
 90
    32768
280
               0
281
               0
  0
CLASS
  1
SPATIAL_FILTER
  2
AcDbSpatialFilter
  3
AutoCAD 2000
 90
    32768
280
               0
281
               0
  0
CLASS
  1
XRECORD
  2
AcDbXrecord
  3
AutoCAD 2000
 90
    32768
280
               0
281
               0
  0
CLASS
  1
SORTENTSTABLE
  2
AcDbSortentsTable
  3
AutoCAD 2000
 90
    32768
280
               0
281
               0
  0
CLASS
  1
LAYER_INDEX
  2
AcDbLayerIndex
  3
AutoCAD 2000
 90
    32768
280
               0
281
               0
  0
CLASS
  1
SPATIAL_INDEX
  2
AcDbSpatialIndex
  3
AutoCAD 2000
 90
    32768
280
               0
281
               0
  0
CLASS
  1
OBJECT_PTR
  2
CAseDLPNTableRecord
  3
"ASE-LPNTableRecord"
 90
    32769
280
               0
281
               0
  0
CLASS
  1
LAYOUT
  2
AcDbLayout
  3
AutoCAD 2000
 90
        0
280
               0
281
               0
  0
CLASS
  1
PLOTSETTINGS
  2
AcDbPlotSettings
  3
AutoCAD 2000
 90
    32768
280
               0
281
               0
  0
CLASS
  1
ACDBDICTIONARYWDFLT
  2
AcDbDictionaryWithDefault
  3
AutoCAD 2000
 90
        0
280
               0
281
               0
  0
CLASS
  1
ACDBPLACEHOLDER
  2
AcDbPlaceHolder
  3
AutoCAD 2000
 90
        0
280
               0
281
               0
  0
CLASS
  1
VBA_PROJECT
  2
AcDbVbaProject
  3
acadvba
 90
    32768
280
               0
281
               0
  0
CLASS
  1
WIPEOUT
  2
AcDbWipeout
  3
WipeOut|AutoCAD Express Tool|expresstools@autodesk.com
 90
    32895
280
               0
281
               1
  0
CLASS
  1
WIPEOUTVARIABLES
  2
AcDbWipeoutVariables
  3
WipeOut|AutoCAD Express Tool|expresstools@autodesk.com
 90
        0
280
               0
281
               0
  0
CLASS
  1
RTEXT
  2
RText
  3
RText|AutoCAD Express Tool|expresstools@autodesk.com
 90
    32768
280
               0
281
               1
  0
CLASS
  1
ARCALIGNEDTEXT
  2
AcDbArcAlignedText
  3
ATEXT|AutoCAD Express Tool|expresstools@autodesk.com
 90
    32768
280
               0
281
               1
  0
ENDSEC
  0
SECTION
  2
TABLES
  0
TABLE
  2
VPORT
  5
7
100
AcDbSymbolTable
 70
               1
  0
VPORT
  5
15
100
AcDbSymbolTableRecord
100
AcDbViewportTableRecord
  2
*ACTIVE
 70
               0
 10
0.0
 20
0.0
 11
1.0
 21
1.0
 12
1490.0331216351306
 22
999.70283087233565
 13
0.0
 23
0.0
 14
1.0
 24
1.0
 15
0.0
 25
0.0
 16
0.0
 26
0.0
 36
1.0
 17
0.0
 27
0.0
 37
0.0
 40
885.98899507800445
 41
0.688564
 42
50.0
 43
0.0
 44
0.0
 50
0.0
 51
0.0
 71
               0
 72
            2000
 73
               1
 74
               1
 75
               0
 76
               0
 77
               0
 78
               0
281
               0
 65
               0
110
0.0
120
0.0
130
0.0
111
1.0
121
0.0
131
0.0
112
0.0
122
1.0
132
0.0
345
0
346
0
 79
               0
146
0.0
  0
ENDTAB
  0
TABLE
  2
LTYPE
  5
4
100
AcDbSymbolTable
 70
              13
  0
LTYPE
  5
11
100
AcDbSymbolTableRecord
100
AcDbLinetypeTableRecord
  2
ByBlock
 70
              64
  3

 72
              65
 73
               0
 40
0.0
  0
LTYPE
  5
12
100
AcDbSymbolTableRecord
100
AcDbLinetypeTableRecord
  2
ByLayer
 70
              64
  3

 72
              65
 73
               0
 40
0.0
  0
LTYPE
  5
13
100
AcDbSymbolTableRecord
100
AcDbLinetypeTableRecord
  2
Continuous
 70
              64
  3
Solid line
 72
              65
 73
               0
 40
0.0
  0
LTYPE
  5
2F
100
AcDbSymbolTableRecord
100
AcDbLinetypeTableRecord
  2
STYLE_01
 70
               0
  3

 72
              65
 73
               2
 40
0.41664
 49
0.20828
 74
               0
 49
-0.20836
 74
               0
  0
LTYPE
  5
30
100
AcDbSymbolTableRecord
100
AcDbLinetypeTableRecord
  2
STYLE_02
 70
               0
  3

 72
              65
 73
               2
 40
0.6944250000000001
 49
0.48607
 74
               0
 49
-0.2083550000000001
 74
               0
  0
LTYPE
  5
31
100
AcDbSymbolTableRecord
100
AcDbLinetypeTableRecord
  2
STYLE_03
 70
               0
  3

 72
              65
 73
               2
 40
1.25
 49
1.0416400000000001
 74
               0
 49
-0.2083599999999999
 74
               0
  0
LTYPE
  5
32
100
AcDbSymbolTableRecord
100
AcDbLinetypeTableRecord
  2
STYLE_04
 70
               0
  3

 72
              65
 73
               2
 40
1.5277099999999999
 49
1.3194249999999998
 74
               0
 49
-0.208285
 74
               0
  0
LTYPE
  5
33
100
AcDbSymbolTableRecord
100
AcDbLinetypeTableRecord
  2
STYLE_05
 70
               0
  3

 72
              65
 73
               2
 40
0.20828
 49
0.069425
 74
               0
 49
-0.138855
 74
               0
  0
LTYPE
  5
34
100
AcDbSymbolTableRecord
100
AcDbLinetypeTableRecord
  2
STYLE_06
 70
               0
  3

 72
              65
 73
               4
 40
1.0416400000000001
 49
0.625
 74
               0
 49
-0.20828
 74
               0
 49
0.06943
 74
               0
 49
-0.13893
 74
               0
  0
LTYPE
  5
35
100
AcDbSymbolTableRecord
100
AcDbLinetypeTableRecord
  2
STYLE_07
 70
               0
  3

 72
              65
 73
               6
 40
1.875
 49
0.625
 74
               0
 49
-0.20828
 74
               0
 49
0.6250000000000001
 74
               0
 49
-0.2083599999999999
 74
               0
 49
0.06943
 74
               0
 49
-0.1389299999999999
 74
               0
  0
LTYPE
  5
36
100
AcDbSymbolTableRecord
100
AcDbLinetypeTableRecord
  2
STYLE_08
 70
               0
  3

 72
              65
 73
               6
 40
1.25
 49
0.625
 74
               0
 49
-0.20828
 74
               0
 49
0.06943
 74
               0
 49
-0.13893
 74
               0
 49
0.0694299999999999
 74
               0
 49
-0.13893
 74
               0
  0
LTYPE
  5
37
100
AcDbSymbolTableRecord
100
AcDbLinetypeTableRecord
  2
STYLE_09
 70
               0
  3

 72
              65
 73
               4
 40
5.0
 49
3.75
 74
               0
 49
-0.2777849999999998
 74
               0
 49
0.6944300000000003
 74
               0
 49
-0.2777849999999998
 74
               0
  0
LTYPE
  5
38
100
AcDbSymbolTableRecord
100
AcDbLinetypeTableRecord
  2
STYLE_10
 70
               0
  3

 72
              65
 73
               6
 40
5.9375
 49
3.75
 74
               0
 49
-0.2777849999999998
 74
               0
 49
0.6944300000000003
 74
               0
 49
-0.2777849999999998
 74
               0
 49
0.625
 74
               0
 49
-0.3125
 74
               0
  0
ENDTAB
  0
TABLE
  2
LAYER
  5
2
100
AcDbSymbolTable
 70
               4
  0
LAYER
  5
14
100
AcDbSymbolTableRecord
100
AcDbLayerTableRecord
  2
0
 70
               0
 62
               7
  6
Continuous
290
               1
370
              -3
390
1D
  0
LAYER
  5
39
100
AcDbSymbolTableRecord
100
AcDbLayerTableRecord
  2
一般
 70
               0
 62
               7
  6
Continuous
290
               1
370
               5
390
1D
  0
LAYER
  5
3A
100
AcDbSymbolTableRecord
100
AcDbLayerTableRecord
  2
寸法
 70
               0
 62
               7
  6
Continuous
290
               1
370
               5
390
1D
  0
LAYER
  5
3B
100
AcDbSymbolTableRecord
100
AcDbLayerTableRecord
  2
排水
 70
               0
 62
               7
  6
Continuous
290
               1
370
              15
390
1D
  0
ENDTAB
  0
TABLE
  2
STYLE
  5
3
100
AcDbSymbolTable
 70
               3
  0
STYLE
  5
17
100
AcDbSymbolTableRecord
100
AcDbTextStyleTableRecord
  2
Standard
 70
               0
 40
0.0
 41
1.0
 50
0.0
 71
               0
 42
0.0
  3
txt
  4
BIGFONT.SHX
  0
STYLE
  5
2D
100
AcDbSymbolTableRecord
100
AcDbTextStyleTableRecord
  2
Arial
 70
               0
 40
0.0
 41
1.0
 50
0.0
 71
               0
 42
0.0
  3

  4
Arial
1001
ACAD
1000
Arial
1071
        0
  0
STYLE
  5
2E
100
AcDbSymbolTableRecord
100
AcDbTextStyleTableRecord
  2
ＭＳ ゴシック
 70
               0
 40
0.0
 41
1.0
 50
0.0
 71
               0
 42
0.0
  3

  4
ＭＳ ゴシック
1001
ACAD
1000
ＭＳ ゴシック
1071
        0
  0
ENDTAB
  0
TABLE
  2
VIEW
  5
5
100
AcDbSymbolTable
 70
               0
  0
ENDTAB
  0
TABLE
  2
UCS
  5
6
100
AcDbSymbolTable
 70
               0
  0
ENDTAB
  0
TABLE
  2
APPID
  5
8
100
AcDbSymbolTable
 70
               1
  0
APPID
  5
16
100
AcDbSymbolTableRecord
100
AcDbRegAppTableRecord
  2
ACAD
 70
               0
  0
ENDTAB
  0
TABLE
  2
DIMSTYLE
  5
9
100
AcDbSymbolTable
 70
               1
100
AcDbDimStyleTable
 71
               0
  0
DIMSTYLE
105
18
100
AcDbSymbolTableRecord
100
AcDbDimStyleTableRecord
  2
Standard
 70
               0
  3

  4

 40
1.0
 41
0.18
 42
0.0625
 43
0.38
 44
0.18
 45
0.0
 46
0.0
 47
0.0
 48
0.0
 71
               0
 72
               0
 73
               1
 74
               1
 75
               0
 76
               0
 77
               0
 78
               0
 79
               0
140
0.18
141
0.09
142
0.0
143
25.399999999999999
144
1.0
145
0.0
146
1.0
147
0.09
148
0.0
170
               0
171
               2
172
               0
173
               0
174
               0
175
               0
176
               0
177
               0
178
               0
179
               0
271
               4
272
               4
273
               2
274
               2
275
               0
276
               0
277
               2
278
              46
279
               0
280
               0
281
               0
282
               0
283
               1
284
               0
285
               0
286
               0
288
               0
340
17
341
0
342
0
343
0
344
0
371
              -2
372
              -2
  0
ENDTAB
  0
TABLE
  2
BLOCK_RECORD
  5
1
100
AcDbSymbolTable
 70
               9
  0
BLOCK_RECORD
  5
A
100
AcDbSymbolTableRecord
100
AcDbBlockTableRecord
  2
*MODEL_SPACE
340
20
  0
BLOCK_RECORD
  5
B
100
AcDbSymbolTableRecord
100
AcDbBlockTableRecord
  2
*PAPER_SPACE
340
21
  0
BLOCK_RECORD
  5
24
100
AcDbSymbolTableRecord
100
AcDbBlockTableRecord
  2
グループ
340
0
102
{BLKREFS
331
49
102
}
  0
BLOCK_RECORD
  5
25
100
AcDbSymbolTableRecord
100
AcDbBlockTableRecord
  2
スケール1：5
340
0
102
{BLKREFS
331
C1
102
}
  0
BLOCK_RECORD
  5
26
100
AcDbSymbolTableRecord
100
AcDbBlockTableRecord
  2
グループ-1
340
0
102
{BLKREFS
331
C3
102
}
  0
BLOCK_RECORD
  5
27
100
AcDbSymbolTableRecord
100
AcDbBlockTableRecord
  2
グループ-2
340
0
102
{BLKREFS
331
60
102
}
  0
BLOCK_RECORD
  5
28
100
AcDbSymbolTableRecord
100
AcDbBlockTableRecord
  2
グループ-3
340
0
102
{BLKREFS
331
C4
102
}
  0
BLOCK_RECORD
  5
29
100
AcDbSymbolTableRecord
100
AcDbBlockTableRecord
  2
グループ-4
340
0
102
{BLKREFS
331
C5
102
}
  0
BLOCK_RECORD
  5
2A
100
AcDbSymbolTableRecord
100
AcDbBlockTableRecord
  2
グループ-5
340
0
102
{BLKREFS
331
C6
102
}
  0
BLOCK_RECORD
  5
2B
100
AcDbSymbolTableRecord
100
AcDbBlockTableRecord
  2
グループ-6
340
0
102
{BLKREFS
331
B6
102
}
  0
BLOCK_RECORD
  5
2C
100
AcDbSymbolTableRecord
100
AcDbBlockTableRecord
  2
グループ-7
340
0
102
{BLKREFS
331
C7
102
}
  0
ENDTAB
  0
ENDSEC
  0
SECTION
  2
BLOCKS
  0
BLOCK
  5
D
100
AcDbEntity
  8
0
100
AcDbBlockBegin
  2
*MODEL_SPACE
 70
               0
 10
0.0
 20
0.0
 30
0.0
  3
*MODEL_SPACE
  1

  0
ENDBLK
  5
E
100
AcDbEntity
  8
0
100
AcDbBlockEnd
  0
BLOCK
  5
F
100
AcDbEntity
 67
               1
  8
0
100
AcDbBlockBegin
  2
*PAPER_SPACE
 70
               0
 10
0.0
 20
0.0
 30
0.0
  3
*PAPER_SPACE
  1

  0
ENDBLK
  5
10
100
AcDbEntity
 67
               1
  8
0
100
AcDbBlockEnd
  0
BLOCK
  5
3C
100
AcDbEntity
  8
一般
100
AcDbBlockBegin
  2
グループ
 70
               0
 10
0.0
 20
0.0
 30
0.0
  3
グループ
  1

  0
MTEXT
  5
3D
100
AcDbEntity
  8
一般
 62
               8
100
AcDbMText
 10
-61.590303983041849
 20
8.3342057291666851
 30
0.0
 40
8.1442057291666661
 41
7.3612159321675676
 71
               1
 72
               1
  1
0
  7
ＭＳ ゴシック
 73
               1
 44
0.7828267384257843
  0
MTEXT
  5
3E
100
AcDbEntity
  8
一般
 62
               8
100
AcDbMText
 10
-12.909696016958151
 20
8.3342057291666851
 30
0.0
 40
8.1442057291666661
 41
12.75
 71
               1
 72
               1
  1
50
  7
ＭＳ ゴシック
 73
               1
 44
0.7828267384257843
  0
MTEXT
  5
3F
100
AcDbEntity
  8
一般
 62
               8
100
AcDbMText
 10
33.590303983041849
 20
8.3342057291666851
 30
0.0
 40
8.1442057291666661
 41
27.999999999999972
 71
               1
 72
               1
  1
100mm
  7
ＭＳ ゴシック
 73
               1
 44
0.7828267384257843
  0
LINE
  5
40
100
AcDbEntity
  8
寸法
370
              15
 62
               8
100
AcDbLine
 10
-7.9096960169581507
 20
-1.2916666666666288
 30
0.0
 11
-7.9096960169581507
 21
-9.2916666666666288
 31
0.0
  0
POLYLINE
  5
41
100
AcDbEntity
  8
一般
370
              15
  6
Continuous
 62
               8
100
AcDb2dPolyline
 66
               1
 10
0.0
 20
0.0
 30
0.0
 75
               5
  0
VERTEX
  5
42
100
AcDbEntity
  8
一般
370
              15
  6
Continuous
 62
               8
100
AcDbVertex
100
AcDb2dVertex
 10
-57.909696016958151
 20
-1.2916666666666288
 30
0.0
  0
VERTEX
  5
43
100
AcDbEntity
  8
一般
370
              15
  6
Continuous
 62
               8
100
AcDbVertex
100
AcDb2dVertex
 10
-57.909696016958151
 20
-9.2916666666666288
 30
0.0
  0
VERTEX
  5
44
100
AcDbEntity
  8
一般
370
              15
  6
Continuous
 62
               8
100
AcDbVertex
100
AcDb2dVertex
 10
42.090303983041849
 20
-9.2916666666666288
 30
0.0
  0
VERTEX
  5
45
100
AcDbEntity
  8
一般
370
              15
  6
Continuous
 62
               8
100
AcDbVertex
100
AcDb2dVertex
 10
42.090303983041849
 20
-1.2916666666666288
 30
0.0
  0
SEQEND
  5
46
100
AcDbEntity
  8
一般
370
              15
  6
Continuous
 62
               8
  0
ENDBLK
  5
47
100
AcDbEntity
  8
一般
100
AcDbBlockEnd
  0
BLOCK
  5
48
100
AcDbEntity
  8
一般
100
AcDbBlockBegin
  2
スケール1：5
 70
               0
 10
0.0
 20
0.0
 30
0.0
  3
スケール1：5
  1

  0
INSERT
  5
49
100
AcDbEntity
  8
一般
 62
               7
100
AcDbBlockReference
  2
グループ
 10
0.0
 20
0.0
 30
0.0
  0
ENDBLK
  5
4A
100
AcDbEntity
  8
一般
100
AcDbBlockEnd
  0
BLOCK
  5
4B
100
AcDbEntity
  8
一般
100
AcDbBlockBegin
  2
グループ-1
 70
               0
 10
0.0
 20
0.0
 30
0.0
  3
グループ-1
  1

  0
LINE
  5
4C
100
AcDbEntity
  8
一般
370
               5
  6
Continuous
 62
               7
100
AcDbLine
 10
-337.92893218813447
 20
-290.41931324490145
 30
0.0
 11
-352.07106781186553
 21
-304.5614488686324
 31
0.0
  0
LINE
  5
4D
100
AcDbEntity
  8
一般
370
               5
  6
Continuous
 62
               7
100
AcDbLine
 10
-337.92893218813447
 20
-304.5614488686324
 30
0.0
 11
-352.07106781186553
 21
-290.41931324490145
 31
0.0
  0
ENDBLK
  5
4E
100
AcDbEntity
  8
一般
100
AcDbBlockEnd
  0
BLOCK
  5
4F
100
AcDbEntity
  8
一般
100
AcDbBlockBegin
  2
グループ-2
 70
               0
 10
0.0
 20
0.0
 30
0.0
  3
グループ-2
  1

  0
LINE
  5
50
100
AcDbEntity
  8
一般
370
               5
  6
Continuous
 62
               7
100
AcDbLine
 10
-555.42893218813447
 20
372.27787671730027
 30
0.0
 11
-569.57106781186553
 21
358.13574109356932
 31
0.0
  0
LINE
  5
51
100
AcDbEntity
  8
一般
370
               5
  6
Continuous
 62
               7
100
AcDbLine
 10
-555.42893218813447
 20
358.13574109356932
 30
0.0
 11
-569.57106781186553
 21
372.27787671730027
 31
0.0
  0
ENDBLK
  5
52
100
AcDbEntity
  8
一般
100
AcDbBlockEnd
  0
BLOCK
  5
53
100
AcDbEntity
  8
一般
100
AcDbBlockBegin
  2
グループ-3
 70
               0
 10
0.0
 20
0.0
 30
0.0
  3
グループ-3
  1

  0
ARC
  5
54
100
AcDbEntity
  8
寸法
370
              15
  6
Continuous
 62
               7
100
AcDbCircle
 10
-562.5
 20
365.2068089054348
 30
0.0
 40
25.500000000000011
100
AcDbArc
 50
281.30772943413734
 51
281.30773028791089
  0
ARC
  5
55
100
AcDbEntity
  8
寸法
370
              15
  6
Continuous
 62
               7
100
AcDbCircle
 10
-562.5
 20
365.2068089054348
 30
0.0
 40
25.500000000000021
100
AcDbArc
 50
303.29977993960176
 51
236.70022006039815
  0
POINT
  5
56
100
AcDbEntity
  8
一般
370
               5
  6
Continuous
 62
               7
100
AcDbPoint
 10
-562.5
 20
365.2068089054348
 30
0.0
  0
SPLINE
  5
57
100
AcDbEntity
  8
一般
370
              15
  6
Continuous
 62
               7
100
AcDbSpline
210
0.0
220
0.0
230
1.0
 70
               8
 71
               2
 72
              15
 73
              12
 74
               0
 42
0.000001
 43
0.000001
 40
0.0
 40
0.0
 40
0.0
 40
1.0
 40
1.0
 40
2.0
 40
3.0
 40
4.0
 40
5.0
 40
6.0
 40
7.0
 40
7.0
 40
8.0
 40
8.0
 40
8.0
 10
-548.50000000006139
 20
215.20684953568502
 30
0.0
 10
-548.5
 20
215.20682924985886
 30
0.0
 10
-548.5
 20
215.2068089054348
 30
0.0
 10
-548.5
 20
211.65648210572243
 30
0.0
 10
-552.25128869403568
 20
205.50713570514716
 30
0.0
 10
-558.74871130596432
 20
201.9568089054348
 30
0.0
 10
-566.25128869403568
 20
201.9568089054348
 30
0.0
 10
-572.74871130596432
 20
205.50713570514719
 30
0.0
 10
-576.5
 20
211.65648210572243
 30
0.0
 10
-576.5
 20
215.2068089054348
 30
0.0
 10
-576.5
 20
215.20682924985886
 30
0.0
 10
-576.49999999993861
 20
215.20684953568502
 30
0.0
  0
SPLINE
  5
58
100
AcDbEntity
  8
一般
370
              15
  6
Continuous
 62
               7
100
AcDbSpline
210
0.0
220
0.0
230
1.0
 70
               8
 71
               2
 72
               7
 73
               4
 74
               0
 42
0.000001
 43
0.000001
 40
0.0
 40
0.0
 40
0.0
 40
1.0
 40
2.0
 40
2.0
 40
2.0
 10
-562.49267374356464
 20
228.45680721250707
 30
0.0
 10
-562.49633663212785
 20
228.4568089054348
 30
0.0
 10
-562.50366336789216
 20
228.4568089054348
 30
0.0
 10
-562.50732625643536
 20
228.45680721250707
 30
0.0
  0
POINT
  5
59
100
AcDbEntity
  8
一般
370
               5
  6
Continuous
 62
               7
100
AcDbPoint
 10
-562.5
 20
365.2068089054348
 30
0.0
  0
LINE
  5
5A
100
AcDbEntity
  8
一般
370
              15
  6
Continuous
 62
               7
100
AcDbLine
 10
-548.5
 20
345.71322021581688
 30
0.0
 11
-548.5
 21
215.2068089054348
 31
0.0
  0
LINE
  5
5B
100
AcDbEntity
  8
一般
370
              15
  6
Continuous
 62
               7
100
AcDbLine
 10
-576.5
 20
215.2068089054348
 30
0.0
 11
-576.5
 21
345.71322021581688
 31
0.0
  0
LINE
  5
5C
100
AcDbEntity
  8
一般
370
              15
  6
Continuous
 62
               7
100
AcDbLine
 10
-567.5
 20
248.7068089054348
 30
0.0
 11
-567.5
 21
341.73341971682379
 31
0.0
  0
LINE
  5
5D
100
AcDbEntity
  8
一般
370
              15
  6
Continuous
 62
               7
100
AcDbLine
 10
-557.5
 20
248.7068089054348
 30
0.0
 11
-567.5
 21
248.7068089054348
 31
0.0
  0
LINE
  5
5E
100
AcDbEntity
  8
一般
370
              15
  6
Continuous
 62
               7
100
AcDbLine
 10
-557.5
 20
341.73341971682379
 30
0.0
 11
-557.5
 21
248.7068089054348
 31
0.0
  0
CIRCLE
  5
5F
100
AcDbEntity
  8
一般
370
              15
  6
Continuous
 62
               7
100
AcDbCircle
 10
-562.5
 20
365.2068089054348
 30
0.0
 40
24.0
  0
INSERT
  5
60
100
AcDbEntity
  8
一般
 62
               7
100
AcDbBlockReference
  2
グループ-2
 10
0.0
 20
0.0
 30
0.0
  0
ENDBLK
  5
61
100
AcDbEntity
  8
一般
100
AcDbBlockEnd
  0
BLOCK
  5
62
100
AcDbEntity
  8
一般
100
AcDbBlockBegin
  2
グループ-4
 70
               0
 10
0.0
 20
0.0
 30
0.0
  3
グループ-4
  1

  0
LINE
  5
63
100
AcDbEntity
  8
一般
370
               5
  6
Continuous
 62
               7
100
AcDbLine
 10
-555.42893218813447
 20
-290.41931324490145
 30
0.0
 11
-569.57106781186553
 21
-304.5614488686324
 31
0.0
  0
LINE
  5
64
100
AcDbEntity
  8
一般
370
               5
  6
Continuous
 62
               7
100
AcDbLine
 10
-555.42893218813447
 20
-304.5614488686324
 30
0.0
 11
-569.57106781186553
 21
-290.41931324490145
 31
0.0
  0
ENDBLK
  5
65
100
AcDbEntity
  8
一般
100
AcDbBlockEnd
  0
BLOCK
  5
66
100
AcDbEntity
  8
一般
100
AcDbBlockBegin
  2
グループ-5
 70
               0
 10
0.0
 20
0.0
 30
0.0
  3
グループ-5
  1

  0
POLYLINE
  5
67
100
AcDbEntity
  8
一般
370
              15
  6
Continuous
 62
               7
100
AcDb2dPolyline
 66
               1
 10
0.0
 20
0.0
 30
0.0
 70
               1
 75
               5
  0
VERTEX
  5
68
100
AcDbEntity
  8
一般
370
              15
  6
Continuous
 62
               7
100
AcDbVertex
100
AcDb2dVertex
 10
-586.5
 20
-6.4903810567669211
 30
0.0
  0
VERTEX
  5
69
100
AcDbEntity
  8
一般
370
              15
  6
Continuous
 62
               7
100
AcDbVertex
100
AcDb2dVertex
 10
-538.5
 20
-6.4903810567669211
 30
0.0
  0
VERTEX
  5
6A
100
AcDbEntity
  8
一般
370
              15
  6
Continuous
 62
               7
100
AcDbVertex
100
AcDb2dVertex
 10
-538.5
 20
-293.49038105676692
 30
0.0
  0
VERTEX
  5
6B
100
AcDbEntity
  8
一般
370
              15
  6
Continuous
 62
               7
100
AcDbVertex
100
AcDb2dVertex
 10
-586.5
 20
-293.49038105676692
 30
0.0
  0
SEQEND
  5
6C
100
AcDbEntity
  8
一般
370
              15
  6
Continuous
 62
               7
  0
LINE
  5
6D
100
AcDbEntity
  8
一般
370
               5
  6
Continuous
 62
               7
100
AcDbLine
 10
-583.5
 20
-6.4903810567669211
 30
0.0
 11
-541.5
 21
-6.4903810567669211
 31
0.0
  0
ARC
  5
6E
100
AcDbEntity
  8
一般
370
              15
  6
Continuous
 62
               7
100
AcDbCircle
 10
-553.84050605902257
 20
-5.8791481736024593
 30
0.0
 40
12.316920280644359
100
AcDbArc
 50
357.19316229645187
 51
6.4740262799266484
  0
ARC
  5
6F
100
AcDbEntity
  8
一般
370
              15
  6
Continuous
 62
               7
100
AcDbCircle
 10
-570.78459291342415
 20
-6.4903810567669211
 30
0.0
 40
12.316920280644391
100
AcDbArc
 50
170.65503441283258
 51
179.99999999999997
  0
POLYLINE
  5
70
100
AcDbEntity
  8
一般
370
              15
  6
Continuous
 62
               7
100
AcDb2dPolyline
 66
               1
 10
0.0
 20
0.0
 30
0.0
 70
               1
 75
               5
  0
VERTEX
  5
71
100
AcDbEntity
  8
一般
370
              15
  6
Continuous
 62
               7
100
AcDbVertex
100
AcDb2dVertex
 10
-588.0
 20
-293.49038105676692
 30
0.0
  0
VERTEX
  5
72
100
AcDbEntity
  8
一般
370
              15
  6
Continuous
 62
               7
100
AcDbVertex
100
AcDb2dVertex
 10
-537.0
 20
-293.49038105676692
 30
0.0
  0
VERTEX
  5
73
100
AcDbEntity
  8
一般
370
              15
  6
Continuous
 62
               7
100
AcDbVertex
100
AcDb2dVertex
 10
-537.0
 20
-297.49038105676692
 30
0.0
  0
VERTEX
  5
74
100
AcDbEntity
  8
一般
370
              15
  6
Continuous
 62
               7
100
AcDbVertex
100
AcDb2dVertex
 10
-588.0
 20
-297.49038105676692
 30
0.0
  0
SEQEND
  5
75
100
AcDbEntity
  8
一般
370
              15
  6
Continuous
 62
               7
  0
POLYLINE
  5
76
100
AcDbEntity
  8
一般
370
              15
  6
Continuous
 62
               7
100
AcDb2dPolyline
 66
               1
 10
0.0
 20
0.0
 30
0.0
 70
               1
 75
               5
  0
VERTEX
  5
77
100
AcDbEntity
  8
一般
370
              15
  6
Continuous
 62
               7
100
AcDbVertex
100
AcDb2dVertex
 10
-586.5
 20
27.509618943233079
 30
0.0
  0
VERTEX
  5
78
100
AcDbEntity
  8
一般
370
              15
  6
Continuous
 62
               7
100
AcDbVertex
100
AcDb2dVertex
 10
-538.5
 20
27.509618943233079
 30
0.0
  0
VERTEX
  5
79
100
AcDbEntity
  8
一般
370
              15
  6
Continuous
 62
               7
100
AcDbVertex
100
AcDb2dVertex
 10
-538.5
 20
-4.4903810567669211
 30
0.0
  0
VERTEX
  5
7A
100
AcDbEntity
  8
一般
370
              15
  6
Continuous
 62
               7
100
AcDbVertex
100
AcDb2dVertex
 10
-586.5
 20
-4.4903810567669211
 30
0.0
  0
SEQEND
  5
7B
100
AcDbEntity
  8
一般
370
              15
  6
Continuous
 62
               7
  0
CIRCLE
  5
7C
100
AcDbEntity
  8
一般
370
              15
  6
Continuous
 62
               7
100
AcDbCircle
 10
-562.5
 20
12.509618943233079
 30
0.0
 40
5.0
  0
SPLINE
  5
7D
100
AcDbEntity
  8
一般
370
              15
  6
Continuous
 62
               7
100
AcDbSpline
210
0.0
220
0.0
230
1.0
 70
               8
 71
               2
 72
               8
 73
               5
 74
               0
 42
0.000001
 43
0.000001
 40
0.0
 40
0.0
 40
0.0
 40
1.0
 40
1.0
 40
2.0
 40
2.0
 40
2.0
 10
-562.49125649916834
 20
-67.156472026896978
 30
0.0
 10
-562.49562790824359
 20
-67.156472964129279
 30
0.0
 10
-562.5
 20
-67.156472964129279
 30
0.0
 10
-562.50533794884939
 20
-67.156472964129279
 30
0.0
 10
-562.51067487997091
 20
-67.156471567061374
 30
0.0
  0
SPLINE
  5
7E
100
AcDbEntity
  8
一般
370
              15
  6
Continuous
 62
               7
100
AcDbSpline
210
0.0
220
0.0
230
1.0
 70
               8
 71
               2
 72
               6
 73
               3
 74
               0
 42
0.000001
 43
0.000001
 40
0.0
 40
0.0
 40
0.0
 40
1.0
 40
1.0
 40
1.0
 10
-553.25851482665246
 20
-65.878628877652758
 30
0.0
 10
-553.25845692291739
 20
-65.878610259078826
 30
0.0
 10
-553.25839902336281
 20
-65.878591641424634
 30
0.0
  0
SPLINE
  5
7F
100
AcDbEntity
  8
一般
370
              15
  6
Continuous
 62
               7
100
AcDbSpline
210
0.0
220
0.0
230
1.0
 70
               8
 71
               2
 72
               6
 73
               3
 74
               0
 42
0.000001
 43
0.000001
 40
0.0
 40
0.0
 40
0.0
 40
1.0
 40
1.0
 40
1.0
 10
-551.17895654050642
 20
-65.038343155680437
 30
0.0
 10
-551.17894671377246
 20
-65.038338153483949
 30
0.0
 10
-551.17893690255357
 20
-65.038333159160103
 30
0.0
  0
SPLINE
  5
80
100
AcDbEntity
  8
一般
370
              15
  6
Continuous
 62
               7
100
AcDbSpline
210
0.0
220
0.0
230
1.0
 70
               8
 71
               2
 72
               6
 73
               3
 74
               0
 42
0.000001
 43
0.000001
 40
0.0
 40
0.0
 40
0.0
 40
1.0
 40
1.0
 40
1.0
 10
-573.82098776012333
 20
-65.038371508662223
 30
0.0
 10
-573.82102376583271
 20
-65.038353180592424
 30
0.0
 10
-573.82105977094056
 20
-65.038334852490976
 30
0.0
  0
SPLINE
  5
81
100
AcDbEntity
  8
一般
370
              15
  6
Continuous
 62
               7
100
AcDbSpline
210
0.0
220
0.0
230
1.0
 70
               8
 71
               2
 72
               6
 73
               3
 74
               0
 42
0.000001
 43
0.000001
 40
0.0
 40
0.0
 40
0.0
 40
1.0
 40
1.0
 40
1.0
 10
-548.62909474420928
 20
-61.295147192633145
 30
0.0
 10
-548.6290868650068
 20
-61.295168511940119
 30
0.0
 10
-548.62907898605442
 20
-61.295189831919238
 30
0.0
  0
SPLINE
  5
82
100
AcDbEntity
  8
一般
370
              15
  6
Continuous
 62
               7
100
AcDbSpline
210
0.0
220
0.0
230
1.0
 70
               8
 71
               2
 72
               8
 73
               5
 74
               0
 42
0.000001
 43
0.000001
 40
0.0
 40
0.0
 40
0.0
 40
1.0
 40
1.0
 40
2.0
 40
2.0
 40
2.0
 10
-548.50000000005173
 20
-62.006458463463574
 30
0.0
 10
-548.5
 20
-62.006465703248978
 30
0.0
 10
-548.5
 20
-62.006472964129273
 30
0.0
 10
-548.5
 20
-62.0064807087183
 30
0.0
 10
-548.50000000005912
 20
-62.006488455195033
 30
0.0
  0
SPLINE
  5
83
100
AcDbEntity
  8
一般
370
              15
  6
Continuous
 62
               7
100
AcDbSpline
210
0.0
220
0.0
230
1.0
 70
               8
 71
               2
 72
               6
 73
               3
 74
               0
 42
0.000001
 43
0.000001
 40
0.0
 40
0.0
 40
0.0
 40
1.0
 40
1.0
 40
1.0
 10
-571.74151590202291
 20
-65.878618997014726
 30
0.0
 10
-571.74150054054473
 20
-65.878623936429193
 30
0.0
 10
-571.74148517334743
 20
-65.878628877652744
 30
0.0
  0
POLYLINE
  5
84
100
AcDbEntity
  8
一般
370
              15
  6
Continuous
 62
               7
100
AcDb2dPolyline
 66
               1
 10
0.0
 20
0.0
 30
0.0
 75
               5
  0
VERTEX
  5
85
100
AcDbEntity
  8
一般
370
              15
  6
Continuous
 62
               7
100
AcDbVertex
100
AcDb2dVertex
 10
-576.5
 20
-61.560381739607848
 30
0.0
  0
VERTEX
  5
86
100
AcDbEntity
  8
一般
370
              15
  6
Continuous
 62
               7
100
AcDbVertex
100
AcDb2dVertex
 10
-576.5
 20
-40.569290433446085
 30
0.0
  0
VERTEX
  5
87
100
AcDbEntity
  8
一般
370
              15
  6
Continuous
 62
               7
100
AcDbVertex
100
AcDb2dVertex
 10
-576.5
 20
-37.560381739607848
 30
0.0
  0
SEQEND
  5
88
100
AcDbEntity
  8
一般
370
              15
  6
Continuous
 62
               7
  0
POLYLINE
  5
89
100
AcDbEntity
  8
一般
370
              15
  6
Continuous
 62
               7
100
AcDb2dPolyline
 66
               1
 10
0.0
 20
0.0
 30
0.0
 75
               5
  0
VERTEX
  5
8A
100
AcDbEntity
  8
一般
370
              15
  6
Continuous
 62
               7
100
AcDbVertex
100
AcDb2dVertex
 10
-548.5
 20
-37.560381739607848
 30
0.0
  0
VERTEX
  5
8B
100
AcDbEntity
  8
一般
370
              15
  6
Continuous
 62
               7
100
AcDbVertex
100
AcDb2dVertex
 10
-548.5
 20
-40.569290433446085
 30
0.0
  0
VERTEX
  5
8C
100
AcDbEntity
  8
一般
370
              15
  6
Continuous
 62
               7
100
AcDbVertex
100
AcDb2dVertex
 10
-548.5
 20
-61.560381739607848
 30
0.0
  0
SEQEND
  5
8D
100
AcDbEntity
  8
一般
370
              15
  6
Continuous
 62
               7
  0
ARC
  5
8E
100
AcDbEntity
  8
一般
370
              15
  6
Continuous
 62
               7
100
AcDbCircle
 10
-562.5
 20
-37.560381739607848
 30
0.0
 40
14.0
100
AcDbArc
 50
0.0
 51
90.0
  0
ARC
  5
8F
100
AcDbEntity
  8
一般
370
              15
  6
Continuous
 62
               7
100
AcDbCircle
 10
-562.5
 20
-37.560381739607806
 30
0.0
 40
13.999999999999957
100
AcDbArc
 50
90.0
 51
180.0000000000002
  0
SPLINE
  5
90
100
AcDbEntity
  8
一般
370
              15
  6
Continuous
 62
               7
100
AcDbSpline
210
0.0
220
0.0
230
1.0
 70
               8
 71
               2
 72
               6
 73
               3
 74
               0
 42
0.000001
 43
0.000001
 40
0.0
 40
0.0
 40
0.0
 40
1.0
 40
1.0
 40
1.0
 10
-548.62909550664881
 20
-61.295148411598475
 30
0.0
 10
-548.62718361011503
 20
-61.291230891269606
 30
0.0
 10
-548.62530002865299
 20
-61.287311257421763
 30
0.0
  0
SPLINE
  5
91
100
AcDbEntity
  8
一般
370
              15
  6
Continuous
 62
               7
100
AcDbSpline
210
0.0
220
0.0
230
1.0
 70
               8
 71
               2
 72
              15
 73
              12
 74
               0
 42
0.000001
 43
0.000001
 40
0.0
 40
0.0
 40
0.0
 40
1.0
 40
1.0
 40
2.0
 40
3.0
 40
4.0
 40
5.0
 40
6.0
 40
7.0
 40
7.0
 40
8.0
 40
8.0
 40
8.0
 10
-576.49999999993861
 20
-60.756484923221791
 30
0.0
 10
-576.5
 20
-60.756478950381279
 30
0.0
 10
-576.5
 20
-60.756472964129273
 30
0.0
 10
-576.5
 20
-59.711471113647889
 30
0.0
 10
-572.74871130596432
 20
-57.901474814610644
 30
0.0
 10
-566.25128869403568
 20
-56.856472964129267
 30
0.0
 10
-558.74871130596432
 20
-56.856472964129267
 30
0.0
 10
-552.25128869403568
 20
-57.901474814610651
 30
0.0
 10
-548.5
 20
-59.711471113647896
 30
0.0
 10
-548.5
 20
-60.756472964129273
 30
0.0
 10
-548.5
 20
-60.756478495895863
 30
0.0
 10
-548.50000000005252
 20
-60.756484027079495
 30
0.0
  0
SPLINE
  5
92
100
AcDbEntity
  8
一般
370
              15
  6
Continuous
 62
               7
100
AcDbSpline
210
0.0
220
0.0
230
1.0
 70
               8
 71
               2
 72
               6
 73
               3
 74
               0
 42
0.000001
 43
0.000001
 40
0.0
 40
0.0
 40
0.0
 40
1.0
 40
1.0
 40
1.0
 10
-570.02532127417055
 20
-64.04539819056329
 30
0.0
 10
-570.02527838934168
 20
-64.045405766797984
 30
0.0
 10
-570.02523551610398
 20
-64.045413340868095
 30
0.0
  0
LINE
  5
93
100
AcDbEntity
  8
一般
370
              15
  6
Continuous
 62
               7
100
AcDbLine
 10
-548.5
 20
-67.334321309630639
 30
0.0
 11
-548.5
 21
-60.756472964129273
 31
0.0
  0
LINE
  5
94
100
AcDbEntity
  8
一般
370
              15
  6
Continuous
 62
               7
100
AcDbLine
 10
-576.5
 20
-60.756472964129273
 30
0.0
 11
-576.5
 21
-67.334321309630639
 31
0.0
  0
SPLINE
  5
95
100
AcDbEntity
  8
一般
370
              15
  6
Continuous
 62
               7
100
AcDbSpline
210
0.0
220
0.0
230
1.0
 70
               9
 71
               2
 72
              17
 73
              14
 74
               0
 42
0.000001
 43
0.000001
 40
0.0
 40
0.0
 40
0.0
 40
1.0
 40
2.0
 40
3.0
 40
4.0
 40
5.0
 40
6.0
 40
7.0
 40
8.0
 40
9.0
 40
10.0
 40
11.0
 40
12.0
 40
12.0
 40
12.0
 10
-569.5
 20
-63.956822234871325
 30
0.0
 10
-566.25128869403568
 20
-63.434321309630633
 30
0.0
 10
-558.74871130596432
 20
-63.434321309630633
 30
0.0
 10
-552.25128869403568
 20
-64.479323160112017
 30
0.0
 10
-548.5
 20
-66.289319459149254
 30
0.0
 10
-548.5
 20
-68.379323160112023
 30
0.0
 10
-552.25128869403568
 20
-70.18931945914926
 30
0.0
 10
-558.74871130596432
 20
-71.234321309630644
 30
0.0
 10
-566.25128869403568
 20
-71.234321309630644
 30
0.0
 10
-572.74871130596432
 20
-70.18931945914926
 30
0.0
 10
-576.5
 20
-68.379323160112023
 30
0.0
 10
-576.5
 20
-66.289319459149254
 30
0.0
 10
-572.74871130596432
 20
-64.479323160112017
 30
0.0
 10
-569.5
 20
-63.956822234871325
 30
0.0
  0
SPLINE
  5
96
100
AcDbEntity
  8
一般
370
              15
  6
Continuous
 62
               7
100
AcDbSpline
210
0.0
220
0.0
230
1.0
 70
               9
 71
               2
 72
              17
 73
              14
 74
               0
 42
0.000001
 43
0.000001
 40
0.0
 40
0.0
 40
0.0
 40
1.0
 40
2.0
 40
3.0
 40
4.0
 40
5.0
 40
6.0
 40
7.0
 40
8.0
 40
9.0
 40
10.0
 40
11.0
 40
12.0
 40
12.0
 40
12.0
 10
-568.0
 20
-64.875702987876082
 30
0.0
 10
-565.44744111674231
 20
-64.46038173960784
 30
0.0
 10
-559.55255888325769
 20
-64.46038173960784
 30
0.0
 10
-554.44744111674231
 20
-65.291024236144324
 30
0.0
 10
-551.5
 20
-66.729739243071364
 30
0.0
 10
-551.5
 20
-68.391024236144332
 30
0.0
 10
-554.44744111674231
 20
-69.829739243071373
 30
0.0
 10
-559.55255888325769
 20
-70.660381739607857
 30
0.0
 10
-565.44744111674231
 20
-70.660381739607857
 30
0.0
 10
-570.55255888325769
 20
-69.829739243071373
 30
0.0
 10
-573.5
 20
-68.391024236144332
 30
0.0
 10
-573.5
 20
-66.729739243071364
 30
0.0
 10
-570.55255888325769
 20
-65.291024236144324
 30
0.0
 10
-568.0
 20
-64.875702987876082
 30
0.0
  0
ENDBLK
  5
97
100
AcDbEntity
  8
一般
100
AcDbBlockEnd
  0
BLOCK
  5
98
100
AcDbEntity
  8
寸法
100
AcDbBlockBegin
  2
グループ-6
 70
               0
 10
0.0
 20
0.0
 30
0.0
  3
グループ-6
  1

  0
POLYLINE
  5
99
100
AcDbEntity
  8
一般
370
              15
  6
Continuous
 62
               7
100
AcDb2dPolyline
 66
               1
 10
0.0
 20
0.0
 30
0.0
 70
               1
 75
               5
  0
VERTEX
  5
9A
100
AcDbEntity
  8
一般
370
              15
  6
Continuous
 62
               7
100
AcDbVertex
100
AcDb2dVertex
 10
-321.0
 20
17.509618943233079
 30
0.0
  0
VERTEX
  5
9B
100
AcDbEntity
  8
一般
370
              15
  6
Continuous
 62
               7
100
AcDbVertex
100
AcDb2dVertex
 10
-242.0
 20
17.509618943233079
 30
0.0
  0
VERTEX
  5
9C
100
AcDbEntity
  8
一般
370
              15
  6
Continuous
 62
               7
100
AcDbVertex
100
AcDb2dVertex
 10
-242.0
 20
7.5096189432330789
 30
0.0
  0
VERTEX
  5
9D
100
AcDbEntity
  8
一般
370
              15
  6
Continuous
 62
               7
100
AcDbVertex
100
AcDb2dVertex
 10
-321.0
 20
7.5096189432330789
 30
0.0
  0
SEQEND
  5
9E
100
AcDbEntity
  8
一般
370
              15
  6
Continuous
 62
               7
  0
POLYLINE
  5
9F
100
AcDbEntity
  8
一般
370
              15
  6
Continuous
 62
               7
100
AcDb2dPolyline
 66
               1
 10
0.0
 20
0.0
 30
0.0
 75
               5
  0
VERTEX
  5
A0
100
AcDbEntity
  8
一般
370
              15
  6
Continuous
 62
               7
100
AcDbVertex
100
AcDb2dVertex
 10
-368.93299831977401
 20
27.509618943233079
 30
0.0
  0
VERTEX
  5
A1
100
AcDbEntity
  8
一般
370
              15
  6
Continuous
 62
               7
100
AcDbVertex
100
AcDb2dVertex
 10
-368.93299831977401
 20
7.5096189432330789
 30
0.0
  0
VERTEX
  5
A2
100
AcDbEntity
  8
一般
370
              15
  6
Continuous
 62
               7
100
AcDbVertex
100
AcDb2dVertex
 10
-351.0
 20
-4.4903810567669211
 30
0.0
  0
VERTEX
  5
A3
100
AcDbEntity
  8
一般
370
              15
  6
Continuous
 62
               7
100
AcDbVertex
100
AcDb2dVertex
 10
-321.0
 20
-4.4903810567669211
 30
0.0
  0
VERTEX
  5
A4
100
AcDbEntity
  8
一般
370
              15
  6
Continuous
 62
               7
100
AcDbVertex
100
AcDb2dVertex
 10
-321.0
 20
27.509618943233079
 30
0.0
  0
VERTEX
  5
A5
100
AcDbEntity
  8
一般
370
              15
  6
Continuous
 62
               7
100
AcDbVertex
100
AcDb2dVertex
 10
-369.0
 20
27.509618943233079
 30
0.0
  0
SEQEND
  5
A6
100
AcDbEntity
  8
一般
370
              15
  6
Continuous
 62
               7
  0
ENDBLK
  5
A7
100
AcDbEntity
  8
寸法
100
AcDbBlockEnd
  0
BLOCK
  5
A8
100
AcDbEntity
  8
一般
100
AcDbBlockBegin
  2
グループ-7
 70
               0
 10
0.0
 20
0.0
 30
0.0
  3
グループ-7
  1

  0
LINE
  5
A9
100
AcDbEntity
  8
寸法
370
              15
  6
Continuous
 62
               7
100
AcDbLine
 10
-369.0
 20
-293.49038105676692
 30
0.0
 11
-369.0
 21
-6.4903810567669211
 31
0.0
  0
LINE
  5
AA
100
AcDbEntity
  8
寸法
370
              15
  6
Continuous
 62
               7
100
AcDbLine
 10
-321.0
 20
-293.49038105676692
 30
0.0
 11
-369.0
 21
-293.49038105676692
 31
0.0
  0
LINE
  5
AB
100
AcDbEntity
  8
寸法
370
              15
  6
Continuous
 62
               7
100
AcDbLine
 10
-321.0
 20
-6.4903810567669211
 30
0.0
 11
-321.0
 21
-23.560381739607852
 31
0.0
  0
LINE
  5
AC
100
AcDbEntity
  8
寸法
370
              15
  6
Continuous
 62
               7
100
AcDbLine
 10
-321.0
 20
-51.560381739607848
 30
0.0
 11
-321.0
 21
-293.49038105676692
 31
0.0
  0
LINE
  5
AD
100
AcDbEntity
  8
寸法
370
              15
  6
Continuous
 62
               7
100
AcDbLine
 10
-369.0
 20
-6.4903810567669211
 30
0.0
 11
-321.0
 21
-6.4903810567669211
 31
0.0
  0
ARC
  5
AE
100
AcDbEntity
  8
一般
370
              15
  6
Continuous
 62
               7
100
AcDbCircle
 10
-355.0
 20
-7.4903810567669211
 30
0.0
 40
12.499999999999897
100
AcDbArc
 50
124.03697999921894
 51
174.24835698853525
  0
ARC
  5
AF
100
AcDbEntity
  8
一般
370
              15
  6
Continuous
 62
               7
100
AcDbCircle
 10
-336.34050605902257
 20
-5.8791481736024593
 30
0.0
 40
12.316920280644359
100
AcDbArc
 50
357.19316229645187
 51
6.4740262799275561
  0
POLYLINE
  5
B0
100
AcDbEntity
  8
一般
370
              15
  6
Continuous
 62
               7
100
AcDb2dPolyline
 66
               1
 10
0.0
 20
0.0
 30
0.0
 70
               1
 75
               5
  0
VERTEX
  5
B1
100
AcDbEntity
  8
一般
370
              15
  6
Continuous
 62
               7
100
AcDbVertex
100
AcDb2dVertex
 10
-370.5
 20
-293.49038105676692
 30
0.0
  0
VERTEX
  5
B2
100
AcDbEntity
  8
一般
370
              15
  6
Continuous
 62
               7
100
AcDbVertex
100
AcDb2dVertex
 10
-319.5
 20
-293.49038105676692
 30
0.0
  0
VERTEX
  5
B3
100
AcDbEntity
  8
一般
370
              15
  6
Continuous
 62
               7
100
AcDbVertex
100
AcDb2dVertex
 10
-319.5
 20
-297.49038105676692
 30
0.0
  0
VERTEX
  5
B4
100
AcDbEntity
  8
一般
370
              15
  6
Continuous
 62
               7
100
AcDbVertex
100
AcDb2dVertex
 10
-370.5
 20
-297.49038105676692
 30
0.0
  0
SEQEND
  5
B5
100
AcDbEntity
  8
一般
370
              15
  6
Continuous
 62
               7
  0
INSERT
  5
B6
100
AcDbEntity
  8
寸法
 62
               7
100
AcDbBlockReference
  2
グループ-6
 10
0.0
 20
0.0
 30
0.0
  0
LWPOLYLINE
  5
B7
100
AcDbEntity
  8
寸法
370
              15
  6
Continuous
 62
               7
100
AcDbPolyline
 90
        5
 70
             128
 10
-230.69002846966706
 20
-23.560381739607848
 10
-321.0
 20
-23.560381739607848
 42
0.2360679774997906
 10
-328.0
 20
-37.560381739607855
 42
0.2360679774997896
 10
-321.0
 20
-51.560381739607848
 10
-227.54507597384784
 20
-51.560381739607848
  0
POLYLINE
  5
B8
100
AcDbEntity
  8
寸法
370
              15
  6
Continuous
 62
               7
100
AcDb2dPolyline
 66
               1
 10
0.0
 20
0.0
 30
0.0
 70
               1
 75
               5
  0
VERTEX
  5
B9
100
AcDbEntity
  8
寸法
370
              15
  6
Continuous
 62
               7
100
AcDbVertex
100
AcDb2dVertex
 10
-211.5758981242594
 20
-62.951737538308336
 30
0.0
  0
VERTEX
  5
BA
100
AcDbEntity
  8
寸法
370
              15
  6
Continuous
 62
               7
100
AcDbVertex
100
AcDb2dVertex
 10
-185.26450474225396
 20
-53.375173525189595
 30
0.0
  0
VERTEX
  5
BB
100
AcDbEntity
  8
寸法
370
              15
  6
Continuous
 62
               7
100
AcDbVertex
100
AcDb2dVertex
 10
-181.84430330899727
 20
-62.772099733048677
 30
0.0
  0
VERTEX
  5
BC
100
AcDbEntity
  8
寸法
370
              15
  6
Continuous
 62
               7
100
AcDbVertex
100
AcDb2dVertex
 10
-208.1556966910027
 20
-72.348663746167389
 30
0.0
  0
SEQEND
  5
BD
100
AcDbEntity
  8
寸法
370
              15
  6
Continuous
 62
               7
  0
ARC
  5
BE
100
AcDbEntity
  8
寸法
370
              15
  6
Continuous
 62
               7
100
AcDbCircle
 10
-229.42569055427475
 20
-71.085773334252281
 30
0.0
 40
19.615749491781621
100
AcDbArc
 50
24.49844971895044
 51
95.501550281050228
  0
ARC
  5
BF
100
AcDbEntity
  8
寸法
370
              15
  6
Continuous
 62
               7
100
AcDbCircle
 10
-233.79763370081704
 20
-77.807435160549687
 30
0.0
 40
54.33599189420584
100
AcDbArc
 50
26.721328376381244
 51
93.278671623619331
  0
ENDBLK
  5
C0
100
AcDbEntity
  8
一般
100
AcDbBlockEnd
  0
ENDSEC
  0
SECTION
  2
ENTITIES
  0
INSERT
  5
C1
100
AcDbEntity
  8
一般
 62
               7
100
AcDbBlockReference
  2
スケール1：5
 10
1582.9096960169582
 20
566.0
 30
0.0
  0
MTEXT
  5
C2
100
AcDbEntity
  8
一般
 62
               7
100
AcDbMText
 10
1786.1324865405218
 20
1433.6169754020784
 30
0.0
 40
35.36964699074074
 41
331.93375672973912
 71
               1
 72
               1
  1
BX-5202mk2\P
  7
Arial
 73
               1
 44
0.9673603504928806
  0
INSERT
  5
C3
100
AcDbEntity
  8
一般
 62
               7
100
AcDbBlockReference
  2
グループ-1
 10
1450.0
 20
1020.0
 30
0.0
  0
INSERT
  5
C4
100
AcDbEntity
  8
一般
 62
               7
100
AcDbBlockReference
  2
グループ-3
 10
1450.0
 20
1020.0
 30
0.0
  0
INSERT
  5
C5
100
AcDbEntity
  8
一般
 62
               7
100
AcDbBlockReference
  2
グループ-4
 10
1450.0
 20
1020.0
 30
0.0
  0
INSERT
  5
C6
100
AcDbEntity
  8
一般
 62
               7
100
AcDbBlockReference
  2
グループ-5
 10
1450.0
 20
1020.0
 30
0.0
  0
INSERT
  5
C7
100
AcDbEntity
  8
一般
 62
               7
100
AcDbBlockReference
  2
グループ-7
 10
1450.0
 20
1020.0
 30
0.0
  0
ENDSEC
  0
SECTION
  2
OBJECTS
  0
DICTIONARY
  5
19
100
AcDbDictionary
280
               0
281
               1
  3
ACAD_GROUP
350
1A
  3
ACAD_MLINESTYLE
350
1B
  3
ACAD_LAYOUT
350
1E
  3
ACAD_PLOTSETTINGS
350
22
  3
ACAD_PLOTSTYLENAME
350
1F
  3
ACAD_WIPEOUT_VARS
350
23
  0
DICTIONARY
  5
1A
102
{ACAD_REACTORS
330
19
102
}
100
AcDbDictionary
280
               0
281
               1
  0
DICTIONARY
  5
1B
102
{ACAD_REACTORS
330
19
102
}
100
AcDbDictionary
280
               0
281
               1
  3
Standard
350
1C
  0
MLINESTYLE
  5
1C
102
{ACAD_REACTORS
330
1B
102
}
100
AcDbMlineStyle
  2
Standard
 70
               0
  3

 62
               0
 51
90.0
 52
90.0
 71
               2
 49
0.5
 62
             256
  6
ByLayer
 49
-0.5
 62
             256
  6
ByLayer
  0
ACDBDICTIONARYWDFLT
  5
1F
102
{ACAD_REACTORS
330
19
102
}
100
AcDbDictionary
281
               1
  3
Normal
350
1D
100
AcDbDictionaryWithDefault
340
1D
  0
ACDBPLACEHOLDER
  5
1D
102
{ACAD_REACTORS
330
1F
102
}
  0
LAYOUT
  5
20
102
{ACAD_REACTORS
330
1E
102
}
100
AcDbPlotSettings
  1

  2

  4

  6

 40
0.0
 41
0.0
 42
0.0
 43
0.0
 44
0.0
 45
0.0
 46
0.0
 47
0.0
 48
0.0
 49
0.0
140
0.0
141
0.0
142
1.0
143
1.0
 70
            1024
 72
               0
 73
               0
 74
               0
  7

 75
               0
147
1.0
148
0.0
149
0.0
100
AcDbLayout
  1
Model
 70
               0
 71
               0
 10
0.0
 20
0.0
 11
0.0
 21
0.0
 12
0.0
 22
0.0
 32
0.0
 14
0.0
 24
0.0
 34
0.0
 15
0.0
 25
0.0
 35
0.0
146
0.0
 13
0.0
 23
0.0
 33
0.0
 16
0.0
 26
0.0
 36
0.0
 17
0.0
 27
0.0
 37
0.0
 76
               0
330
A
331
0
345
0
346
0
  0
LAYOUT
  5
21
102
{ACAD_REACTORS
330
1E
102
}
100
AcDbPlotSettings
  1

  2

  4

  6

 40
0.0
 41
0.0
 42
0.0
 43
0.0
 44
0.0
 45
0.0
 46
0.0
 47
0.0
 48
0.0
 49
0.0
140
0.0
141
0.0
142
1.0
143
1.0
 70
               0
 72
               0
 73
               0
 74
               0
  7

 75
               0
147
1.0
148
0.0
149
0.0
100
AcDbLayout
  1
Layout1
 70
               0
 71
               0
 10
0.0
 20
0.0
 11
0.0
 21
0.0
 12
0.0
 22
0.0
 32
0.0
 14
0.0
 24
0.0
 34
0.0
 15
0.0
 25
0.0
 35
0.0
146
0.0
 13
0.0
 23
0.0
 33
0.0
 16
0.0
 26
0.0
 36
0.0
 17
0.0
 27
0.0
 37
0.0
 76
               0
330
B
331
0
345
0
346
0
  0
DICTIONARY
  5
1E
102
{ACAD_REACTORS
330
19
102
}
100
AcDbDictionary
280
               0
281
               1
  3
Layout1
350
21
  3
Model
350
20
  0
DICTIONARY
  5
22
102
{ACAD_REACTORS
330
19
102
}
100
AcDbDictionary
280
               0
281
               1
  0
WIPEOUTVARIABLES
  5
23
100
AcDbWipeoutVariables
 70
               0
  0
ENDSEC
  0
EOF
