  0
SECTION
  2
HEADER
  9
$ACADVER
  1
AC1009
  9
$INSBASE
 10
0
 20
0
 30
0
  9
$EXTMIN
 10
0
 20
0
  9
$EXTMAX
 10
7425
 20
5250
  9
$LIMMIN
 10
0
 20
0
  9
$LIMMAX
 10
7425
 20
5250
  9
$LTSCALE
 40
25
  0
ENDSEC
  0
SECTION
  2
TABLES
  0
TABLE
  2
LTYPE
 70
     9
  0
LTYPE
  2
CONTINUOUS
 70
    64
  3
実線
 72
    65
 73
     0
 40
0.0
  0
LTYPE
  2
DASHED1
 70
    64
  3
--  --  --  --  --  --  --  --  
 72
    65
 73
     2
 40
2.5
 49
1.25
 49
-1.25
  0
LTYPE
  2
DASHED2
 70
    64
  3
----    ----    ----    ----    
 72
    65
 73
     2
 40
5.0
 49
2.5
 49
-2.5
  0
LTYPE
  2
DASHED3
 70
    64
  3
------  ------  ------  ------  
 72
    65
 73
     2
 40
5.0
 49
3.75
 49
-1.25
  0
LTYPE
  2
CENTER1
 70
    64
  3
----- - ----- - ----- - ----- - 
 72
    65
 73
     4
 40
10.0
 49
6.25
 49
-1.25
 49
1.25
 49
-1.25
  0
LTYPE
  2
CENTER2
 70
    64
  3
----------  --  ----------  --  
 72
    65
 73
     4
 40
20.0
 49
12.5
 49
-2.5
 49
2.5
 49
-2.5
  0
LTYPE
  2
PHANTOM1
 70
    64
  3
--- - - --- - - --- - - --- - - 
 72
    65
 73
     6
 40
10.0
 49
3.25
 49
-1.25
 49
1.25
 49
-1.25
 49
1.25
 49
-1.25
  0
LTYPE
  2
PHANTOM2
 70
    64
  3
--------  -  -  --------  -  -  
 72
    65
 73
     6
 40
20.0
 49
10.0
 49
-2.5
 49
1.25
 49
-2.5
 49
1.25
 49
-2.5
  0
LTYPE
  2
DOT
 70
    64
  3
-   -   -   -   -   -   -   -   
 72
    65
 73
     2
 40
2.5
 49
0.625
 49
-1.875
  0
LTYPE
  2
DUMMY
 70
    64
  3
ダミー
 72
    65
 73
     0
 40
0.0
  0
LTYPE
  2
RAND1
 70
    64
  3
ランダム線1
 72
    65
 73
     4
 40
10.0
 49
1.0
 49
-2.0
 49
3.0
 49
-4.0
  0
LTYPE
  2
RAND2
 70
    64
  3
ランダム線2
 72
    65
 73
     4
 40
14.0
 49
2.0
 49
-3.0
 49
4.0
 49
-5.0
  0
LTYPE
  2
RAND3
 70
    64
  3
ランダム線3
 72
    65
 73
     4
 40
18.0
 49
3.0
 49
-4.0
 49
5.0
 49
-6.0
  0
LTYPE
  2
RAND4
 70
    64
  3
ランダム線4
 72
    65
 73
     4
 40
22.0
 49
4.0
 49
-5.0
 49
6.0
 49
-7.0
  0
LTYPE
  2
RAND5
 70
    64
  3
ランダム線5
 72
    65
 73
     4
 40
26.0
 49
5.0
 49
-6.0
 49
7.0
 49
-8.0
  0
LTYPE
  2
LONG1
 70
    64
  3
----------  --  ----------  --  
 72
    65
 73
     4
 40
40.0
 49
32.5
 49
-2.5
 49
2.5
 49
-2.5
  0
LTYPE
  2
LONG2
 70
    64
  3
--------  -  -  --------  -  -  
 72
    65
 73
     6
 40
40.0
 49
30.0
 49
-2.5
 49
1.25
 49
-2.5
 49
1.25
 49
-2.5
  0
LTYPE
  2
LONG3
 70
    64
  3
+++++++++++++++..+++++++++++++++
 72
    65
 73
     2
 40
40.0
 49
37.5
 49
-2.5
  0
LTYPE
  2
LONG4
 70
    64
  3
+++++++++++++++..+++++++++++++++
 72
    65
 73
     2
 40
80.0
 49
75.0
 49
-5.0
  0
LTYPE
  2
LONG5
 70
    64
  3
----------  --  ----------  --  
 72
    65
 73
     4
 40
60.0
 49
37.5
 49
-7.5
 49
7.5
 49
-7.5
  0
LTYPE
  2
dashed
 70
   64
  3
-------   -------------   ------
 72
   65
 73
    2
 40
7.5
 49
6
 49
-1.5
  0
LTYPE
  2
dashed_spaced
 70
   64
  3
----        --------        ----
 72
   65
 73
    2
 40
12
 49
6
 49
-6
  0
LTYPE
  2
long_dashed_dotted
 70
   64
  3
------------- --- --------------
 72
   65
 73
    4
 40
15.25
 49
12
 49
-1.5
 49
0.25
 49
-1.5
  0
LTYPE
  2
long_dashed_double-dotted
 70
   64
  3
----------- --- --- ------------
 72
   65
 73
    6
 40
17
 49
12
 49
-1.5
 49
0.25
 49
-1.5
 49
0.25
 49
-1.5
  0
LTYPE
  2
long_dashed_triplicate-dotted
 70
   64
  3
--------- --- --- --- ----------
 72
   65
 73
    8
 40
18.75
 49
12
 49
-1.5
 49
0.25
 49
-1.5
 49
0.25
 49
-1.5
 49
0.25
 49
-1.5
  0
LTYPE
  2
dotted
 70
   64
  3
   -       -       -       -    
 72
   65
 73
    2
 40
1.75
 49
0.25
 49
-1.5
  0
LTYPE
  2
chain
 70
   64
  3
-------------- -- --------------
 72
   65
 73
    4
 40
18.5
 49
12
 49
-1.5
 49
3.5
 49
-1.5
  0
LTYPE
  2
chain_double_dash
 70
   64
  3
------------ -- -- -------------
 72
   65
 73
    6
 40
23.5
 49
12
 49
-1.5
 49
3.5
 49
-1.5
 49
3.5
 49
-1.5
  0
LTYPE
  2
dashed_dotted
 70
   64
  3
-----------     -     ----------
 72
   65
 73
    4
 40
9.25
 49
6
 49
-1.5
 49
0.25
 49
-1.5
  0
LTYPE
  2
double-dashed_dotted
 70
   64
  3
------   -----------   -   -----
 72
   65
 73
    6
 40
16.75
 49
6
 49
-1.5
 49
6
 49
-1.5
 49
0.25
 49
-1.5
  0
LTYPE
  2
dashed_double-dotted
 70
   64
  3
---------    -    -    ---------
 72
   65
 73
    6
 40
11
 49
6
 49
-1.5
 49
0.25
 49
-1.5
 49
0.25
 49
-1.5
  0
LTYPE
  2
double-dashed_double-dotted
 70
   64
  3
-----   ---------   -   -   ----
 72
   65
 73
    8
 40
18.5
 49
6
 49
-1.5
 49
6
 49
-1.5
 49
0.25
 49
-1.5
 49
0.25
 49
-1.5
  0
LTYPE
  2
dashed_triplicate-dotted
 70
   64
  3
-------    -    -    -    ------
 72
   65
 73
    8
 40
12.75
 49
6
 49
-1.5
 49
0.25
 49
-1.5
 49
0.25
 49
-1.5
 49
0.25
 49
-1.5
  0
LTYPE
  2
double-dashed_triplicate-dotted
 70
   64
  3
-----  ---------  -  -  -  -----
 72
   65
 73
   10
 40
20.25
 49
6
 49
-1.5
 49
6
 49
-1.5
 49
0.25
 49
-1.5
 49
0.25
 49
-1.5
 49
0.25
 49
-1.5
  0
LTYPE
  2
undefined
 70
   64
  3
--------------------------------
 72
   65
 73
    0
 40
0
  0
LTYPE
  2
_
 70
   64
  3
                                
 72
   65
 73
    0
 40
0
  0
LTYPE
  2
__18
 70
   64
  3
                                
 72
   65
 73
    0
 40
0
  0
LTYPE
  2
__19
 70
   64
  3
                                
 72
   65
 73
    0
 40
0
  0
LTYPE
  2
__20
 70
   64
  3
                                
 72
   65
 73
    0
 40
0
  0
LTYPE
  2
__21
 70
   64
  3
                                
 72
   65
 73
    0
 40
0
  0
LTYPE
  2
__22
 70
   64
  3
                                
 72
   65
 73
    0
 40
0
  0
LTYPE
  2
__23
 70
   64
  3
                                
 72
   65
 73
    0
 40
0
  0
LTYPE
  2
__24
 70
   64
  3
                                
 72
   65
 73
    0
 40
0
  0
LTYPE
  2
__25
 70
   64
  3
                                
 72
   65
 73
    0
 40
0
  0
LTYPE
  2
__26
 70
   64
  3
                                
 72
   65
 73
    0
 40
0
  0
LTYPE
  2
__27
 70
   64
  3
                                
 72
   65
 73
    0
 40
0
  0
LTYPE
  2
__28
 70
   64
  3
                                
 72
   65
 73
    0
 40
0
  0
LTYPE
  2
__29
 70
   64
  3
                                
 72
   65
 73
    0
 40
0
  0
LTYPE
  2
__30
 70
   64
  3
                                
 72
   65
 73
    0
 40
0
  0
LTYPE
  2
__31
 70
   64
  3
                                
 72
   65
 73
    0
 40
0
  0
LTYPE
  2
__32
 70
   64
  3
                                
 72
   65
 73
    0
 40
0
  0
ENDTAB
  0
TABLE
  2
STYLE
  5
3
100
AcDbSymbolTable
 70
     1
  0
STYLE
  5
10
100
AcDbSymbolTableRecord
100
AcDbTextStyleTableRecord
  2
STANDARD
 70
     0
 40
0.0
 41
1.0
 50
0.0
 71
     0
 42
0.2
  3
txt
  4
bigfont.shx
  0
STYLE
  5
26
100
AcDbSymbolTableRecord
100
AcDbTextStyleTableRecord
  2
TATEGAKI
 70
    68
 40
0.0
 41
1.0
 50
0.0
 71
     0
 42
1.0
  3
txt
  4
bigfont.shx
  0
ENDTAB
  0
TABLE
  2
LAYER
 70
    8
  0
LAYER
  2
_1-0_
 70
   64
 62
    7
  6
CONTINUOUS
  0
LAYER
  2
_2-0_
 70
   64
 62
    7
  6
CONTINUOUS
  0
LAYER
  2
_2-1_
 70
   64
 62
    7
  6
CONTINUOUS
  0
LAYER
  2
_2-2_
 70
   64
 62
    7
  6
CONTINUOUS
  0
LAYER
  2
_3-0_
 70
   64
 62
    7
  6
CONTINUOUS
  0
LAYER
  2
_3-1_
 70
   64
 62
    7
  6
CONTINUOUS
  0
LAYER
  2
_4-0_
 70
   64
 62
    7
  6
CONTINUOUS
  0
LAYER
  2
ADD_LINE
 70
   64
 62
    7
  6
CONTINUOUS
  0
ENDTAB
  0
ENDSEC
  0
SECTION
  2
BLOCKS
  0
ENDSEC
  0
SECTION
  2
ENTITIES
  0
LINE
  8
_2-1_
  6
CONTINUOUS
 62
    7
 10
2010.4999159293743
 20
1688.4935217014149
 11
2121.5000925837335
 21
1688.4935217014149
  0
LINE
  8
_2-1_
  6
CONTINUOUS
 62
    7
 10
2010.4999159293743
 20
1688.4935217014149
 11
2121.5000925837335
 21
1688.4935217014149
  0
LINE
  8
_2-2_
  6
CONTINUOUS
 62
    7
 10
2827.5000693715215
 20
1658.505816809459
 11
3037.4999602328858
 21
1658.505816809459
  0
LINE
  8
_2-2_
  6
CONTINUOUS
 62
    7
 10
1297.7514697778176
 20
1658.505816809459
 11
862.50002043587847
 21
1658.505816809459
  0
LINE
  8
_2-2_
  6
CONTINUOUS
 62
    7
 10
1297.7514697778176
 20
1558.5059000258279
 11
1187.7514957000849
 21
1558.5059000258279
  0
LINE
  8
_2-2_
  6
CONTINUOUS
 62
    7
 10
1297.7514697778176
 20
1558.5059000258279
 11
1297.7514697778176
 21
1658.505816809459
  0
LINE
  8
_2-2_
  6
CONTINUOUS
 62
    7
 10
1187.7514957000849
 20
956.38318337989153
 11
1187.7514957000849
 21
1558.5059000258279
  0
LINE
  8
_2-2_
  6
CONTINUOUS
 62
    7
 10
2827.5000693715215
 20
1558.5059000258279
 11
2827.5000693715215
 21
1658.505816809459
  0
LINE
  8
_2-2_
  6
CONTINUOUS
 62
    7
 10
2827.5000693715215
 20
1558.5059000258279
 11
2937.5000434492545
 21
1558.5059000258279
  0
LINE
  8
_2-2_
  6
CONTINUOUS
 62
    7
 10
2937.5000434492545
 20
956.38318337989153
 11
2937.5000434492545
 21
1558.5059000258279
  0
LINE
  8
_2-2_
  6
CONTINUOUS
 62
    7
 10
2012.6256471435074
 20
936.38317815125231
 11
2112.6257826462675
 21
936.38317815125231
  0
LINE
  8
_2-2_
  6
CONTINUOUS
 62
    7
 10
2112.6257826462675
 20
936.38317815125231
 11
2112.6257826462675
 21
846.38320930215832
  0
LINE
  8
_2-2_
  6
CONTINUOUS
 62
    7
 10
2112.6257826462675
 20
846.38320930215832
 11
2012.6256471435074
 21
846.38320930215832
  0
LINE
  8
_2-2_
  6
CONTINUOUS
 62
    7
 10
2012.6256471435074
 20
846.38320930215832
 11
2012.6256471435074
 21
936.38317815125231
  0
LINE
  8
_2-2_
  6
CONTINUOUS
 62
    7
 10
1917.6256496473627
 20
959.53700385958984
 11
1992.6257512744328
 21
952.53700749754421
  0
LINE
  8
_2-2_
  6
CONTINUOUS
 62
    7
 10
1992.6257512744328
 20
952.53700749754421
 11
1980.6257262653364
 21
964.53703250664091
  0
LINE
  8
_2-2_
  6
CONTINUOUS
 62
    7
 10
2203.125634064545
 20
959.53700385958984
 11
2128.1257511566041
 21
952.53700749754421
  0
LINE
  8
_2-2_
  6
CONTINUOUS
 62
    7
 10
2128.1257511566041
 20
952.53700749754421
 11
2140.1257761657007
 21
964.53703250664091
  0
LINE
  8
_2-2_
  6
CONTINUOUS
 62
    7
 10
1187.7514957000849
 20
956.38318337989153
 11
2012.6256471435074
 21
936.38317815125231
  0
LINE
  8
_2-2_
  6
CONTINUOUS
 62
    7
 10
2937.5000434492545
 20
956.38318337989153
 11
2112.6257826462675
 21
936.38317815125231
  0
LINE
  8
_2-1_
  6
CONTINUOUS
 62
    7
 10
1287.7514124837162
 20
1658.505816809459
 11
1262.1366684961502
 21
1658.505816809459
  0
LINE
  8
_2-1_
  6
CONTINUOUS
 62
    7
 10
1262.1366684961502
 20
1658.505816809459
 11
1262.1366684961502
 21
1678.5058220380981
  0
LINE
  8
_2-1_
  6
CONTINUOUS
 62
    7
 10
2852.9340419990212
 20
1688.4935217014149
 11
1272.2999996200031
 21
1688.4935217014149
  0
LINE
  8
_2-1_
  6
CONTINUOUS
 62
    7
 10
2862.9340992931234
 20
1660.2574289535462
 11
2862.9340992931234
 21
1678.4935737668775
  0
LINE
  8
_2-1_
  6
CONTINUOUS
 62
    7
 10
2743.1392264642309
 20
1688.0894381107048
 11
2743.292767292744
 21
1688.5058793321998
  0
LINE
  8
_2-1_
  6
CONTINUOUS
 62
    7
 10
1277.1366450777386
 20
1683.7857018106231
 11
1378.6440834575635
 21
1683.7857018106231
  0
LINE
  8
_2-1_
  6
CONTINUOUS
 62
    7
 10
1262.1366684961502
 20
1678.5058220380981
 11
1262.1366684961502
 21
1658.505816809459
  0
LINE
  8
_2-1_
  6
CONTINUOUS
 62
    7
 10
1267.1365877836365
 20
1673.7856445165214
 11
1267.1365877836365
 21
1658.505816809459
  0
LINE
  8
_2-1_
  6
CONTINUOUS
 62
    7
 10
1262.1366684961502
 20
1678.5058220380981
 11
1262.1366684961502
 21
1658.505816809459
  0
LINE
  8
_2-1_
  6
CONTINUOUS
 62
    7
 10
2862.593116171111
 20
1678.5058220380981
 11
2862.593116171111
 21
1658.505816809459
  0
LINE
  8
_2-1_
  6
CONTINUOUS
 62
    7
 10
2857.5931968836248
 20
1673.7856445165214
 11
2857.5931968836248
 21
1658.505816809459
  0
LINE
  8
_2-1_
  6
CONTINUOUS
 62
    7
 10
1334.8253463686201
 20
1683.7857018106231
 11
1369.8839449054028
 21
1683.7857018106231
  0
LINE
  8
_2-1_
  6
CONTINUOUS
 62
    7
 10
2742.6661369883413
 20
1672.3661573697239
 11
2742.6663557074703
 21
1672.3668135271107
  0
LINE
  8
_2-1_
  6
CONTINUOUS
 62
    7
 10
2736.1308094157212
 20
1688.4521837860461
 11
2736.1375897087182
 21
1688.4588547194785
  0
LINE
  8
_2-1_
  6
CONTINUOUS
 62
    7
 10
2736.1375897087182
 20
1688.4588547194785
 11
2736.1441512825868
 21
1688.4656350124758
  0
LINE
  8
_2-1_
  6
CONTINUOUS
 62
    7
 10
2736.1441512825868
 20
1688.4656350124758
 11
2736.1509315755834
 21
1688.4723059459081
  0
LINE
  8
_2-1_
  6
CONTINUOUS
 62
    7
 10
2736.1509315755834
 20
1688.4723059459081
 11
2736.1574931494515
 21
1688.4790862389054
  0
LINE
  8
_2-1_
  6
CONTINUOUS
 62
    7
 10
2736.1574931494515
 20
1688.4790862389054
 11
2736.1642734424486
 21
1688.4857571723376
  0
LINE
  8
_2-1_
  6
CONTINUOUS
 62
    7
 10
2736.1642734424486
 20
1688.4857571723376
 11
2736.1708350163167
 21
1688.4924281057704
  0
LINE
  8
_2-1_
  6
CONTINUOUS
 62
    7
 10
2736.1708350163167
 20
1688.4924281057704
 11
2736.1776153093138
 21
1688.4992083987672
  0
LINE
  8
_2-1_
  6
CONTINUOUS
 62
    7
 10
2736.1776153093138
 20
1688.4992083987672
 11
2736.1841768831819
 21
1688.5058793321998
  0
LINE
  8
_2-1_
  6
CONTINUOUS
 62
    7
 10
2743.0300856188915
 20
1688.5058793321998
 11
2743.0443023622724
 21
1688.4555739325447
  0
LINE
  8
_2-1_
  6
CONTINUOUS
 62
    7
 10
2743.0443023622724
 20
1688.4555739325447
 11
2743.0585191056534
 21
1688.4047217350667
  0
LINE
  8
_2-1_
  6
CONTINUOUS
 62
    7
 10
2743.0585191056534
 20
1688.4047217350667
 11
2743.0722984107765
 21
1688.3533227397668
  0
LINE
  8
_2-1_
  6
CONTINUOUS
 62
    7
 10
2743.0722984107765
 20
1688.3533227397668
 11
2743.0860777158996
 21
1688.3014863062087
  0
LINE
  8
_2-1_
  6
CONTINUOUS
 62
    7
 10
2743.0860777158996
 20
1688.3014863062087
 11
2743.0996383018933
 21
1688.249212434393
  0
LINE
  8
_2-1_
  6
CONTINUOUS
 62
    7
 10
2743.0996383018933
 20
1688.249212434393
 11
2743.1129801687584
 21
1688.1965011243192
  0
LINE
  8
_2-1_
  6
CONTINUOUS
 62
    7
 10
2743.1129801687584
 20
1688.1965011243192
 11
2743.1261033164947
 21
1688.1432430164232
  0
LINE
  8
_2-1_
  6
CONTINUOUS
 62
    7
 10
2743.1261033164947
 20
1688.1432430164232
 11
2743.1392264642309
 21
1688.0894381107048
  0
LINE
  8
_2-1_
  6
CONTINUOUS
 62
    7
 10
1278.9501547353148
 20
1683.7857018106231
 11
1366.754730327709
 21
1683.7857018106231
  0
LINE
  8
_2-1_
  6
CONTINUOUS
 62
    7
 10
2847.5931395895232
 20
1683.7857018106231
 11
2757.9657587765728
 21
1683.7857018106231
  0
LINE
  8
_2-1_
  6
CONTINUOUS
 62
    7
 10
1334.8253463686201
 20
1688.5058793321998
 11
1371.4260241239685
 21
1688.5058793321998
  0
LINE
  8
_2-1_
  6
CONTINUOUS
 62
    7
 10
1381.425972058506
 20
1678.5058220380981
 11
1381.425972058506
 21
1677.8815976441133
  0
LINE
  8
_2-1_
  6
CONTINUOUS
 62
    7
 10
1571.9999954046891
 20
1219.2564551894727
 11
2561.7392676217214
 21
1219.2564551894727
  0
LINE
  8
_2-1_
  6
CONTINUOUS
 62
    7
 10
1553.6375402943968
 20
1214.0649379450383
 11
2562.3477442384224
 21
1214.0649379450383
  0
LINE
  8
_2-1_
  6
CONTINUOUS
 62
    7
 10
2552.1143136337455
 20
1219.2797487767045
 11
2562.1143709278476
 21
1219.2797487767045
  0
LINE
  8
_2-1_
  6
CONTINUOUS
 62
    7
 10
2556.3959593018049
 20
1214.0768581375651
 11
2551.3958212951893
 21
1214.0768581375651
  0
LINE
  8
_2-1_
  6
CONTINUOUS
 62
    7
 10
1573.0807959803283
 20
1219.2176325440867
 11
1583.0807439148657
 21
1219.2176325440867
  0
LINE
  8
_2-1_
  6
CONTINUOUS
 62
    7
 10
1553.3563768541492
 20
1213.1690643929146
 11
2553.3564195669755
 21
1213.1690643929146
  0
LINE
  8
_2-1_
  6
CONTINUOUS
 62
    7
 10
2553.3564195669755
 20
1213.1690643929146
 11
2553.3564195669755
 21
1203.1690070988129
  0
LINE
  8
_2-1_
  6
CONTINUOUS
 62
    7
 10
2553.3564195669755
 20
1203.1690070988129
 11
1553.3563768541492
 21
1203.1690070988129
  0
LINE
  8
_2-1_
  6
CONTINUOUS
 62
    7
 10
1553.3563768541492
 20
1203.1690070988129
 11
1553.3563768541492
 21
1213.1690643929146
  0
LINE
  8
_2-1_
  6
CONTINUOUS
 62
    7
 10
1716.4549032233394
 20
1041.4527856245004
 11
1866.4549971179151
 21
1041.4527856245004
  0
LINE
  8
_2-1_
  6
CONTINUOUS
 62
    7
 10
1866.4549971179151
 20
1041.4527856245004
 11
1866.4549971179151
 21
1031.452837689963
  0
LINE
  8
_2-1_
  6
CONTINUOUS
 62
    7
 10
1866.4549971179151
 20
1031.452837689963
 11
1716.4549032233394
 21
1031.452837689963
  0
LINE
  8
_2-1_
  6
CONTINUOUS
 62
    7
 10
1716.4549032233394
 20
1031.452837689963
 11
1716.4549032233394
 21
1041.4527856245004
  0
LINE
  8
_2-1_
  6
CONTINUOUS
 62
    7
 10
1866.4549971179151
 20
1031.452837689963
 11
1920.0475265620757
 21
938.62789257152667
  0
LINE
  8
_2-1_
  6
CONTINUOUS
 62
    7
 10
1716.8293503720786
 20
1031.452837689963
 11
1666.7821486484129
 21
944.76854147598101
  0
LINE
  8
_2-1_
  6
CONTINUOUS
 62
    7
 10
2258.7988385822778
 20
1040.8579789533578
 11
2408.798823117289
 21
1040.8579789533578
  0
LINE
  8
_2-1_
  6
CONTINUOUS
 62
    7
 10
2408.798823117289
 20
1040.8579789533578
 11
2408.798823117289
 21
1030.8580310188204
  0
LINE
  8
_2-1_
  6
CONTINUOUS
 62
    7
 10
2408.798823117289
 20
1030.8580310188204
 11
2258.7988385822778
 21
1030.8580310188204
  0
LINE
  8
_2-1_
  6
CONTINUOUS
 62
    7
 10
2258.7988385822778
 20
1030.8580310188204
 11
2258.7988385822778
 21
1040.8579789533578
  0
LINE
  8
_2-1_
  6
CONTINUOUS
 62
    7
 10
2407.3537458324063
 20
1030.8580310188204
 11
2457.0769151665527
 21
944.73485873012453
  0
LINE
  8
_2-1_
  6
CONTINUOUS
 62
    7
 10
2259.1732857310171
 20
1030.8580310188204
 11
2205.934425118347
 21
938.64560882097055
  0
LINE
  8
_2-2_
  6
CONTINUOUS
 62
    7
 10
1379.8854238738422
 20
1146.4886009923277
 11
1407.8854093220243
 21
1146.4886009923277
  0
LINE
  8
_2-2_
  6
CONTINUOUS
 62
    7
 10
1407.8854093220243
 20
1146.4886009923277
 11
1407.8854093220243
 21
1136.4886530577905
  0
LINE
  8
_2-2_
  6
CONTINUOUS
 62
    7
 10
1407.8854093220243
 20
1136.4886530577905
 11
1379.8854238738422
 21
1136.4886530577905
  0
LINE
  8
_2-2_
  6
CONTINUOUS
 62
    7
 10
1379.8854238738422
 20
1136.4886530577905
 11
1379.8854238738422
 21
1146.4886009923277
  0
LINE
  8
_2-2_
  6
CONTINUOUS
 62
    7
 10
1461.6672401722794
 20
1181.8856673811392
 11
1465.1538418066548
 21
1186.5370577366655
  0
LINE
  8
_2-2_
  6
CONTINUOUS
 62
    7
 10
1465.1538418066548
 20
1186.5370577366655
 11
1468.2932268238435
 21
1191.3406766059315
  0
LINE
  8
_2-2_
  6
CONTINUOUS
 62
    7
 10
1468.2932268238435
 20
1191.3406766059315
 11
1471.0852858642813
 21
1196.2963052698083
  0
LINE
  8
_2-2_
  6
CONTINUOUS
 62
    7
 10
1471.0852858642813
 20
1196.2963052698083
 11
1473.5302376470968
 21
1201.4041624474248
  0
LINE
  8
_2-2_
  6
CONTINUOUS
 62
    7
 10
1473.5302376470968
 20
1201.4041624474248
 11
1475.6277540935973
 21
1206.6641387792167
  0
LINE
  8
_2-2_
  6
CONTINUOUS
 62
    7
 10
1475.6277540935973
 20
1206.6641387792167
 11
1477.3781632824755
 21
1212.0762342651838
  0
LINE
  8
_2-2_
  6
CONTINUOUS
 62
    7
 10
1477.3781632824755
 20
1212.0762342651838
 11
1478.7812464946021
 21
1217.6404489053261
  0
LINE
  8
_2-2_
  6
CONTINUOUS
 62
    7
 10
1478.7812464946021
 20
1217.6404489053261
 11
1479.837113089543
 21
1223.3568920592083
  0
LINE
  8
_2-2_
  6
CONTINUOUS
 62
    7
 10
1479.837113089543
 20
1223.3568920592083
 11
1480.5308901665292
 21
1229.1283430740179
  0
LINE
  8
_2-2_
  6
CONTINUOUS
 62
    7
 10
1480.5308901665292
 20
1229.1283430740179
 11
1480.8479235439227
 21
1234.8580187352006
  0
LINE
  8
_2-2_
  6
CONTINUOUS
 62
    7
 10
1480.8479235439227
 20
1234.8580187352006
 11
1480.7881038621583
 21
1240.5458096831921
  0
LINE
  8
_2-2_
  6
CONTINUOUS
 62
    7
 10
1480.7881038621583
 20
1240.5458096831921
 11
1480.3515404808013
 21
1246.1918252775567
  0
LINE
  8
_2-2_
  6
CONTINUOUS
 62
    7
 10
1480.3515404808013
 20
1246.1918252775567
 11
1479.5381240402869
 21
1251.7958467991655
  0
LINE
  8
_2-2_
  6
CONTINUOUS
 62
    7
 10
1479.5381240402869
 20
1251.7958467991655
 11
1478.3479639001794
 21
1257.3580929671473
  0
LINE
  8
_2-2_
  6
CONTINUOUS
 62
    7
 10
1478.3479639001794
 20
1257.3580929671473
 11
1476.7809507009144
 21
1262.8783450623737
  0
LINE
  8
_2-2_
  6
CONTINUOUS
 62
    7
 10
1476.7809507009144
 20
1262.8783450623737
 11
1474.8370844424919
 21
1268.3568218039729
  0
LINE
  8
_2-2_
  6
CONTINUOUS
 62
    7
 10
1474.8370844424919
 20
1268.3568218039729
 11
1472.5521257024934
 21
1273.7020985960501
  0
LINE
  8
_2-2_
  6
CONTINUOUS
 62
    7
 10
1472.5521257024934
 20
1273.7020985960501
 11
1469.9618350584992
 21
1278.8226414831447
  0
LINE
  8
_2-2_
  6
CONTINUOUS
 62
    7
 10
1469.9618350584992
 20
1278.8226414831447
 11
1467.0662125105102
 21
1283.7184504652575
  0
LINE
  8
_2-2_
  6
CONTINUOUS
 62
    7
 10
1467.0662125105102
 20
1283.7184504652575
 11
1463.8651486989613
 21
1288.3897442615169
  0
LINE
  8
_2-2_
  6
CONTINUOUS
 62
    7
 10
1463.8651486989613
 20
1288.3897442615169
 11
1460.3586436238529
 21
1292.8363041527944
  0
LINE
  8
_2-2_
  6
CONTINUOUS
 62
    7
 10
1460.3586436238529
 20
1292.8363041527944
 11
1456.5468066447486
 21
1297.0581301390894
  0
LINE
  8
_2-2_
  6
CONTINUOUS
 62
    7
 10
1456.5468066447486
 20
1297.0581301390894
 11
1452.4296377616497
 21
1301.0554409395313
  0
LINE
  8
_2-2_
  6
CONTINUOUS
 62
    7
 10
1452.4296377616497
 20
1301.0554409395313
 11
1448.0069182554266
 21
1304.828017834991
  0
LINE
  8
_2-2_
  6
CONTINUOUS
 62
    7
 10
1448.0069182554266
 20
1304.828017834991
 11
1443.3555278999002
 21
1308.3146194693663
  0
LINE
  8
_2-2_
  6
CONTINUOUS
 62
    7
 10
1443.3555278999002
 20
1308.3146194693663
 11
1438.5520183901988
 21
1311.4540044865553
  0
LINE
  8
_2-2_
  6
CONTINUOUS
 62
    7
 10
1438.5520183901988
 20
1311.4540044865553
 11
1433.5963897263221
 21
1314.2460635269931
  0
LINE
  8
_2-2_
  6
CONTINUOUS
 62
    7
 10
1433.5963897263221
 20
1314.2460635269931
 11
1428.4885325487053
 21
1316.6910153098088
  0
LINE
  8
_2-2_
  6
CONTINUOUS
 62
    7
 10
1428.4885325487053
 20
1316.6910153098088
 11
1423.2285562169138
 21
1318.7885317563091
  0
LINE
  8
_2-2_
  6
CONTINUOUS
 62
    7
 10
1423.2285562169138
 20
1318.7885317563091
 11
1417.8164607309466
 21
1320.5389409451871
  0
LINE
  8
_2-2_
  6
CONTINUOUS
 62
    7
 10
1417.8164607309466
 20
1320.5389409451871
 11
1412.2522460908044
 21
1321.9420241573141
  0
LINE
  8
_2-2_
  6
CONTINUOUS
 62
    7
 10
1412.2522460908044
 20
1321.9420241573141
 11
1406.5358029369222
 21
1322.9978907522548
  0
LINE
  8
_2-2_
  6
CONTINUOUS
 62
    7
 10
1406.5358029369222
 20
1322.9978907522548
 11
1400.7642425625481
 21
1323.6916678292409
  0
LINE
  8
_2-2_
  6
CONTINUOUS
 62
    7
 10
1400.7642425625481
 20
1323.6916678292409
 11
1395.034566901365
 21
1324.0087012066344
  0
LINE
  8
_2-2_
  6
CONTINUOUS
 62
    7
 10
1395.034566901365
 20
1324.0087012066344
 11
1389.3467759533739
 21
1323.9488815248701
  0
LINE
  8
_2-2_
  6
CONTINUOUS
 62
    7
 10
1389.3467759533739
 20
1323.9488815248701
 11
1383.7008697185738
 21
1323.5123181435131
  0
LINE
  8
_2-2_
  6
CONTINUOUS
 62
    7
 10
1383.7008697185738
 20
1323.5123181435131
 11
1378.0968481969649
 21
1322.6989017029987
  0
LINE
  8
_2-2_
  6
CONTINUOUS
 62
    7
 10
1378.0968481969649
 20
1322.6989017029987
 11
1372.5346020289826
 21
1321.5087415628911
  0
LINE
  8
_2-2_
  6
CONTINUOUS
 62
    7
 10
1372.5346020289826
 20
1321.5087415628911
 11
1367.0142405741919
 21
1319.9417283636262
  0
LINE
  8
_2-2_
  6
CONTINUOUS
 62
    7
 10
1367.0142405741919
 20
1319.9417283636262
 11
1361.5357638325931
 21
1317.9978621052039
  0
LINE
  8
_2-2_
  6
CONTINUOUS
 62
    7
 10
1361.5357638325931
 20
1317.9978621052039
 11
1356.1905964000805
 21
1315.7130127247694
  0
LINE
  8
_2-2_
  6
CONTINUOUS
 62
    7
 10
1356.1905964000805
 20
1315.7130127247694
 11
1351.0700535129856
 21
1313.122612721211
  0
LINE
  8
_2-2_
  6
CONTINUOUS
 62
    7
 10
1351.0700535129856
 20
1313.122612721211
 11
1346.174244530873
 21
1310.226990173222
  0
LINE
  8
_2-2_
  6
CONTINUOUS
 62
    7
 10
1346.174244530873
 20
1310.226990173222
 11
1341.5029507346135
 21
1307.0259263616731
  0
LINE
  8
_2-2_
  6
CONTINUOUS
 62
    7
 10
1341.5029507346135
 20
1307.0259263616731
 11
1337.0563908433362
 21
1303.5194212865645
  0
LINE
  8
_2-2_
  6
CONTINUOUS
 62
    7
 10
1337.0563908433362
 20
1303.5194212865645
 11
1332.8344554974763
 21
1299.7075843074606
  0
LINE
  8
_2-2_
  6
CONTINUOUS
 62
    7
 10
1332.8344554974763
 20
1299.7075843074606
 11
1328.837254056599
 21
1295.5904154243615
  0
LINE
  8
_2-2_
  6
CONTINUOUS
 62
    7
 10
1328.837254056599
 20
1295.5904154243615
 11
1325.0646771611393
 21
1291.1676959181384
  0
LINE
  8
_2-2_
  6
CONTINUOUS
 62
    7
 10
1325.0646771611393
 20
1291.1676959181384
 11
1321.5780755267638
 21
1286.5163055626122
  0
LINE
  8
_2-2_
  6
CONTINUOUS
 62
    7
 10
1321.5780755267638
 20
1286.5163055626122
 11
1318.4386905095748
 21
1281.7127960529106
  0
LINE
  8
_2-2_
  6
CONTINUOUS
 62
    7
 10
1318.4386905095748
 20
1281.7127960529106
 11
1315.646522109573
 21
1276.7571673890338
  0
LINE
  8
_2-2_
  6
CONTINUOUS
 62
    7
 10
1315.646522109573
 20
1276.7571673890338
 11
1313.2016796863215
 21
1271.6493102114173
  0
LINE
  8
_2-2_
  6
CONTINUOUS
 62
    7
 10
1313.2016796863215
 20
1271.6493102114173
 11
1311.104053880257
 21
1266.3893338796254
  0
LINE
  8
_2-2_
  6
CONTINUOUS
 62
    7
 10
1311.104053880257
 20
1266.3893338796254
 11
1309.3537540509431
 21
1260.9772383936584
  0
LINE
  8
_2-2_
  6
CONTINUOUS
 62
    7
 10
1309.3537540509431
 20
1260.9772383936584
 11
1307.9506708388162
 21
1255.4130237535157
  0
LINE
  8
_2-2_
  6
CONTINUOUS
 62
    7
 10
1307.9506708388162
 20
1255.4130237535157
 11
1306.8948042438756
 21
1249.6965805996338
  0
LINE
  8
_2-2_
  6
CONTINUOUS
 62
    7
 10
1306.8948042438756
 20
1249.6965805996338
 11
1306.2010271668896
 21
1243.9250202252597
  0
LINE
  8
_2-2_
  6
CONTINUOUS
 62
    7
 10
1306.2010271668896
 20
1243.9250202252597
 11
1305.8839937894959
 21
1238.195344564077
  0
LINE
  8
_2-2_
  6
CONTINUOUS
 62
    7
 10
1305.8839937894959
 20
1238.195344564077
 11
1305.94381347126
 21
1232.5075536160855
  0
LINE
  8
_2-2_
  6
CONTINUOUS
 62
    7
 10
1305.94381347126
 20
1232.5075536160855
 11
1306.380376852617
 21
1226.8616473812854
  0
LINE
  8
_2-2_
  6
CONTINUOUS
 62
    7
 10
1306.380376852617
 20
1226.8616473812854
 11
1307.1937932931319
 21
1221.2576258596766
  0
LINE
  8
_2-2_
  6
CONTINUOUS
 62
    7
 10
1307.1937932931319
 20
1221.2576258596766
 11
1308.3839534332392
 21
1215.6953796916946
  0
LINE
  8
_2-2_
  6
CONTINUOUS
 62
    7
 10
1308.3839534332392
 20
1215.6953796916946
 11
1309.9509666325041
 21
1210.175018236904
  0
LINE
  8
_2-2_
  6
CONTINUOUS
 62
    7
 10
1309.9509666325041
 20
1210.175018236904
 11
1311.8948328909266
 21
1204.6966508548692
  0
LINE
  8
_2-2_
  6
CONTINUOUS
 62
    7
 10
1311.8948328909266
 20
1204.6966508548692
 11
1314.1796822713609
 21
1199.3513740627923
  0
LINE
  8
_2-2_
  6
CONTINUOUS
 62
    7
 10
1314.1796822713609
 20
1199.3513740627923
 11
1316.7699729153546
 21
1194.2308311756972
  0
LINE
  8
_2-2_
  6
CONTINUOUS
 62
    7
 10
1316.7699729153546
 20
1194.2308311756972
 11
1319.6657048229085
 21
1189.3350221935846
  0
LINE
  8
_2-2_
  6
CONTINUOUS
 62
    7
 10
1319.6657048229085
 20
1189.3350221935846
 11
1322.8667686344572
 21
1184.663728397325
  0
LINE
  8
_2-2_
  6
CONTINUOUS
 62
    7
 10
1322.8667686344572
 20
1184.663728397325
 11
1326.3732737095659
 21
1180.217168506048
  0
LINE
  8
_2-2_
  6
CONTINUOUS
 62
    7
 10
1326.3732737095659
 20
1180.217168506048
 11
1330.1851106886697
 21
1175.9952331601883
  0
LINE
  8
_2-2_
  6
CONTINUOUS
 62
    7
 10
1330.1851106886697
 20
1175.9952331601883
 11
1334.3022795717686
 21
1171.9980317193108
  0
LINE
  8
_2-2_
  6
CONTINUOUS
 62
    7
 10
1334.3022795717686
 20
1171.9980317193108
 11
1338.7248897184274
 21
1168.2254548238511
  0
LINE
  8
_2-2_
  6
CONTINUOUS
 62
    7
 10
1338.7248897184274
 20
1168.2254548238511
 11
1343.3762800739537
 21
1164.7388531894758
  0
LINE
  8
_2-2_
  6
CONTINUOUS
 62
    7
 10
1343.3762800739537
 20
1164.7388531894758
 11
1348.17989894322
 21
1161.5994681722868
  0
LINE
  8
_2-2_
  6
CONTINUOUS
 62
    7
 10
1348.17989894322
 20
1161.5994681722868
 11
1353.1355276070967
 21
1158.8072997722845
  0
LINE
  8
_2-2_
  6
CONTINUOUS
 62
    7
 10
1353.1355276070967
 20
1158.8072997722845
 11
1358.243384784713
 21
1156.3624573490333
  0
LINE
  8
_2-2_
  6
CONTINUOUS
 62
    7
 10
1358.243384784713
 20
1156.3624573490333
 11
1363.5033611165049
 21
1154.2648315429687
  0
LINE
  8
_2-2_
  6
CONTINUOUS
 62
    7
 10
1363.5033611165049
 20
1154.2648315429687
 11
1368.915456602472
 21
1152.5145317136551
  0
LINE
  8
_2-2_
  6
CONTINUOUS
 62
    7
 10
1368.915456602472
 20
1152.5145317136551
 11
1374.4796712426144
 21
1151.1114485015278
  0
LINE
  8
_2-2_
  6
CONTINUOUS
 62
    7
 10
1374.4796712426144
 20
1151.1114485015278
 11
1380.1961143964966
 21
1150.0555819065873
  0
LINE
  8
_2-2_
  6
CONTINUOUS
 62
    7
 10
1380.1961143964966
 20
1150.0555819065873
 11
1385.9675654113062
 21
1149.3618048296009
  0
LINE
  8
_2-2_
  6
CONTINUOUS
 62
    7
 10
1385.9675654113062
 20
1149.3618048296009
 11
1391.6972410724889
 21
1149.0447714522077
  0
LINE
  8
_2-2_
  6
CONTINUOUS
 62
    7
 10
1391.6972410724889
 20
1149.0447714522077
 11
1397.3850320204804
 21
1149.1045911339718
  0
LINE
  8
_2-2_
  6
CONTINUOUS
 62
    7
 10
1397.3850320204804
 20
1149.1045911339718
 11
1403.031047614845
 21
1149.5411545153288
  0
LINE
  8
_2-2_
  6
CONTINUOUS
 62
    7
 10
1403.031047614845
 20
1149.5411545153288
 11
1408.6350691364537
 21
1150.3545709558434
  0
LINE
  8
_2-2_
  6
CONTINUOUS
 62
    7
 10
1408.6350691364537
 20
1150.3545709558434
 11
1414.1973153044357
 21
1151.544731095951
  0
LINE
  8
_2-2_
  6
CONTINUOUS
 62
    7
 10
1414.1973153044357
 20
1151.544731095951
 11
1419.7175673996619
 21
1153.1117442952159
  0
LINE
  8
_2-2_
  6
CONTINUOUS
 62
    7
 10
1419.7175673996619
 20
1153.1117442952159
 11
1425.1960441412614
 21
1155.0556105536384
  0
LINE
  8
_2-2_
  6
CONTINUOUS
 62
    7
 10
1425.1960441412614
 20
1155.0556105536384
 11
1430.5413209333381
 21
1157.3404599340724
  0
LINE
  8
_2-2_
  6
CONTINUOUS
 62
    7
 10
1430.5413209333381
 20
1157.3404599340724
 11
1435.6618638204332
 21
1159.9307505780664
  0
LINE
  8
_2-2_
  6
CONTINUOUS
 62
    7
 10
1435.6618638204332
 20
1159.9307505780664
 11
1440.5576728025458
 21
1162.8264824856201
  0
LINE
  8
_2-2_
  6
CONTINUOUS
 62
    7
 10
1440.5576728025458
 20
1162.8264824856201
 11
1445.2289665988055
 21
1166.027546297169
  0
LINE
  8
_2-2_
  6
CONTINUOUS
 62
    7
 10
1445.2289665988055
 20
1166.027546297169
 11
1449.6755264900826
 21
1169.5340513722776
  0
LINE
  8
_2-2_
  6
CONTINUOUS
 62
    7
 10
1449.6755264900826
 20
1169.5340513722776
 11
1453.8973524763776
 21
1173.3458883513813
  0
LINE
  8
_2-2_
  6
CONTINUOUS
 62
    7
 10
1453.8973524763776
 20
1173.3458883513813
 11
1457.8946632768193
 21
1177.4630572344804
  0
LINE
  8
_2-2_
  6
CONTINUOUS
 62
    7
 10
1457.8946632768193
 20
1177.4630572344804
 11
1461.6672401722794
 21
1181.8856673811392
  0
LINE
  8
_2-2_
  6
CONTINUOUS
 62
    7
 10
1379.5000407686566
 20
1109.1251402748137
 11
2592.4999259153387
 21
1109.1251402748137
  0
LINE
  8
_2-2_
  6
CONTINUOUS
 62
    7
 10
2592.4999259153387
 20
1109.1251402748137
 11
2592.4999259153387
 21
1134.1250647909392
  0
LINE
  8
_2-2_
  6
CONTINUOUS
 62
    7
 10
2592.4999259153387
 20
1134.1250647909392
 11
1379.5000407686566
 21
1134.1250647909392
  0
LINE
  8
_2-2_
  6
CONTINUOUS
 62
    7
 10
1379.5000407686566
 20
1134.1250647909392
 11
1379.5000407686566
 21
1109.1251402748137
  0
LINE
  8
_2-2_
  6
CONTINUOUS
 62
    7
 10
1787.4645837025291
 20
1138.2127065916318
 11
1787.4645837025291
 21
1068.2127429711772
  0
LINE
  8
_2-2_
  6
CONTINUOUS
 62
    7
 10
1787.4645837025291
 20
1068.2127429711772
 11
1794.4645800645744
 21
1068.2127429711772
  0
LINE
  8
_2-2_
  6
CONTINUOUS
 62
    7
 10
1794.4645800645744
 20
1068.2127429711772
 11
1794.4645800645744
 21
1138.2127065916318
  0
LINE
  8
_2-2_
  6
CONTINUOUS
 62
    7
 10
1795.0143305951563
 20
1112.2451686490915
 11
1787.0143503756135
 21
1112.2451686490915
  0
LINE
  8
_2-2_
  6
CONTINUOUS
 62
    7
 10
1787.0143503756135
 20
1112.2451686490915
 11
1787.0143503756135
 21
1111.2451847915943
  0
LINE
  8
_2-2_
  6
CONTINUOUS
 62
    7
 10
1787.0143503756135
 20
1111.2451847915943
 11
1795.0143305951563
 21
1111.2451847915943
  0
LINE
  8
_2-2_
  6
CONTINUOUS
 62
    7
 10
1795.0143305951563
 20
1111.2451847915943
 11
1795.0143305951563
 21
1112.2451686490915
  0
LINE
  8
_2-2_
  6
CONTINUOUS
 62
    7
 10
1795.0143305951563
 20
1104.219051493641
 11
1787.0143503756135
 21
1104.219051493641
  0
LINE
  8
_2-2_
  6
CONTINUOUS
 62
    7
 10
1787.0143503756135
 20
1104.219051493641
 11
1787.0143503756135
 21
1103.2190676361436
  0
LINE
  8
_2-2_
  6
CONTINUOUS
 62
    7
 10
1787.0143503756135
 20
1103.2190676361436
 11
1795.0143305951563
 21
1103.2190676361436
  0
LINE
  8
_2-2_
  6
CONTINUOUS
 62
    7
 10
1795.0143305951563
 20
1103.2190676361436
 11
1795.0143305951563
 21
1104.219051493641
  0
LINE
  8
_2-2_
  6
CONTINUOUS
 62
    7
 10
1795.0143305951563
 20
1106.2190192086355
 11
1787.0143503756135
 21
1106.2190192086355
  0
LINE
  8
_2-2_
  6
CONTINUOUS
 62
    7
 10
1787.0143503756135
 20
1106.2190192086355
 11
1787.0143503756135
 21
1105.2190353511382
  0
LINE
  8
_2-2_
  6
CONTINUOUS
 62
    7
 10
1787.0143503756135
 20
1105.2190353511382
 11
1795.0143305951563
 21
1105.2190353511382
  0
LINE
  8
_2-2_
  6
CONTINUOUS
 62
    7
 10
1795.0143305951563
 20
1105.2190353511382
 11
1795.0143305951563
 21
1106.2190192086355
  0
LINE
  8
_2-2_
  6
CONTINUOUS
 62
    7
 10
1795.0143305951563
 20
1108.2190962831946
 11
1787.0143503756135
 21
1108.2190962831946
  0
LINE
  8
_2-2_
  6
CONTINUOUS
 62
    7
 10
1787.0143503756135
 20
1108.2190962831946
 11
1787.0143503756135
 21
1107.2191124256972
  0
LINE
  8
_2-2_
  6
CONTINUOUS
 62
    7
 10
1787.0143503756135
 20
1107.2191124256972
 11
1795.0143305951563
 21
1107.2191124256972
  0
LINE
  8
_2-2_
  6
CONTINUOUS
 62
    7
 10
1795.0143305951563
 20
1107.2191124256972
 11
1795.0143305951563
 21
1108.2190962831946
  0
LINE
  8
_2-2_
  6
CONTINUOUS
 62
    7
 10
1795.0143305951563
 20
1110.2190639981891
 11
1787.0143503756135
 21
1110.2190639981891
  0
LINE
  8
_2-2_
  6
CONTINUOUS
 62
    7
 10
1787.0143503756135
 20
1110.2190639981891
 11
1787.0143503756135
 21
1109.2190801406919
  0
LINE
  8
_2-2_
  6
CONTINUOUS
 62
    7
 10
1787.0143503756135
 20
1109.2190801406919
 11
1795.0143305951563
 21
1109.2190801406919
  0
LINE
  8
_2-2_
  6
CONTINUOUS
 62
    7
 10
1795.0143305951563
 20
1109.2190801406919
 11
1795.0143305951563
 21
1110.2190639981891
  0
LINE
  8
_2-2_
  6
CONTINUOUS
 62
    7
 10
1795.0143305951563
 20
1126.4111691920452
 11
1787.0143503756135
 21
1126.4111691920452
  0
LINE
  8
_2-2_
  6
CONTINUOUS
 62
    7
 10
1787.0143503756135
 20
1126.4111691920452
 11
1787.0143503756135
 21
1125.411185334548
  0
LINE
  8
_2-2_
  6
CONTINUOUS
 62
    7
 10
1787.0143503756135
 20
1125.411185334548
 11
1795.0143305951563
 21
1125.411185334548
  0
LINE
  8
_2-2_
  6
CONTINUOUS
 62
    7
 10
1795.0143305951563
 20
1125.411185334548
 11
1795.0143305951563
 21
1126.4111691920452
  0
LINE
  8
_2-2_
  6
CONTINUOUS
 62
    7
 10
1795.0143305951563
 20
1114.3160013618615
 11
1787.0143503756135
 21
1114.3160013618615
  0
LINE
  8
_2-2_
  6
CONTINUOUS
 62
    7
 10
1787.0143503756135
 20
1114.3160013618615
 11
1787.0143503756135
 21
1113.3159081447998
  0
LINE
  8
_2-2_
  6
CONTINUOUS
 62
    7
 10
1787.0143503756135
 20
1113.3159081447998
 11
1795.0143305951563
 21
1113.3159081447998
  0
LINE
  8
_2-2_
  6
CONTINUOUS
 62
    7
 10
1795.0143305951563
 20
1113.3159081447998
 11
1795.0143305951563
 21
1114.3160013618615
  0
LINE
  8
_2-2_
  6
CONTINUOUS
 62
    7
 10
1795.0143305951563
 20
1116.2190765027374
 11
1787.0143503756135
 21
1116.2190765027374
  0
LINE
  8
_2-2_
  6
CONTINUOUS
 62
    7
 10
1787.0143503756135
 20
1116.2190765027374
 11
1787.0143503756135
 21
1115.2190926452399
  0
LINE
  8
_2-2_
  6
CONTINUOUS
 62
    7
 10
1787.0143503756135
 20
1115.2190926452399
 11
1795.0143305951563
 21
1115.2190926452399
  0
LINE
  8
_2-2_
  6
CONTINUOUS
 62
    7
 10
1795.0143305951563
 20
1115.2190926452399
 11
1795.0143305951563
 21
1116.2190765027374
  0
LINE
  8
_2-2_
  6
CONTINUOUS
 62
    7
 10
1795.0143305951563
 20
1118.2190442177318
 11
1787.0143503756135
 21
1118.2190442177318
  0
LINE
  8
_2-2_
  6
CONTINUOUS
 62
    7
 10
1787.0143503756135
 20
1118.2190442177318
 11
1787.0143503756135
 21
1117.2190603602346
  0
LINE
  8
_2-2_
  6
CONTINUOUS
 62
    7
 10
1787.0143503756135
 20
1117.2190603602346
 11
1795.0143305951563
 21
1117.2190603602346
  0
LINE
  8
_2-2_
  6
CONTINUOUS
 62
    7
 10
1795.0143305951563
 20
1117.2190603602346
 11
1795.0143305951563
 21
1118.2190442177318
  0
LINE
  8
_2-2_
  6
CONTINUOUS
 62
    7
 10
1795.0143305951563
 20
1120.2190119327265
 11
1787.0143503756135
 21
1120.2190119327265
  0
LINE
  8
_2-2_
  6
CONTINUOUS
 62
    7
 10
1787.0143503756135
 20
1120.2190119327265
 11
1787.0143503756135
 21
1119.2190280752293
  0
LINE
  8
_2-2_
  6
CONTINUOUS
 62
    7
 10
1787.0143503756135
 20
1119.2190280752293
 11
1795.0143305951563
 21
1119.2190280752293
  0
LINE
  8
_2-2_
  6
CONTINUOUS
 62
    7
 10
1795.0143305951563
 20
1119.2190280752293
 11
1795.0143305951563
 21
1120.2190119327265
  0
LINE
  8
_2-2_
  6
CONTINUOUS
 62
    7
 10
1795.0143305951563
 20
1122.2190890072857
 11
1787.0143503756135
 21
1122.2190890072857
  0
LINE
  8
_2-2_
  6
CONTINUOUS
 62
    7
 10
1787.0143503756135
 20
1122.2190890072857
 11
1787.0143503756135
 21
1121.2191051497882
  0
LINE
  8
_2-2_
  6
CONTINUOUS
 62
    7
 10
1787.0143503756135
 20
1121.2191051497882
 11
1795.0143305951563
 21
1121.2191051497882
  0
LINE
  8
_2-2_
  6
CONTINUOUS
 62
    7
 10
1795.0143305951563
 20
1121.2191051497882
 11
1795.0143305951563
 21
1122.2190890072857
  0
LINE
  8
_2-2_
  6
CONTINUOUS
 62
    7
 10
1795.0143305951563
 20
1132.2190369418229
 11
1787.0143503756135
 21
1132.2190369418229
  0
LINE
  8
_2-2_
  6
CONTINUOUS
 62
    7
 10
1787.0143503756135
 20
1132.2190369418229
 11
1787.0143503756135
 21
1131.2190530843254
  0
LINE
  8
_2-2_
  6
CONTINUOUS
 62
    7
 10
1787.0143503756135
 20
1131.2190530843254
 11
1795.0143305951563
 21
1131.2190530843254
  0
LINE
  8
_2-2_
  6
CONTINUOUS
 62
    7
 10
1795.0143305951563
 20
1131.2190530843254
 11
1795.0143305951563
 21
1132.2190369418229
  0
LINE
  8
_2-2_
  6
CONTINUOUS
 62
    7
 10
1794.8820055221497
 20
1128.3463960448748
 11
1786.882025302607
 21
1128.3463960448748
  0
LINE
  8
_2-2_
  6
CONTINUOUS
 62
    7
 10
1786.882025302607
 20
1128.3463960448748
 11
1786.882025302607
 21
1127.3464121873774
  0
LINE
  8
_2-2_
  6
CONTINUOUS
 62
    7
 10
1786.882025302607
 20
1127.3464121873774
 11
1794.8820055221497
 21
1127.3464121873774
  0
LINE
  8
_2-2_
  6
CONTINUOUS
 62
    7
 10
1794.8820055221497
 20
1127.3464121873774
 11
1794.8820055221497
 21
1128.3463960448748
  0
LINE
  8
_2-2_
  6
CONTINUOUS
 62
    7
 10
1794.9376695404642
 20
1124.3450389405475
 11
1786.9376893209214
 21
1124.3450389405475
  0
LINE
  8
_2-2_
  6
CONTINUOUS
 62
    7
 10
1786.9376893209214
 20
1124.3450389405475
 11
1786.9376893209214
 21
1123.3450550830503
  0
LINE
  8
_2-2_
  6
CONTINUOUS
 62
    7
 10
1786.9376893209214
 20
1123.3450550830503
 11
1794.9376695404642
 21
1123.3450550830503
  0
LINE
  8
_2-2_
  6
CONTINUOUS
 62
    7
 10
1794.9376695404642
 20
1123.3450550830503
 11
1794.9376695404642
 21
1124.3450389405475
  0
LINE
  8
_2-2_
  6
CONTINUOUS
 62
    7
 10
1794.861774002723
 20
1130.2759362003517
 11
1786.8617937831805
 21
1130.2759362003517
  0
LINE
  8
_2-2_
  6
CONTINUOUS
 62
    7
 10
1786.8617937831805
 20
1130.2759362003517
 11
1786.8617937831805
 21
1129.2759523428545
  0
LINE
  8
_2-2_
  6
CONTINUOUS
 62
    7
 10
1786.8617937831805
 20
1129.2759523428545
 11
1794.861774002723
 21
1129.2759523428545
  0
LINE
  8
_2-2_
  6
CONTINUOUS
 62
    7
 10
1794.861774002723
 20
1129.2759523428545
 11
1794.861774002723
 21
1130.2759362003517
  0
LINE
  8
_2-2_
  6
CONTINUOUS
 62
    7
 10
1795.0143305951563
 20
1084.2190462650019
 11
1787.0143503756135
 21
1084.2190462650019
  0
LINE
  8
_2-2_
  6
CONTINUOUS
 62
    7
 10
1787.0143503756135
 20
1084.2190462650019
 11
1787.0143503756135
 21
1083.2190624075047
  0
LINE
  8
_2-2_
  6
CONTINUOUS
 62
    7
 10
1787.0143503756135
 20
1083.2190624075047
 11
1795.0143305951563
 21
1083.2190624075047
  0
LINE
  8
_2-2_
  6
CONTINUOUS
 62
    7
 10
1795.0143305951563
 20
1083.2190624075047
 11
1795.0143305951563
 21
1084.2190462650019
  0
LINE
  8
_2-2_
  6
CONTINUOUS
 62
    7
 10
1795.0143305951563
 20
1086.2190139799964
 11
1787.0143503756135
 21
1086.2190139799964
  0
LINE
  8
_2-2_
  6
CONTINUOUS
 62
    7
 10
1787.0143503756135
 20
1086.2190139799964
 11
1787.0143503756135
 21
1085.2190301224991
  0
LINE
  8
_2-2_
  6
CONTINUOUS
 62
    7
 10
1787.0143503756135
 20
1085.2190301224991
 11
1795.0143305951563
 21
1085.2190301224991
  0
LINE
  8
_2-2_
  6
CONTINUOUS
 62
    7
 10
1795.0143305951563
 20
1085.2190301224991
 11
1795.0143305951563
 21
1086.2190139799964
  0
LINE
  8
_2-2_
  6
CONTINUOUS
 62
    7
 10
1795.0143305951563
 20
1088.2190910545555
 11
1787.0143503756135
 21
1088.2190910545555
  0
LINE
  8
_2-2_
  6
CONTINUOUS
 62
    7
 10
1787.0143503756135
 20
1088.2190910545555
 11
1787.0143503756135
 21
1087.2191071970581
  0
LINE
  8
_2-2_
  6
CONTINUOUS
 62
    7
 10
1787.0143503756135
 20
1087.2191071970581
 11
1795.0143305951563
 21
1087.2191071970581
  0
LINE
  8
_2-2_
  6
CONTINUOUS
 62
    7
 10
1795.0143305951563
 20
1087.2191071970581
 11
1795.0143305951563
 21
1088.2190910545555
  0
LINE
  8
_2-2_
  6
CONTINUOUS
 62
    7
 10
1795.0143305951563
 20
1090.21905876955
 11
1787.0143503756135
 21
1090.21905876955
  0
LINE
  8
_2-2_
  6
CONTINUOUS
 62
    7
 10
1787.0143503756135
 20
1090.21905876955
 11
1787.0143503756135
 21
1089.2190749120527
  0
LINE
  8
_2-2_
  6
CONTINUOUS
 62
    7
 10
1787.0143503756135
 20
1089.2190749120527
 11
1795.0143305951563
 21
1089.2190749120527
  0
LINE
  8
_2-2_
  6
CONTINUOUS
 62
    7
 10
1795.0143305951563
 20
1089.2190749120527
 11
1795.0143305951563
 21
1090.21905876955
  0
LINE
  8
_2-2_
  6
CONTINUOUS
 62
    7
 10
1795.0143305951563
 20
1092.2190264845447
 11
1787.0143503756135
 21
1092.2190264845447
  0
LINE
  8
_2-2_
  6
CONTINUOUS
 62
    7
 10
1787.0143503756135
 20
1092.2190264845447
 11
1787.0143503756135
 21
1091.2190426270474
  0
LINE
  8
_2-2_
  6
CONTINUOUS
 62
    7
 10
1787.0143503756135
 20
1091.2190426270474
 11
1795.0143305951563
 21
1091.2190426270474
  0
LINE
  8
_2-2_
  6
CONTINUOUS
 62
    7
 10
1795.0143305951563
 20
1091.2190426270474
 11
1795.0143305951563
 21
1092.2190264845447
  0
LINE
  8
_2-2_
  6
CONTINUOUS
 62
    7
 10
1795.0143305951563
 20
1094.2191035591036
 11
1787.0143503756135
 21
1094.2191035591036
  0
LINE
  8
_2-2_
  6
CONTINUOUS
 62
    7
 10
1787.0143503756135
 20
1094.2191035591036
 11
1787.0143503756135
 21
1093.2190103420419
  0
LINE
  8
_2-2_
  6
CONTINUOUS
 62
    7
 10
1787.0143503756135
 20
1093.2190103420419
 11
1795.0143305951563
 21
1093.2190103420419
  0
LINE
  8
_2-2_
  6
CONTINUOUS
 62
    7
 10
1795.0143305951563
 20
1093.2190103420419
 11
1795.0143305951563
 21
1094.2191035591036
  0
LINE
  8
_2-2_
  6
CONTINUOUS
 62
    7
 10
1795.0143305951563
 20
1096.2190712740983
 11
1787.0143503756135
 21
1096.2190712740983
  0
LINE
  8
_2-2_
  6
CONTINUOUS
 62
    7
 10
1787.0143503756135
 20
1096.2190712740983
 11
1787.0143503756135
 21
1095.2190874166008
  0
LINE
  8
_2-2_
  6
CONTINUOUS
 62
    7
 10
1787.0143503756135
 20
1095.2190874166008
 11
1795.0143305951563
 21
1095.2190874166008
  0
LINE
  8
_2-2_
  6
CONTINUOUS
 62
    7
 10
1795.0143305951563
 20
1095.2190874166008
 11
1795.0143305951563
 21
1096.2190712740983
  0
LINE
  8
_2-2_
  6
CONTINUOUS
 62
    7
 10
1795.0143305951563
 20
1098.2190389890927
 11
1787.0143503756135
 21
1098.2190389890927
  0
LINE
  8
_2-2_
  6
CONTINUOUS
 62
    7
 10
1787.0143503756135
 20
1098.2190389890927
 11
1787.0143503756135
 21
1097.2190551315955
  0
LINE
  8
_2-2_
  6
CONTINUOUS
 62
    7
 10
1787.0143503756135
 20
1097.2190551315955
 11
1795.0143305951563
 21
1097.2190551315955
  0
LINE
  8
_2-2_
  6
CONTINUOUS
 62
    7
 10
1795.0143305951563
 20
1097.2190551315955
 11
1795.0143305951563
 21
1098.2190389890927
  0
LINE
  8
_2-2_
  6
CONTINUOUS
 62
    7
 10
1795.0143305951563
 20
1100.2191160636519
 11
1787.0143503756135
 21
1100.2191160636519
  0
LINE
  8
_2-2_
  6
CONTINUOUS
 62
    7
 10
1787.0143503756135
 20
1100.2191160636519
 11
1787.0143503756135
 21
1099.2190228465902
  0
LINE
  8
_2-2_
  6
CONTINUOUS
 62
    7
 10
1787.0143503756135
 20
1099.2190228465902
 11
1795.0143305951563
 21
1099.2190228465902
  0
LINE
  8
_2-2_
  6
CONTINUOUS
 62
    7
 10
1795.0143305951563
 20
1099.2190228465902
 11
1795.0143305951563
 21
1100.2191160636519
  0
LINE
  8
_2-2_
  6
CONTINUOUS
 62
    7
 10
1794.9174380210377
 20
1134.0513564444877
 11
1786.9174578014945
 21
1134.0513564444877
  0
LINE
  8
_2-2_
  6
CONTINUOUS
 62
    7
 10
1786.9174578014945
 20
1134.0513564444877
 11
1786.9174578014945
 21
1133.0513725869903
  0
LINE
  8
_2-2_
  6
CONTINUOUS
 62
    7
 10
1786.9174578014945
 20
1133.0513725869903
 11
1794.9174380210377
 21
1133.0513725869903
  0
LINE
  8
_2-2_
  6
CONTINUOUS
 62
    7
 10
1794.9174380210377
 20
1133.0513725869903
 11
1794.9174380210377
 21
1134.0513564444877
  0
LINE
  8
_2-2_
  6
CONTINUOUS
 62
    7
 10
1794.9174380210377
 20
1137.8921737081755
 11
1786.9174578014945
 21
1137.8921737081755
  0
LINE
  8
_2-2_
  6
CONTINUOUS
 62
    7
 10
1786.9174578014945
 20
1137.8921737081755
 11
1786.9174578014945
 21
1136.8921898506783
  0
LINE
  8
_2-2_
  6
CONTINUOUS
 62
    7
 10
1786.9174578014945
 20
1136.8921898506783
 11
1794.9174380210377
 21
1136.8921898506783
  0
LINE
  8
_2-2_
  6
CONTINUOUS
 62
    7
 10
1794.9174380210377
 20
1136.8921898506783
 11
1794.9174380210377
 21
1137.8921737081755
  0
LINE
  8
_2-2_
  6
CONTINUOUS
 62
    7
 10
1795.0143305951563
 20
1135.9284040090199
 11
1787.0143503756135
 21
1135.9284040090199
  0
LINE
  8
_2-2_
  6
CONTINUOUS
 62
    7
 10
1787.0143503756135
 20
1135.9284040090199
 11
1787.0143503756135
 21
1134.9284201515227
  0
LINE
  8
_2-2_
  6
CONTINUOUS
 62
    7
 10
1787.0143503756135
 20
1134.9284201515227
 11
1795.0143305951563
 21
1134.9284201515227
  0
LINE
  8
_2-2_
  6
CONTINUOUS
 62
    7
 10
1795.0143305951563
 20
1134.9284201515227
 11
1795.0143305951563
 21
1135.9284040090199
  0
LINE
  8
_2-2_
  6
CONTINUOUS
 62
    7
 10
1795.034562114583
 20
1102.2346128368008
 11
1787.0345818950402
 21
1102.2346128368008
  0
LINE
  8
_2-2_
  6
CONTINUOUS
 62
    7
 10
1787.0345818950402
 20
1102.2346128368008
 11
1787.0345818950402
 21
1101.2346289793036
  0
LINE
  8
_2-2_
  6
CONTINUOUS
 62
    7
 10
1787.0345818950402
 20
1101.2346289793036
 11
1795.034562114583
 21
1101.2346289793036
  0
LINE
  8
_2-2_
  6
CONTINUOUS
 62
    7
 10
1795.034562114583
 20
1101.2346289793036
 11
1795.034562114583
 21
1102.2346128368008
  0
LINE
  8
_2-2_
  6
CONTINUOUS
 62
    7
 10
1778.416938855381
 20
1078.5125548314863
 11
1778.4554334220736
 21
1078.1223599054638
  0
LINE
  8
_2-2_
  6
CONTINUOUS
 62
    7
 10
1778.4554334220736
 20
1078.1223599054638
 11
1778.5692767286851
 21
1077.7471472397733
  0
LINE
  8
_2-2_
  6
CONTINUOUS
 62
    7
 10
1778.5692767286851
 20
1077.7471472397733
 11
1778.7540943926367
 21
1077.4013522969249
  0
LINE
  8
_2-2_
  6
CONTINUOUS
 62
    7
 10
1778.7540943926367
 20
1077.4013522969249
 11
1779.002778042237
 21
1077.0983169437836
  0
LINE
  8
_2-2_
  6
CONTINUOUS
 62
    7
 10
1779.002778042237
 20
1077.0983169437836
 11
1779.3058133953784
 21
1076.8495239346184
  0
LINE
  8
_2-2_
  6
CONTINUOUS
 62
    7
 10
1779.3058133953784
 20
1076.8495239346184
 11
1779.6516083382269
 21
1076.664706270667
  0
LINE
  8
_2-2_
  6
CONTINUOUS
 62
    7
 10
1779.6516083382269
 20
1076.664706270667
 11
1780.0268210039173
 21
1076.55097232362
  0
LINE
  8
_2-2_
  6
CONTINUOUS
 62
    7
 10
1780.0268210039173
 20
1076.55097232362
 11
1780.4170159299399
 21
1076.5124777569274
  0
LINE
  8
_2-2_
  6
CONTINUOUS
 62
    7
 10
1780.4170159299399
 20
1076.5124777569274
 11
1801.4170050160765
 21
1076.5124777569274
  0
LINE
  8
_2-2_
  6
CONTINUOUS
 62
    7
 10
1801.4170050160765
 20
1076.5124777569274
 11
1801.807199942099
 21
1076.55097232362
  0
LINE
  8
_2-2_
  6
CONTINUOUS
 62
    7
 10
1801.807199942099
 20
1076.55097232362
 11
1802.182303248225
 21
1076.664706270667
  0
LINE
  8
_2-2_
  6
CONTINUOUS
 62
    7
 10
1802.182303248225
 20
1076.664706270667
 11
1802.5280981910732
 21
1076.8495239346184
  0
LINE
  8
_2-2_
  6
CONTINUOUS
 62
    7
 10
1802.5280981910732
 20
1076.8495239346184
 11
1802.8312429037794
 21
1077.0983169437836
  0
LINE
  8
_2-2_
  6
CONTINUOUS
 62
    7
 10
1802.8312429037794
 20
1077.0983169437836
 11
1803.0799265533801
 21
1077.4013522969249
  0
LINE
  8
_2-2_
  6
CONTINUOUS
 62
    7
 10
1803.0799265533801
 20
1077.4013522969249
 11
1803.2647442173313
 21
1077.7471472397733
  0
LINE
  8
_2-2_
  6
CONTINUOUS
 62
    7
 10
1803.2647442173313
 20
1077.7471472397733
 11
1803.3785875239428
 21
1078.1223599054638
  0
LINE
  8
_2-2_
  6
CONTINUOUS
 62
    7
 10
1803.3785875239428
 20
1078.1223599054638
 11
1803.4169727310707
 21
1078.5125548314863
  0
LINE
  8
_2-2_
  6
CONTINUOUS
 62
    7
 10
1803.4169727310707
 20
1078.5125548314863
 11
1803.3593402405963
 21
1079.0977378609557
  0
LINE
  8
_2-2_
  6
CONTINUOUS
 62
    7
 10
1803.3593402405963
 20
1079.0977378609557
 11
1803.1886299604614
 21
1079.6605021797091
  0
LINE
  8
_2-2_
  6
CONTINUOUS
 62
    7
 10
1803.1886299604614
 20
1079.6605021797091
 11
1802.9114034645345
 21
1080.1791945939819
  0
LINE
  8
_2-2_
  6
CONTINUOUS
 62
    7
 10
1802.9114034645345
 20
1080.1791945939819
 11
1802.5382686305691
 21
1080.6338023034762
  0
LINE
  8
_2-2_
  6
CONTINUOUS
 62
    7
 10
1802.5382686305691
 20
1080.6338023034762
 11
1802.0836609210746
 21
1081.0069371374416
  0
LINE
  8
_2-2_
  6
CONTINUOUS
 62
    7
 10
1802.0836609210746
 20
1081.0069371374416
 11
1801.5650778663662
 21
1081.2841636333685
  0
LINE
  8
_2-2_
  6
CONTINUOUS
 62
    7
 10
1801.5650778663662
 20
1081.2841636333685
 11
1801.0023135476129
 21
1081.4548739135034
  0
LINE
  8
_2-2_
  6
CONTINUOUS
 62
    7
 10
1801.0023135476129
 20
1081.4548739135034
 11
1800.417021158579
 21
1081.5125064039783
  0
LINE
  8
_2-2_
  6
CONTINUOUS
 62
    7
 10
1800.417021158579
 20
1081.5125064039783
 11
1790.916955793226
 21
1081.5125064039783
  0
LINE
  8
_2-2_
  6
CONTINUOUS
 62
    7
 10
1790.916955793226
 20
1081.5125064039783
 11
1781.4169997874374
 21
1081.5125064039783
  0
LINE
  8
_2-2_
  6
CONTINUOUS
 62
    7
 10
1781.4169997874374
 20
1081.5125064039783
 11
1780.8317073984035
 21
1081.4548739135034
  0
LINE
  8
_2-2_
  6
CONTINUOUS
 62
    7
 10
1780.8317073984035
 20
1081.4548739135034
 11
1780.2689430796502
 21
1081.2841636333685
  0
LINE
  8
_2-2_
  6
CONTINUOUS
 62
    7
 10
1780.2689430796502
 20
1081.2841636333685
 11
1779.7502506653775
 21
1081.0069371374416
  0
LINE
  8
_2-2_
  6
CONTINUOUS
 62
    7
 10
1779.7502506653775
 20
1081.0069371374416
 11
1779.2956429558831
 21
1080.6338023034762
  0
LINE
  8
_2-2_
  6
CONTINUOUS
 62
    7
 10
1779.2956429558831
 20
1080.6338023034762
 11
1778.9226174814819
 21
1080.1791945939819
  0
LINE
  8
_2-2_
  6
CONTINUOUS
 62
    7
 10
1778.9226174814819
 20
1080.1791945939819
 11
1778.645390985555
 21
1079.6605021797091
  0
LINE
  8
_2-2_
  6
CONTINUOUS
 62
    7
 10
1778.645390985555
 20
1079.6605021797091
 11
1778.47468070542
 21
1079.0977378609557
  0
LINE
  8
_2-2_
  6
CONTINUOUS
 62
    7
 10
1778.47468070542
 20
1079.0977378609557
 11
1778.416938855381
 21
1078.5125548314863
  0
LINE
  8
_2-2_
  6
CONTINUOUS
 62
    7
 10
1773.2074866423734
 20
1046.3893857241596
 11
1780.2074830044191
 21
1076.3893388873362
  0
LINE
  8
_2-2_
  6
CONTINUOUS
 62
    7
 10
1780.2074830044191
 20
1076.3893388873362
 11
1801.2074720905553
 21
1076.3893388873362
  0
LINE
  8
_2-2_
  6
CONTINUOUS
 62
    7
 10
1801.2074720905553
 20
1076.3893388873362
 11
1808.207468452601
 21
1046.3893857241596
  0
LINE
  8
_2-2_
  6
CONTINUOUS
 62
    7
 10
1808.207468452601
 20
1046.3893857241596
 11
1773.2074866423734
 21
1046.3893857241596
  0
LINE
  8
_2-2_
  6
CONTINUOUS
 62
    7
 10
1765.8552431231758
 20
1043.4353651687445
 11
1765.8937376898689
 21
1043.0451702427217
  0
LINE
  8
_2-2_
  6
CONTINUOUS
 62
    7
 10
1765.8937376898689
 20
1043.0451702427217
 11
1766.0074716369156
 21
1042.6699575770315
  0
LINE
  8
_2-2_
  6
CONTINUOUS
 62
    7
 10
1766.0074716369156
 20
1042.6699575770315
 11
1766.1922893008668
 21
1042.324162634183
  0
LINE
  8
_2-2_
  6
CONTINUOUS
 62
    7
 10
1766.1922893008668
 20
1042.324162634183
 11
1766.4410823100322
 21
1042.0211272810416
  0
LINE
  8
_2-2_
  6
CONTINUOUS
 62
    7
 10
1766.4410823100322
 20
1042.0211272810416
 11
1766.7441176631733
 21
1041.7724436314409
  0
LINE
  8
_2-2_
  6
CONTINUOUS
 62
    7
 10
1766.7441176631733
 20
1041.7724436314409
 11
1767.0899126060222
 21
1041.5876259674897
  0
LINE
  8
_2-2_
  6
CONTINUOUS
 62
    7
 10
1767.0899126060222
 20
1041.5876259674897
 11
1767.4651252717122
 21
1041.4737826608782
  0
LINE
  8
_2-2_
  6
CONTINUOUS
 62
    7
 10
1767.4651252717122
 20
1041.4737826608782
 11
1767.8553201977347
 21
1041.4352880941854
  0
LINE
  8
_2-2_
  6
CONTINUOUS
 62
    7
 10
1767.8553201977347
 20
1041.4352880941854
 11
1769.8552879127294
 21
1041.4352880941854
  0
LINE
  8
_2-2_
  6
CONTINUOUS
 62
    7
 10
1769.8552879127294
 20
1041.4352880941854
 11
1811.8552660850025
 21
1041.4352880941854
  0
LINE
  8
_2-2_
  6
CONTINUOUS
 62
    7
 10
1811.8552660850025
 20
1041.4352880941854
 11
1813.8552337999968
 21
1041.4352880941854
  0
LINE
  8
_2-2_
  6
CONTINUOUS
 62
    7
 10
1813.8552337999968
 20
1041.4352880941854
 11
1814.2454287260193
 21
1041.4737826608782
  0
LINE
  8
_2-2_
  6
CONTINUOUS
 62
    7
 10
1814.2454287260193
 20
1041.4737826608782
 11
1814.6206413917098
 21
1041.5876259674897
  0
LINE
  8
_2-2_
  6
CONTINUOUS
 62
    7
 10
1814.6206413917098
 20
1041.5876259674897
 11
1814.9664363345582
 21
1041.7724436314409
  0
LINE
  8
_2-2_
  6
CONTINUOUS
 62
    7
 10
1814.9664363345582
 20
1041.7724436314409
 11
1815.2694716876997
 21
1042.0211272810416
  0
LINE
  8
_2-2_
  6
CONTINUOUS
 62
    7
 10
1815.2694716876997
 20
1042.0211272810416
 11
1815.5182646968647
 21
1042.324162634183
  0
LINE
  8
_2-2_
  6
CONTINUOUS
 62
    7
 10
1815.5182646968647
 20
1042.324162634183
 11
1815.7030823608161
 21
1042.6699575770315
  0
LINE
  8
_2-2_
  6
CONTINUOUS
 62
    7
 10
1815.7030823608161
 20
1042.6699575770315
 11
1815.8168163078631
 21
1043.0451702427217
  0
LINE
  8
_2-2_
  6
CONTINUOUS
 62
    7
 10
1815.8168163078631
 20
1043.0451702427217
 11
1815.8553108745557
 21
1043.4353651687445
  0
LINE
  8
_2-2_
  6
CONTINUOUS
 62
    7
 10
1815.8553108745557
 20
1043.4353651687445
 11
1815.7976783840813
 21
1044.0206575577783
  0
LINE
  8
_2-2_
  6
CONTINUOUS
 62
    7
 10
1815.7976783840813
 20
1044.0206575577783
 11
1815.6269681039462
 21
1044.5834218765317
  0
LINE
  8
_2-2_
  6
CONTINUOUS
 62
    7
 10
1815.6269681039462
 20
1044.5834218765317
 11
1815.349632248455
 21
1045.1020049312399
  0
LINE
  8
_2-2_
  6
CONTINUOUS
 62
    7
 10
1815.349632248455
 20
1045.1020049312399
 11
1814.9766067740541
 21
1045.5566126407343
  0
LINE
  8
_2-2_
  6
CONTINUOUS
 62
    7
 10
1814.9766067740541
 20
1045.5566126407343
 11
1814.5219990645596
 21
1045.9297474746998
  0
LINE
  8
_2-2_
  6
CONTINUOUS
 62
    7
 10
1814.5219990645596
 20
1045.9297474746998
 11
1814.003306650287
 21
1046.2069739706267
  0
LINE
  8
_2-2_
  6
CONTINUOUS
 62
    7
 10
1814.003306650287
 20
1046.2069739706267
 11
1813.4405423315336
 21
1046.3776842507616
  0
LINE
  8
_2-2_
  6
CONTINUOUS
 62
    7
 10
1813.4405423315336
 20
1046.3776842507616
 11
1812.8552499424995
 21
1046.4353167412364
  0
LINE
  8
_2-2_
  6
CONTINUOUS
 62
    7
 10
1812.8552499424995
 20
1046.4353167412364
 11
1790.855276998866
 21
1046.4353167412364
  0
LINE
  8
_2-2_
  6
CONTINUOUS
 62
    7
 10
1790.855276998866
 20
1046.4353167412364
 11
1768.8553040552322
 21
1046.4353167412364
  0
LINE
  8
_2-2_
  6
CONTINUOUS
 62
    7
 10
1768.8553040552322
 20
1046.4353167412364
 11
1768.2700116661983
 21
1046.3776842507616
  0
LINE
  8
_2-2_
  6
CONTINUOUS
 62
    7
 10
1768.2700116661983
 20
1046.3776842507616
 11
1767.707247347445
 21
1046.2069739706267
  0
LINE
  8
_2-2_
  6
CONTINUOUS
 62
    7
 10
1767.707247347445
 20
1046.2069739706267
 11
1767.1885549331723
 21
1045.9297474746998
  0
LINE
  8
_2-2_
  6
CONTINUOUS
 62
    7
 10
1767.1885549331723
 20
1045.9297474746998
 11
1766.7339472236779
 21
1045.5566126407343
  0
LINE
  8
_2-2_
  6
CONTINUOUS
 62
    7
 10
1766.7339472236779
 20
1045.5566126407343
 11
1766.3609217492769
 21
1045.1020049312399
  0
LINE
  8
_2-2_
  6
CONTINUOUS
 62
    7
 10
1766.3609217492769
 20
1045.1020049312399
 11
1766.0835858937855
 21
1044.5834218765317
  0
LINE
  8
_2-2_
  6
CONTINUOUS
 62
    7
 10
1766.0835858937855
 20
1044.5834218765317
 11
1765.9128756136506
 21
1044.0206575577783
  0
LINE
  8
_2-2_
  6
CONTINUOUS
 62
    7
 10
1765.9128756136506
 20
1044.0206575577783
 11
1765.8552431231758
 21
1043.4353651687445
  0
LINE
  8
_2-2_
  6
CONTINUOUS
 62
    7
 10
1739.5761397814656
 20
1200.5394563711748
 11
1839.5761659246614
 21
1200.5394563711748
  0
LINE
  8
_2-2_
  6
CONTINUOUS
 62
    7
 10
1839.5761659246614
 20
1200.5394563711748
 11
1839.5761659246614
 21
1182.5395282170946
  0
LINE
  8
_2-2_
  6
CONTINUOUS
 62
    7
 10
1839.5761659246614
 20
1182.5395282170946
 11
1739.5761397814656
 21
1182.5395282170946
  0
LINE
  8
_2-2_
  6
CONTINUOUS
 62
    7
 10
1739.5761397814656
 20
1182.5395282170946
 11
1739.5761397814656
 21
1200.5394563711748
  0
LINE
  8
_2-2_
  6
CONTINUOUS
 62
    7
 10
1770.303224688791
 20
1178.9593147955345
 11
1810.3032351460695
 21
1178.9593147955345
  0
LINE
  8
_2-2_
  6
CONTINUOUS
 62
    7
 10
1810.3032351460695
 20
1178.9593147955345
 11
1810.3032351460695
 21
1138.9593043382563
  0
LINE
  8
_2-2_
  6
CONTINUOUS
 62
    7
 10
1810.3032351460695
 20
1138.9593043382563
 11
1770.303224688791
 21
1138.9593043382563
  0
LINE
  8
_2-2_
  6
CONTINUOUS
 62
    7
 10
1770.303224688791
 20
1138.9593043382563
 11
1770.303224688791
 21
1178.9593147955345
  0
LINE
  8
_2-2_
  6
CONTINUOUS
 62
    7
 10
2337.3583753136595
 20
1105.6242125374929
 11
2329.3582857345518
 21
1105.6242125374929
  0
LINE
  8
_2-2_
  6
CONTINUOUS
 62
    7
 10
2329.3582857345518
 20
1105.6242125374929
 11
2329.3582857345518
 21
1104.6242286799957
  0
LINE
  8
_2-2_
  6
CONTINUOUS
 62
    7
 10
2329.3582857345518
 20
1104.6242286799957
 11
2337.3583753136595
 21
1104.6242286799957
  0
LINE
  8
_2-2_
  6
CONTINUOUS
 62
    7
 10
2337.3583753136595
 20
1104.6242286799957
 11
2337.3583753136595
 21
1105.6242125374929
  0
LINE
  8
_2-2_
  6
CONTINUOUS
 62
    7
 10
2330.0275662690974
 20
1117.4517775134229
 11
2330.0275662690974
 21
1047.4517045334039
  0
LINE
  8
_2-2_
  6
CONTINUOUS
 62
    7
 10
2330.0275662690974
 20
1047.4517045334039
 11
2337.0274532715785
 21
1047.4517045334039
  0
LINE
  8
_2-2_
  6
CONTINUOUS
 62
    7
 10
2337.0274532715785
 20
1047.4517045334039
 11
2337.0274532715785
 21
1117.4517775134229
  0
LINE
  8
_2-2_
  6
CONTINUOUS
 62
    7
 10
2337.3583753136595
 20
1111.6503619779489
 11
2329.3582857345518
 21
1111.6503619779489
  0
LINE
  8
_2-2_
  6
CONTINUOUS
 62
    7
 10
2329.3582857345518
 20
1111.6503619779489
 11
2329.3582857345518
 21
1110.6503781204517
  0
LINE
  8
_2-2_
  6
CONTINUOUS
 62
    7
 10
2329.3582857345518
 20
1110.6503781204517
 11
2337.3583753136595
 21
1110.6503781204517
  0
LINE
  8
_2-2_
  6
CONTINUOUS
 62
    7
 10
2337.3583753136595
 20
1110.6503781204517
 11
2337.3583753136595
 21
1111.6503619779489
  0
LINE
  8
_2-2_
  6
CONTINUOUS
 62
    7
 10
2337.3583753136595
 20
1107.6242896120521
 11
2329.3582857345518
 21
1107.6242896120521
  0
LINE
  8
_2-2_
  6
CONTINUOUS
 62
    7
 10
2329.3582857345518
 20
1107.6242896120521
 11
2329.3582857345518
 21
1106.6241963949903
  0
LINE
  8
_2-2_
  6
CONTINUOUS
 62
    7
 10
2329.3582857345518
 20
1106.6241963949903
 11
2337.3583753136595
 21
1106.6241963949903
  0
LINE
  8
_2-2_
  6
CONTINUOUS
 62
    7
 10
2337.3583753136595
 20
1106.6241963949903
 11
2337.3583753136595
 21
1107.6242896120521
  0
LINE
  8
_2-2_
  6
CONTINUOUS
 62
    7
 10
2337.3583753136595
 20
1109.6242573270465
 11
2329.3582857345518
 21
1109.6242573270465
  0
LINE
  8
_2-2_
  6
CONTINUOUS
 62
    7
 10
2329.3582857345518
 20
1109.6242573270465
 11
2329.3582857345518
 21
1108.6242734695493
  0
LINE
  8
_2-2_
  6
CONTINUOUS
 62
    7
 10
2329.3582857345518
 20
1108.6242734695493
 11
2337.3583753136595
 21
1108.6242734695493
  0
LINE
  8
_2-2_
  6
CONTINUOUS
 62
    7
 10
2337.3583753136595
 20
1108.6242734695493
 11
2337.3583753136595
 21
1109.6242573270465
  0
LINE
  8
_2-2_
  6
CONTINUOUS
 62
    7
 10
2337.3583753136595
 20
1125.8163625209027
 11
2329.3582857345518
 21
1125.8163625209027
  0
LINE
  8
_2-2_
  6
CONTINUOUS
 62
    7
 10
2329.3582857345518
 20
1125.8163625209027
 11
2329.3582857345518
 21
1124.8163786634054
  0
LINE
  8
_2-2_
  6
CONTINUOUS
 62
    7
 10
2329.3582857345518
 20
1124.8163786634054
 11
2337.3583753136595
 21
1124.8163786634054
  0
LINE
  8
_2-2_
  6
CONTINUOUS
 62
    7
 10
2337.3583753136595
 20
1124.8163786634054
 11
2337.3583753136595
 21
1125.8163625209027
  0
LINE
  8
_2-2_
  6
CONTINUOUS
 62
    7
 10
2337.3583753136595
 20
1113.7210853311547
 11
2329.3582857345518
 21
1113.7210853311547
  0
LINE
  8
_2-2_
  6
CONTINUOUS
 62
    7
 10
2329.3582857345518
 20
1113.7210853311547
 11
2329.3582857345518
 21
1112.7211014736572
  0
LINE
  8
_2-2_
  6
CONTINUOUS
 62
    7
 10
2329.3582857345518
 20
1112.7211014736572
 11
2337.3583753136595
 21
1112.7211014736572
  0
LINE
  8
_2-2_
  6
CONTINUOUS
 62
    7
 10
2337.3583753136595
 20
1112.7211014736572
 11
2337.3583753136595
 21
1113.7210853311547
  0
LINE
  8
_2-2_
  6
CONTINUOUS
 62
    7
 10
2337.3583753136595
 20
1115.6242698315948
 11
2329.3582857345518
 21
1115.6242698315948
  0
LINE
  8
_2-2_
  6
CONTINUOUS
 62
    7
 10
2329.3582857345518
 20
1115.6242698315948
 11
2329.3582857345518
 21
1114.6242859740973
  0
LINE
  8
_2-2_
  6
CONTINUOUS
 62
    7
 10
2329.3582857345518
 20
1114.6242859740973
 11
2337.3583753136595
 21
1114.6242859740973
  0
LINE
  8
_2-2_
  6
CONTINUOUS
 62
    7
 10
2337.3583753136595
 20
1114.6242859740973
 11
2337.3583753136595
 21
1115.6242698315948
  0
LINE
  8
_2-2_
  6
CONTINUOUS
 62
    7
 10
2337.3583753136595
 20
1117.6242375465893
 11
2329.3582857345518
 21
1117.6242375465893
  0
LINE
  8
_2-2_
  6
CONTINUOUS
 62
    7
 10
2329.3582857345518
 20
1117.6242375465893
 11
2329.3582857345518
 21
1116.624253689092
  0
LINE
  8
_2-2_
  6
CONTINUOUS
 62
    7
 10
2329.3582857345518
 20
1116.624253689092
 11
2337.3583753136595
 21
1116.624253689092
  0
LINE
  8
_2-2_
  6
CONTINUOUS
 62
    7
 10
2337.3583753136595
 20
1116.624253689092
 11
2337.3583753136595
 21
1117.6242375465893
  0
LINE
  8
_2-2_
  6
CONTINUOUS
 62
    7
 10
2337.3583753136595
 20
1119.6242052615839
 11
2329.3582857345518
 21
1119.6242052615839
  0
LINE
  8
_2-2_
  6
CONTINUOUS
 62
    7
 10
2329.3582857345518
 20
1119.6242052615839
 11
2329.3582857345518
 21
1118.6242214040867
  0
LINE
  8
_2-2_
  6
CONTINUOUS
 62
    7
 10
2329.3582857345518
 20
1118.6242214040867
 11
2337.3583753136595
 21
1118.6242214040867
  0
LINE
  8
_2-2_
  6
CONTINUOUS
 62
    7
 10
2337.3583753136595
 20
1118.6242214040867
 11
2337.3583753136595
 21
1119.6242052615839
  0
LINE
  8
_2-2_
  6
CONTINUOUS
 62
    7
 10
2337.3583753136595
 20
1121.6242823361431
 11
2329.3582857345518
 21
1121.6242823361431
  0
LINE
  8
_2-2_
  6
CONTINUOUS
 62
    7
 10
2329.3582857345518
 20
1121.6242823361431
 11
2329.3582857345518
 21
1120.6241891190812
  0
LINE
  8
_2-2_
  6
CONTINUOUS
 62
    7
 10
2329.3582857345518
 20
1120.6241891190812
 11
2337.3583753136595
 21
1120.6241891190812
  0
LINE
  8
_2-2_
  6
CONTINUOUS
 62
    7
 10
2337.3583753136595
 20
1120.6241891190812
 11
2337.3583753136595
 21
1121.6242823361431
  0
LINE
  8
_2-2_
  6
CONTINUOUS
 62
    7
 10
2337.2614827395405
 20
1133.4565497733452
 11
2329.2613931604333
 21
1133.4565497733452
  0
LINE
  8
_2-2_
  6
CONTINUOUS
 62
    7
 10
2329.2613931604333
 20
1133.4565497733452
 11
2329.2613931604333
 21
1132.4565659158477
  0
LINE
  8
_2-2_
  6
CONTINUOUS
 62
    7
 10
2329.2613931604333
 20
1132.4565659158477
 11
2337.2614827395405
 21
1132.4565659158477
  0
LINE
  8
_2-2_
  6
CONTINUOUS
 62
    7
 10
2337.2614827395405
 20
1132.4565659158477
 11
2337.2614827395405
 21
1133.4565497733452
  0
LINE
  8
_2-2_
  6
CONTINUOUS
 62
    7
 10
2337.3583753136595
 20
1131.6242302706803
 11
2329.3582857345518
 21
1131.6242302706803
  0
LINE
  8
_2-2_
  6
CONTINUOUS
 62
    7
 10
2329.3582857345518
 20
1131.6242302706803
 11
2329.3582857345518
 21
1130.6242464131828
  0
LINE
  8
_2-2_
  6
CONTINUOUS
 62
    7
 10
2329.3582857345518
 20
1130.6242464131828
 11
2337.3583753136595
 21
1130.6242464131828
  0
LINE
  8
_2-2_
  6
CONTINUOUS
 62
    7
 10
2337.3583753136595
 20
1130.6242464131828
 11
2337.3583753136595
 21
1131.6242302706803
  0
LINE
  8
_2-2_
  6
CONTINUOUS
 62
    7
 10
2337.3583753136595
 20
1135.3335973378773
 11
2329.3582857345518
 21
1135.3335973378773
  0
LINE
  8
_2-2_
  6
CONTINUOUS
 62
    7
 10
2329.3582857345518
 20
1135.3335973378773
 11
2329.3582857345518
 21
1134.3336134803801
  0
LINE
  8
_2-2_
  6
CONTINUOUS
 62
    7
 10
2329.3582857345518
 20
1134.3336134803801
 11
2337.3583753136595
 21
1134.3336134803801
  0
LINE
  8
_2-2_
  6
CONTINUOUS
 62
    7
 10
2337.3583753136595
 20
1134.3336134803801
 11
2337.3583753136595
 21
1135.3335973378773
  0
LINE
  8
_2-2_
  6
CONTINUOUS
 62
    7
 10
2337.2260502406525
 20
1127.7515893737323
 11
2329.2259606615457
 21
1127.7515893737323
  0
LINE
  8
_2-2_
  6
CONTINUOUS
 62
    7
 10
2329.2259606615457
 20
1127.7515893737323
 11
2329.2259606615457
 21
1126.7516055162348
  0
LINE
  8
_2-2_
  6
CONTINUOUS
 62
    7
 10
2329.2259606615457
 20
1126.7516055162348
 11
2337.2260502406525
 21
1126.7516055162348
  0
LINE
  8
_2-2_
  6
CONTINUOUS
 62
    7
 10
2337.2260502406525
 20
1126.7516055162348
 11
2337.2260502406525
 21
1127.7515893737323
  0
LINE
  8
_2-2_
  6
CONTINUOUS
 62
    7
 10
2337.2816048994027
 20
1123.7502322694049
 11
2329.2817340394245
 21
1123.7502322694049
  0
LINE
  8
_2-2_
  6
CONTINUOUS
 62
    7
 10
2329.2817340394245
 20
1123.7502322694049
 11
2329.2817340394245
 21
1122.7502484119077
  0
LINE
  8
_2-2_
  6
CONTINUOUS
 62
    7
 10
2329.2817340394245
 20
1122.7502484119077
 11
2337.2816048994027
 21
1122.7502484119077
  0
LINE
  8
_2-2_
  6
CONTINUOUS
 62
    7
 10
2337.2816048994027
 20
1122.7502484119077
 11
2337.2816048994027
 21
1123.7502322694049
  0
LINE
  8
_2-2_
  6
CONTINUOUS
 62
    7
 10
2337.2057093616618
 20
1129.6811295292091
 11
2329.2058385016835
 21
1129.6811295292091
  0
LINE
  8
_2-2_
  6
CONTINUOUS
 62
    7
 10
2329.2058385016835
 20
1129.6811295292091
 11
2329.2058385016835
 21
1128.6811456717119
  0
LINE
  8
_2-2_
  6
CONTINUOUS
 62
    7
 10
2329.2058385016835
 20
1128.6811456717119
 11
2337.2057093616618
 21
1128.6811456717119
  0
LINE
  8
_2-2_
  6
CONTINUOUS
 62
    7
 10
2337.2057093616618
 20
1128.6811456717119
 11
2337.2057093616618
 21
1129.6811295292091
  0
LINE
  8
_2-2_
  6
CONTINUOUS
 62
    7
 10
2284.0475561075687
 20
1201.1385280653317
 11
2384.0476916103289
 21
1201.1385280653317
  0
LINE
  8
_2-2_
  6
CONTINUOUS
 62
    7
 10
2384.0476916103289
 20
1201.1385280653317
 11
2384.0476916103289
 21
1183.1385999112515
  0
LINE
  8
_2-2_
  6
CONTINUOUS
 62
    7
 10
2384.0476916103289
 20
1183.1385999112515
 11
2284.0475561075687
 21
1183.1385999112515
  0
LINE
  8
_2-2_
  6
CONTINUOUS
 62
    7
 10
2284.0475561075687
 20
1183.1385999112515
 11
2284.0475561075687
 21
1201.1385280653317
  0
LINE
  8
_2-2_
  6
CONTINUOUS
 62
    7
 10
2337.3583753136595
 20
1083.6242395938593
 11
2329.3582857345518
 21
1083.6242395938593
  0
LINE
  8
_2-2_
  6
CONTINUOUS
 62
    7
 10
2329.3582857345518
 20
1083.6242395938593
 11
2329.3582857345518
 21
1082.6242557363621
  0
LINE
  8
_2-2_
  6
CONTINUOUS
 62
    7
 10
2329.3582857345518
 20
1082.6242557363621
 11
2337.3583753136595
 21
1082.6242557363621
  0
LINE
  8
_2-2_
  6
CONTINUOUS
 62
    7
 10
2337.3583753136595
 20
1082.6242557363621
 11
2337.3583753136595
 21
1083.6242395938593
  0
LINE
  8
_2-2_
  6
CONTINUOUS
 62
    7
 10
2337.3583753136595
 20
1085.6242073088538
 11
2329.3582857345518
 21
1085.6242073088538
  0
LINE
  8
_2-2_
  6
CONTINUOUS
 62
    7
 10
2329.3582857345518
 20
1085.6242073088538
 11
2329.3582857345518
 21
1084.6242234513566
  0
LINE
  8
_2-2_
  6
CONTINUOUS
 62
    7
 10
2329.3582857345518
 20
1084.6242234513566
 11
2337.3583753136595
 21
1084.6242234513566
  0
LINE
  8
_2-2_
  6
CONTINUOUS
 62
    7
 10
2337.3583753136595
 20
1084.6242234513566
 11
2337.3583753136595
 21
1085.6242073088538
  0
LINE
  8
_2-2_
  6
CONTINUOUS
 62
    7
 10
2337.3583753136595
 20
1087.6242843834129
 11
2329.3582857345518
 21
1087.6242843834129
  0
LINE
  8
_2-2_
  6
CONTINUOUS
 62
    7
 10
2329.3582857345518
 20
1087.6242843834129
 11
2329.3582857345518
 21
1086.6241911663512
  0
LINE
  8
_2-2_
  6
CONTINUOUS
 62
    7
 10
2329.3582857345518
 20
1086.6241911663512
 11
2337.3583753136595
 21
1086.6241911663512
  0
LINE
  8
_2-2_
  6
CONTINUOUS
 62
    7
 10
2337.3583753136595
 20
1086.6241911663512
 11
2337.3583753136595
 21
1087.6242843834129
  0
LINE
  8
_2-2_
  6
CONTINUOUS
 62
    7
 10
2337.3583753136595
 20
1089.6242520984074
 11
2329.3582857345518
 21
1089.6242520984074
  0
LINE
  8
_2-2_
  6
CONTINUOUS
 62
    7
 10
2329.3582857345518
 20
1089.6242520984074
 11
2329.3582857345518
 21
1088.6242682409102
  0
LINE
  8
_2-2_
  6
CONTINUOUS
 62
    7
 10
2329.3582857345518
 20
1088.6242682409102
 11
2337.3583753136595
 21
1088.6242682409102
  0
LINE
  8
_2-2_
  6
CONTINUOUS
 62
    7
 10
2337.3583753136595
 20
1088.6242682409102
 11
2337.3583753136595
 21
1089.6242520984074
  0
LINE
  8
_2-2_
  6
CONTINUOUS
 62
    7
 10
2337.3583753136595
 20
1091.6242198134021
 11
2329.3582857345518
 21
1091.6242198134021
  0
LINE
  8
_2-2_
  6
CONTINUOUS
 62
    7
 10
2329.3582857345518
 20
1091.6242198134021
 11
2329.3582857345518
 21
1090.6242359559049
  0
LINE
  8
_2-2_
  6
CONTINUOUS
 62
    7
 10
2329.3582857345518
 20
1090.6242359559049
 11
2337.3583753136595
 21
1090.6242359559049
  0
LINE
  8
_2-2_
  6
CONTINUOUS
 62
    7
 10
2337.3583753136595
 20
1090.6242359559049
 11
2337.3583753136595
 21
1091.6242198134021
  0
LINE
  8
_2-2_
  6
CONTINUOUS
 62
    7
 10
2337.3583753136595
 20
1093.6241875283965
 11
2329.3582857345518
 21
1093.6241875283965
  0
LINE
  8
_2-2_
  6
CONTINUOUS
 62
    7
 10
2329.3582857345518
 20
1093.6241875283965
 11
2329.3582857345518
 21
1092.6242036708993
  0
LINE
  8
_2-2_
  6
CONTINUOUS
 62
    7
 10
2329.3582857345518
 20
1092.6242036708993
 11
2337.3583753136595
 21
1092.6242036708993
  0
LINE
  8
_2-2_
  6
CONTINUOUS
 62
    7
 10
2337.3583753136595
 20
1092.6242036708993
 11
2337.3583753136595
 21
1093.6241875283965
  0
LINE
  8
_2-2_
  6
CONTINUOUS
 62
    7
 10
2337.3583753136595
 20
1095.6242646029557
 11
2329.3582857345518
 21
1095.6242646029557
  0
LINE
  8
_2-2_
  6
CONTINUOUS
 62
    7
 10
2329.3582857345518
 20
1095.6242646029557
 11
2329.3582857345518
 21
1094.6242807454582
  0
LINE
  8
_2-2_
  6
CONTINUOUS
 62
    7
 10
2329.3582857345518
 20
1094.6242807454582
 11
2337.3583753136595
 21
1094.6242807454582
  0
LINE
  8
_2-2_
  6
CONTINUOUS
 62
    7
 10
2337.3583753136595
 20
1094.6242807454582
 11
2337.3583753136595
 21
1095.6242646029557
  0
LINE
  8
_2-2_
  6
CONTINUOUS
 62
    7
 10
2337.3583753136595
 20
1097.6242323179501
 11
2329.3582857345518
 21
1097.6242323179501
  0
LINE
  8
_2-2_
  6
CONTINUOUS
 62
    7
 10
2329.3582857345518
 20
1097.6242323179501
 11
2329.3582857345518
 21
1096.6242484604529
  0
LINE
  8
_2-2_
  6
CONTINUOUS
 62
    7
 10
2329.3582857345518
 20
1096.6242484604529
 11
2337.3583753136595
 21
1096.6242484604529
  0
LINE
  8
_2-2_
  6
CONTINUOUS
 62
    7
 10
2337.3583753136595
 20
1096.6242484604529
 11
2337.3583753136595
 21
1097.6242323179501
  0
LINE
  8
_2-2_
  6
CONTINUOUS
 62
    7
 10
2337.3583753136595
 20
1099.6242000329448
 11
2329.3582857345518
 21
1099.6242000329448
  0
LINE
  8
_2-2_
  6
CONTINUOUS
 62
    7
 10
2329.3582857345518
 20
1099.6242000329448
 11
2329.3582857345518
 21
1098.6242161754476
  0
LINE
  8
_2-2_
  6
CONTINUOUS
 62
    7
 10
2329.3582857345518
 20
1098.6242161754476
 11
2337.3583753136595
 21
1098.6242161754476
  0
LINE
  8
_2-2_
  6
CONTINUOUS
 62
    7
 10
2337.3583753136595
 20
1098.6242161754476
 11
2337.3583753136595
 21
1099.6242000329448
  0
LINE
  8
_2-2_
  6
CONTINUOUS
 62
    7
 10
2337.3583753136595
 20
1103.6242448224984
 11
2329.3582857345518
 21
1103.6242448224984
  0
LINE
  8
_2-2_
  6
CONTINUOUS
 62
    7
 10
2329.3582857345518
 20
1103.6242448224984
 11
2329.3582857345518
 21
1102.624260965001
  0
LINE
  8
_2-2_
  6
CONTINUOUS
 62
    7
 10
2329.3582857345518
 20
1102.624260965001
 11
2337.3583753136595
 21
1102.624260965001
  0
LINE
  8
_2-2_
  6
CONTINUOUS
 62
    7
 10
2337.3583753136595
 20
1102.624260965001
 11
2337.3583753136595
 21
1103.6242448224984
  0
LINE
  8
_2-2_
  6
CONTINUOUS
 62
    7
 10
2337.3784974735217
 20
1101.6398061656582
 11
2329.378626613543
 21
1101.6398061656582
  0
LINE
  8
_2-2_
  6
CONTINUOUS
 62
    7
 10
2329.378626613543
 20
1101.6398061656582
 11
2329.378626613543
 21
1100.6397129485965
  0
LINE
  8
_2-2_
  6
CONTINUOUS
 62
    7
 10
2329.378626613543
 20
1100.6397129485965
 11
2337.3784974735217
 21
1100.6397129485965
  0
LINE
  8
_2-2_
  6
CONTINUOUS
 62
    7
 10
2337.3784974735217
 20
1100.6397129485965
 11
2337.3784974735217
 21
1101.6398061656582
  0
LINE
  8
_2-2_
  6
CONTINUOUS
 62
    7
 10
2320.7608742143193
 20
1077.9176388007793
 11
2320.7993687810122
 21
1077.5274438747567
  0
LINE
  8
_2-2_
  6
CONTINUOUS
 62
    7
 10
2320.7993687810122
 20
1077.5274438747567
 11
2320.9131027280591
 21
1077.1523405686307
  0
LINE
  8
_2-2_
  6
CONTINUOUS
 62
    7
 10
2320.9131027280591
 20
1077.1523405686307
 11
2321.0981391111395
 21
1076.8065456257823
  0
LINE
  8
_2-2_
  6
CONTINUOUS
 62
    7
 10
2321.0981391111395
 20
1076.8065456257823
 11
2321.34682276074
 21
1076.5035102726411
  0
LINE
  8
_2-2_
  6
CONTINUOUS
 62
    7
 10
2321.34682276074
 20
1076.5035102726411
 11
2321.6497487543174
 21
1076.2547172634759
  0
LINE
  8
_2-2_
  6
CONTINUOUS
 62
    7
 10
2321.6497487543174
 20
1076.2547172634759
 11
2321.9955436971654
 21
1076.0698995995244
  0
LINE
  8
_2-2_
  6
CONTINUOUS
 62
    7
 10
2321.9955436971654
 20
1076.0698995995244
 11
2322.3708657224206
 21
1075.9560562929132
  0
LINE
  8
_2-2_
  6
CONTINUOUS
 62
    7
 10
2322.3708657224206
 20
1075.9560562929132
 11
2322.7610606484427
 21
1075.9176710857848
  0
LINE
  8
_2-2_
  6
CONTINUOUS
 62
    7
 10
2322.7610606484427
 20
1075.9176710857848
 11
2343.7609403750148
 21
1075.9176710857848
  0
LINE
  8
_2-2_
  6
CONTINUOUS
 62
    7
 10
2343.7609403750148
 20
1075.9176710857848
 11
2344.1511353010378
 21
1075.9560562929132
  0
LINE
  8
_2-2_
  6
CONTINUOUS
 62
    7
 10
2344.1511353010378
 20
1075.9560562929132
 11
2344.5262386071631
 21
1076.0698995995244
  0
LINE
  8
_2-2_
  6
CONTINUOUS
 62
    7
 10
2344.5262386071631
 20
1076.0698995995244
 11
2344.872033550012
 21
1076.2547172634759
  0
LINE
  8
_2-2_
  6
CONTINUOUS
 62
    7
 10
2344.872033550012
 20
1076.2547172634759
 11
2345.1751782627175
 21
1076.5035102726411
  0
LINE
  8
_2-2_
  6
CONTINUOUS
 62
    7
 10
2345.1751782627175
 20
1076.5035102726411
 11
2345.4238619123184
 21
1076.8065456257823
  0
LINE
  8
_2-2_
  6
CONTINUOUS
 62
    7
 10
2345.4238619123184
 20
1076.8065456257823
 11
2345.6086795762699
 21
1077.1523405686307
  0
LINE
  8
_2-2_
  6
CONTINUOUS
 62
    7
 10
2345.6086795762699
 20
1077.1523405686307
 11
2345.7226322424458
 21
1077.5274438747567
  0
LINE
  8
_2-2_
  6
CONTINUOUS
 62
    7
 10
2345.7226322424458
 20
1077.5274438747567
 11
2345.7609080900097
 21
1077.9176388007793
  0
LINE
  8
_2-2_
  6
CONTINUOUS
 62
    7
 10
2345.7609080900097
 20
1077.9176388007793
 11
2345.7033849590994
 21
1078.5029311898131
  0
LINE
  8
_2-2_
  6
CONTINUOUS
 62
    7
 10
2345.7033849590994
 20
1078.5029311898131
 11
2345.5325653194
 21
1079.0656955085665
  0
LINE
  8
_2-2_
  6
CONTINUOUS
 62
    7
 10
2345.5325653194
 20
1079.0656955085665
 11
2345.2554481830375
 21
1079.5843879228394
  0
LINE
  8
_2-2_
  6
CONTINUOUS
 62
    7
 10
2345.2554481830375
 20
1079.5843879228394
 11
2344.8823133490719
 21
1080.0389956323336
  0
LINE
  8
_2-2_
  6
CONTINUOUS
 62
    7
 10
2344.8823133490719
 20
1080.0389956323336
 11
2344.4275962800129
 21
1080.412130466299
  0
LINE
  8
_2-2_
  6
CONTINUOUS
 62
    7
 10
2344.4275962800129
 20
1080.412130466299
 11
2343.909013225305
 21
1080.6893569622259
  0
LINE
  8
_2-2_
  6
CONTINUOUS
 62
    7
 10
2343.909013225305
 20
1080.6893569622259
 11
2343.3462489065514
 21
1080.8600672423609
  0
LINE
  8
_2-2_
  6
CONTINUOUS
 62
    7
 10
2343.3462489065514
 20
1080.8600672423609
 11
2342.760956517518
 21
1080.9176997328357
  0
LINE
  8
_2-2_
  6
CONTINUOUS
 62
    7
 10
2342.760956517518
 20
1080.9176997328357
 11
2333.2608911521647
 21
1080.9176997328357
  0
LINE
  8
_2-2_
  6
CONTINUOUS
 62
    7
 10
2333.2608911521647
 20
1080.9176997328357
 11
2323.7610445059404
 21
1080.9176997328357
  0
LINE
  8
_2-2_
  6
CONTINUOUS
 62
    7
 10
2323.7610445059404
 20
1080.9176997328357
 11
2323.1757521169066
 21
1080.8600672423609
  0
LINE
  8
_2-2_
  6
CONTINUOUS
 62
    7
 10
2323.1757521169066
 20
1080.8600672423609
 11
2322.612987798153
 21
1080.6893569622259
  0
LINE
  8
_2-2_
  6
CONTINUOUS
 62
    7
 10
2322.612987798153
 20
1080.6893569622259
 11
2322.0941860243156
 21
1080.412130466299
  0
LINE
  8
_2-2_
  6
CONTINUOUS
 62
    7
 10
2322.0941860243156
 20
1080.412130466299
 11
2321.6396876743861
 21
1080.0389956323336
  0
LINE
  8
_2-2_
  6
CONTINUOUS
 62
    7
 10
2321.6396876743861
 20
1080.0389956323336
 11
2321.2665528404204
 21
1079.5843879228394
  0
LINE
  8
_2-2_
  6
CONTINUOUS
 62
    7
 10
2321.2665528404204
 20
1079.5843879228394
 11
2320.9894357040585
 21
1079.0656955085665
  0
LINE
  8
_2-2_
  6
CONTINUOUS
 62
    7
 10
2320.9894357040585
 20
1079.0656955085665
 11
2320.818616064359
 21
1078.5029311898131
  0
LINE
  8
_2-2_
  6
CONTINUOUS
 62
    7
 10
2320.818616064359
 20
1078.5029311898131
 11
2320.7608742143193
 21
1077.9176388007793
  0
LINE
  8
_2-2_
  6
CONTINUOUS
 62
    7
 10
2315.5514220013119
 20
1045.7944696934526
 11
2322.5515277229219
 21
1075.7945322161936
  0
LINE
  8
_2-2_
  6
CONTINUOUS
 62
    7
 10
2322.5515277229219
 20
1075.7945322161936
 11
2343.551407449494
 21
1075.7945322161936
  0
LINE
  8
_2-2_
  6
CONTINUOUS
 62
    7
 10
2343.551407449494
 20
1075.7945322161936
 11
2350.551513171104
 21
1045.7944696934526
  0
LINE
  8
_2-2_
  6
CONTINUOUS
 62
    7
 10
2350.551513171104
 20
1045.7944696934526
 11
2315.5514220013119
 21
1045.7944696934526
  0
LINE
  8
_2-2_
  6
CONTINUOUS
 62
    7
 10
2308.1991784821143
 20
1042.8405584976019
 11
2308.2376730488072
 21
1042.4503635715791
  0
LINE
  8
_2-2_
  6
CONTINUOUS
 62
    7
 10
2308.2376730488072
 20
1042.4503635715791
 11
2308.3514069958542
 21
1042.0751509058889
  0
LINE
  8
_2-2_
  6
CONTINUOUS
 62
    7
 10
2308.3514069958542
 20
1042.0751509058889
 11
2308.5362246598056
 21
1041.7293559630405
  0
LINE
  8
_2-2_
  6
CONTINUOUS
 62
    7
 10
2308.5362246598056
 20
1041.7293559630405
 11
2308.785127028535
 21
1041.426320609899
  0
LINE
  8
_2-2_
  6
CONTINUOUS
 62
    7
 10
2308.785127028535
 20
1041.426320609899
 11
2309.088053022112
 21
1041.1775276007338
  0
LINE
  8
_2-2_
  6
CONTINUOUS
 62
    7
 10
2309.088053022112
 20
1041.1775276007338
 11
2309.4338479649605
 21
1040.9927099367826
  0
LINE
  8
_2-2_
  6
CONTINUOUS
 62
    7
 10
2309.4338479649605
 20
1040.9927099367826
 11
2309.8091699902152
 21
1040.8789759897356
  0
LINE
  8
_2-2_
  6
CONTINUOUS
 62
    7
 10
2309.8091699902152
 20
1040.8789759897356
 11
2310.1993649162382
 21
1040.8404814230428
  0
LINE
  8
_2-2_
  6
CONTINUOUS
 62
    7
 10
2310.1993649162382
 20
1040.8404814230428
 11
2312.1993326312327
 21
1040.8404814230428
  0
LINE
  8
_2-2_
  6
CONTINUOUS
 62
    7
 10
2312.1993326312327
 20
1040.8404814230428
 11
2354.1993108035053
 21
1040.8404814230428
  0
LINE
  8
_2-2_
  6
CONTINUOUS
 62
    7
 10
2354.1993108035053
 20
1040.8404814230428
 11
2356.1992785184998
 21
1040.8404814230428
  0
LINE
  8
_2-2_
  6
CONTINUOUS
 62
    7
 10
2356.1992785184998
 20
1040.8404814230428
 11
2356.5894734445224
 21
1040.8789759897356
  0
LINE
  8
_2-2_
  6
CONTINUOUS
 62
    7
 10
2356.5894734445224
 20
1040.8789759897356
 11
2356.9645767506481
 21
1040.9927099367826
  0
LINE
  8
_2-2_
  6
CONTINUOUS
 62
    7
 10
2356.9645767506481
 20
1040.9927099367826
 11
2357.310371693497
 21
1041.1775276007338
  0
LINE
  8
_2-2_
  6
CONTINUOUS
 62
    7
 10
2357.310371693497
 20
1041.1775276007338
 11
2357.6135164062025
 21
1041.426320609899
  0
LINE
  8
_2-2_
  6
CONTINUOUS
 62
    7
 10
2357.6135164062025
 20
1041.426320609899
 11
2357.8622000558034
 21
1041.7293559630405
  0
LINE
  8
_2-2_
  6
CONTINUOUS
 62
    7
 10
2357.8622000558034
 20
1041.7293559630405
 11
2358.0470177197549
 21
1042.0751509058889
  0
LINE
  8
_2-2_
  6
CONTINUOUS
 62
    7
 10
2358.0470177197549
 20
1042.0751509058889
 11
2358.1607516668014
 21
1042.4503635715791
  0
LINE
  8
_2-2_
  6
CONTINUOUS
 62
    7
 10
2358.1607516668014
 20
1042.4503635715791
 11
2358.1992462334947
 21
1042.8405584976019
  0
LINE
  8
_2-2_
  6
CONTINUOUS
 62
    7
 10
2358.1992462334947
 20
1042.8405584976019
 11
2358.1417231025844
 21
1043.4257415270713
  0
LINE
  8
_2-2_
  6
CONTINUOUS
 62
    7
 10
2358.1417231025844
 20
1043.4257415270713
 11
2357.970903462885
 21
1043.9886152053891
  0
LINE
  8
_2-2_
  6
CONTINUOUS
 62
    7
 10
2357.970903462885
 20
1043.9886152053891
 11
2357.6935676073936
 21
1044.5071982600973
  0
LINE
  8
_2-2_
  6
CONTINUOUS
 62
    7
 10
2357.6935676073936
 20
1044.5071982600973
 11
2357.3206514925569
 21
1044.9618059695918
  0
LINE
  8
_2-2_
  6
CONTINUOUS
 62
    7
 10
2357.3206514925569
 20
1044.9618059695918
 11
2356.8659344234979
 21
1045.3349408035572
  0
LINE
  8
_2-2_
  6
CONTINUOUS
 62
    7
 10
2356.8659344234979
 20
1045.3349408035572
 11
2356.34735136879
 21
1045.6121672994841
  0
LINE
  8
_2-2_
  6
CONTINUOUS
 62
    7
 10
2356.34735136879
 20
1045.6121672994841
 11
2355.7845870500364
 21
1045.782877579619
  0
LINE
  8
_2-2_
  6
CONTINUOUS
 62
    7
 10
2355.7845870500364
 20
1045.782877579619
 11
2355.1992946610026
 21
1045.8405100700938
  0
LINE
  8
_2-2_
  6
CONTINUOUS
 62
    7
 10
2355.1992946610026
 20
1045.8405100700938
 11
2333.1992123578043
 21
1045.8405100700938
  0
LINE
  8
_2-2_
  6
CONTINUOUS
 62
    7
 10
2333.1992123578043
 20
1045.8405100700938
 11
2311.199348773735
 21
1045.8405100700938
  0
LINE
  8
_2-2_
  6
CONTINUOUS
 62
    7
 10
2311.199348773735
 20
1045.8405100700938
 11
2310.6140563847011
 21
1045.782877579619
  0
LINE
  8
_2-2_
  6
CONTINUOUS
 62
    7
 10
2310.6140563847011
 20
1045.782877579619
 11
2310.051292065948
 21
1045.6121672994841
  0
LINE
  8
_2-2_
  6
CONTINUOUS
 62
    7
 10
2310.051292065948
 20
1045.6121672994841
 11
2309.5324902921107
 21
1045.3349408035572
  0
LINE
  8
_2-2_
  6
CONTINUOUS
 62
    7
 10
2309.5324902921107
 20
1045.3349408035572
 11
2309.0779919421811
 21
1044.9618059695918
  0
LINE
  8
_2-2_
  6
CONTINUOUS
 62
    7
 10
2309.0779919421811
 20
1044.9618059695918
 11
2308.7048571082155
 21
1044.5071982600973
  0
LINE
  8
_2-2_
  6
CONTINUOUS
 62
    7
 10
2308.7048571082155
 20
1044.5071982600973
 11
2308.4275212527241
 21
1043.9886152053891
  0
LINE
  8
_2-2_
  6
CONTINUOUS
 62
    7
 10
2308.4275212527241
 20
1043.9886152053891
 11
2308.2569203321536
 21
1043.4257415270713
  0
LINE
  8
_2-2_
  6
CONTINUOUS
 62
    7
 10
2308.2569203321536
 20
1043.4257415270713
 11
2308.1991784821143
 21
1042.8405584976019
  0
LINE
  8
_2-2_
  6
CONTINUOUS
 62
    7
 10
2310.8187774893859
 20
1179.4793195245809
 11
2350.8187879466641
 21
1179.4793195245809
  0
LINE
  8
_2-2_
  6
CONTINUOUS
 62
    7
 10
2350.8187879466641
 20
1179.4793195245809
 11
2350.8187879466641
 21
1139.4793090673027
  0
LINE
  8
_2-2_
  6
CONTINUOUS
 62
    7
 10
2350.8187879466641
 20
1139.4793090673027
 11
2310.8187774893859
 21
1139.4793090673027
  0
LINE
  8
_2-2_
  6
CONTINUOUS
 62
    7
 10
2310.8187774893859
 20
1139.4793090673027
 11
2310.8187774893859
 21
1179.4793195245809
  0
LINE
  8
_2-1_
  6
CONTINUOUS
 62
    7
 10
2432.3874624539526
 20
1691.3052654634569
 11
2473.387456768728
 21
1691.3052654634569
  0
LINE
  8
_2-1_
  6
CONTINUOUS
 62
    7
 10
2473.387456768728
 20
1691.3052654634569
 11
2473.387456768728
 21
1689.3052977484626
  0
LINE
  8
_2-1_
  6
CONTINUOUS
 62
    7
 10
2473.387456768728
 20
1689.3052977484626
 11
2432.3874624539526
 21
1689.3052977484626
  0
LINE
  8
_2-1_
  6
CONTINUOUS
 62
    7
 10
2432.3874624539526
 20
1689.3052977484626
 11
2432.3874624539526
 21
1691.3052654634569
  0
LINE
  8
_2-1_
  6
CONTINUOUS
 62
    7
 10
2434.7021669954866
 20
1688.6435630238655
 11
2470.7022420227754
 21
1688.6435630238655
  0
LINE
  8
_2-1_
  6
CONTINUOUS
 62
    7
 10
2470.7022420227754
 20
1688.6435630238655
 11
2470.7022420227754
 21
1688.3435897385291
  0
LINE
  8
_2-1_
  6
CONTINUOUS
 62
    7
 10
2470.7022420227754
 20
1688.3435897385291
 11
2434.7021669954866
 21
1688.3435897385291
  0
LINE
  8
_2-1_
  6
CONTINUOUS
 62
    7
 10
2434.7021669954866
 20
1688.3435897385291
 11
2434.7021669954866
 21
1688.6435630238655
  0
LINE
  8
_2-1_
  6
CONTINUOUS
 62
    7
 10
2430.906515231924
 20
1709.3786832448598
 11
2474.9064611191916
 21
1709.3786832448598
  0
LINE
  8
_2-1_
  6
CONTINUOUS
 62
    7
 10
2474.9064611191916
 20
1709.3786832448598
 11
2474.9064611191916
 21
1691.3786457312153
  0
LINE
  8
_2-1_
  6
CONTINUOUS
 62
    7
 10
2474.9064611191916
 20
1691.3786457312153
 11
2430.906515231924
 21
1691.3786457312153
  0
LINE
  8
_2-1_
  6
CONTINUOUS
 62
    7
 10
2430.906515231924
 20
1691.3786457312153
 11
2430.906515231924
 21
1709.3786832448598
  0
LINE
  8
_2-2_
  6
CONTINUOUS
 62
    7
 10
1771.5046488640389
 20
4365.6517485393979
 11
1811.5046593213171
 21
4365.6517485393979
  0
LINE
  8
_2-2_
  6
CONTINUOUS
 62
    7
 10
1811.5046593213171
 20
4365.6517485393979
 11
1811.5046593213171
 21
3160.651734252694
  0
LINE
  8
_2-2_
  6
CONTINUOUS
 62
    7
 10
1811.5046593213171
 20
3160.651734252694
 11
1771.5046488640389
 21
3160.651734252694
  0
LINE
  8
_2-2_
  6
CONTINUOUS
 62
    7
 10
1771.5046488640389
 20
3160.651734252694
 11
1771.5046488640389
 21
4365.6517485393979
  0
LINE
  8
_2-2_
  6
CONTINUOUS
 62
    7
 10
2314.0521023724527
 20
4363.9501137162724
 11
2354.052112829731
 21
4363.9501137162724
  0
LINE
  8
_2-2_
  6
CONTINUOUS
 62
    7
 10
2354.052112829731
 20
4363.9501137162724
 11
2354.052112829731
 21
3158.9503181486975
  0
LINE
  8
_2-2_
  6
CONTINUOUS
 62
    7
 10
2354.052112829731
 20
3158.9503181486975
 11
2314.0521023724527
 21
3158.9503181486975
  0
LINE
  8
_2-2_
  6
CONTINUOUS
 62
    7
 10
2314.0521023724527
 20
3158.9503181486975
 11
2314.0521023724527
 21
4363.9501137162724
  0
LINE
  8
_2-2_
  6
CONTINUOUS
 62
    7
 10
1364.9565310091584
 20
3891.4043735813452
 11
1385.956520095295
 21
3891.4043735813452
  0
LINE
  8
_2-2_
  6
CONTINUOUS
 62
    7
 10
1385.956520095295
 20
3891.4043735813452
 11
1385.956520095295
 21
3885.404470436361
  0
LINE
  8
_2-2_
  6
CONTINUOUS
 62
    7
 10
1385.956520095295
 20
3885.404470436361
 11
1364.9565310091584
 21
3885.404470436361
  0
LINE
  8
_2-2_
  6
CONTINUOUS
 62
    7
 10
1364.9565310091584
 20
3885.404470436361
 11
1364.9565310091584
 21
3891.4043735813452
  0
LINE
  8
_2-2_
  6
CONTINUOUS
 62
    7
 10
1368.5527109271313
 20
3901.6461155129214
 11
1382.5527036512219
 21
3901.6461155129214
  0
LINE
  8
_2-2_
  6
CONTINUOUS
 62
    7
 10
1382.5527036512219
 20
3901.6461155129214
 11
1382.5527036512219
 21
3891.6458394996907
  0
LINE
  8
_2-2_
  6
CONTINUOUS
 62
    7
 10
1382.5527036512219
 20
3891.6458394996907
 11
1368.5527109271313
 21
3891.6458394996907
  0
LINE
  8
_2-2_
  6
CONTINUOUS
 62
    7
 10
1368.5527109271313
 20
3891.6458394996907
 11
1368.5527109271313
 21
3901.6461155129214
  0
LINE
  8
_2-2_
  6
CONTINUOUS
 62
    7
 10
1367.9226904762295
 20
3892.5513366934874
 11
1382.922667057818
 21
3892.5513366934874
  0
LINE
  8
_2-2_
  6
CONTINUOUS
 62
    7
 10
1382.922667057818
 20
3892.5513366934874
 11
1382.922667057818
 21
3892.3514274096397
  0
LINE
  8
_2-2_
  6
CONTINUOUS
 62
    7
 10
1382.922667057818
 20
3892.3514274096397
 11
1367.9226904762295
 21
3892.3514274096397
  0
LINE
  8
_2-2_
  6
CONTINUOUS
 62
    7
 10
1367.9226904762295
 20
3892.3514274096397
 11
1367.9226904762295
 21
3892.5513366934874
  0
LINE
  8
_2-2_
  6
CONTINUOUS
 62
    7
 10
1367.9226904762295
 20
3894.0513124797335
 11
1382.922667057818
 21
3894.0513124797335
  0
LINE
  8
_2-2_
  6
CONTINUOUS
 62
    7
 10
1382.922667057818
 20
3894.0513124797335
 11
1382.922667057818
 21
3893.8514031958853
  0
LINE
  8
_2-2_
  6
CONTINUOUS
 62
    7
 10
1382.922667057818
 20
3893.8514031958853
 11
1367.9226904762295
 21
3893.8514031958853
  0
LINE
  8
_2-2_
  6
CONTINUOUS
 62
    7
 10
1367.9226904762295
 20
3893.8514031958853
 11
1367.9226904762295
 21
3894.0513124797335
  0
LINE
  8
_2-2_
  6
CONTINUOUS
 62
    7
 10
1367.9226904762295
 20
3895.5512882659791
 11
1382.922667057818
 21
3895.5512882659791
  0
LINE
  8
_2-2_
  6
CONTINUOUS
 62
    7
 10
1382.922667057818
 20
3895.5512882659791
 11
1382.922667057818
 21
3895.3513789821313
  0
LINE
  8
_2-2_
  6
CONTINUOUS
 62
    7
 10
1382.922667057818
 20
3895.3513789821313
 11
1367.9226904762295
 21
3895.3513789821313
  0
LINE
  8
_2-2_
  6
CONTINUOUS
 62
    7
 10
1367.9226904762295
 20
3895.3513789821313
 11
1367.9226904762295
 21
3895.5512882659791
  0
LINE
  8
_2-2_
  6
CONTINUOUS
 62
    7
 10
1367.9226904762295
 20
3897.0512640522252
 11
1382.922667057818
 21
3897.0512640522252
  0
LINE
  8
_2-2_
  6
CONTINUOUS
 62
    7
 10
1382.922667057818
 20
3897.0512640522252
 11
1382.922667057818
 21
3896.851354768377
  0
LINE
  8
_2-2_
  6
CONTINUOUS
 62
    7
 10
1382.922667057818
 20
3896.851354768377
 11
1367.9226904762295
 21
3896.851354768377
  0
LINE
  8
_2-2_
  6
CONTINUOUS
 62
    7
 10
1367.9226904762295
 20
3896.851354768377
 11
1367.9226904762295
 21
3897.0512640522252
  0
LINE
  8
_2-2_
  6
CONTINUOUS
 62
    7
 10
1367.9226904762295
 20
3898.5512398384712
 11
1382.922667057818
 21
3898.5512398384712
  0
LINE
  8
_2-2_
  6
CONTINUOUS
 62
    7
 10
1382.922667057818
 20
3898.5512398384712
 11
1382.922667057818
 21
3898.351330554623
  0
LINE
  8
_2-2_
  6
CONTINUOUS
 62
    7
 10
1382.922667057818
 20
3898.351330554623
 11
1367.9226904762295
 21
3898.351330554623
  0
LINE
  8
_2-2_
  6
CONTINUOUS
 62
    7
 10
1367.9226904762295
 20
3898.351330554623
 11
1367.9226904762295
 21
3898.5512398384712
  0
LINE
  8
_2-2_
  6
CONTINUOUS
 62
    7
 10
1367.9226904762295
 20
3900.0512156247169
 11
1382.922667057818
 21
3900.0512156247169
  0
LINE
  8
_2-2_
  6
CONTINUOUS
 62
    7
 10
1382.922667057818
 20
3900.0512156247169
 11
1382.922667057818
 21
3899.8513063408695
  0
LINE
  8
_2-2_
  6
CONTINUOUS
 62
    7
 10
1382.922667057818
 20
3899.8513063408695
 11
1367.9226904762295
 21
3899.8513063408695
  0
LINE
  8
_2-2_
  6
CONTINUOUS
 62
    7
 10
1367.9226904762295
 20
3899.8513063408695
 11
1367.9226904762295
 21
3900.0512156247169
  0
LINE
  8
_2-2_
  6
CONTINUOUS
 62
    7
 10
1367.9226904762295
 20
3901.5516288492208
 11
1382.922667057818
 21
3901.5516288492208
  0
LINE
  8
_2-2_
  6
CONTINUOUS
 62
    7
 10
1382.922667057818
 20
3901.5516288492208
 11
1382.922667057818
 21
3901.3512821271152
  0
LINE
  8
_2-2_
  6
CONTINUOUS
 62
    7
 10
1382.922667057818
 20
3901.3512821271152
 11
1367.9226904762295
 21
3901.3512821271152
  0
LINE
  8
_2-2_
  6
CONTINUOUS
 62
    7
 10
1367.9226904762295
 20
3901.3512821271152
 11
1367.9226904762295
 21
3901.5516288492208
  0
LINE
  8
_2-2_
  6
CONTINUOUS
 62
    7
 10
1383.8586755701012
 20
3909.3734623382447
 11
1366.8586219139543
 21
3909.3734623382447
  0
LINE
  8
_2-2_
  6
CONTINUOUS
 62
    7
 10
1364.8586541989594
 20
3907.3734946232507
 11
1364.8586541989594
 21
3896.3732347525224
  0
LINE
  8
_2-2_
  6
CONTINUOUS
 62
    7
 10
1364.8586541989594
 20
3896.3732347525224
 11
1385.8586432850957
 21
3896.3732347525224
  0
LINE
  8
_2-2_
  6
CONTINUOUS
 62
    7
 10
1385.8586432850957
 20
3896.3732347525224
 11
1385.8586432850957
 21
3907.3734946232507
  0
LINE
  8
_2-2_
  6
CONTINUOUS
 62
    7
 10
1430.0734807165434
 20
3891.6576503326532
 11
1451.0734698026795
 21
3891.6576503326532
  0
LINE
  8
_2-2_
  6
CONTINUOUS
 62
    7
 10
1451.0734698026795
 20
3891.6576503326532
 11
1451.0734698026795
 21
3885.6577471876699
  0
LINE
  8
_2-2_
  6
CONTINUOUS
 62
    7
 10
1451.0734698026795
 20
3885.6577471876699
 11
1430.0734807165434
 21
3885.6577471876699
  0
LINE
  8
_2-2_
  6
CONTINUOUS
 62
    7
 10
1430.0734807165434
 20
3885.6577471876699
 11
1430.0734807165434
 21
3891.6576503326532
  0
LINE
  8
_2-2_
  6
CONTINUOUS
 62
    7
 10
1433.6583965993755
 20
3901.7467263122321
 11
1447.6583893234665
 21
3901.7467263122321
  0
LINE
  8
_2-2_
  6
CONTINUOUS
 62
    7
 10
1447.6583893234665
 20
3901.7467263122321
 11
1447.6583893234665
 21
3891.7468877372594
  0
LINE
  8
_2-2_
  6
CONTINUOUS
 62
    7
 10
1447.6583893234665
 20
3891.7468877372594
 11
1433.6583965993755
 21
3891.7468877372594
  0
LINE
  8
_2-2_
  6
CONTINUOUS
 62
    7
 10
1433.6583965993755
 20
3891.7468877372594
 11
1433.6583965993755
 21
3901.7467263122321
  0
LINE
  8
_2-2_
  6
CONTINUOUS
 62
    7
 10
1433.1755741222485
 20
3892.6095159817842
 11
1448.1755507038365
 21
3892.6095159817842
  0
LINE
  8
_2-2_
  6
CONTINUOUS
 62
    7
 10
1448.1755507038365
 20
3892.6095159817842
 11
1448.1755507038365
 21
3892.4096066979369
  0
LINE
  8
_2-2_
  6
CONTINUOUS
 62
    7
 10
1448.1755507038365
 20
3892.4096066979369
 11
1433.1755741222485
 21
3892.4096066979369
  0
LINE
  8
_2-2_
  6
CONTINUOUS
 62
    7
 10
1433.1755741222485
 20
3892.4096066979369
 11
1433.1755741222485
 21
3892.6095159817842
  0
LINE
  8
_2-2_
  6
CONTINUOUS
 62
    7
 10
1433.1755741222485
 20
3894.1094917680302
 11
1448.1755507038365
 21
3894.1094917680302
  0
LINE
  8
_2-2_
  6
CONTINUOUS
 62
    7
 10
1448.1755507038365
 20
3894.1094917680302
 11
1448.1755507038365
 21
3893.909582484182
  0
LINE
  8
_2-2_
  6
CONTINUOUS
 62
    7
 10
1448.1755507038365
 20
3893.909582484182
 11
1433.1755741222485
 21
3893.909582484182
  0
LINE
  8
_2-2_
  6
CONTINUOUS
 62
    7
 10
1433.1755741222485
 20
3893.909582484182
 11
1433.1755741222485
 21
3894.1094917680302
  0
LINE
  8
_2-2_
  6
CONTINUOUS
 62
    7
 10
1433.1755741222485
 20
3895.6094675542763
 11
1448.1755507038365
 21
3895.6094675542763
  0
LINE
  8
_2-2_
  6
CONTINUOUS
 62
    7
 10
1448.1755507038365
 20
3895.6094675542763
 11
1448.1755507038365
 21
3895.4095582704285
  0
LINE
  8
_2-2_
  6
CONTINUOUS
 62
    7
 10
1448.1755507038365
 20
3895.4095582704285
 11
1433.1755741222485
 21
3895.4095582704285
  0
LINE
  8
_2-2_
  6
CONTINUOUS
 62
    7
 10
1433.1755741222485
 20
3895.4095582704285
 11
1433.1755741222485
 21
3895.6094675542763
  0
LINE
  8
_2-2_
  6
CONTINUOUS
 62
    7
 10
1433.1755741222485
 20
3897.1094433405219
 11
1448.1755507038365
 21
3897.1094433405219
  0
LINE
  8
_2-2_
  6
CONTINUOUS
 62
    7
 10
1448.1755507038365
 20
3897.1094433405219
 11
1448.1755507038365
 21
3896.9095340566746
  0
LINE
  8
_2-2_
  6
CONTINUOUS
 62
    7
 10
1448.1755507038365
 20
3896.9095340566746
 11
1433.1755741222485
 21
3896.9095340566746
  0
LINE
  8
_2-2_
  6
CONTINUOUS
 62
    7
 10
1433.1755741222485
 20
3896.9095340566746
 11
1433.1755741222485
 21
3897.1094433405219
  0
LINE
  8
_2-2_
  6
CONTINUOUS
 62
    7
 10
1433.1755741222485
 20
3898.6098565650259
 11
1448.1755507038365
 21
3898.6098565650259
  0
LINE
  8
_2-2_
  6
CONTINUOUS
 62
    7
 10
1448.1755507038365
 20
3898.6098565650259
 11
1448.1755507038365
 21
3898.4095098429202
  0
LINE
  8
_2-2_
  6
CONTINUOUS
 62
    7
 10
1448.1755507038365
 20
3898.4095098429202
 11
1433.1755741222485
 21
3898.4095098429202
  0
LINE
  8
_2-2_
  6
CONTINUOUS
 62
    7
 10
1433.1755741222485
 20
3898.4095098429202
 11
1433.1755741222485
 21
3898.6098565650259
  0
LINE
  8
_2-2_
  6
CONTINUOUS
 62
    7
 10
1433.1755741222485
 20
3900.109832351272
 11
1448.1755507038365
 21
3900.109832351272
  0
LINE
  8
_2-2_
  6
CONTINUOUS
 62
    7
 10
1448.1755507038365
 20
3900.109832351272
 11
1448.1755507038365
 21
3899.9094856291663
  0
LINE
  8
_2-2_
  6
CONTINUOUS
 62
    7
 10
1448.1755507038365
 20
3899.9094856291663
 11
1433.1755741222485
 21
3899.9094856291663
  0
LINE
  8
_2-2_
  6
CONTINUOUS
 62
    7
 10
1433.1755741222485
 20
3899.9094856291663
 11
1433.1755741222485
 21
3900.109832351272
  0
LINE
  8
_2-2_
  6
CONTINUOUS
 62
    7
 10
1433.1755741222485
 20
3901.6098081375176
 11
1448.1755507038365
 21
3901.6098081375176
  0
LINE
  8
_2-2_
  6
CONTINUOUS
 62
    7
 10
1448.1755507038365
 20
3901.6098081375176
 11
1448.1755507038365
 21
3901.4094614154119
  0
LINE
  8
_2-2_
  6
CONTINUOUS
 62
    7
 10
1448.1755507038365
 20
3901.4094614154119
 11
1433.1755741222485
 21
3901.4094614154119
  0
LINE
  8
_2-2_
  6
CONTINUOUS
 62
    7
 10
1433.1755741222485
 20
3901.4094614154119
 11
1433.1755741222485
 21
3901.6098081375176
  0
LINE
  8
_2-2_
  6
CONTINUOUS
 62
    7
 10
1434.1340013452477
 20
3907.9395397289372
 11
1447.1340102118415
 21
3907.9395397289372
  0
LINE
  8
_2-2_
  6
CONTINUOUS
 62
    7
 10
1434.1340013452477
 20
3907.9395397289372
 11
1433.6529286211523
 21
3901.9396365839539
  0
LINE
  8
_2-2_
  6
CONTINUOUS
 62
    7
 10
1447.1340102118415
 20
3907.9395397289372
 11
1447.6529213452429
 21
3901.9396365839539
  0
LINE
  8
_2-2_
  6
CONTINUOUS
 62
    7
 10
1435.937012484635
 20
3891.4879242885986
 11
1435.937012484635
 21
3885.6393747808388
  0
LINE
  8
_2-2_
  6
CONTINUOUS
 62
    7
 10
1444.2459334738005
 20
3891.6331537902124
 11
1444.2459334738005
 21
3885.7846042824526
  0
LINE
  8
_2-2_
  6
CONTINUOUS
 62
    7
 10
1446.08962637117
 20
3907.6232718684955
 11
1446.5896182999188
 21
3907.6232718684955
  0
LINE
  8
_2-2_
  6
CONTINUOUS
 62
    7
 10
1446.5896182999188
 20
3907.6232718684955
 11
1446.5896182999188
 21
3901.6233687235122
  0
LINE
  8
_2-2_
  6
CONTINUOUS
 62
    7
 10
1446.5896182999188
 20
3901.6233687235122
 11
1446.08962637117
 21
3901.6233687235122
  0
LINE
  8
_2-2_
  6
CONTINUOUS
 62
    7
 10
1446.08962637117
 20
3901.6233687235122
 11
1446.08962637117
 21
3907.6232718684955
  0
LINE
  8
_2-2_
  6
CONTINUOUS
 62
    7
 10
1437.3674355878791
 20
3907.6232718684955
 11
1438.8674113741254
 21
3907.6232718684955
  0
LINE
  8
_2-2_
  6
CONTINUOUS
 62
    7
 10
1438.8674113741254
 20
3907.6232718684955
 11
1438.8674113741254
 21
3901.6233687235122
  0
LINE
  8
_2-2_
  6
CONTINUOUS
 62
    7
 10
1438.8674113741254
 20
3901.6233687235122
 11
1437.3674355878791
 21
3901.6233687235122
  0
LINE
  8
_2-2_
  6
CONTINUOUS
 62
    7
 10
1437.3674355878791
 20
3901.6233687235122
 11
1437.3674355878791
 21
3907.6232718684955
  0
LINE
  8
_2-2_
  6
CONTINUOUS
 62
    7
 10
1442.0192633816632
 20
3907.6232718684955
 11
1443.5192391679095
 21
3907.6232718684955
  0
LINE
  8
_2-2_
  6
CONTINUOUS
 62
    7
 10
1443.5192391679095
 20
3907.6232718684955
 11
1443.5192391679095
 21
3901.6233687235122
  0
LINE
  8
_2-2_
  6
CONTINUOUS
 62
    7
 10
1443.5192391679095
 20
3901.6233687235122
 11
1442.0192633816632
 21
3901.6233687235122
  0
LINE
  8
_2-2_
  6
CONTINUOUS
 62
    7
 10
1442.0192633816632
 20
3901.6233687235122
 11
1442.0192633816632
 21
3907.6232718684955
  0
LINE
  8
_2-2_
  6
CONTINUOUS
 62
    7
 10
1439.6932948049891
 20
3907.6232718684955
 11
1441.1933799507995
 21
3907.6232718684955
  0
LINE
  8
_2-2_
  6
CONTINUOUS
 62
    7
 10
1441.1933799507995
 20
3907.6232718684955
 11
1441.1933799507995
 21
3901.6233687235122
  0
LINE
  8
_2-2_
  6
CONTINUOUS
 62
    7
 10
1441.1933799507995
 20
3901.6233687235122
 11
1439.6932948049891
 21
3901.6233687235122
  0
LINE
  8
_2-2_
  6
CONTINUOUS
 62
    7
 10
1439.6932948049891
 20
3901.6233687235122
 11
1439.6932948049891
 21
3907.6232718684955
  0
LINE
  8
_2-2_
  6
CONTINUOUS
 62
    7
 10
1444.345231958338
 20
3907.6232718684955
 11
1445.345215815835
 21
3907.6232718684955
  0
LINE
  8
_2-2_
  6
CONTINUOUS
 62
    7
 10
1445.345215815835
 20
3907.6232718684955
 11
1445.345215815835
 21
3901.6233687235122
  0
LINE
  8
_2-2_
  6
CONTINUOUS
 62
    7
 10
1445.345215815835
 20
3901.6233687235122
 11
1444.345231958338
 21
3901.6233687235122
  0
LINE
  8
_2-2_
  6
CONTINUOUS
 62
    7
 10
1444.345231958338
 20
3901.6233687235122
 11
1444.345231958338
 21
3907.6232718684955
  0
LINE
  8
_2-2_
  6
CONTINUOUS
 62
    7
 10
1435.5082136323554
 20
3907.6232718684955
 11
1436.5081974898524
 21
3907.6232718684955
  0
LINE
  8
_2-2_
  6
CONTINUOUS
 62
    7
 10
1436.5081974898524
 20
3907.6232718684955
 11
1436.5081974898524
 21
3901.6233687235122
  0
LINE
  8
_2-2_
  6
CONTINUOUS
 62
    7
 10
1436.5081974898524
 20
3901.6233687235122
 11
1435.5082136323554
 21
3901.6233687235122
  0
LINE
  8
_2-2_
  6
CONTINUOUS
 62
    7
 10
1435.5082136323554
 20
3901.6233687235122
 11
1435.5082136323554
 21
3907.6232718684955
  0
LINE
  8
_2-2_
  6
CONTINUOUS
 62
    7
 10
1434.3451746642359
 20
3907.6232718684955
 11
1434.8451665929842
 21
3907.6232718684955
  0
LINE
  8
_2-2_
  6
CONTINUOUS
 62
    7
 10
1434.8451665929842
 20
3907.6232718684955
 11
1434.8451665929842
 21
3901.6233687235122
  0
LINE
  8
_2-2_
  6
CONTINUOUS
 62
    7
 10
1434.8451665929842
 20
3901.6233687235122
 11
1434.3451746642359
 21
3901.6233687235122
  0
LINE
  8
_2-2_
  6
CONTINUOUS
 62
    7
 10
1434.3451746642359
 20
3901.6233687235122
 11
1434.3451746642359
 21
3907.6232718684955
  0
LINE
  8
_2-2_
  6
CONTINUOUS
 62
    7
 10
1450.0146504994984
 20
3896.8237961581308
 11
1431.0146291283565
 21
3896.8237961581308
  0
LINE
  8
_2-2_
  6
CONTINUOUS
 62
    7
 10
1431.0146291283565
 20
3896.8237961581308
 11
1431.0146291283565
 21
3906.823634733104
  0
LINE
  8
_2-2_
  6
CONTINUOUS
 62
    7
 10
1431.0146291283565
 20
3906.823634733104
 11
1432.1870730190203
 21
3906.823634733104
  0
LINE
  8
_2-2_
  6
CONTINUOUS
 62
    7
 10
1432.1870730190203
 20
3906.823634733104
 11
1432.182807996006
 21
3906.8651913676022
  0
LINE
  8
_2-2_
  6
CONTINUOUS
 62
    7
 10
1432.182807996006
 20
3906.8651913676022
 11
1432.1791991303783
 21
3906.9071854403574
  0
LINE
  8
_2-2_
  6
CONTINUOUS
 62
    7
 10
1432.1791991303783
 20
3906.9071854403574
 11
1432.1760277030087
 21
3906.948742074856
  0
LINE
  8
_2-2_
  6
CONTINUOUS
 62
    7
 10
1432.1760277030087
 20
3906.948742074856
 11
1432.173512433026
 21
3906.9907361476112
  0
LINE
  8
_2-2_
  6
CONTINUOUS
 62
    7
 10
1432.173512433026
 20
3906.9907361476112
 11
1432.1714346013014
 21
3907.0327302203673
  0
LINE
  8
_2-2_
  6
CONTINUOUS
 62
    7
 10
1432.1714346013014
 20
3907.0327302203673
 11
1432.170012926963
 21
3907.0747242931234
  0
LINE
  8
_2-2_
  6
CONTINUOUS
 62
    7
 10
1432.170012926963
 20
3907.0747242931234
 11
1432.1692474100118
 21
3907.1171558041369
  0
LINE
  8
_2-2_
  6
CONTINUOUS
 62
    7
 10
1432.1692474100118
 20
3907.1171558041369
 11
1432.1689193313184
 21
3907.1591498768926
  0
LINE
  8
_2-2_
  6
CONTINUOUS
 62
    7
 10
1432.1689193313184
 20
3907.1591498768926
 11
1432.1867449403271
 21
3907.4911655146179
  0
LINE
  8
_2-2_
  6
CONTINUOUS
 62
    7
 10
1432.1867449403271
 20
3907.4911655146179
 11
1432.2401124077871
 21
3907.8179318932494
  0
LINE
  8
_2-2_
  6
CONTINUOUS
 62
    7
 10
1432.2401124077871
 20
3907.8179318932494
 11
1432.3290217337001
 21
3908.1385741362697
  0
LINE
  8
_2-2_
  6
CONTINUOUS
 62
    7
 10
1432.3290217337001
 20
3908.1385741362697
 11
1432.453582277629
 21
3908.453967120196
  0
LINE
  8
_2-2_
  6
CONTINUOUS
 62
    7
 10
1432.453582277629
 20
3908.453967120196
 11
1432.6137940395754
 21
3908.7636734067701
  0
LINE
  8
_2-2_
  6
CONTINUOUS
 62
    7
 10
1432.6137940395754
 20
3908.7636734067701
 11
1432.8095476599735
 21
3909.0676929959918
  0
LINE
  8
_2-2_
  6
CONTINUOUS
 62
    7
 10
1432.8095476599735
 20
3909.0676929959918
 11
1433.0408431388237
 21
3909.3664633261192
  0
LINE
  8
_2-2_
  6
CONTINUOUS
 62
    7
 10
1433.0408431388237
 20
3909.3664633261192
 11
1433.3076804761263
 21
3909.6591095206359
  0
LINE
  8
_2-2_
  6
CONTINUOUS
 62
    7
 10
1433.3076804761263
 20
3909.6591095206359
 11
1433.6054665701731
 21
3909.9416946352212
  0
LINE
  8
_2-2_
  6
CONTINUOUS
 62
    7
 10
1433.6054665701731
 20
3909.9416946352212
 11
1433.9291708809988
 21
3910.2085319725243
  0
LINE
  8
_2-2_
  6
CONTINUOUS
 62
    7
 10
1433.9291708809988
 20
3910.2085319725243
 11
1434.2790121277326
 21
3910.460496409059
  0
LINE
  8
_2-2_
  6
CONTINUOUS
 62
    7
 10
1434.2790121277326
 20
3910.460496409059
 11
1434.6548809508099
 21
3910.6967130683101
  0
LINE
  8
_2-2_
  6
CONTINUOUS
 62
    7
 10
1434.6548809508099
 20
3910.6967130683101
 11
1435.0568867097948
 21
3910.9180568267939
  0
LINE
  8
_2-2_
  6
CONTINUOUS
 62
    7
 10
1435.0568867097948
 20
3910.9180568267939
 11
1435.4848106855591
 21
3911.1236528079944
  0
LINE
  8
_2-2_
  6
CONTINUOUS
 62
    7
 10
1435.4848106855591
 20
3911.1236528079944
 11
1435.9388715972309
 21
3911.3139384501687
  0
LINE
  8
_2-2_
  6
CONTINUOUS
 62
    7
 10
1435.9388715972309
 20
3911.3139384501687
 11
1436.4189600852462
 21
3911.4893511915761
  0
LINE
  8
_2-2_
  6
CONTINUOUS
 62
    7
 10
1436.4189600852462
 20
3911.4893511915761
 11
1436.6953117046578
 21
3911.5794634726976
  0
LINE
  8
_2-2_
  6
CONTINUOUS
 62
    7
 10
1436.6953117046578
 20
3911.5794634726976
 11
1436.9745066727451
 21
3911.663014179951
  0
LINE
  8
_2-2_
  6
CONTINUOUS
 62
    7
 10
1436.9745066727451
 20
3911.663014179951
 11
1437.2567637086377
 21
3911.7400033133372
  0
LINE
  8
_2-2_
  6
CONTINUOUS
 62
    7
 10
1437.2567637086377
 20
3911.7400033133372
 11
1437.5418640932062
 21
3911.8104308728539
  0
LINE
  8
_2-2_
  6
CONTINUOUS
 62
    7
 10
1437.5418640932062
 20
3911.8104308728539
 11
1437.8299171860153
 21
3911.8747342967617
  0
LINE
  8
_2-2_
  6
CONTINUOUS
 62
    7
 10
1437.8299171860153
 20
3911.8747342967617
 11
1438.1209229870653
 21
3911.9320387085431
  0
LINE
  8
_2-2_
  6
CONTINUOUS
 62
    7
 10
1438.1209229870653
 20
3911.9320387085431
 11
1438.414881496356
 21
3911.9832189847139
  0
LINE
  8
_2-2_
  6
CONTINUOUS
 62
    7
 10
1438.414881496356
 20
3911.9832189847139
 11
1438.7117927138868
 21
3912.0278376870169
  0
LINE
  8
_2-2_
  6
CONTINUOUS
 62
    7
 10
1438.7117927138868
 20
3912.0278376870169
 11
1438.8985788499988
 21
3911.8200545145278
  0
LINE
  8
_2-2_
  6
CONTINUOUS
 62
    7
 10
1438.8985788499988
 20
3911.8200545145278
 11
1439.1073462585684
 21
3911.6345806931895
  0
LINE
  8
_2-2_
  6
CONTINUOUS
 62
    7
 10
1439.1073462585684
 20
3911.6345806931895
 11
1439.3354703100492
 21
3911.473603414292
  0
LINE
  8
_2-2_
  6
CONTINUOUS
 62
    7
 10
1439.3354703100492
 20
3911.473603414292
 11
1439.5802170153288
 21
3911.3388724308679
  0
LINE
  8
_2-2_
  6
CONTINUOUS
 62
    7
 10
1439.5802170153288
 20
3911.3388724308679
 11
1439.838414947038
 21
3911.2321374959465
  0
LINE
  8
_2-2_
  6
CONTINUOUS
 62
    7
 10
1439.838414947038
 20
3911.2321374959465
 11
1440.106892677808
 21
3911.1551483625612
  0
LINE
  8
_2-2_
  6
CONTINUOUS
 62
    7
 10
1440.106892677808
 20
3911.1551483625612
 11
1440.3823694207035
 21
3911.1087799072266
  0
LINE
  8
_2-2_
  6
CONTINUOUS
 62
    7
 10
1440.3823694207035
 20
3911.1087799072266
 11
1440.6612363100971
 21
3911.0930321299429
  0
LINE
  8
_2-2_
  6
CONTINUOUS
 62
    7
 10
1440.6612363100971
 20
3911.0930321299429
 11
1440.9404312781844
 21
3911.1087799072266
  0
LINE
  8
_2-2_
  6
CONTINUOUS
 62
    7
 10
1440.9404312781844
 20
3911.1087799072266
 11
1441.2161267402091
 21
3911.1551483625612
  0
LINE
  8
_2-2_
  6
CONTINUOUS
 62
    7
 10
1441.2161267402091
 20
3911.1551483625612
 11
1441.4848231901071
 21
3911.232574934204
  0
LINE
  8
_2-2_
  6
CONTINUOUS
 62
    7
 10
1441.4848231901071
 20
3911.232574934204
 11
1441.7433492005102
 21
3911.3393098691254
  0
LINE
  8
_2-2_
  6
CONTINUOUS
 62
    7
 10
1441.7433492005102
 20
3911.3393098691254
 11
1441.9882052653541
 21
3911.4740408525499
  0
LINE
  8
_2-2_
  6
CONTINUOUS
 62
    7
 10
1441.9882052653541
 20
3911.4740408525499
 11
1442.2165480359638
 21
3911.6358930079627
  0
LINE
  8
_2-2_
  6
CONTINUOUS
 62
    7
 10
1442.2165480359638
 20
3911.6358930079627
 11
1442.4254248040982
 21
3911.8218042675594
  0
LINE
  8
_2-2_
  6
CONTINUOUS
 62
    7
 10
1442.4254248040982
 20
3911.8218042675594
 11
1442.6122109402102
 21
3912.0295874400481
  0
LINE
  8
_2-2_
  6
CONTINUOUS
 62
    7
 10
1442.6122109402102
 20
3912.0295874400481
 11
1442.9110906299015
 21
3911.9849687377455
  0
LINE
  8
_2-2_
  6
CONTINUOUS
 62
    7
 10
1442.9110906299015
 20
3911.9849687377455
 11
1443.2070176113527
 21
3911.9337884615747
  0
LINE
  8
_2-2_
  6
CONTINUOUS
 62
    7
 10
1443.2070176113527
 20
3911.9337884615747
 11
1443.4998825249984
 21
3911.8764840497934
  0
LINE
  8
_2-2_
  6
CONTINUOUS
 62
    7
 10
1443.4998825249984
 20
3911.8764840497934
 11
1443.7897947304036
 21
3911.8121806258855
  0
LINE
  8
_2-2_
  6
CONTINUOUS
 62
    7
 10
1443.7897947304036
 20
3911.8121806258855
 11
1444.0765355084395
 21
3911.7413156281104
  0
LINE
  8
_2-2_
  6
CONTINUOUS
 62
    7
 10
1444.0765355084395
 20
3911.7413156281104
 11
1444.3604329377986
 21
3911.6638890564673
  0
LINE
  8
_2-2_
  6
CONTINUOUS
 62
    7
 10
1444.3604329377986
 20
3911.6638890564673
 11
1444.6411589397887
 21
3911.5799009109551
  0
LINE
  8
_2-2_
  6
CONTINUOUS
 62
    7
 10
1444.6411589397887
 20
3911.5799009109551
 11
1444.9189322335378
 21
3911.4893511915761
  0
LINE
  8
_2-2_
  6
CONTINUOUS
 62
    7
 10
1444.9189322335378
 20
3911.4893511915761
 11
1445.3990207215534
 21
3911.3139384501687
  0
LINE
  8
_2-2_
  6
CONTINUOUS
 62
    7
 10
1445.3990207215534
 20
3911.3139384501687
 11
1445.8530816332252
 21
3911.1236528079944
  0
LINE
  8
_2-2_
  6
CONTINUOUS
 62
    7
 10
1445.8530816332252
 20
3911.1236528079944
 11
1446.2810056089893
 21
3910.9180568267939
  0
LINE
  8
_2-2_
  6
CONTINUOUS
 62
    7
 10
1446.2810056089893
 20
3910.9180568267939
 11
1446.6829020084099
 21
3910.6967130683101
  0
LINE
  8
_2-2_
  6
CONTINUOUS
 62
    7
 10
1446.6829020084099
 20
3910.6967130683101
 11
1447.0588801910517
 21
3910.460496409059
  0
LINE
  8
_2-2_
  6
CONTINUOUS
 62
    7
 10
1447.0588801910517
 20
3910.460496409059
 11
1447.408612078221
 21
3910.2085319725243
  0
LINE
  8
_2-2_
  6
CONTINUOUS
 62
    7
 10
1447.408612078221
 20
3910.2085319725243
 11
1447.7324257486114
 21
3909.9416946352212
  0
LINE
  8
_2-2_
  6
CONTINUOUS
 62
    7
 10
1447.7324257486114
 20
3909.9416946352212
 11
1448.0301024830937
 21
3909.6591095206359
  0
LINE
  8
_2-2_
  6
CONTINUOUS
 62
    7
 10
1448.0301024830937
 20
3909.6591095206359
 11
1448.2970491799606
 21
3909.3664633261192
  0
LINE
  8
_2-2_
  6
CONTINUOUS
 62
    7
 10
1448.2970491799606
 20
3909.3664633261192
 11
1448.528344658811
 21
3909.0676929959918
  0
LINE
  8
_2-2_
  6
CONTINUOUS
 62
    7
 10
1448.528344658811
 20
3909.0676929959918
 11
1448.7240982792091
 21
3908.7636734067701
  0
LINE
  8
_2-2_
  6
CONTINUOUS
 62
    7
 10
1448.7240982792091
 20
3908.7636734067701
 11
1448.8842006815908
 21
3908.453967120196
  0
LINE
  8
_2-2_
  6
CONTINUOUS
 62
    7
 10
1448.8842006815908
 20
3908.453967120196
 11
1449.0087612255199
 21
3908.1385741362697
  0
LINE
  8
_2-2_
  6
CONTINUOUS
 62
    7
 10
1449.0087612255199
 20
3908.1385741362697
 11
1449.0977799109969
 21
3907.8179318932494
  0
LINE
  8
_2-2_
  6
CONTINUOUS
 62
    7
 10
1449.0977799109969
 20
3907.8179318932494
 11
1449.1511473784576
 21
3907.4911655146179
  0
LINE
  8
_2-2_
  6
CONTINUOUS
 62
    7
 10
1449.1511473784576
 20
3907.4911655146179
 11
1449.1689729874658
 21
3907.1591498768926
  0
LINE
  8
_2-2_
  6
CONTINUOUS
 62
    7
 10
1449.1689729874658
 20
3907.1591498768926
 11
1449.1686449087724
 21
3907.1167183658786
  0
LINE
  8
_2-2_
  6
CONTINUOUS
 62
    7
 10
1449.1686449087724
 20
3907.1167183658786
 11
1449.1677700322568
 21
3907.0747242931234
  0
LINE
  8
_2-2_
  6
CONTINUOUS
 62
    7
 10
1449.1677700322568
 20
3907.0747242931234
 11
1449.1663483579184
 21
3907.0322927821094
  0
LINE
  8
_2-2_
  6
CONTINUOUS
 62
    7
 10
1449.1663483579184
 20
3907.0322927821094
 11
1449.1643798857581
 21
3906.9902987093533
  0
LINE
  8
_2-2_
  6
CONTINUOUS
 62
    7
 10
1449.1643798857581
 20
3906.9902987093533
 11
1449.1618646157754
 21
3906.948742074856
  0
LINE
  8
_2-2_
  6
CONTINUOUS
 62
    7
 10
1449.1618646157754
 20
3906.948742074856
 11
1449.1586931884058
 21
3906.9067480020999
  0
LINE
  8
_2-2_
  6
CONTINUOUS
 62
    7
 10
1449.1586931884058
 20
3906.9067480020999
 11
1449.1549749632138
 21
3906.8651913676022
  0
LINE
  8
_2-2_
  6
CONTINUOUS
 62
    7
 10
1449.1549749632138
 20
3906.8651913676022
 11
1449.1507099401997
 21
3906.823634733104
  0
LINE
  8
_2-2_
  6
CONTINUOUS
 62
    7
 10
1449.1507099401997
 20
3906.823634733104
 11
1450.0146504994984
 21
3906.823634733104
  0
LINE
  8
_2-2_
  6
CONTINUOUS
 62
    7
 10
1450.0146504994984
 20
3906.823634733104
 11
1450.0146504994984
 21
3896.8237961581308
  0
LINE
  8
_2-2_
  6
CONTINUOUS
 62
    7
 10
1432.6585221014425
 20
3906.823634733104
 11
1432.6585221014425
 21
3896.8237961581308
  0
LINE
  8
_2-2_
  6
CONTINUOUS
 62
    7
 10
1448.1954541445698
 20
3906.823634733104
 11
1448.1954541445698
 21
3896.8237961581308
  0
LINE
  8
_2-2_
  6
CONTINUOUS
 62
    7
 10
1441.4905098874594
 20
3906.8161982827201
 11
1441.4905098874594
 21
3896.8163597077469
  0
LINE
  8
_2-2_
  6
CONTINUOUS
 62
    7
 10
1438.9382763719007
 20
3906.8595046702499
 11
1438.9382763719007
 21
3896.8596660952771
  0
LINE
  8
_2-2_
  6
CONTINUOUS
 62
    7
 10
1435.599966306944
 20
3906.8595046702499
 11
1435.599966306944
 21
3896.8596660952771
  0
LINE
  8
_2-2_
  6
CONTINUOUS
 62
    7
 10
1436.2055995749693
 20
3906.8595046702499
 11
1436.2055995749693
 21
3896.8596660952771
  0
LINE
  8
_2-2_
  6
CONTINUOUS
 62
    7
 10
1442.3124563740025
 20
3906.8595046702499
 11
1442.3124563740025
 21
3896.8596660952771
  0
LINE
  8
_2-2_
  6
CONTINUOUS
 62
    7
 10
1447.640563714458
 20
3906.7728918951907
 11
1447.640563714458
 21
3896.773053320218
  0
LINE
  8
_2-2_
  6
CONTINUOUS
 62
    7
 10
1436.8977362584883
 20
3906.8595046702499
 11
1436.8977362584883
 21
3896.8596660952771
  0
LINE
  8
_2-2_
  6
CONTINUOUS
 62
    7
 10
1437.5898729420076
 20
3906.8595046702499
 11
1437.5898729420076
 21
3896.8596660952771
  0
LINE
  8
_2-2_
  6
CONTINUOUS
 62
    7
 10
1438.2388125975617
 20
3906.8595046702499
 11
1438.2388125975617
 21
3896.8596660952771
  0
LINE
  8
_2-2_
  6
CONTINUOUS
 62
    7
 10
1447.2944406929162
 20
3906.8595046702499
 11
1447.2944406929162
 21
3896.8596660952771
  0
LINE
  8
_2-2_
  6
CONTINUOUS
 62
    7
 10
1446.7754201999501
 20
3906.8595046702499
 11
1446.7754201999501
 21
3896.8596660952771
  0
LINE
  8
_2-2_
  6
CONTINUOUS
 62
    7
 10
1442.8821103453174
 20
3906.8595046702499
 11
1442.8821103453174
 21
3896.8596660952771
  0
LINE
  8
_2-2_
  6
CONTINUOUS
 62
    7
 10
1446.2994873753842
 20
3906.8595046702499
 11
1446.2994873753842
 21
3896.8596660952771
  0
LINE
  8
_2-2_
  6
CONTINUOUS
 62
    7
 10
1445.6506570793949
 20
3906.8595046702499
 11
1445.6506570793949
 21
3896.8596660952771
  0
LINE
  8
_2-2_
  6
CONTINUOUS
 62
    7
 10
1434.6124494397961
 20
3906.8595046702499
 11
1434.6124494397961
 21
3896.8596660952771
  0
LINE
  8
_2-2_
  6
CONTINUOUS
 62
    7
 10
1434.1366259747949
 20
3906.8595046702499
 11
1434.1366259747949
 21
3896.8596660952771
  0
LINE
  8
_2-2_
  6
CONTINUOUS
 62
    7
 10
1445.0450238113697
 20
3906.8595046702499
 11
1445.0450238113697
 21
3896.8596660952771
  0
LINE
  8
_2-2_
  6
CONTINUOUS
 62
    7
 10
1433.6608025097937
 20
3906.8595046702499
 11
1433.6608025097937
 21
3896.8596660952771
  0
LINE
  8
_2-2_
  6
CONTINUOUS
 62
    7
 10
1444.3096900998853
 20
3906.8595046702499
 11
1444.3096900998853
 21
3896.8596660952771
  0
LINE
  8
_2-2_
  6
CONTINUOUS
 62
    7
 10
1433.3146794882521
 20
3906.8595046702499
 11
1433.3146794882521
 21
3896.8596660952771
  0
LINE
  8
_2-2_
  6
CONTINUOUS
 62
    7
 10
1435.0450758768325
 20
3906.8595046702499
 11
1435.0450758768325
 21
3896.8596660952771
  0
LINE
  8
_2-2_
  6
CONTINUOUS
 62
    7
 10
1351.0471973640115
 20
3850.31579801935
 11
1466.0472000887958
 21
3850.31579801935
  0
LINE
  8
_2-2_
  6
CONTINUOUS
 62
    7
 10
1466.0472000887958
 20
3850.31579801935
 11
1466.0472000887958
 21
3805.3156495554567
  0
LINE
  8
_2-2_
  6
CONTINUOUS
 62
    7
 10
1466.0472000887958
 20
3805.3156495554567
 11
1351.0471973640115
 21
3805.3156495554567
  0
LINE
  8
_2-2_
  6
CONTINUOUS
 62
    7
 10
1351.0471973640115
 20
3805.3156495554567
 11
1351.0471973640115
 21
3850.31579801935
  0
LINE
  8
_2-2_
  6
CONTINUOUS
 62
    7
 10
1351.8139172704985
 20
3795.6408276060833
 11
1466.8139199952818
 21
3795.6408276060833
  0
LINE
  8
_2-2_
  6
CONTINUOUS
 62
    7
 10
1466.8139199952818
 20
3795.6408276060833
 11
1466.8139199952818
 21
3715.6408066915269
  0
LINE
  8
_2-2_
  6
CONTINUOUS
 62
    7
 10
1466.8139199952818
 20
3715.6408066915269
 11
1351.8139172704985
 21
3715.6408066915269
  0
LINE
  8
_2-2_
  6
CONTINUOUS
 62
    7
 10
1351.8139172704985
 20
3715.6408066915269
 11
1351.8139172704985
 21
3795.6408276060833
  0
LINE
  8
_2-2_
  6
CONTINUOUS
 62
    7
 10
1358.8874032598665
 20
3715.7024854858869
 11
1457.8874455455648
 21
3715.7024854858869
  0
LINE
  8
_2-2_
  6
CONTINUOUS
 62
    7
 10
1457.8874455455648
 20
3715.7024854858869
 11
1457.8874455455648
 21
3705.7026469109142
  0
LINE
  8
_2-2_
  6
CONTINUOUS
 62
    7
 10
1457.8874455455648
 20
3705.7026469109142
 11
1358.8874032598665
 21
3705.7026469109142
  0
LINE
  8
_2-2_
  6
CONTINUOUS
 62
    7
 10
1358.8874032598665
 20
3705.7026469109142
 11
1358.8874032598665
 21
3715.7024854858869
  0
LINE
  8
_2-2_
  6
CONTINUOUS
 62
    7
 10
1351.4796050819189
 20
3705.6190962036603
 11
1466.4796078067027
 21
3705.6190962036603
  0
LINE
  8
_2-2_
  6
CONTINUOUS
 62
    7
 10
1466.4796078067027
 20
3705.6190962036603
 11
1466.4796078067027
 21
3665.6188670272527
  0
LINE
  8
_2-2_
  6
CONTINUOUS
 62
    7
 10
1466.4796078067027
 20
3665.6188670272527
 11
1351.4796050819189
 21
3665.6188670272527
  0
LINE
  8
_2-2_
  6
CONTINUOUS
 62
    7
 10
1351.4796050819189
 20
3665.6188670272527
 11
1351.4796050819189
 21
3705.6190962036603
  0
LINE
  8
_2-2_
  6
CONTINUOUS
 62
    7
 10
1378.9905345577993
 20
3715.7024854858869
 11
1378.9905345577993
 21
3715.6408066915269
  0
LINE
  8
_2-2_
  6
CONTINUOUS
 62
    7
 10
1378.9905345577993
 20
3705.7026469109142
 11
1378.9905345577993
 21
3705.6190962036603
  0
LINE
  8
_2-2_
  6
CONTINUOUS
 62
    7
 10
1428.8846328912093
 20
3715.7239199605224
 11
1430.3846086774552
 21
3715.7239199605224
  0
LINE
  8
_2-2_
  6
CONTINUOUS
 62
    7
 10
1430.3846086774552
 20
3715.7239199605224
 11
1430.3846086774552
 21
3705.7240813855492
  0
LINE
  8
_2-2_
  6
CONTINUOUS
 62
    7
 10
1430.3846086774552
 20
3705.7240813855492
 11
1428.8846328912093
 21
3705.7240813855492
  0
LINE
  8
_2-2_
  6
CONTINUOUS
 62
    7
 10
1428.8846328912093
 20
3705.7240813855492
 11
1428.8846328912093
 21
3715.7239199605224
  0
LINE
  8
_2-2_
  6
CONTINUOUS
 62
    7
 10
1393.4258877080381
 20
3715.7112342510445
 11
1394.9258634942837
 21
3715.7112342510445
  0
LINE
  8
_2-2_
  6
CONTINUOUS
 62
    7
 10
1394.9258634942837
 20
3715.7112342510445
 11
1394.9258634942837
 21
3705.7113956760718
  0
LINE
  8
_2-2_
  6
CONTINUOUS
 62
    7
 10
1394.9258634942837
 20
3705.7113956760718
 11
1393.4258877080381
 21
3705.7113956760718
  0
LINE
  8
_2-2_
  6
CONTINUOUS
 62
    7
 10
1393.4258877080381
 20
3705.7113956760718
 11
1393.4258877080381
 21
3715.7112342510445
  0
LINE
  8
_2-2_
  6
CONTINUOUS
 62
    7
 10
1351.4796050819189
 20
3715.7239199605224
 11
1351.4796050819189
 21
3705.7240813855492
  0
LINE
  8
_2-2_
  6
CONTINUOUS
 62
    7
 10
1466.7221673206932
 20
3715.9400144599117
 11
1466.7221673206932
 21
3705.940175884939
  0
LINE
  8
_2-2_
  6
CONTINUOUS
 62
    7
 10
1427.1546739408868
 20
3715.5078254611331
 11
1427.1546739408868
 21
3705.5075494479029
  0
LINE
  8
_2-2_
  6
CONTINUOUS
 62
    7
 10
1396.5058904817206
 20
3715.7239199605224
 11
1396.5058904817206
 21
3705.7240813855492
  0
LINE
  8
_2-2_
  6
CONTINUOUS
 62
    7
 10
1372.5640197518248
 20
3809.8147020376787
 11
1375.5639713243165
 21
3809.8147020376787
  0
LINE
  8
_2-2_
  6
CONTINUOUS
 62
    7
 10
1375.5639713243165
 20
3809.8147020376787
 11
1375.5639713243165
 21
3791.8149926027277
  0
LINE
  8
_2-2_
  6
CONTINUOUS
 62
    7
 10
1375.5639713243165
 20
3791.8149926027277
 11
1372.5640197518248
 21
3791.8149926027277
  0
LINE
  8
_2-2_
  6
CONTINUOUS
 62
    7
 10
1372.5640197518248
 20
3791.8149926027277
 11
1372.5640197518248
 21
3809.8147020376787
  0
LINE
  8
_2-2_
  6
CONTINUOUS
 62
    7
 10
1372.0499204392595
 20
3792.27299045872
 11
1372.0464209331969
 21
3792.1728170976671
  0
LINE
  8
_2-2_
  6
CONTINUOUS
 62
    7
 10
1372.0464209331969
 20
3792.1728170976671
 11
1376.0439504527674
 21
3792.0332742934056
  0
LINE
  8
_2-2_
  6
CONTINUOUS
 62
    7
 10
1376.0439504527674
 20
3792.0332742934056
 11
1376.0474499588306
 21
3792.1334476544589
  0
LINE
  8
_2-2_
  6
CONTINUOUS
 62
    7
 10
1376.0474499588306
 20
3792.1334476544589
 11
1372.0499204392595
 21
3792.27299045872
  0
LINE
  8
_2-2_
  6
CONTINUOUS
 62
    7
 10
1372.0499204392595
 20
3793.2729743162176
 11
1372.0464209331969
 21
3793.1732383934227
  0
LINE
  8
_2-2_
  6
CONTINUOUS
 62
    7
 10
1372.0464209331969
 20
3793.1732383934227
 11
1376.0439504527674
 21
3793.0332581509033
  0
LINE
  8
_2-2_
  6
CONTINUOUS
 62
    7
 10
1376.0439504527674
 20
3793.0332581509033
 11
1376.0474499588306
 21
3793.1334315119566
  0
LINE
  8
_2-2_
  6
CONTINUOUS
 62
    7
 10
1376.0474499588306
 20
3793.1334315119566
 11
1372.0499204392595
 21
3793.2729743162176
  0
LINE
  8
_2-2_
  6
CONTINUOUS
 62
    7
 10
1372.0499204392595
 20
3794.2729581737149
 11
1372.0464209331969
 21
3794.1732222509195
  0
LINE
  8
_2-2_
  6
CONTINUOUS
 62
    7
 10
1372.0464209331969
 20
3794.1732222509195
 11
1376.0439504527674
 21
3794.0332420084005
  0
LINE
  8
_2-2_
  6
CONTINUOUS
 62
    7
 10
1376.0439504527674
 20
3794.0332420084005
 11
1376.0474499588306
 21
3794.1334153694534
  0
LINE
  8
_2-2_
  6
CONTINUOUS
 62
    7
 10
1376.0474499588306
 20
3794.1334153694534
 11
1372.0499204392595
 21
3794.2729581737149
  0
LINE
  8
_2-2_
  6
CONTINUOUS
 62
    7
 10
1372.0499204392595
 20
3795.2729420312116
 11
1372.0464209331969
 21
3795.1732061084172
  0
LINE
  8
_2-2_
  6
CONTINUOUS
 62
    7
 10
1372.0464209331969
 20
3795.1732061084172
 11
1376.0439504527674
 21
3795.0332258658973
  0
LINE
  8
_2-2_
  6
CONTINUOUS
 62
    7
 10
1376.0439504527674
 20
3795.0332258658973
 11
1376.0474499588306
 21
3795.1333992269506
  0
LINE
  8
_2-2_
  6
CONTINUOUS
 62
    7
 10
1376.0474499588306
 20
3795.1333992269506
 11
1372.0499204392595
 21
3795.2729420312116
  0
LINE
  8
_2-2_
  6
CONTINUOUS
 62
    7
 10
1372.0499204392595
 20
3796.2729258887093
 11
1372.0464209331969
 21
3796.1731899659144
  0
LINE
  8
_2-2_
  6
CONTINUOUS
 62
    7
 10
1372.0464209331969
 20
3796.1731899659144
 11
1376.0439504527674
 21
3796.0336471616529
  0
LINE
  8
_2-2_
  6
CONTINUOUS
 62
    7
 10
1376.0439504527674
 20
3796.0336471616529
 11
1376.0474499588306
 21
3796.1333830844483
  0
LINE
  8
_2-2_
  6
CONTINUOUS
 62
    7
 10
1376.0474499588306
 20
3796.1333830844483
 11
1372.0499204392595
 21
3796.2729258887093
  0
LINE
  8
_2-2_
  6
CONTINUOUS
 62
    7
 10
1372.0499204392595
 20
3797.2729097462066
 11
1372.0464209331969
 21
3797.1731738234121
  0
LINE
  8
_2-2_
  6
CONTINUOUS
 62
    7
 10
1372.0464209331969
 20
3797.1731738234121
 11
1376.0439504527674
 21
3797.0336310191497
  0
LINE
  8
_2-2_
  6
CONTINUOUS
 62
    7
 10
1376.0439504527674
 20
3797.0336310191497
 11
1376.0474499588306
 21
3797.133366941945
  0
LINE
  8
_2-2_
  6
CONTINUOUS
 62
    7
 10
1376.0474499588306
 20
3797.133366941945
 11
1372.0499204392595
 21
3797.2729097462066
  0
LINE
  8
_2-2_
  6
CONTINUOUS
 62
    7
 10
1372.0499204392595
 20
3798.2728936037042
 11
1372.0464209331969
 21
3798.1731576809088
  0
LINE
  8
_2-2_
  6
CONTINUOUS
 62
    7
 10
1372.0464209331969
 20
3798.1731576809088
 11
1376.0439504527674
 21
3798.0336148766478
  0
LINE
  8
_2-2_
  6
CONTINUOUS
 62
    7
 10
1376.0439504527674
 20
3798.0336148766478
 11
1376.0474499588306
 21
3798.1333507994427
  0
LINE
  8
_2-2_
  6
CONTINUOUS
 62
    7
 10
1376.0474499588306
 20
3798.1333507994427
 11
1372.0499204392595
 21
3798.2728936037042
  0
LINE
  8
_2-2_
  6
CONTINUOUS
 62
    7
 10
1372.0499204392595
 20
3799.272877461201
 11
1372.0464209331969
 21
3799.1731415384061
  0
LINE
  8
_2-2_
  6
CONTINUOUS
 62
    7
 10
1372.0464209331969
 20
3799.1731415384061
 11
1376.0439504527674
 21
3799.0335987341446
  0
LINE
  8
_2-2_
  6
CONTINUOUS
 62
    7
 10
1376.0439504527674
 20
3799.0335987341446
 11
1376.0474499588306
 21
3799.13333465694
  0
LINE
  8
_2-2_
  6
CONTINUOUS
 62
    7
 10
1376.0474499588306
 20
3799.13333465694
 11
1372.0499204392595
 21
3799.272877461201
  0
LINE
  8
_2-2_
  6
CONTINUOUS
 62
    7
 10
1372.0499204392595
 20
3800.2728613186982
 11
1372.0464209331969
 21
3800.1731253959038
  0
LINE
  8
_2-2_
  6
CONTINUOUS
 62
    7
 10
1372.0464209331969
 20
3800.1731253959038
 11
1376.0439504527674
 21
3800.0335825916422
  0
LINE
  8
_2-2_
  6
CONTINUOUS
 62
    7
 10
1376.0439504527674
 20
3800.0335825916422
 11
1376.0474499588306
 21
3800.1333185144367
  0
LINE
  8
_2-2_
  6
CONTINUOUS
 62
    7
 10
1376.0474499588306
 20
3800.1333185144367
 11
1372.0499204392595
 21
3800.2728613186982
  0
LINE
  8
_2-2_
  6
CONTINUOUS
 62
    7
 10
1372.0499204392595
 20
3801.2728451761959
 11
1372.0464209331969
 21
3801.1731092534005
  0
LINE
  8
_2-2_
  6
CONTINUOUS
 62
    7
 10
1372.0464209331969
 20
3801.1731092534005
 11
1376.0439504527674
 21
3801.0335664491395
  0
LINE
  8
_2-2_
  6
CONTINUOUS
 62
    7
 10
1376.0439504527674
 20
3801.0335664491395
 11
1376.0474499588306
 21
3801.1333023719344
  0
LINE
  8
_2-2_
  6
CONTINUOUS
 62
    7
 10
1376.0474499588306
 20
3801.1333023719344
 11
1372.0499204392595
 21
3801.2728451761959
  0
LINE
  8
_2-2_
  6
CONTINUOUS
 62
    7
 10
1372.0499204392595
 20
3802.2728290336927
 11
1372.0464209331969
 21
3802.1730931108982
  0
LINE
  8
_2-2_
  6
CONTINUOUS
 62
    7
 10
1372.0464209331969
 20
3802.1730931108982
 11
1376.0439504527674
 21
3802.0335503066362
  0
LINE
  8
_2-2_
  6
CONTINUOUS
 62
    7
 10
1376.0439504527674
 20
3802.0335503066362
 11
1376.0474499588306
 21
3802.1332862294316
  0
LINE
  8
_2-2_
  6
CONTINUOUS
 62
    7
 10
1376.0474499588306
 20
3802.1332862294316
 11
1372.0499204392595
 21
3802.2728290336927
  0
LINE
  8
_2-2_
  6
CONTINUOUS
 62
    7
 10
1372.0499204392595
 20
3803.2728128911904
 11
1372.0464209331969
 21
3803.1730769683954
  0
LINE
  8
_2-2_
  6
CONTINUOUS
 62
    7
 10
1372.0464209331969
 20
3803.1730769683954
 11
1376.0439504527674
 21
3803.0335341641339
  0
LINE
  8
_2-2_
  6
CONTINUOUS
 62
    7
 10
1376.0439504527674
 20
3803.0335341641339
 11
1376.0474499588306
 21
3803.1332700869293
  0
LINE
  8
_2-2_
  6
CONTINUOUS
 62
    7
 10
1376.0474499588306
 20
3803.1332700869293
 11
1372.0499204392595
 21
3803.2728128911904
  0
LINE
  8
_2-2_
  6
CONTINUOUS
 62
    7
 10
1372.0499204392595
 20
3804.2727967486876
 11
1372.0464209331969
 21
3804.1730608258922
  0
LINE
  8
_2-2_
  6
CONTINUOUS
 62
    7
 10
1372.0464209331969
 20
3804.1730608258922
 11
1376.0439504527674
 21
3804.0335180216312
  0
LINE
  8
_2-2_
  6
CONTINUOUS
 62
    7
 10
1376.0439504527674
 20
3804.0335180216312
 11
1376.0474499588306
 21
3804.1332539444261
  0
LINE
  8
_2-2_
  6
CONTINUOUS
 62
    7
 10
1376.0474499588306
 20
3804.1332539444261
 11
1372.0499204392595
 21
3804.2727967486876
  0
LINE
  8
_2-2_
  6
CONTINUOUS
 62
    7
 10
1372.0499204392595
 20
3805.2727806061844
 11
1372.0464209331969
 21
3805.1730446833899
  0
LINE
  8
_2-2_
  6
CONTINUOUS
 62
    7
 10
1372.0464209331969
 20
3805.1730446833899
 11
1376.0439504527674
 21
3805.0335018791288
  0
LINE
  8
_2-2_
  6
CONTINUOUS
 62
    7
 10
1376.0439504527674
 20
3805.0335018791288
 11
1376.0474499588306
 21
3805.1332378019233
  0
LINE
  8
_2-2_
  6
CONTINUOUS
 62
    7
 10
1376.0474499588306
 20
3805.1332378019233
 11
1372.0499204392595
 21
3805.2727806061844
  0
LINE
  8
_2-2_
  6
CONTINUOUS
 62
    7
 10
1372.0499204392595
 20
3806.2727644636825
 11
1372.0464209331969
 21
3806.1730285408871
  0
LINE
  8
_2-2_
  6
CONTINUOUS
 62
    7
 10
1372.0464209331969
 20
3806.1730285408871
 11
1376.0439504527674
 21
3806.0334857366256
  0
LINE
  8
_2-2_
  6
CONTINUOUS
 62
    7
 10
1376.0439504527674
 20
3806.0334857366256
 11
1376.0474499588306
 21
3806.133221659421
  0
LINE
  8
_2-2_
  6
CONTINUOUS
 62
    7
 10
1376.0474499588306
 20
3806.133221659421
 11
1372.0499204392595
 21
3806.2727644636825
  0
LINE
  8
_2-2_
  6
CONTINUOUS
 62
    7
 10
1372.0499204392595
 20
3807.2731857594376
 11
1372.0464209331969
 21
3807.1730123983848
  0
LINE
  8
_2-2_
  6
CONTINUOUS
 62
    7
 10
1372.0464209331969
 20
3807.1730123983848
 11
1376.0439504527674
 21
3807.0334695941228
  0
LINE
  8
_2-2_
  6
CONTINUOUS
 62
    7
 10
1376.0439504527674
 20
3807.0334695941228
 11
1376.0474499588306
 21
3807.1332055169178
  0
LINE
  8
_2-2_
  6
CONTINUOUS
 62
    7
 10
1376.0474499588306
 20
3807.1332055169178
 11
1372.0499204392595
 21
3807.2731857594376
  0
LINE
  8
_2-2_
  6
CONTINUOUS
 62
    7
 10
1372.0499204392595
 20
3808.2731696169349
 11
1372.0464209331969
 21
3808.1729962558816
  0
LINE
  8
_2-2_
  6
CONTINUOUS
 62
    7
 10
1372.0464209331969
 20
3808.1729962558816
 11
1376.0439504527674
 21
3808.0334534516205
  0
LINE
  8
_2-2_
  6
CONTINUOUS
 62
    7
 10
1376.0439504527674
 20
3808.0334534516205
 11
1376.0474499588306
 21
3808.1331893744155
  0
LINE
  8
_2-2_
  6
CONTINUOUS
 62
    7
 10
1376.0474499588306
 20
3808.1331893744155
 11
1372.0499204392595
 21
3808.2731696169349
  0
LINE
  8
_2-2_
  6
CONTINUOUS
 62
    7
 10
1372.0499204392595
 20
3809.2731534744316
 11
1372.0464209331969
 21
3809.1729801133788
  0
LINE
  8
_2-2_
  6
CONTINUOUS
 62
    7
 10
1372.0464209331969
 20
3809.1729801133788
 11
1376.0439504527674
 21
3809.0334373091173
  0
LINE
  8
_2-2_
  6
CONTINUOUS
 62
    7
 10
1376.0439504527674
 20
3809.0334373091173
 11
1376.0474499588306
 21
3809.1331732319127
  0
LINE
  8
_2-2_
  6
CONTINUOUS
 62
    7
 10
1376.0474499588306
 20
3809.1331732319127
 11
1372.0499204392595
 21
3809.2731534744316
  0
LINE
  8
_2-2_
  6
CONTINUOUS
 62
    7
 10
1377.441893765365
 20
3810.8020001856971
 11
1377.441893765365
 21
3809.8020163281999
  0
LINE
  8
_2-2_
  6
CONTINUOUS
 62
    7
 10
1377.441893765365
 20
3809.8020163281999
 11
1370.4418974033192
 21
3809.8020163281999
  0
LINE
  8
_2-2_
  6
CONTINUOUS
 62
    7
 10
1370.4418974033192
 20
3809.8020163281999
 11
1370.4418974033192
 21
3810.8020001856971
  0
LINE
  8
_2-2_
  6
CONTINUOUS
 62
    7
 10
1376.4419099078673
 20
3811.8019840431948
 11
1371.4418812608167
 21
3811.8019840431948
  0
LINE
  8
_2-2_
  6
CONTINUOUS
 62
    7
 10
1370.5349623926818
 20
3808.9726333912736
 11
1377.5349587547271
 21
3808.9726333912736
  0
LINE
  8
_2-2_
  6
CONTINUOUS
 62
    7
 10
1377.5349587547271
 20
3808.9726333912736
 11
1377.5349587547271
 21
3807.4726576050275
  0
LINE
  8
_2-2_
  6
CONTINUOUS
 62
    7
 10
1377.5349587547271
 20
3807.4726576050275
 11
1370.5349623926818
 21
3807.4726576050275
  0
LINE
  8
_2-2_
  6
CONTINUOUS
 62
    7
 10
1370.5349623926818
 20
3807.4726576050275
 11
1370.5349623926818
 21
3808.9726333912736
  0
LINE
  8
_2-2_
  6
CONTINUOUS
 62
    7
 10
1368.8053315210525
 20
3807.2674990620849
 11
1378.8053888151544
 21
3807.2674990620849
  0
LINE
  8
_2-2_
  6
CONTINUOUS
 62
    7
 10
1378.8053888151544
 20
3807.2674990620849
 11
1378.8053888151544
 21
3806.2675152045877
  0
LINE
  8
_2-2_
  6
CONTINUOUS
 62
    7
 10
1378.8053888151544
 20
3806.2675152045877
 11
1368.8053315210525
 21
3806.2675152045877
  0
LINE
  8
_2-2_
  6
CONTINUOUS
 62
    7
 10
1368.8053315210525
 20
3806.2675152045877
 11
1368.8053315210525
 21
3807.2674990620849
  0
LINE
  8
_2-2_
  6
CONTINUOUS
 62
    7
 10
1406.5798748414029
 20
3809.7718330884072
 11
1409.5799357734591
 21
3809.7718330884072
  0
LINE
  8
_2-2_
  6
CONTINUOUS
 62
    7
 10
1409.5799357734591
 20
3809.7718330884072
 11
1409.5799357734591
 21
3791.7716862151979
  0
LINE
  8
_2-2_
  6
CONTINUOUS
 62
    7
 10
1409.5799357734591
 20
3791.7716862151979
 11
1406.5798748414029
 21
3791.7716862151979
  0
LINE
  8
_2-2_
  6
CONTINUOUS
 62
    7
 10
1406.5798748414029
 20
3791.7716862151979
 11
1406.5798748414029
 21
3809.7718330884072
  0
LINE
  8
_2-2_
  6
CONTINUOUS
 62
    7
 10
1406.0657755288375
 20
3792.2296840711906
 11
1406.0622760227748
 21
3792.1299481483957
  0
LINE
  8
_2-2_
  6
CONTINUOUS
 62
    7
 10
1406.0622760227748
 20
3792.1299481483957
 11
1410.0598055423454
 21
3791.9899679058767
  0
LINE
  8
_2-2_
  6
CONTINUOUS
 62
    7
 10
1410.0598055423454
 20
3791.9899679058767
 11
1410.0633050484084
 21
3792.0901412669295
  0
LINE
  8
_2-2_
  6
CONTINUOUS
 62
    7
 10
1410.0633050484084
 20
3792.0901412669295
 11
1406.0657755288375
 21
3792.2296840711906
  0
LINE
  8
_2-2_
  6
CONTINUOUS
 62
    7
 10
1406.0657755288375
 20
3793.2296679286878
 11
1406.0622760227748
 21
3793.1299320058934
  0
LINE
  8
_2-2_
  6
CONTINUOUS
 62
    7
 10
1406.0622760227748
 20
3793.1299320058934
 11
1410.0598055423454
 21
3792.9903892016318
  0
LINE
  8
_2-2_
  6
CONTINUOUS
 62
    7
 10
1410.0598055423454
 20
3792.9903892016318
 11
1410.0633050484084
 21
3793.0901251244263
  0
LINE
  8
_2-2_
  6
CONTINUOUS
 62
    7
 10
1410.0633050484084
 20
3793.0901251244263
 11
1406.0657755288375
 21
3793.2296679286878
  0
LINE
  8
_2-2_
  6
CONTINUOUS
 62
    7
 10
1406.0657755288375
 20
3794.2296517861855
 11
1406.0622760227748
 21
3794.1299158633901
  0
LINE
  8
_2-2_
  6
CONTINUOUS
 62
    7
 10
1406.0622760227748
 20
3794.1299158633901
 11
1410.0598055423454
 21
3793.9903730591291
  0
LINE
  8
_2-2_
  6
CONTINUOUS
 62
    7
 10
1410.0598055423454
 20
3793.9903730591291
 11
1410.0633050484084
 21
3794.090108981924
  0
LINE
  8
_2-2_
  6
CONTINUOUS
 62
    7
 10
1410.0633050484084
 20
3794.090108981924
 11
1406.0657755288375
 21
3794.2296517861855
  0
LINE
  8
_2-2_
  6
CONTINUOUS
 62
    7
 10
1406.0657755288375
 20
3795.2296356436827
 11
1406.0622760227748
 21
3795.1298997208874
  0
LINE
  8
_2-2_
  6
CONTINUOUS
 62
    7
 10
1406.0622760227748
 20
3795.1298997208874
 11
1410.0598055423454
 21
3794.9903569166258
  0
LINE
  8
_2-2_
  6
CONTINUOUS
 62
    7
 10
1410.0598055423454
 20
3794.9903569166258
 11
1410.0633050484084
 21
3795.0900928394212
  0
LINE
  8
_2-2_
  6
CONTINUOUS
 62
    7
 10
1410.0633050484084
 20
3795.0900928394212
 11
1406.0657755288375
 21
3795.2296356436827
  0
LINE
  8
_2-2_
  6
CONTINUOUS
 62
    7
 10
1406.0657755288375
 20
3796.2296195011804
 11
1406.0622760227748
 21
3796.129883578385
  0
LINE
  8
_2-2_
  6
CONTINUOUS
 62
    7
 10
1406.0622760227748
 20
3796.129883578385
 11
1410.0598055423454
 21
3795.9903407741235
  0
LINE
  8
_2-2_
  6
CONTINUOUS
 62
    7
 10
1410.0598055423454
 20
3795.9903407741235
 11
1410.0633050484084
 21
3796.090076696918
  0
LINE
  8
_2-2_
  6
CONTINUOUS
 62
    7
 10
1410.0633050484084
 20
3796.090076696918
 11
1406.0657755288375
 21
3796.2296195011804
  0
LINE
  8
_2-2_
  6
CONTINUOUS
 62
    7
 10
1406.0657755288375
 20
3797.2296033586772
 11
1406.0622760227748
 21
3797.1298674358823
  0
LINE
  8
_2-2_
  6
CONTINUOUS
 62
    7
 10
1406.0622760227748
 20
3797.1298674358823
 11
1410.0598055423454
 21
3796.9903246316208
  0
LINE
  8
_2-2_
  6
CONTINUOUS
 62
    7
 10
1410.0598055423454
 20
3796.9903246316208
 11
1410.0633050484084
 21
3797.0900605544157
  0
LINE
  8
_2-2_
  6
CONTINUOUS
 62
    7
 10
1410.0633050484084
 20
3797.0900605544157
 11
1406.0657755288375
 21
3797.2296033586772
  0
LINE
  8
_2-2_
  6
CONTINUOUS
 62
    7
 10
1406.0657755288375
 20
3798.2295872161744
 11
1406.0622760227748
 21
3798.1298512933799
  0
LINE
  8
_2-2_
  6
CONTINUOUS
 62
    7
 10
1406.0622760227748
 20
3798.1298512933799
 11
1410.0598055423454
 21
3797.9903084891184
  0
LINE
  8
_2-2_
  6
CONTINUOUS
 62
    7
 10
1410.0598055423454
 20
3797.9903084891184
 11
1410.0633050484084
 21
3798.0900444119129
  0
LINE
  8
_2-2_
  6
CONTINUOUS
 62
    7
 10
1410.0633050484084
 20
3798.0900444119129
 11
1406.0657755288375
 21
3798.2295872161744
  0
LINE
  8
_2-2_
  6
CONTINUOUS
 62
    7
 10
1406.0657755288375
 20
3799.2295710736721
 11
1406.0622760227748
 21
3799.1298351508767
  0
LINE
  8
_2-2_
  6
CONTINUOUS
 62
    7
 10
1406.0622760227748
 20
3799.1298351508767
 11
1410.0598055423454
 21
3798.9902923466152
  0
LINE
  8
_2-2_
  6
CONTINUOUS
 62
    7
 10
1410.0598055423454
 20
3798.9902923466152
 11
1410.0633050484084
 21
3799.0900282694106
  0
LINE
  8
_2-2_
  6
CONTINUOUS
 62
    7
 10
1410.0633050484084
 20
3799.0900282694106
 11
1406.0657755288375
 21
3799.2295710736721
  0
LINE
  8
_2-2_
  6
CONTINUOUS
 62
    7
 10
1406.0657755288375
 20
3800.2295549311689
 11
1406.0622760227748
 21
3800.1298190083739
  0
LINE
  8
_2-2_
  6
CONTINUOUS
 62
    7
 10
1406.0622760227748
 20
3800.1298190083739
 11
1410.0598055423454
 21
3799.9902762041124
  0
LINE
  8
_2-2_
  6
CONTINUOUS
 62
    7
 10
1410.0598055423454
 20
3799.9902762041124
 11
1410.0633050484084
 21
3800.0900121269078
  0
LINE
  8
_2-2_
  6
CONTINUOUS
 62
    7
 10
1410.0633050484084
 20
3800.0900121269078
 11
1406.0657755288375
 21
3800.2295549311689
  0
LINE
  8
_2-2_
  6
CONTINUOUS
 62
    7
 10
1406.0657755288375
 20
3801.2295387886666
 11
1406.0622760227748
 21
3801.1298028658716
  0
LINE
  8
_2-2_
  6
CONTINUOUS
 62
    7
 10
1406.0622760227748
 20
3801.1298028658716
 11
1410.0598055423454
 21
3800.9902600616101
  0
LINE
  8
_2-2_
  6
CONTINUOUS
 62
    7
 10
1410.0598055423454
 20
3800.9902600616101
 11
1410.0633050484084
 21
3801.0899959844046
  0
LINE
  8
_2-2_
  6
CONTINUOUS
 62
    7
 10
1410.0633050484084
 20
3801.0899959844046
 11
1406.0657755288375
 21
3801.2295387886666
  0
LINE
  8
_2-2_
  6
CONTINUOUS
 62
    7
 10
1406.0657755288375
 20
3802.2295226461638
 11
1406.0622760227748
 21
3802.1297867233684
  0
LINE
  8
_2-2_
  6
CONTINUOUS
 62
    7
 10
1406.0622760227748
 20
3802.1297867233684
 11
1410.0598055423454
 21
3801.9902439191073
  0
LINE
  8
_2-2_
  6
CONTINUOUS
 62
    7
 10
1410.0598055423454
 20
3801.9902439191073
 11
1410.0633050484084
 21
3802.0899798419023
  0
LINE
  8
_2-2_
  6
CONTINUOUS
 62
    7
 10
1410.0633050484084
 20
3802.0899798419023
 11
1406.0657755288375
 21
3802.2295226461638
  0
LINE
  8
_2-2_
  6
CONTINUOUS
 62
    7
 10
1406.0657755288375
 20
3803.2295065036606
 11
1406.0622760227748
 21
3803.1297705808661
  0
LINE
  8
_2-2_
  6
CONTINUOUS
 62
    7
 10
1406.0622760227748
 20
3803.1297705808661
 11
1410.0598055423454
 21
3802.990227776605
  0
LINE
  8
_2-2_
  6
CONTINUOUS
 62
    7
 10
1410.0598055423454
 20
3802.990227776605
 11
1410.0633050484084
 21
3803.0899636993995
  0
LINE
  8
_2-2_
  6
CONTINUOUS
 62
    7
 10
1410.0633050484084
 20
3803.0899636993995
 11
1406.0657755288375
 21
3803.2295065036606
  0
LINE
  8
_2-2_
  6
CONTINUOUS
 62
    7
 10
1406.0657755288375
 20
3804.2299277994161
 11
1406.0622760227748
 21
3804.1297544383633
  0
LINE
  8
_2-2_
  6
CONTINUOUS
 62
    7
 10
1406.0622760227748
 20
3804.1297544383633
 11
1410.0598055423454
 21
3803.9902116341018
  0
LINE
  8
_2-2_
  6
CONTINUOUS
 62
    7
 10
1410.0598055423454
 20
3803.9902116341018
 11
1410.0633050484084
 21
3804.0899475568972
  0
LINE
  8
_2-2_
  6
CONTINUOUS
 62
    7
 10
1410.0633050484084
 20
3804.0899475568972
 11
1406.0657755288375
 21
3804.2299277994161
  0
LINE
  8
_2-2_
  6
CONTINUOUS
 62
    7
 10
1406.0657755288375
 20
3805.2299116569129
 11
1406.0622760227748
 21
3805.1297382958601
  0
LINE
  8
_2-2_
  6
CONTINUOUS
 62
    7
 10
1406.0622760227748
 20
3805.1297382958601
 11
1410.0598055423454
 21
3804.990195491599
  0
LINE
  8
_2-2_
  6
CONTINUOUS
 62
    7
 10
1410.0598055423454
 20
3804.990195491599
 11
1410.0633050484084
 21
3805.089931414394
  0
LINE
  8
_2-2_
  6
CONTINUOUS
 62
    7
 10
1410.0633050484084
 20
3805.089931414394
 11
1406.0657755288375
 21
3805.2299116569129
  0
LINE
  8
_2-2_
  6
CONTINUOUS
 62
    7
 10
1406.0657755288375
 20
3806.2298955144106
 11
1406.0622760227748
 21
3806.1297221533578
  0
LINE
  8
_2-2_
  6
CONTINUOUS
 62
    7
 10
1406.0622760227748
 20
3806.1297221533578
 11
1410.0598055423454
 21
3805.9901793490967
  0
LINE
  8
_2-2_
  6
CONTINUOUS
 62
    7
 10
1410.0598055423454
 20
3805.9901793490967
 11
1410.0633050484084
 21
3806.0899152718912
  0
LINE
  8
_2-2_
  6
CONTINUOUS
 62
    7
 10
1410.0633050484084
 20
3806.0899152718912
 11
1406.0657755288375
 21
3806.2298955144106
  0
LINE
  8
_2-2_
  6
CONTINUOUS
 62
    7
 10
1406.0657755288375
 20
3807.2298793719078
 11
1406.0622760227748
 21
3807.129706010855
  0
LINE
  8
_2-2_
  6
CONTINUOUS
 62
    7
 10
1406.0622760227748
 20
3807.129706010855
 11
1410.0598055423454
 21
3806.9901632065935
  0
LINE
  8
_2-2_
  6
CONTINUOUS
 62
    7
 10
1410.0598055423454
 20
3806.9901632065935
 11
1410.0633050484084
 21
3807.0898991293889
  0
LINE
  8
_2-2_
  6
CONTINUOUS
 62
    7
 10
1410.0633050484084
 20
3807.0898991293889
 11
1406.0657755288375
 21
3807.2298793719078
  0
LINE
  8
_2-2_
  6
CONTINUOUS
 62
    7
 10
1406.0657755288375
 20
3808.2298632294055
 11
1406.0622760227748
 21
3808.1296898683527
  0
LINE
  8
_2-2_
  6
CONTINUOUS
 62
    7
 10
1406.0622760227748
 20
3808.1296898683527
 11
1410.0598055423454
 21
3807.9901470640912
  0
LINE
  8
_2-2_
  6
CONTINUOUS
 62
    7
 10
1410.0598055423454
 20
3807.9901470640912
 11
1410.0633050484084
 21
3808.0903204251435
  0
LINE
  8
_2-2_
  6
CONTINUOUS
 62
    7
 10
1410.0633050484084
 20
3808.0903204251435
 11
1406.0657755288375
 21
3808.2298632294055
  0
LINE
  8
_2-2_
  6
CONTINUOUS
 62
    7
 10
1406.0657755288375
 20
3809.2298470869027
 11
1406.0622760227748
 21
3809.1296737258494
  0
LINE
  8
_2-2_
  6
CONTINUOUS
 62
    7
 10
1406.0622760227748
 20
3809.1296737258494
 11
1410.0598055423454
 21
3808.9901309215884
  0
LINE
  8
_2-2_
  6
CONTINUOUS
 62
    7
 10
1410.0598055423454
 20
3808.9901309215884
 11
1410.0633050484084
 21
3809.0903042826412
  0
LINE
  8
_2-2_
  6
CONTINUOUS
 62
    7
 10
1410.0633050484084
 20
3809.0903042826412
 11
1406.0657755288375
 21
3809.2298470869027
  0
LINE
  8
_2-2_
  6
CONTINUOUS
 62
    7
 10
1411.4578582145073
 20
3810.7586937981678
 11
1411.4578582145073
 21
3809.758709940671
  0
LINE
  8
_2-2_
  6
CONTINUOUS
 62
    7
 10
1411.4578582145073
 20
3809.758709940671
 11
1404.4578618524617
 21
3809.758709940671
  0
LINE
  8
_2-2_
  6
CONTINUOUS
 62
    7
 10
1404.4578618524617
 20
3809.758709940671
 11
1404.4578618524617
 21
3810.7586937981678
  0
LINE
  8
_2-2_
  6
CONTINUOUS
 62
    7
 10
1410.4578743570098
 20
3811.7586776556655
 11
1405.4578457099587
 21
3811.7586776556655
  0
LINE
  8
_2-2_
  6
CONTINUOUS
 62
    7
 10
1404.5508174822596
 20
3808.9293270037438
 11
1411.5508138443051
 21
3808.9293270037438
  0
LINE
  8
_2-2_
  6
CONTINUOUS
 62
    7
 10
1411.5508138443051
 20
3808.9293270037438
 11
1411.5508138443051
 21
3807.4293512174982
  0
LINE
  8
_2-2_
  6
CONTINUOUS
 62
    7
 10
1411.5508138443051
 20
3807.4293512174982
 11
1404.5508174822596
 21
3807.4293512174982
  0
LINE
  8
_2-2_
  6
CONTINUOUS
 62
    7
 10
1404.5508174822596
 20
3807.4293512174982
 11
1404.5508174822596
 21
3808.9293270037438
  0
LINE
  8
_2-2_
  6
CONTINUOUS
 62
    7
 10
1403.5999360692088
 20
3807.2241926745555
 11
1412.5999001462485
 21
3807.2241926745555
  0
LINE
  8
_2-2_
  6
CONTINUOUS
 62
    7
 10
1412.5999001462485
 20
3807.2241926745555
 11
1412.5999001462485
 21
3806.2242088170583
  0
LINE
  8
_2-2_
  6
CONTINUOUS
 62
    7
 10
1412.5999001462485
 20
3806.2242088170583
 11
1403.5999360692088
 21
3806.2242088170583
  0
LINE
  8
_2-2_
  6
CONTINUOUS
 62
    7
 10
1403.5999360692088
 20
3806.2242088170583
 11
1403.5999360692088
 21
3807.2241926745555
  0
LINE
  8
_2-2_
  6
CONTINUOUS
 62
    7
 10
1469.182757521228
 20
3809.8435729626976
 11
1472.1828184532842
 21
3809.8435729626976
  0
LINE
  8
_2-2_
  6
CONTINUOUS
 62
    7
 10
1472.1828184532842
 20
3809.8435729626976
 11
1472.1828184532842
 21
3791.8434260894892
  0
LINE
  8
_2-2_
  6
CONTINUOUS
 62
    7
 10
1472.1828184532842
 20
3791.8434260894892
 11
1469.182757521228
 21
3791.8434260894892
  0
LINE
  8
_2-2_
  6
CONTINUOUS
 62
    7
 10
1469.182757521228
 20
3791.8434260894892
 11
1469.182757521228
 21
3809.8435729626976
  0
LINE
  8
_2-2_
  6
CONTINUOUS
 62
    7
 10
1468.6686582086629
 20
3792.3014239454824
 11
1468.6651587025999
 21
3792.201688022687
  0
LINE
  8
_2-2_
  6
CONTINUOUS
 62
    7
 10
1468.6651587025999
 20
3792.201688022687
 11
1472.6626882221708
 21
3792.061707780168
  0
LINE
  8
_2-2_
  6
CONTINUOUS
 62
    7
 10
1472.6626882221708
 20
3792.061707780168
 11
1472.666187728234
 21
3792.16188114122
  0
LINE
  8
_2-2_
  6
CONTINUOUS
 62
    7
 10
1472.666187728234
 20
3792.16188114122
 11
1468.6686582086629
 21
3792.3014239454824
  0
LINE
  8
_2-2_
  6
CONTINUOUS
 62
    7
 10
1468.6686582086629
 20
3793.3014078029792
 11
1468.6651587025999
 21
3793.2016718801842
  0
LINE
  8
_2-2_
  6
CONTINUOUS
 62
    7
 10
1468.6651587025999
 20
3793.2016718801842
 11
1472.6626882221708
 21
3793.0621290759227
  0
LINE
  8
_2-2_
  6
CONTINUOUS
 62
    7
 10
1472.6626882221708
 20
3793.0621290759227
 11
1472.666187728234
 21
3793.1618649987181
  0
LINE
  8
_2-2_
  6
CONTINUOUS
 62
    7
 10
1472.666187728234
 20
3793.1618649987181
 11
1468.6686582086629
 21
3793.3014078029792
  0
LINE
  8
_2-2_
  6
CONTINUOUS
 62
    7
 10
1468.6686582086629
 20
3794.3013916604764
 11
1468.6651587025999
 21
3794.2016557376819
  0
LINE
  8
_2-2_
  6
CONTINUOUS
 62
    7
 10
1468.6651587025999
 20
3794.2016557376819
 11
1472.6626882221708
 21
3794.0621129334204
  0
LINE
  8
_2-2_
  6
CONTINUOUS
 62
    7
 10
1472.6626882221708
 20
3794.0621129334204
 11
1472.666187728234
 21
3794.1618488562149
  0
LINE
  8
_2-2_
  6
CONTINUOUS
 62
    7
 10
1472.666187728234
 20
3794.1618488562149
 11
1468.6686582086629
 21
3794.3013916604764
  0
LINE
  8
_2-2_
  6
CONTINUOUS
 62
    7
 10
1468.6686582086629
 20
3795.3013755179741
 11
1468.6651587025999
 21
3795.2016395951787
  0
LINE
  8
_2-2_
  6
CONTINUOUS
 62
    7
 10
1468.6651587025999
 20
3795.2016395951787
 11
1472.6626882221708
 21
3795.0620967909172
  0
LINE
  8
_2-2_
  6
CONTINUOUS
 62
    7
 10
1472.6626882221708
 20
3795.0620967909172
 11
1472.666187728234
 21
3795.1618327137126
  0
LINE
  8
_2-2_
  6
CONTINUOUS
 62
    7
 10
1472.666187728234
 20
3795.1618327137126
 11
1468.6686582086629
 21
3795.3013755179741
  0
LINE
  8
_2-2_
  6
CONTINUOUS
 62
    7
 10
1468.6686582086629
 20
3796.3013593754708
 11
1468.6651587025999
 21
3796.2016234526759
  0
LINE
  8
_2-2_
  6
CONTINUOUS
 62
    7
 10
1468.6651587025999
 20
3796.2016234526759
 11
1472.6626882221708
 21
3796.0620806484144
  0
LINE
  8
_2-2_
  6
CONTINUOUS
 62
    7
 10
1472.6626882221708
 20
3796.0620806484144
 11
1472.666187728234
 21
3796.1618165712098
  0
LINE
  8
_2-2_
  6
CONTINUOUS
 62
    7
 10
1472.666187728234
 20
3796.1618165712098
 11
1468.6686582086629
 21
3796.3013593754708
  0
LINE
  8
_2-2_
  6
CONTINUOUS
 62
    7
 10
1468.6686582086629
 20
3797.3013432329685
 11
1468.6651587025999
 21
3797.2016073101736
  0
LINE
  8
_2-2_
  6
CONTINUOUS
 62
    7
 10
1468.6651587025999
 20
3797.2016073101736
 11
1472.6626882221708
 21
3797.0620645059121
  0
LINE
  8
_2-2_
  6
CONTINUOUS
 62
    7
 10
1472.6626882221708
 20
3797.0620645059121
 11
1472.666187728234
 21
3797.1618004287066
  0
LINE
  8
_2-2_
  6
CONTINUOUS
 62
    7
 10
1472.666187728234
 20
3797.1618004287066
 11
1468.6686582086629
 21
3797.3013432329685
  0
LINE
  8
_2-2_
  6
CONTINUOUS
 62
    7
 10
1468.6686582086629
 20
3798.3013270904657
 11
1468.6651587025999
 21
3798.2015911676704
  0
LINE
  8
_2-2_
  6
CONTINUOUS
 62
    7
 10
1468.6651587025999
 20
3798.2015911676704
 11
1472.6626882221708
 21
3798.0620483634093
  0
LINE
  8
_2-2_
  6
CONTINUOUS
 62
    7
 10
1472.6626882221708
 20
3798.0620483634093
 11
1472.666187728234
 21
3798.1617842862042
  0
LINE
  8
_2-2_
  6
CONTINUOUS
 62
    7
 10
1472.666187728234
 20
3798.1617842862042
 11
1468.6686582086629
 21
3798.3013270904657
  0
LINE
  8
_2-2_
  6
CONTINUOUS
 62
    7
 10
1468.6686582086629
 20
3799.3013109479625
 11
1468.6651587025999
 21
3799.201575025168
  0
LINE
  8
_2-2_
  6
CONTINUOUS
 62
    7
 10
1468.6651587025999
 20
3799.201575025168
 11
1472.6626882221708
 21
3799.062032220907
  0
LINE
  8
_2-2_
  6
CONTINUOUS
 62
    7
 10
1472.6626882221708
 20
3799.062032220907
 11
1472.666187728234
 21
3799.1617681437015
  0
LINE
  8
_2-2_
  6
CONTINUOUS
 62
    7
 10
1472.666187728234
 20
3799.1617681437015
 11
1468.6686582086629
 21
3799.3013109479625
  0
LINE
  8
_2-2_
  6
CONTINUOUS
 62
    7
 10
1468.6686582086629
 20
3800.3012948054602
 11
1468.6651587025999
 21
3800.2015588826653
  0
LINE
  8
_2-2_
  6
CONTINUOUS
 62
    7
 10
1468.6651587025999
 20
3800.2015588826653
 11
1472.6626882221708
 21
3800.0620160784038
  0
LINE
  8
_2-2_
  6
CONTINUOUS
 62
    7
 10
1472.6626882221708
 20
3800.0620160784038
 11
1472.666187728234
 21
3800.1617520011991
  0
LINE
  8
_2-2_
  6
CONTINUOUS
 62
    7
 10
1472.666187728234
 20
3800.1617520011991
 11
1468.6686582086629
 21
3800.3012948054602
  0
LINE
  8
_2-2_
  6
CONTINUOUS
 62
    7
 10
1468.6686582086629
 20
3801.3012786629574
 11
1468.6651587025999
 21
3801.201542740162
  0
LINE
  8
_2-2_
  6
CONTINUOUS
 62
    7
 10
1468.6651587025999
 20
3801.201542740162
 11
1472.6626882221708
 21
3801.061999935901
  0
LINE
  8
_2-2_
  6
CONTINUOUS
 62
    7
 10
1472.6626882221708
 20
3801.061999935901
 11
1472.666187728234
 21
3801.1617358586959
  0
LINE
  8
_2-2_
  6
CONTINUOUS
 62
    7
 10
1472.666187728234
 20
3801.1617358586959
 11
1468.6686582086629
 21
3801.3012786629574
  0
LINE
  8
_2-2_
  6
CONTINUOUS
 62
    7
 10
1468.6686582086629
 20
3802.3012625204551
 11
1468.6651587025999
 21
3802.2015265976597
  0
LINE
  8
_2-2_
  6
CONTINUOUS
 62
    7
 10
1468.6651587025999
 20
3802.2015265976597
 11
1472.6626882221708
 21
3802.0619837933987
  0
LINE
  8
_2-2_
  6
CONTINUOUS
 62
    7
 10
1472.6626882221708
 20
3802.0619837933987
 11
1472.666187728234
 21
3802.1617197161931
  0
LINE
  8
_2-2_
  6
CONTINUOUS
 62
    7
 10
1472.666187728234
 20
3802.1617197161931
 11
1468.6686582086629
 21
3802.3012625204551
  0
LINE
  8
_2-2_
  6
CONTINUOUS
 62
    7
 10
1468.6686582086629
 20
3803.3012463779519
 11
1468.6651587025999
 21
3803.2015104551569
  0
LINE
  8
_2-2_
  6
CONTINUOUS
 62
    7
 10
1468.6651587025999
 20
3803.2015104551569
 11
1472.6626882221708
 21
3803.0619676508954
  0
LINE
  8
_2-2_
  6
CONTINUOUS
 62
    7
 10
1472.6626882221708
 20
3803.0619676508954
 11
1472.666187728234
 21
3803.1617035736908
  0
LINE
  8
_2-2_
  6
CONTINUOUS
 62
    7
 10
1472.666187728234
 20
3803.1617035736908
 11
1468.6686582086629
 21
3803.3012463779519
  0
LINE
  8
_2-2_
  6
CONTINUOUS
 62
    7
 10
1468.6686582086629
 20
3804.3012302354491
 11
1468.6651587025999
 21
3804.2014943126546
  0
LINE
  8
_2-2_
  6
CONTINUOUS
 62
    7
 10
1468.6651587025999
 20
3804.2014943126546
 11
1472.6626882221708
 21
3804.0619515083931
  0
LINE
  8
_2-2_
  6
CONTINUOUS
 62
    7
 10
1472.6626882221708
 20
3804.0619515083931
 11
1472.666187728234
 21
3804.1616874311876
  0
LINE
  8
_2-2_
  6
CONTINUOUS
 62
    7
 10
1472.666187728234
 20
3804.1616874311876
 11
1468.6686582086629
 21
3804.3012302354491
  0
LINE
  8
_2-2_
  6
CONTINUOUS
 62
    7
 10
1468.6686582086629
 20
3805.3016515312047
 11
1468.6651587025999
 21
3805.2014781701514
  0
LINE
  8
_2-2_
  6
CONTINUOUS
 62
    7
 10
1468.6651587025999
 20
3805.2014781701514
 11
1472.6626882221708
 21
3805.0619353658903
  0
LINE
  8
_2-2_
  6
CONTINUOUS
 62
    7
 10
1472.6626882221708
 20
3805.0619353658903
 11
1472.666187728234
 21
3805.1616712886853
  0
LINE
  8
_2-2_
  6
CONTINUOUS
 62
    7
 10
1472.666187728234
 20
3805.1616712886853
 11
1468.6686582086629
 21
3805.3016515312047
  0
LINE
  8
_2-2_
  6
CONTINUOUS
 62
    7
 10
1468.6686582086629
 20
3806.3016353887015
 11
1468.6651587025999
 21
3806.2014620276486
  0
LINE
  8
_2-2_
  6
CONTINUOUS
 62
    7
 10
1468.6651587025999
 20
3806.2014620276486
 11
1472.6626882221708
 21
3806.0619192233871
  0
LINE
  8
_2-2_
  6
CONTINUOUS
 62
    7
 10
1472.6626882221708
 20
3806.0619192233871
 11
1472.666187728234
 21
3806.1616551461825
  0
LINE
  8
_2-2_
  6
CONTINUOUS
 62
    7
 10
1472.666187728234
 20
3806.1616551461825
 11
1468.6686582086629
 21
3806.3016353887015
  0
LINE
  8
_2-2_
  6
CONTINUOUS
 62
    7
 10
1468.6686582086629
 20
3807.3016192461992
 11
1468.6651587025999
 21
3807.2014458851463
  0
LINE
  8
_2-2_
  6
CONTINUOUS
 62
    7
 10
1468.6651587025999
 20
3807.2014458851463
 11
1472.6626882221708
 21
3807.0619030808848
  0
LINE
  8
_2-2_
  6
CONTINUOUS
 62
    7
 10
1472.6626882221708
 20
3807.0619030808848
 11
1472.666187728234
 21
3807.1616390036793
  0
LINE
  8
_2-2_
  6
CONTINUOUS
 62
    7
 10
1472.666187728234
 20
3807.1616390036793
 11
1468.6686582086629
 21
3807.3016192461992
  0
LINE
  8
_2-2_
  6
CONTINUOUS
 62
    7
 10
1468.6686582086629
 20
3808.3016031036964
 11
1468.6651587025999
 21
3808.2014297426431
  0
LINE
  8
_2-2_
  6
CONTINUOUS
 62
    7
 10
1468.6651587025999
 20
3808.2014297426431
 11
1472.6626882221708
 21
3808.061886938382
  0
LINE
  8
_2-2_
  6
CONTINUOUS
 62
    7
 10
1472.6626882221708
 20
3808.061886938382
 11
1472.666187728234
 21
3808.1620602994349
  0
LINE
  8
_2-2_
  6
CONTINUOUS
 62
    7
 10
1472.666187728234
 20
3808.1620602994349
 11
1468.6686582086629
 21
3808.3016031036964
  0
LINE
  8
_2-2_
  6
CONTINUOUS
 62
    7
 10
1468.6686582086629
 20
3809.3015869611941
 11
1468.6651587025999
 21
3809.2014136001408
  0
LINE
  8
_2-2_
  6
CONTINUOUS
 62
    7
 10
1468.6651587025999
 20
3809.2014136001408
 11
1472.6626882221708
 21
3809.0618707958797
  0
LINE
  8
_2-2_
  6
CONTINUOUS
 62
    7
 10
1472.6626882221708
 20
3809.0618707958797
 11
1472.666187728234
 21
3809.1620441569326
  0
LINE
  8
_2-2_
  6
CONTINUOUS
 62
    7
 10
1472.666187728234
 20
3809.1620441569326
 11
1468.6686582086629
 21
3809.3015869611941
  0
LINE
  8
_2-2_
  6
CONTINUOUS
 62
    7
 10
1474.0607408943322
 20
3810.8304336724595
 11
1474.0607408943322
 21
3809.8304498149619
  0
LINE
  8
_2-2_
  6
CONTINUOUS
 62
    7
 10
1474.0607408943322
 20
3809.8304498149619
 11
1467.0607445322869
 21
3809.8304498149619
  0
LINE
  8
_2-2_
  6
CONTINUOUS
 62
    7
 10
1467.0607445322869
 20
3809.8304498149619
 11
1467.0607445322869
 21
3810.8304336724595
  0
LINE
  8
_2-2_
  6
CONTINUOUS
 62
    7
 10
1473.060757036835
 20
3811.8304175299563
 11
1468.0607283897843
 21
3811.8304175299563
  0
LINE
  8
_2-2_
  6
CONTINUOUS
 62
    7
 10
1467.1537001620848
 20
3809.0010668780351
 11
1474.1536965241303
 21
3809.0010668780351
  0
LINE
  8
_2-2_
  6
CONTINUOUS
 62
    7
 10
1474.1536965241303
 20
3809.0010668780351
 11
1474.1536965241303
 21
3807.501091091789
  0
LINE
  8
_2-2_
  6
CONTINUOUS
 62
    7
 10
1474.1536965241303
 20
3807.501091091789
 11
1467.1537001620848
 21
3807.501091091789
  0
LINE
  8
_2-2_
  6
CONTINUOUS
 62
    7
 10
1467.1537001620848
 20
3807.501091091789
 11
1467.1537001620848
 21
3809.0010668780351
  0
LINE
  8
_2-2_
  6
CONTINUOUS
 62
    7
 10
1465.9865055305154
 20
3807.2959325488468
 11
1474.9864696075556
 21
3807.2959325488468
  0
LINE
  8
_2-2_
  6
CONTINUOUS
 62
    7
 10
1474.9864696075556
 20
3807.2959325488468
 11
1474.9864696075556
 21
3806.2959486913492
  0
LINE
  8
_2-2_
  6
CONTINUOUS
 62
    7
 10
1474.9864696075556
 20
3806.2959486913492
 11
1465.9865055305154
 21
3806.2959486913492
  0
LINE
  8
_2-2_
  6
CONTINUOUS
 62
    7
 10
1465.9865055305154
 20
3806.2959486913492
 11
1465.9865055305154
 21
3807.2959325488468
  0
LINE
  8
_2-2_
  6
CONTINUOUS
 62
    7
 10
1439.8926572910145
 20
3809.7718330884072
 11
1442.8926088635067
 21
3809.7718330884072
  0
LINE
  8
_2-2_
  6
CONTINUOUS
 62
    7
 10
1442.8926088635067
 20
3809.7718330884072
 11
1442.8926088635067
 21
3791.7716862151979
  0
LINE
  8
_2-2_
  6
CONTINUOUS
 62
    7
 10
1442.8926088635067
 20
3791.7716862151979
 11
1439.8926572910145
 21
3791.7716862151979
  0
LINE
  8
_2-2_
  6
CONTINUOUS
 62
    7
 10
1439.8926572910145
 20
3791.7716862151979
 11
1439.8926572910145
 21
3809.7718330884072
  0
LINE
  8
_2-2_
  6
CONTINUOUS
 62
    7
 10
1439.3784486188849
 20
3792.2296840711906
 11
1439.3750584723869
 21
3792.1299481483957
  0
LINE
  8
_2-2_
  6
CONTINUOUS
 62
    7
 10
1439.3750584723869
 20
3792.1299481483957
 11
1443.3725879919575
 21
3791.9899679058767
  0
LINE
  8
_2-2_
  6
CONTINUOUS
 62
    7
 10
1443.3725879919575
 20
3791.9899679058767
 11
1443.3760874980201
 21
3792.0901412669295
  0
LINE
  8
_2-2_
  6
CONTINUOUS
 62
    7
 10
1443.3760874980201
 20
3792.0901412669295
 11
1439.3784486188849
 21
3792.2296840711906
  0
LINE
  8
_2-2_
  6
CONTINUOUS
 62
    7
 10
1439.3784486188849
 20
3793.2296679286878
 11
1439.3750584723869
 21
3793.1299320058934
  0
LINE
  8
_2-2_
  6
CONTINUOUS
 62
    7
 10
1439.3750584723869
 20
3793.1299320058934
 11
1443.3725879919575
 21
3792.9903892016318
  0
LINE
  8
_2-2_
  6
CONTINUOUS
 62
    7
 10
1443.3725879919575
 20
3792.9903892016318
 11
1443.3760874980201
 21
3793.0901251244263
  0
LINE
  8
_2-2_
  6
CONTINUOUS
 62
    7
 10
1443.3760874980201
 20
3793.0901251244263
 11
1439.3784486188849
 21
3793.2296679286878
  0
LINE
  8
_2-2_
  6
CONTINUOUS
 62
    7
 10
1439.3784486188849
 20
3794.2296517861855
 11
1439.3750584723869
 21
3794.1299158633901
  0
LINE
  8
_2-2_
  6
CONTINUOUS
 62
    7
 10
1439.3750584723869
 20
3794.1299158633901
 11
1443.3725879919575
 21
3793.9903730591291
  0
LINE
  8
_2-2_
  6
CONTINUOUS
 62
    7
 10
1443.3725879919575
 20
3793.9903730591291
 11
1443.3760874980201
 21
3794.090108981924
  0
LINE
  8
_2-2_
  6
CONTINUOUS
 62
    7
 10
1443.3760874980201
 20
3794.090108981924
 11
1439.3784486188849
 21
3794.2296517861855
  0
LINE
  8
_2-2_
  6
CONTINUOUS
 62
    7
 10
1439.3784486188849
 20
3795.2296356436827
 11
1439.3750584723869
 21
3795.1298997208874
  0
LINE
  8
_2-2_
  6
CONTINUOUS
 62
    7
 10
1439.3750584723869
 20
3795.1298997208874
 11
1443.3725879919575
 21
3794.9903569166258
  0
LINE
  8
_2-2_
  6
CONTINUOUS
 62
    7
 10
1443.3725879919575
 20
3794.9903569166258
 11
1443.3760874980201
 21
3795.0900928394212
  0
LINE
  8
_2-2_
  6
CONTINUOUS
 62
    7
 10
1443.3760874980201
 20
3795.0900928394212
 11
1439.3784486188849
 21
3795.2296356436827
  0
LINE
  8
_2-2_
  6
CONTINUOUS
 62
    7
 10
1439.3784486188849
 20
3796.2296195011804
 11
1439.3750584723869
 21
3796.129883578385
  0
LINE
  8
_2-2_
  6
CONTINUOUS
 62
    7
 10
1439.3750584723869
 20
3796.129883578385
 11
1443.3725879919575
 21
3795.9903407741235
  0
LINE
  8
_2-2_
  6
CONTINUOUS
 62
    7
 10
1443.3725879919575
 20
3795.9903407741235
 11
1443.3760874980201
 21
3796.090076696918
  0
LINE
  8
_2-2_
  6
CONTINUOUS
 62
    7
 10
1443.3760874980201
 20
3796.090076696918
 11
1439.3784486188849
 21
3796.2296195011804
  0
LINE
  8
_2-2_
  6
CONTINUOUS
 62
    7
 10
1439.3784486188849
 20
3797.2296033586772
 11
1439.3750584723869
 21
3797.1298674358823
  0
LINE
  8
_2-2_
  6
CONTINUOUS
 62
    7
 10
1439.3750584723869
 20
3797.1298674358823
 11
1443.3725879919575
 21
3796.9903246316208
  0
LINE
  8
_2-2_
  6
CONTINUOUS
 62
    7
 10
1443.3725879919575
 20
3796.9903246316208
 11
1443.3760874980201
 21
3797.0900605544157
  0
LINE
  8
_2-2_
  6
CONTINUOUS
 62
    7
 10
1443.3760874980201
 20
3797.0900605544157
 11
1439.3784486188849
 21
3797.2296033586772
  0
LINE
  8
_2-2_
  6
CONTINUOUS
 62
    7
 10
1439.3784486188849
 20
3798.2295872161744
 11
1439.3750584723869
 21
3798.1298512933799
  0
LINE
  8
_2-2_
  6
CONTINUOUS
 62
    7
 10
1439.3750584723869
 20
3798.1298512933799
 11
1443.3725879919575
 21
3797.9903084891184
  0
LINE
  8
_2-2_
  6
CONTINUOUS
 62
    7
 10
1443.3725879919575
 20
3797.9903084891184
 11
1443.3760874980201
 21
3798.0900444119129
  0
LINE
  8
_2-2_
  6
CONTINUOUS
 62
    7
 10
1443.3760874980201
 20
3798.0900444119129
 11
1439.3784486188849
 21
3798.2295872161744
  0
LINE
  8
_2-2_
  6
CONTINUOUS
 62
    7
 10
1439.3784486188849
 20
3799.2295710736721
 11
1439.3750584723869
 21
3799.1298351508767
  0
LINE
  8
_2-2_
  6
CONTINUOUS
 62
    7
 10
1439.3750584723869
 20
3799.1298351508767
 11
1443.3725879919575
 21
3798.9902923466152
  0
LINE
  8
_2-2_
  6
CONTINUOUS
 62
    7
 10
1443.3725879919575
 20
3798.9902923466152
 11
1443.3760874980201
 21
3799.0900282694106
  0
LINE
  8
_2-2_
  6
CONTINUOUS
 62
    7
 10
1443.3760874980201
 20
3799.0900282694106
 11
1439.3784486188849
 21
3799.2295710736721
  0
LINE
  8
_2-2_
  6
CONTINUOUS
 62
    7
 10
1439.3784486188849
 20
3800.2295549311689
 11
1439.3750584723869
 21
3800.1298190083739
  0
LINE
  8
_2-2_
  6
CONTINUOUS
 62
    7
 10
1439.3750584723869
 20
3800.1298190083739
 11
1443.3725879919575
 21
3799.9902762041124
  0
LINE
  8
_2-2_
  6
CONTINUOUS
 62
    7
 10
1443.3725879919575
 20
3799.9902762041124
 11
1443.3760874980201
 21
3800.0900121269078
  0
LINE
  8
_2-2_
  6
CONTINUOUS
 62
    7
 10
1443.3760874980201
 20
3800.0900121269078
 11
1439.3784486188849
 21
3800.2295549311689
  0
LINE
  8
_2-2_
  6
CONTINUOUS
 62
    7
 10
1439.3784486188849
 20
3801.2295387886666
 11
1439.3750584723869
 21
3801.1298028658716
  0
LINE
  8
_2-2_
  6
CONTINUOUS
 62
    7
 10
1439.3750584723869
 20
3801.1298028658716
 11
1443.3725879919575
 21
3800.9902600616101
  0
LINE
  8
_2-2_
  6
CONTINUOUS
 62
    7
 10
1443.3725879919575
 20
3800.9902600616101
 11
1443.3760874980201
 21
3801.0899959844046
  0
LINE
  8
_2-2_
  6
CONTINUOUS
 62
    7
 10
1443.3760874980201
 20
3801.0899959844046
 11
1439.3784486188849
 21
3801.2295387886666
  0
LINE
  8
_2-2_
  6
CONTINUOUS
 62
    7
 10
1439.3784486188849
 20
3802.2295226461638
 11
1439.3750584723869
 21
3802.1297867233684
  0
LINE
  8
_2-2_
  6
CONTINUOUS
 62
    7
 10
1439.3750584723869
 20
3802.1297867233684
 11
1443.3725879919575
 21
3801.9902439191073
  0
LINE
  8
_2-2_
  6
CONTINUOUS
 62
    7
 10
1443.3725879919575
 20
3801.9902439191073
 11
1443.3760874980201
 21
3802.0899798419023
  0
LINE
  8
_2-2_
  6
CONTINUOUS
 62
    7
 10
1443.3760874980201
 20
3802.0899798419023
 11
1439.3784486188849
 21
3802.2295226461638
  0
LINE
  8
_2-2_
  6
CONTINUOUS
 62
    7
 10
1439.3784486188849
 20
3803.2295065036606
 11
1439.3750584723869
 21
3803.1297705808661
  0
LINE
  8
_2-2_
  6
CONTINUOUS
 62
    7
 10
1439.3750584723869
 20
3803.1297705808661
 11
1443.3725879919575
 21
3802.990227776605
  0
LINE
  8
_2-2_
  6
CONTINUOUS
 62
    7
 10
1443.3725879919575
 20
3802.990227776605
 11
1443.3760874980201
 21
3803.0899636993995
  0
LINE
  8
_2-2_
  6
CONTINUOUS
 62
    7
 10
1443.3760874980201
 20
3803.0899636993995
 11
1439.3784486188849
 21
3803.2295065036606
  0
LINE
  8
_2-2_
  6
CONTINUOUS
 62
    7
 10
1439.3784486188849
 20
3804.2299277994161
 11
1439.3750584723869
 21
3804.1297544383633
  0
LINE
  8
_2-2_
  6
CONTINUOUS
 62
    7
 10
1439.3750584723869
 20
3804.1297544383633
 11
1443.3725879919575
 21
3803.9902116341018
  0
LINE
  8
_2-2_
  6
CONTINUOUS
 62
    7
 10
1443.3725879919575
 20
3803.9902116341018
 11
1443.3760874980201
 21
3804.0899475568972
  0
LINE
  8
_2-2_
  6
CONTINUOUS
 62
    7
 10
1443.3760874980201
 20
3804.0899475568972
 11
1439.3784486188849
 21
3804.2299277994161
  0
LINE
  8
_2-2_
  6
CONTINUOUS
 62
    7
 10
1439.3784486188849
 20
3805.2299116569129
 11
1439.3750584723869
 21
3805.1297382958601
  0
LINE
  8
_2-2_
  6
CONTINUOUS
 62
    7
 10
1439.3750584723869
 20
3805.1297382958601
 11
1443.3725879919575
 21
3804.990195491599
  0
LINE
  8
_2-2_
  6
CONTINUOUS
 62
    7
 10
1443.3725879919575
 20
3804.990195491599
 11
1443.3760874980201
 21
3805.089931414394
  0
LINE
  8
_2-2_
  6
CONTINUOUS
 62
    7
 10
1443.3760874980201
 20
3805.089931414394
 11
1439.3784486188849
 21
3805.2299116569129
  0
LINE
  8
_2-2_
  6
CONTINUOUS
 62
    7
 10
1439.3784486188849
 20
3806.2298955144106
 11
1439.3750584723869
 21
3806.1297221533578
  0
LINE
  8
_2-2_
  6
CONTINUOUS
 62
    7
 10
1439.3750584723869
 20
3806.1297221533578
 11
1443.3725879919575
 21
3805.9901793490967
  0
LINE
  8
_2-2_
  6
CONTINUOUS
 62
    7
 10
1443.3725879919575
 20
3805.9901793490967
 11
1443.3760874980201
 21
3806.0899152718912
  0
LINE
  8
_2-2_
  6
CONTINUOUS
 62
    7
 10
1443.3760874980201
 20
3806.0899152718912
 11
1439.3784486188849
 21
3806.2298955144106
  0
LINE
  8
_2-2_
  6
CONTINUOUS
 62
    7
 10
1439.3784486188849
 20
3807.2298793719078
 11
1439.3750584723869
 21
3807.129706010855
  0
LINE
  8
_2-2_
  6
CONTINUOUS
 62
    7
 10
1439.3750584723869
 20
3807.129706010855
 11
1443.3725879919575
 21
3806.9901632065935
  0
LINE
  8
_2-2_
  6
CONTINUOUS
 62
    7
 10
1443.3725879919575
 20
3806.9901632065935
 11
1443.3760874980201
 21
3807.0898991293889
  0
LINE
  8
_2-2_
  6
CONTINUOUS
 62
    7
 10
1443.3760874980201
 20
3807.0898991293889
 11
1439.3784486188849
 21
3807.2298793719078
  0
LINE
  8
_2-2_
  6
CONTINUOUS
 62
    7
 10
1439.3784486188849
 20
3808.2298632294055
 11
1439.3750584723869
 21
3808.1296898683527
  0
LINE
  8
_2-2_
  6
CONTINUOUS
 62
    7
 10
1439.3750584723869
 20
3808.1296898683527
 11
1443.3725879919575
 21
3807.9901470640912
  0
LINE
  8
_2-2_
  6
CONTINUOUS
 62
    7
 10
1443.3725879919575
 20
3807.9901470640912
 11
1443.3760874980201
 21
3808.0903204251435
  0
LINE
  8
_2-2_
  6
CONTINUOUS
 62
    7
 10
1443.3760874980201
 20
3808.0903204251435
 11
1439.3784486188849
 21
3808.2298632294055
  0
LINE
  8
_2-2_
  6
CONTINUOUS
 62
    7
 10
1439.3784486188849
 20
3809.2298470869027
 11
1439.3750584723869
 21
3809.1296737258494
  0
LINE
  8
_2-2_
  6
CONTINUOUS
 62
    7
 10
1439.3750584723869
 20
3809.1296737258494
 11
1443.3725879919575
 21
3808.9901309215884
  0
LINE
  8
_2-2_
  6
CONTINUOUS
 62
    7
 10
1443.3725879919575
 20
3808.9901309215884
 11
1443.3760874980201
 21
3809.0903042826412
  0
LINE
  8
_2-2_
  6
CONTINUOUS
 62
    7
 10
1443.3760874980201
 20
3809.0903042826412
 11
1439.3784486188849
 21
3809.2298470869027
  0
LINE
  8
_2-2_
  6
CONTINUOUS
 62
    7
 10
1444.7705313045547
 20
3810.7586937981678
 11
1444.7705313045547
 21
3809.758709940671
  0
LINE
  8
_2-2_
  6
CONTINUOUS
 62
    7
 10
1444.7705313045547
 20
3809.758709940671
 11
1437.7705349425091
 21
3809.758709940671
  0
LINE
  8
_2-2_
  6
CONTINUOUS
 62
    7
 10
1437.7705349425091
 20
3809.758709940671
 11
1437.7705349425091
 21
3810.7586937981678
  0
LINE
  8
_2-2_
  6
CONTINUOUS
 62
    7
 10
1443.7705474470572
 20
3811.7586776556655
 11
1438.7705188000061
 21
3811.7586776556655
  0
LINE
  8
_2-2_
  6
CONTINUOUS
 62
    7
 10
1437.8635999318715
 20
3808.9293270037438
 11
1444.8635962939172
 21
3808.9293270037438
  0
LINE
  8
_2-2_
  6
CONTINUOUS
 62
    7
 10
1444.8635962939172
 20
3808.9293270037438
 11
1444.8635962939172
 21
3807.4293512174982
  0
LINE
  8
_2-2_
  6
CONTINUOUS
 62
    7
 10
1444.8635962939172
 20
3807.4293512174982
 11
1437.8635999318715
 21
3807.4293512174982
  0
LINE
  8
_2-2_
  6
CONTINUOUS
 62
    7
 10
1437.8635999318715
 20
3807.4293512174982
 11
1437.8635999318715
 21
3808.9293270037438
  0
LINE
  8
_2-2_
  6
CONTINUOUS
 62
    7
 10
1436.6962959407379
 20
3807.2241926745555
 11
1445.6962600177778
 21
3807.2241926745555
  0
LINE
  8
_2-2_
  6
CONTINUOUS
 62
    7
 10
1445.6962600177778
 20
3807.2241926745555
 11
1445.6962600177778
 21
3806.2242088170583
  0
LINE
  8
_2-2_
  6
CONTINUOUS
 62
    7
 10
1445.6962600177778
 20
3806.2242088170583
 11
1436.6962959407379
 21
3806.2242088170583
  0
LINE
  8
_2-2_
  6
CONTINUOUS
 62
    7
 10
1436.6962959407379
 20
3806.2242088170583
 11
1436.6962959407379
 21
3807.2241926745555
  0
LINE
  8
_2-2_
  6
CONTINUOUS
 62
    7
 10
1341.9121742248535
 20
3805.5601775416071
 11
1474.9121051037171
 21
3805.5601775416071
  0
LINE
  8
_2-2_
  6
CONTINUOUS
 62
    7
 10
1474.9121051037171
 20
3805.5601775416071
 11
1474.9121051037171
 21
3800.560258254121
  0
LINE
  8
_2-2_
  6
CONTINUOUS
 62
    7
 10
1474.9121051037171
 20
3800.560258254121
 11
1341.9121742248535
 21
3800.560258254121
  0
LINE
  8
_2-2_
  6
CONTINUOUS
 62
    7
 10
1341.9121742248535
 20
3800.560258254121
 11
1341.9121742248535
 21
3805.5601775416071
  0
LINE
  8
_2-2_
  6
CONTINUOUS
 62
    7
 10
1341.964666815798
 20
3800.63855970228
 11
1474.964597694662
 21
3800.63855970228
  0
LINE
  8
_2-2_
  6
CONTINUOUS
 62
    7
 10
1474.964597694662
 20
3800.63855970228
 11
1474.964597694662
 21
3795.6386404147934
  0
LINE
  8
_2-2_
  6
CONTINUOUS
 62
    7
 10
1474.964597694662
 20
3795.6386404147934
 11
1341.964666815798
 21
3795.6386404147934
  0
LINE
  8
_2-2_
  6
CONTINUOUS
 62
    7
 10
1341.964666815798
 20
3795.6386404147934
 11
1341.964666815798
 21
3800.63855970228
  0
LINE
  8
_2-2_
  6
CONTINUOUS
 62
    7
 10
1371.3359118428471
 20
3795.6452019886619
 11
1370.8359199140982
 21
3795.5113458817527
  0
LINE
  8
_2-2_
  6
CONTINUOUS
 62
    7
 10
1370.8359199140982
 20
3795.5113458817527
 11
1370.8359199140982
 21
3792.7791065230795
  0
LINE
  8
_2-2_
  6
CONTINUOUS
 62
    7
 10
1370.8359199140982
 20
3792.7791065230795
 11
1371.3359118428471
 21
3792.6452504161703
  0
LINE
  8
_2-2_
  6
CONTINUOUS
 62
    7
 10
1371.3359118428471
 20
3792.6452504161703
 11
1377.3359243473951
 21
3792.6452504161703
  0
LINE
  8
_2-2_
  6
CONTINUOUS
 62
    7
 10
1377.3359243473951
 20
3792.6452504161703
 11
1377.8359162761437
 21
3792.7791065230795
  0
LINE
  8
_2-2_
  6
CONTINUOUS
 62
    7
 10
1377.8359162761437
 20
3792.7791065230795
 11
1377.8359162761437
 21
3795.5113458817527
  0
LINE
  8
_2-2_
  6
CONTINUOUS
 62
    7
 10
1377.8359162761437
 20
3795.5113458817527
 11
1377.3359243473951
 21
3795.6452019886619
  0
LINE
  8
_2-2_
  6
CONTINUOUS
 62
    7
 10
1377.3359243473951
 20
3795.6452019886619
 11
1371.3359118428471
 21
3795.6452019886619
  0
LINE
  8
_2-2_
  6
CONTINUOUS
 62
    7
 10
1374.1004122730387
 20
3795.6452019886619
 11
1374.1004122730387
 21
3792.6452504161703
  0
LINE
  8
_2-2_
  6
CONTINUOUS
 62
    7
 10
1405.3269423112904
 20
3795.6495763712405
 11
1404.8269503825416
 21
3795.5157202643313
  0
LINE
  8
_2-2_
  6
CONTINUOUS
 62
    7
 10
1404.8269503825416
 20
3795.5157202643313
 11
1404.8269503825416
 21
3792.7834809056576
  0
LINE
  8
_2-2_
  6
CONTINUOUS
 62
    7
 10
1404.8269503825416
 20
3792.7834809056576
 11
1405.3269423112904
 21
3792.6496247987488
  0
LINE
  8
_2-2_
  6
CONTINUOUS
 62
    7
 10
1405.3269423112904
 20
3792.6496247987488
 11
1411.3269548158385
 21
3792.6496247987488
  0
LINE
  8
_2-2_
  6
CONTINUOUS
 62
    7
 10
1411.3269548158385
 20
3792.6496247987488
 11
1411.8269467445873
 21
3792.7834809056576
  0
LINE
  8
_2-2_
  6
CONTINUOUS
 62
    7
 10
1411.8269467445873
 20
3792.7834809056576
 11
1411.8269467445873
 21
3795.5157202643313
  0
LINE
  8
_2-2_
  6
CONTINUOUS
 62
    7
 10
1411.8269467445873
 20
3795.5157202643313
 11
1411.3269548158385
 21
3795.6495763712405
  0
LINE
  8
_2-2_
  6
CONTINUOUS
 62
    7
 10
1411.3269548158385
 20
3795.6495763712405
 11
1405.3269423112904
 21
3795.6495763712405
  0
LINE
  8
_2-2_
  6
CONTINUOUS
 62
    7
 10
1408.0914427414825
 20
3795.6495763712405
 11
1408.0914427414825
 21
3792.6496247987488
  0
LINE
  8
_2-2_
  6
CONTINUOUS
 62
    7
 10
1438.649239043011
 20
3795.6495763712405
 11
1438.1492471142626
 21
3795.5157202643313
  0
LINE
  8
_2-2_
  6
CONTINUOUS
 62
    7
 10
1438.1492471142626
 20
3795.5157202643313
 11
1438.1492471142626
 21
3792.7834809056576
  0
LINE
  8
_2-2_
  6
CONTINUOUS
 62
    7
 10
1438.1492471142626
 20
3792.7834809056576
 11
1438.649239043011
 21
3792.6496247987488
  0
LINE
  8
_2-2_
  6
CONTINUOUS
 62
    7
 10
1438.649239043011
 20
3792.6496247987488
 11
1444.6492515475591
 21
3792.6496247987488
  0
LINE
  8
_2-2_
  6
CONTINUOUS
 62
    7
 10
1444.6492515475591
 20
3792.6496247987488
 11
1445.1492434763079
 21
3792.7834809056576
  0
LINE
  8
_2-2_
  6
CONTINUOUS
 62
    7
 10
1445.1492434763079
 20
3792.7834809056576
 11
1445.1492434763079
 21
3795.5157202643313
  0
LINE
  8
_2-2_
  6
CONTINUOUS
 62
    7
 10
1445.1492434763079
 20
3795.5157202643313
 11
1444.6492515475591
 21
3795.6495763712405
  0
LINE
  8
_2-2_
  6
CONTINUOUS
 62
    7
 10
1444.6492515475591
 20
3795.6495763712405
 11
1438.649239043011
 21
3795.6495763712405
  0
LINE
  8
_2-2_
  6
CONTINUOUS
 62
    7
 10
1441.4136301136384
 20
3795.6495763712405
 11
1441.4136301136384
 21
3792.6496247987488
  0
LINE
  8
_2-2_
  6
CONTINUOUS
 62
    7
 10
1467.609182748095
 20
3795.4474798961028
 11
1467.1091908193462
 21
3795.3131863509361
  0
LINE
  8
_2-2_
  6
CONTINUOUS
 62
    7
 10
1467.1091908193462
 20
3795.3131863509361
 11
1467.1091908193462
 21
3792.5813844305203
  0
LINE
  8
_2-2_
  6
CONTINUOUS
 62
    7
 10
1467.1091908193462
 20
3792.5813844305203
 11
1467.609182748095
 21
3792.4475283236111
  0
LINE
  8
_2-2_
  6
CONTINUOUS
 62
    7
 10
1467.609182748095
 20
3792.4475283236111
 11
1473.6091952526428
 21
3792.4475283236111
  0
LINE
  8
_2-2_
  6
CONTINUOUS
 62
    7
 10
1473.6091952526428
 20
3792.4475283236111
 11
1474.1091871813915
 21
3792.5813844305203
  0
LINE
  8
_2-2_
  6
CONTINUOUS
 62
    7
 10
1474.1091871813915
 20
3792.5813844305203
 11
1474.1091871813915
 21
3795.3131863509361
  0
LINE
  8
_2-2_
  6
CONTINUOUS
 62
    7
 10
1474.1091871813915
 20
3795.3131863509361
 11
1473.6091952526428
 21
3795.4474798961028
  0
LINE
  8
_2-2_
  6
CONTINUOUS
 62
    7
 10
1473.6091952526428
 20
3795.4474798961028
 11
1467.609182748095
 21
3795.4474798961028
  0
LINE
  8
_2-2_
  6
CONTINUOUS
 62
    7
 10
1470.3736831782867
 20
3795.4474798961028
 11
1470.3736831782867
 21
3792.4475283236111
  0
LINE
  8
_2-2_
  6
CONTINUOUS
 62
    7
 10
1358.9985125773658
 20
3885.3887226590778
 11
1457.9985548630646
 21
3885.3887226590778
  0
LINE
  8
_2-2_
  6
CONTINUOUS
 62
    7
 10
1457.9985548630646
 20
3885.3887226590778
 11
1457.9985548630646
 21
3850.3884127701567
  0
LINE
  8
_2-2_
  6
CONTINUOUS
 62
    7
 10
1457.9985548630646
 20
3850.3884127701567
 11
1358.9985125773658
 21
3850.3884127701567
  0
LINE
  8
_2-2_
  6
CONTINUOUS
 62
    7
 10
1358.9985125773658
 20
3850.3884127701567
 11
1358.9985125773658
 21
3885.3887226590778
  0
LINE
  8
_2-2_
  6
CONTINUOUS
 62
    7
 10
1465.9862868113869
 20
3850.5038964702353
 11
1465.9862868113869
 21
3868.5040433434447
  0
LINE
  8
_2-2_
  6
CONTINUOUS
 62
    7
 10
1465.9862868113869
 20
3868.5040433434447
 11
1463.9863190963922
 21
3868.5040433434447
  0
LINE
  8
_2-2_
  6
CONTINUOUS
 62
    7
 10
1463.9863190963922
 20
3868.5040433434447
 11
1463.9863190963922
 21
3885.3926596033984
  0
LINE
  8
_2-2_
  6
CONTINUOUS
 62
    7
 10
1463.9863190963922
 20
3885.3926596033984
 11
1457.9863065918439
 21
3885.3926596033984
  0
LINE
  8
_2-2_
  6
CONTINUOUS
 62
    7
 10
1457.9863065918439
 20
3885.3926596033984
 11
1457.9863065918439
 21
3850.5038964702353
  0
LINE
  8
_2-2_
  6
CONTINUOUS
 62
    7
 10
1457.9863065918439
 20
3850.5038964702353
 11
1465.9862868113869
 21
3850.5038964702353
  0
LINE
  8
_2-2_
  6
CONTINUOUS
 62
    7
 10
1351.1737263801017
 20
3850.7541111537384
 11
1351.1737263801017
 21
3868.7542580269478
  0
LINE
  8
_2-2_
  6
CONTINUOUS
 62
    7
 10
1351.1737263801017
 20
3868.7542580269478
 11
1353.1738034546606
 21
3868.7542580269478
  0
LINE
  8
_2-2_
  6
CONTINUOUS
 62
    7
 10
1353.1738034546606
 20
3868.7542580269478
 11
1353.1738034546606
 21
3885.642874286902
  0
LINE
  8
_2-2_
  6
CONTINUOUS
 62
    7
 10
1353.1738034546606
 20
3885.642874286902
 11
1359.173706599644
 21
3885.642874286902
  0
LINE
  8
_2-2_
  6
CONTINUOUS
 62
    7
 10
1359.173706599644
 20
3885.642874286902
 11
1359.173706599644
 21
3850.7541111537384
  0
LINE
  8
_2-2_
  6
CONTINUOUS
 62
    7
 10
1359.173706599644
 20
3850.7541111537384
 11
1351.1737263801017
 21
3850.7541111537384
  0
LINE
  8
_2-2_
  6
CONTINUOUS
 62
    7
 10
1371.7630703016596
 20
3868.4882955661606
 11
1372.763054159157
 21
3868.4882955661606
  0
LINE
  8
_2-2_
  6
CONTINUOUS
 62
    7
 10
1372.763054159157
 20
3868.4882955661606
 11
1372.763054159157
 21
3850.4885861312096
  0
LINE
  8
_2-2_
  6
CONTINUOUS
 62
    7
 10
1372.763054159157
 20
3850.4885861312096
 11
1371.7630703016596
 21
3850.4885861312096
  0
LINE
  8
_2-2_
  6
CONTINUOUS
 62
    7
 10
1371.7630703016596
 20
3850.4885861312096
 11
1371.7630703016596
 21
3868.4882955661606
  0
LINE
  8
_2-2_
  6
CONTINUOUS
 62
    7
 10
1372.7581329787561
 20
3850.5038964702353
 11
1372.7581329787561
 21
3868.5040433434447
  0
LINE
  8
_2-2_
  6
CONTINUOUS
 62
    7
 10
1372.7581329787561
 20
3868.5040433434447
 11
1374.2582181245662
 21
3868.5040433434447
  0
LINE
  8
_2-2_
  6
CONTINUOUS
 62
    7
 10
1374.2582181245662
 20
3868.5040433434447
 11
1374.2582181245662
 21
3885.3926596033984
  0
LINE
  8
_2-2_
  6
CONTINUOUS
 62
    7
 10
1374.2582181245662
 20
3885.3926596033984
 11
1378.7581454833041
 21
3885.3926596033984
  0
LINE
  8
_2-2_
  6
CONTINUOUS
 62
    7
 10
1378.7581454833041
 20
3885.3926596033984
 11
1378.7581454833041
 21
3850.5038964702353
  0
LINE
  8
_2-2_
  6
CONTINUOUS
 62
    7
 10
1378.7581454833041
 20
3850.5038964702353
 11
1372.7581329787561
 21
3850.5038964702353
  0
LINE
  8
_2-2_
  6
CONTINUOUS
 62
    7
 10
1440.0576808737974
 20
3850.3521053947538
 11
1440.0576808737974
 21
3868.3522522679623
  0
LINE
  8
_2-2_
  6
CONTINUOUS
 62
    7
 10
1440.0576808737974
 20
3868.3522522679623
 11
1438.5577050875511
 21
3868.3522522679623
  0
LINE
  8
_2-2_
  6
CONTINUOUS
 62
    7
 10
1438.5577050875511
 20
3868.3522522679623
 11
1438.5577050875511
 21
3885.2408685279165
  0
LINE
  8
_2-2_
  6
CONTINUOUS
 62
    7
 10
1438.5577050875511
 20
3885.2408685279165
 11
1434.0576683692489
 21
3885.2408685279165
  0
LINE
  8
_2-2_
  6
CONTINUOUS
 62
    7
 10
1434.0576683692489
 20
3885.2408685279165
 11
1434.0576683692489
 21
3850.3521053947538
  0
LINE
  8
_2-2_
  6
CONTINUOUS
 62
    7
 10
1434.0576683692489
 20
3850.3521053947538
 11
1440.0576808737974
 21
3850.3521053947538
  0
LINE
  8
_2-2_
  6
CONTINUOUS
 62
    7
 10
1440.1112670603866
 20
3868.1247843738688
 11
1441.1112509178838
 21
3868.1247843738688
  0
LINE
  8
_2-2_
  6
CONTINUOUS
 62
    7
 10
1441.1112509178838
 20
3868.1247843738688
 11
1441.1112509178838
 21
3850.1246375006594
  0
LINE
  8
_2-2_
  6
CONTINUOUS
 62
    7
 10
1441.1112509178838
 20
3850.1246375006594
 11
1440.1112670603866
 21
3850.1246375006594
  0
LINE
  8
_2-2_
  6
CONTINUOUS
 62
    7
 10
1440.1112670603866
 20
3850.1246375006594
 11
1440.1112670603866
 21
3868.1247843738688
  0
LINE
  8
_2-2_
  6
CONTINUOUS
 62
    7
 10
1373.1469062304407
 20
3885.2408685279165
 11
1374.1469994475021
 21
3885.2408685279165
  0
LINE
  8
_2-2_
  6
CONTINUOUS
 62
    7
 10
1374.1469994475021
 20
3885.2408685279165
 11
1374.1469994475021
 21
3868.2407055122048
  0
LINE
  8
_2-2_
  6
CONTINUOUS
 62
    7
 10
1374.1469994475021
 20
3868.2407055122048
 11
1373.1469062304407
 21
3868.2407055122048
  0
LINE
  8
_2-2_
  6
CONTINUOUS
 62
    7
 10
1373.1469062304407
 20
3868.2407055122048
 11
1373.1469062304407
 21
3885.2408685279165
  0
LINE
  8
_2-2_
  6
CONTINUOUS
 62
    7
 10
1385.6171773667497
 20
3902.6425998643554
 11
1432.6171841860737
 21
3902.6425998643554
  0
LINE
  8
_2-2_
  6
CONTINUOUS
 62
    7
 10
1432.6171841860737
 20
3902.6425998643554
 11
1432.6171841860737
 21
3885.6424368486437
  0
LINE
  8
_2-2_
  6
CONTINUOUS
 62
    7
 10
1432.6171841860737
 20
3885.6424368486437
 11
1385.6171773667497
 21
3885.6424368486437
  0
LINE
  8
_2-2_
  6
CONTINUOUS
 62
    7
 10
1385.6171773667497
 20
3885.6424368486437
 11
1385.6171773667497
 21
3902.6425998643554
  0
LINE
  8
_2-2_
  6
CONTINUOUS
 62
    7
 10
1384.5129738443145
 20
3902.0279991120437
 11
1384.5129738443145
 21
3902.4278176797402
  0
LINE
  8
_2-2_
  6
CONTINUOUS
 62
    7
 10
1384.5129738443145
 20
3902.4278176797402
 11
1433.5130577381974
 21
3901.2296742914268
  0
LINE
  8
_2-2_
  6
CONTINUOUS
 62
    7
 10
1433.5130577381974
 20
3901.2296742914268
 11
1433.5130577381974
 21
3900.8298557237304
  0
LINE
  8
_2-2_
  6
CONTINUOUS
 62
    7
 10
1433.5130577381974
 20
3900.8298557237304
 11
1384.5129738443145
 21
3902.0279991120437
  0
LINE
  8
_2-2_
  6
CONTINUOUS
 62
    7
 10
1384.5129738443145
 20
3899.0280475395521
 11
1384.5129738443145
 21
3899.4278661072485
  0
LINE
  8
_2-2_
  6
CONTINUOUS
 62
    7
 10
1384.5129738443145
 20
3899.4278661072485
 11
1433.5130577381974
 21
3898.2297227189342
  0
LINE
  8
_2-2_
  6
CONTINUOUS
 62
    7
 10
1433.5130577381974
 20
3898.2297227189342
 11
1433.5130577381974
 21
3897.8299041512387
  0
LINE
  8
_2-2_
  6
CONTINUOUS
 62
    7
 10
1433.5130577381974
 20
3897.8299041512387
 11
1384.5129738443145
 21
3899.0280475395521
  0
LINE
  8
_2-2_
  6
CONTINUOUS
 62
    7
 10
1384.5129738443145
 20
3896.0280959670604
 11
1384.5129738443145
 21
3896.4279145347559
  0
LINE
  8
_2-2_
  6
CONTINUOUS
 62
    7
 10
1384.5129738443145
 20
3896.4279145347559
 11
1433.5130577381974
 21
3895.2297711464425
  0
LINE
  8
_2-2_
  6
CONTINUOUS
 62
    7
 10
1433.5130577381974
 20
3895.2297711464425
 11
1433.5130577381974
 21
3894.829952578747
  0
LINE
  8
_2-2_
  6
CONTINUOUS
 62
    7
 10
1433.5130577381974
 20
3894.829952578747
 11
1384.5129738443145
 21
3896.0280959670604
  0
LINE
  8
_2-2_
  6
CONTINUOUS
 62
    7
 10
1384.5129738443145
 20
3893.0277069563112
 11
1384.5129738443145
 21
3893.4279629622642
  0
LINE
  8
_2-2_
  6
CONTINUOUS
 62
    7
 10
1384.5129738443145
 20
3893.4279629622642
 11
1433.5130577381974
 21
3892.2298195739509
  0
LINE
  8
_2-2_
  6
CONTINUOUS
 62
    7
 10
1433.5130577381974
 20
3892.2298195739509
 11
1433.5130577381974
 21
3891.8300010062553
  0
LINE
  8
_2-2_
  6
CONTINUOUS
 62
    7
 10
1433.5130577381974
 20
3891.8300010062553
 11
1384.5129738443145
 21
3893.0277069563112
  0
LINE
  8
_2-2_
  6
CONTINUOUS
 62
    7
 10
1384.5129738443145
 20
3890.0277553838187
 11
1384.5129738443145
 21
3890.4280113897726
  0
LINE
  8
_2-2_
  6
CONTINUOUS
 62
    7
 10
1384.5129738443145
 20
3890.4280113897726
 11
1433.5130577381974
 21
3889.2298680014592
  0
LINE
  8
_2-2_
  6
CONTINUOUS
 62
    7
 10
1433.5130577381974
 20
3889.2298680014592
 11
1433.5130577381974
 21
3888.8300494337636
  0
LINE
  8
_2-2_
  6
CONTINUOUS
 62
    7
 10
1433.5130577381974
 20
3888.8300494337636
 11
1384.5129738443145
 21
3890.0277553838187
  0
LINE
  8
_2-2_
  6
CONTINUOUS
 62
    7
 10
1384.5129738443145
 20
3887.027803811327
 11
1384.5129738443145
 21
3887.4280598172809
  0
LINE
  8
_2-2_
  6
CONTINUOUS
 62
    7
 10
1384.5129738443145
 20
3887.4280598172809
 11
1433.5130577381974
 21
3886.2299164289675
  0
LINE
  8
_2-2_
  6
CONTINUOUS
 62
    7
 10
1433.5130577381974
 20
3886.2299164289675
 11
1433.5130577381974
 21
3885.8296604230136
  0
LINE
  8
_2-2_
  6
CONTINUOUS
 62
    7
 10
1433.5130577381974
 20
3885.8296604230136
 11
1384.5129738443145
 21
3887.027803811327
  0
LINE
  8
_2-2_
  6
CONTINUOUS
 62
    7
 10
1390.1113086685712
 20
3885.1424449198953
 11
1428.1112420512902
 21
3885.1424449198953
  0
LINE
  8
_2-2_
  6
CONTINUOUS
 62
    7
 10
1428.1112420512902
 20
3885.1424449198953
 11
1428.1112420512902
 21
3850.6421269597231
  0
LINE
  8
_2-2_
  6
CONTINUOUS
 62
    7
 10
1428.1112420512902
 20
3850.6421269597231
 11
1390.1113086685712
 21
3850.6421269597231
  0
LINE
  8
_2-2_
  6
CONTINUOUS
 62
    7
 10
1390.1113086685712
 20
3850.6421269597231
 11
1390.1113086685712
 21
3885.1424449198953
  0
LINE
  8
_2-2_
  6
CONTINUOUS
 62
    7
 10
1408.2898209914276
 20
3868.4051822971655
 11
1409.2898048489251
 21
3868.4051822971655
  0
LINE
  8
_2-2_
  6
CONTINUOUS
 62
    7
 10
1409.2898048489251
 20
3868.4051822971655
 11
1409.2898048489251
 21
3850.4050354239562
  0
LINE
  8
_2-2_
  6
CONTINUOUS
 62
    7
 10
1409.2898048489251
 20
3850.4050354239562
 11
1408.2898209914276
 21
3850.4050354239562
  0
LINE
  8
_2-2_
  6
CONTINUOUS
 62
    7
 10
1408.2898209914276
 20
3850.4050354239562
 11
1408.2898209914276
 21
3868.4051822971655
  0
LINE
  8
_2-2_
  6
CONTINUOUS
 62
    7
 10
1408.2898209914276
 20
3885.3747246348257
 11
1409.2898048489251
 21
3885.3747246348257
  0
LINE
  8
_2-2_
  6
CONTINUOUS
 62
    7
 10
1409.2898048489251
 20
3885.3747246348257
 11
1409.2898048489251
 21
3868.374561619114
  0
LINE
  8
_2-2_
  6
CONTINUOUS
 62
    7
 10
1409.2898048489251
 20
3868.374561619114
 11
1408.2898209914276
 21
3868.374561619114
  0
LINE
  8
_2-2_
  6
CONTINUOUS
 62
    7
 10
1408.2898209914276
 20
3868.374561619114
 11
1408.2898209914276
 21
3885.3747246348257
  0
LINE
  8
_2-2_
  6
CONTINUOUS
 62
    7
 10
2860.9461611302199
 20
3912.4049094653037
 11
2885.9459762867809
 21
3912.4049094653037
  0
LINE
  8
_2-2_
  6
CONTINUOUS
 62
    7
 10
2885.9459762867809
 20
3912.4049094653037
 11
2885.9459762867809
 21
3627.4049169768696
  0
LINE
  8
_2-2_
  6
CONTINUOUS
 62
    7
 10
2885.9459762867809
 20
3627.4049169768696
 11
2860.9461611302199
 21
3627.4049169768696
  0
LINE
  8
_2-2_
  6
CONTINUOUS
 62
    7
 10
2860.9461611302199
 20
3627.4049169768696
 11
2860.9461611302199
 21
3912.4049094653037
  0
LINE
  8
_2-2_
  6
CONTINUOUS
 62
    7
 10
2677.872782232218
 20
3912.5085823324193
 11
2698.3728887491702
 21
3912.5085823324193
  0
LINE
  8
_2-2_
  6
CONTINUOUS
 62
    7
 10
2698.3728887491702
 20
3912.5085823324193
 11
2698.3728887491702
 21
3627.5083711248562
  0
LINE
  8
_2-2_
  6
CONTINUOUS
 62
    7
 10
2698.3728887491702
 20
3627.5083711248562
 11
2677.872782232218
 21
3627.5083711248562
  0
LINE
  8
_2-2_
  6
CONTINUOUS
 62
    7
 10
2677.872782232218
 20
3627.5083711248562
 11
2677.872782232218
 21
3912.5085823324193
  0
LINE
  8
_2-2_
  6
CONTINUOUS
 62
    7
 10
1426.308996428854
 20
3912.4066592183349
 11
2861.3090161651257
 21
3912.4066592183349
  0
LINE
  8
_2-2_
  6
CONTINUOUS
 62
    7
 10
2861.3090161651257
 20
3912.4066592183349
 11
2861.3090161651257
 21
3887.4066253426449
  0
LINE
  8
_2-2_
  6
CONTINUOUS
 62
    7
 10
2861.3090161651257
 20
3887.4066253426449
 11
1426.308996428854
 21
3887.4066253426449
  0
LINE
  8
_2-2_
  6
CONTINUOUS
 62
    7
 10
1426.308996428854
 20
3887.4066253426449
 11
1426.308996428854
 21
3912.4066592183349
  0
LINE
  8
_2-2_
  6
CONTINUOUS
 62
    7
 10
1425.8838064422016
 20
3652.4171991237799
 11
2860.8838261784731
 21
3652.4171991237799
  0
LINE
  8
_2-2_
  6
CONTINUOUS
 62
    7
 10
2860.8838261784731
 20
3652.4171991237799
 11
2860.8838261784731
 21
3627.41716524809
  0
LINE
  8
_2-2_
  6
CONTINUOUS
 62
    7
 10
2860.8838261784731
 20
3627.41716524809
 11
1425.8838064422016
 21
3627.41716524809
  0
LINE
  8
_2-2_
  6
CONTINUOUS
 62
    7
 10
1425.8838064422016
 20
3627.41716524809
 11
1425.8838064422016
 21
3652.4171991237799
  0
LINE
  8
_2-2_
  6
CONTINUOUS
 62
    7
 10
1402.5448349912192
 20
3912.4044720270454
 11
1427.5448688669094
 21
3912.4044720270454
  0
LINE
  8
_2-2_
  6
CONTINUOUS
 62
    7
 10
1427.5448688669094
 20
3912.4044720270454
 11
1427.5448688669094
 21
3627.4044795386117
  0
LINE
  8
_2-2_
  6
CONTINUOUS
 62
    7
 10
1427.5448688669094
 20
3627.4044795386117
 11
1402.5448349912192
 21
3627.4044795386117
  0
LINE
  8
_2-2_
  6
CONTINUOUS
 62
    7
 10
1402.5448349912192
 20
3627.4044795386117
 11
1402.5448349912192
 21
3912.4044720270454
  0
LINE
  8
_2-2_
  6
CONTINUOUS
 62
    7
 10
1414.2771477864976
 20
3897.1667477523033
 11
1414.2771477864976
 21
3885.1813769248461
  0
LINE
  8
_2-2_
  6
CONTINUOUS
 62
    7
 10
1414.2771477864976
 20
3860.4158099553756
 11
1414.2771477864976
 21
3849.5135362544111
  0
LINE
  8
_2-2_
  6
CONTINUOUS
 62
    7
 10
1414.2771477864976
 20
3844.5674218726431
 11
1414.2771477864976
 21
3833.3939364517973
  0
LINE
  8
_2-2_
  6
CONTINUOUS
 62
    7
 10
1414.2771477864976
 20
3897.1667477523033
 11
1414.2771477864976
 21
3885.1813769248461
  0
LINE
  8
_2-2_
  6
CONTINUOUS
 62
    7
 10
1414.2771477864976
 20
3860.4158099553756
 11
1414.2771477864976
 21
3849.5135362544111
  0
LINE
  8
_2-2_
  6
CONTINUOUS
 62
    7
 10
1414.2771477864976
 20
3844.5674218726431
 11
1414.2771477864976
 21
3833.3939364517973
  0
LINE
  8
_2-2_
  6
CONTINUOUS
 62
    7
 10
1408.6090415601107
 20
3891.1379736823001
 11
1420.3414637149529
 21
3891.1379736823001
  0
LINE
  8
_2-2_
  6
CONTINUOUS
 62
    7
 10
1408.6090415601107
 20
3855.1376799358823
 11
1420.3414637149529
 21
3855.1376799358823
  0
LINE
  8
_2-2_
  6
CONTINUOUS
 62
    7
 10
1408.6090415601107
 20
3839.1379382159257
 11
1420.3414637149529
 21
3839.1379382159257
  0
LINE
  8
_3-0_
  6
CONTINUOUS
 62
    7
 10
2702.6805619935731
 20
1032.7962105798906
 11
2852.6805465285838
 21
1032.7962105798906
  0
LINE
  8
_3-0_
  6
CONTINUOUS
 62
    7
 10
2852.6805465285838
 20
1032.7962105798906
 11
2852.6805465285838
 21
1022.7961532857886
  0
LINE
  8
_3-0_
  6
CONTINUOUS
 62
    7
 10
2852.6805465285838
 20
1022.7961532857886
 11
2702.6805619935731
 21
1022.7961532857886
  0
LINE
  8
_3-0_
  6
CONTINUOUS
 62
    7
 10
2702.6805619935731
 20
1022.7961532857886
 11
2702.6805619935731
 21
1032.7962105798906
  0
LINE
  8
_3-0_
  6
CONTINUOUS
 62
    7
 10
2851.9519931100967
 20
1022.7961532857886
 11
2886.7582991316513
 21
962.50983426009361
  0
LINE
  8
_3-0_
  6
CONTINUOUS
 62
    7
 10
2702.3262370046959
 20
1022.7961532857886
 11
2667.5199309831419
 21
962.50983426009361
  0
LINE
  8
_3-1_
  6
CONTINUOUS
 62
    7
 10
1392.5330762237195
 20
1498.2802755584125
 11
1519.318540492113
 21
1226.3879017480092
  0
LINE
  8
_3-1_
  6
CONTINUOUS
 62
    7
 10
1372.8656334306279
 20
1497.1948818810658
 11
1499.6510976990216
 21
1225.3026174302265
  0
LINE
  8
_3-1_
  6
CONTINUOUS
 62
    7
 10
1392.3346979737744
 20
1355.6955256517329
 11
1430.540336697258
 21
1373.5110735801195
  0
LINE
  8
_3-1_
  6
CONTINUOUS
 62
    7
 10
1430.540336697258
 20
1373.5110735801195
 11
1411.3903833632303
 21
1357.4423259749835
  0
LINE
  8
_3-1_
  6
CONTINUOUS
 62
    7
 10
1430.540336697258
 20
1373.5110735801195
 11
1405.9216396228685
 21
1369.1701550281184
  0
LINE
  8
_3-1_
  6
CONTINUOUS
 62
    7
 10
1411.3903833632303
 20
1357.4423259749835
 11
1405.9216396228685
 21
1369.1701550281184
  0
LINE
  8
_3-1_
  6
CONTINUOUS
 62
    7
 10
1445.9822352788619
 20
1380.7117447429641
 11
1482.9654527907205
 21
1397.9573106213427
  0
LINE
  8
_3-1_
  6
CONTINUOUS
 62
    7
 10
1445.9822352788619
 20
1380.7117447429641
 11
1465.1321886128899
 21
1396.7804923481001
  0
LINE
  8
_3-1_
  6
CONTINUOUS
 62
    7
 10
1445.9822352788619
 20
1380.7117447429641
 11
1470.6009323532517
 21
1385.0526632949652
  0
LINE
  8
_3-1_
  6
CONTINUOUS
 62
    7
 10
1465.1321886128899
 20
1396.7804923481001
 11
1470.6009323532517
 21
1385.0526632949652
  0
LINE
  8
_4-0_
  6
CONTINUOUS
 62
    7
 10
4132.2959354945588
 20
2651.2476652285304
 11
4932.2961446401232
 21
2651.2476652285304
  0
LINE
  8
_4-0_
  6
CONTINUOUS
 62
    7
 10
4132.2959354945588
 20
2626.2476313528405
 11
4932.2961446401232
 21
2626.2476313528405
  0
LINE
  8
_4-0_
  6
CONTINUOUS
 62
    7
 10
4132.2959354945588
 20
2427.8387607294617
 11
4582.2961078187209
 21
2427.8387607294617
  0
LINE
  8
_4-0_
  6
CONTINUOUS
 62
    7
 10
4132.2959354945588
 20
2427.8387607294617
 11
4132.2959354945588
 21
2651.2476652285304
  0
LINE
  8
_4-0_
  6
CONTINUOUS
 62
    7
 10
4932.2961446401232
 20
2052.8386900323694
 11
4932.2961446401232
 21
2651.2476652285304
  0
LINE
  8
_4-0_
  6
CONTINUOUS
 62
    7
 10
4580.2926405976632
 20
2052.8386900323694
 11
4580.2926405976632
 21
2427.8387607294617
  0
LINE
  8
_4-0_
  6
CONTINUOUS
 62
    7
 10
2959.6687582008622
 20
1732.4516922350554
 11
3582.7011329326851
 21
2226.2623996808261
  0
LINE
  8
_4-0_
  6
CONTINUOUS
 62
    7
 10
3582.7011329326851
 20
2226.2623996808261
 11
3464.3878634832076
 21
2066.9532915800232
  0
LINE
  8
_4-0_
  6
CONTINUOUS
 62
    7
 10
3582.7011329326851
 20
2226.2623996808261
 11
3400.5842127855217
 21
2147.4530857041996
  0
LINE
  8
_4-0_
  6
CONTINUOUS
 62
    7
 10
3464.3878634832076
 20
2066.9532915800232
 11
3400.5842127855217
 21
2147.4530857041996
  0
LINE
  8
_4-0_
  6
CONTINUOUS
 62
    7
 10
3756.1926455111111
 20
2076.247542245047
 11
3966.7238051366617
 21
2724.1929006392429
  0
LINE
  8
_4-0_
  6
CONTINUOUS
 62
    7
 10
3966.7238051366617
 20
2724.1929006392429
 11
4332.2957690618214
 21
2724.1929006392429
  0
LINE
  8
_4-0_
  6
CONTINUOUS
 62
    7
 10
4332.2957690618214
 20
2724.1929006392429
 11
4337.1732056371029
 21
2723.7125934320984
  0
LINE
  8
_4-0_
  6
CONTINUOUS
 62
    7
 10
4337.1732056371029
 20
2723.7125934320984
 11
4341.862981199758
 21
2722.289825498367
  0
LINE
  8
_4-0_
  6
CONTINUOUS
 62
    7
 10
4341.862981199758
 20
2722.289825498367
 11
4346.1853086257988
 21
2719.9797140585406
  0
LINE
  8
_4-0_
  6
CONTINUOUS
 62
    7
 10
4346.1853086257988
 20
2719.9797140585406
 11
4349.9735239389775
 21
2716.8706216407095
  0
LINE
  8
_4-0_
  6
CONTINUOUS
 62
    7
 10
4349.9735239389775
 20
2716.8706216407095
 11
4353.0828350759375
 21
2713.0821876084019
  0
LINE
  8
_4-0_
  6
CONTINUOUS
 62
    7
 10
4353.0828350759375
 20
2713.0821876084019
 11
4355.3929465157644
 21
2708.7600789014896
  0
LINE
  8
_4-0_
  6
CONTINUOUS
 62
    7
 10
4355.3929465157644
 20
2708.7600789014896
 11
4356.8154957303668
 21
2704.070084619706
  0
LINE
  8
_4-0_
  6
CONTINUOUS
 62
    7
 10
4356.8154957303668
 20
2704.070084619706
 11
4357.2958029375104
 21
2699.192866763553
  0
LINE
  8
_4-0_
  6
CONTINUOUS
 62
    7
 10
4357.2958029375104
 20
2699.192866763553
 11
4357.2958029375104
 21
2651.2476652285304
  0
LINE
  8
_4-0_
  6
CONTINUOUS
 62
    7
 10
4357.2958029375104
 20
2651.2476652285304
 11
4342.8279699966251
 21
2651.2476652285304
  0
LINE
  8
_4-0_
  6
CONTINUOUS
 62
    7
 10
4342.8279699966251
 20
2651.2476652285304
 11
4342.8279699966251
 21
2685.7694176633386
  0
LINE
  8
_4-0_
  6
CONTINUOUS
 62
    7
 10
4342.8279699966251
 20
2685.7694176633386
 11
4342.3476627894806
 21
2690.6468542386206
  0
LINE
  8
_4-0_
  6
CONTINUOUS
 62
    7
 10
4342.3476627894806
 20
2690.6468542386206
 11
4340.9251135748782
 21
2695.3366298012747
  0
LINE
  8
_4-0_
  6
CONTINUOUS
 62
    7
 10
4340.9251135748782
 20
2695.3366298012747
 11
4338.6145646967943
 21
2699.6587385081875
  0
LINE
  8
_4-0_
  6
CONTINUOUS
 62
    7
 10
4338.6145646967943
 20
2699.6587385081875
 11
4335.5056909980913
 21
2703.4471725404951
  0
LINE
  8
_4-0_
  6
CONTINUOUS
 62
    7
 10
4335.5056909980913
 20
2703.4471725404951
 11
4331.7170382466547
 21
2706.5562649583262
  0
LINE
  8
_4-0_
  6
CONTINUOUS
 62
    7
 10
4331.7170382466547
 20
2706.5562649583262
 11
4327.3951482588718
 21
2708.8663763981526
  0
LINE
  8
_4-0_
  6
CONTINUOUS
 62
    7
 10
4327.3951482588718
 20
2708.8663763981526
 11
4322.7053726962167
 21
2710.289144331884
  0
LINE
  8
_4-0_
  6
CONTINUOUS
 62
    7
 10
4322.7053726962167
 20
2710.289144331884
 11
4317.8279361209352
 21
2710.7694515390285
  0
LINE
  8
_4-0_
  6
CONTINUOUS
 62
    7
 10
4317.8279361209352
 20
2710.7694515390285
 11
3987.3621421431017
 21
2710.7694515390285
  0
LINE
  8
_4-0_
  6
CONTINUOUS
 62
    7
 10
3987.3621421431017
 20
2710.7694515390285
 11
3781.192679386802
 21
2076.247542245047
  0
CIRCLE
  8
_2-0_
  6
CONTINUOUS
 62
    7
 10
2064.9093613201126
 20
3760.8382398097206
 40
765.00000861620811
  0
LINE
  8
_2-2_
  6
CONTINUOUS
 62
    7
 10
2089.1257313917959
 20
834.03706127152009
 11
2089.1257313917959
 21
834.03706127152009
  0
LINE
  8
_2-2_
  6
CONTINUOUS
 62
    7
 10
2089.1257313917959
 20
834.03706127152009
 11
2088.7079445942472
 21
836.20744646010542
  0
LINE
  8
_2-2_
  6
CONTINUOUS
 62
    7
 10
2088.7079445942472
 20
836.20744646010542
 11
2087.467278442035
 21
838.31188559300358
  0
LINE
  8
_2-2_
  6
CONTINUOUS
 62
    7
 10
2087.467278442035
 20
838.31188559300358
 11
2085.4414299483865
 21
840.2864363520589
  0
LINE
  8
_2-2_
  6
CONTINUOUS
 62
    7
 10
2085.4414299483865
 20
840.2864363520589
 11
2082.6919534946524
 21
842.07110301162834
  0
LINE
  8
_2-2_
  6
CONTINUOUS
 62
    7
 10
2082.6919534946524
 20
842.07110301162834
 11
2079.3023905315777
 21
843.61165937834596
  0
LINE
  8
_2-2_
  6
CONTINUOUS
 62
    7
 10
2079.3023905315777
 20
843.61165937834596
 11
2075.3757312145931
 21
844.86129642656806
  0
LINE
  8
_2-2_
  6
CONTINUOUS
 62
    7
 10
2075.3757312145931
 20
844.86129642656806
 11
2071.0312851000599
 21
845.78204456693129
  0
LINE
  8
_2-2_
  6
CONTINUOUS
 62
    7
 10
2071.0312851000599
 20
845.78204456693129
 11
2066.4010559847725
 21
846.34592733311183
  0
LINE
  8
_2-2_
  6
CONTINUOUS
 62
    7
 10
2066.4010559847725
 20
846.34592733311183
 11
2061.6257310373899
 21
846.5358114325976
  0
LINE
  8
_2-2_
  6
CONTINUOUS
 62
    7
 10
2061.6257310373899
 20
846.5358114325976
 11
2056.8504060900073
 21
846.34592733311183
  0
LINE
  8
_2-2_
  6
CONTINUOUS
 62
    7
 10
2056.8504060900073
 20
846.34592733311183
 11
2052.2201769747198
 21
845.78204456693129
  0
LINE
  8
_2-2_
  6
CONTINUOUS
 62
    7
 10
2052.2201769747198
 20
845.78204456693129
 11
2047.8757308601869
 21
844.86129642656806
  0
LINE
  8
_2-2_
  6
CONTINUOUS
 62
    7
 10
2047.8757308601869
 20
844.86129642656806
 11
2043.9490715432023
 21
843.61165937834596
  0
LINE
  8
_2-2_
  6
CONTINUOUS
 62
    7
 10
2043.9490715432023
 20
843.61165937834596
 11
2040.5595085801272
 21
842.07110301162834
  0
LINE
  8
_2-2_
  6
CONTINUOUS
 62
    7
 10
2040.5595085801272
 20
842.07110301162834
 11
2037.8100321263933
 21
840.2864363520589
  0
LINE
  8
_2-2_
  6
CONTINUOUS
 62
    7
 10
2037.8100321263933
 20
840.2864363520589
 11
2035.7841836327448
 21
838.31188559300358
  0
LINE
  8
_2-2_
  6
CONTINUOUS
 62
    7
 10
2035.7841836327448
 20
838.31188559300358
 11
2034.5435174805323
 21
836.20744646010542
  0
LINE
  8
_2-2_
  6
CONTINUOUS
 62
    7
 10
2034.5435174805323
 20
836.20744646010542
 11
2034.1257306829839
 21
834.03706127152009
  0
LINE
  8
_2-2_
  6
CONTINUOUS
 62
    7
 10
2034.1257306829839
 20
834.03706127152009
 11
2034.5435174805323
 21
831.86667608293476
  0
LINE
  8
_2-2_
  6
CONTINUOUS
 62
    7
 10
2034.5435174805323
 20
831.86667608293476
 11
2035.7841836327448
 21
829.76223695003659
  0
LINE
  8
_2-2_
  6
CONTINUOUS
 62
    7
 10
2035.7841836327448
 20
829.76223695003659
 11
2037.8100321263933
 21
827.78768619098139
  0
LINE
  8
_2-2_
  6
CONTINUOUS
 62
    7
 10
2037.8100321263933
 20
827.78768619098139
 11
2040.5595085801272
 21
826.00301953141184
  0
LINE
  8
_2-2_
  6
CONTINUOUS
 62
    7
 10
2040.5595085801272
 20
826.00301953141184
 11
2043.9490715432023
 21
824.46246316469421
  0
LINE
  8
_2-2_
  6
CONTINUOUS
 62
    7
 10
2043.9490715432023
 20
824.46246316469421
 11
2047.8757308601869
 21
823.21282611647212
  0
LINE
  8
_2-2_
  6
CONTINUOUS
 62
    7
 10
2047.8757308601869
 20
823.21282611647212
 11
2052.2201769747198
 21
822.29207797610889
  0
LINE
  8
_2-2_
  6
CONTINUOUS
 62
    7
 10
2052.2201769747198
 20
822.29207797610889
 11
2056.8504060900073
 21
821.72819520992834
  0
LINE
  8
_2-2_
  6
CONTINUOUS
 62
    7
 10
2056.8504060900073
 20
821.72819520992834
 11
2061.6257310373899
 21
821.53831111044258
  0
LINE
  8
_2-2_
  6
CONTINUOUS
 62
    7
 10
2061.6257310373899
 20
821.53831111044258
 11
2066.4010559847725
 21
821.72819520992834
  0
LINE
  8
_2-2_
  6
CONTINUOUS
 62
    7
 10
2066.4010559847725
 20
821.72819520992834
 11
2071.0312851000594
 21
822.29207797610889
  0
LINE
  8
_2-2_
  6
CONTINUOUS
 62
    7
 10
2071.0312851000594
 20
822.29207797610889
 11
2075.3757312145926
 21
823.21282611647212
  0
LINE
  8
_2-2_
  6
CONTINUOUS
 62
    7
 10
2075.3757312145926
 20
823.21282611647212
 11
2079.3023905315772
 21
824.46246316469421
  0
LINE
  8
_2-2_
  6
CONTINUOUS
 62
    7
 10
2079.3023905315772
 20
824.46246316469421
 11
2082.6919534946524
 21
826.00301953141184
  0
LINE
  8
_2-2_
  6
CONTINUOUS
 62
    7
 10
2082.6919534946524
 20
826.00301953141184
 11
2085.4414299483865
 21
827.78768619098128
  0
LINE
  8
_2-2_
  6
CONTINUOUS
 62
    7
 10
2085.4414299483865
 20
827.78768619098128
 11
2087.467278442035
 21
829.76223695003659
  0
LINE
  8
_2-2_
  6
CONTINUOUS
 62
    7
 10
2087.467278442035
 20
829.76223695003659
 11
2088.7079445942472
 21
831.86667608293465
  0
LINE
  8
_2-2_
  6
CONTINUOUS
 62
    7
 10
2088.7079445942472
 20
831.86667608293465
 11
2089.1257313917959
 21
834.03706127151997
  0
LINE
  8
_2-2_
  6
CONTINUOUS
 62
    7
 10
2089.1257313917959
 20
834.03706127151997
 11
2089.1257313917959
 21
834.03706127152009
  0
LINE
  8
_2-2_
  6
CONTINUOUS
 62
    7
 10
2037.1256959254217
 20
833.77465299657842
 11
2037.1256959254217
 21
833.77465299657842
  0
LINE
  8
_2-2_
  6
CONTINUOUS
 62
    7
 10
2037.1256959254217
 20
833.77465299657842
 11
2036.7079091278733
 21
835.94503818516375
  0
LINE
  8
_2-2_
  6
CONTINUOUS
 62
    7
 10
2036.7079091278733
 20
835.94503818516375
 11
2035.4672429756608
 21
838.04947731806192
  0
LINE
  8
_2-2_
  6
CONTINUOUS
 62
    7
 10
2035.4672429756608
 20
838.04947731806192
 11
2033.4413944820124
 21
840.02402807711724
  0
LINE
  8
_2-2_
  6
CONTINUOUS
 62
    7
 10
2033.4413944820124
 20
840.02402807711724
 11
2030.6919180282785
 21
841.80869473668668
  0
LINE
  8
_2-2_
  6
CONTINUOUS
 62
    7
 10
2030.6919180282785
 20
841.80869473668668
 11
2027.3023550652033
 21
843.3492511034043
  0
LINE
  8
_2-2_
  6
CONTINUOUS
 62
    7
 10
2027.3023550652033
 20
843.3492511034043
 11
2023.3756957482187
 21
844.5988881516264
  0
LINE
  8
_2-2_
  6
CONTINUOUS
 62
    7
 10
2023.3756957482187
 20
844.5988881516264
 11
2019.0312496336855
 21
845.51963629198963
  0
LINE
  8
_2-2_
  6
CONTINUOUS
 62
    7
 10
2019.0312496336855
 20
845.51963629198963
 11
2014.4010205183984
 21
846.08351905817017
  0
LINE
  8
_2-2_
  6
CONTINUOUS
 62
    7
 10
2014.4010205183984
 20
846.08351905817017
 11
2009.6256955710157
 21
846.27340315765593
  0
LINE
  8
_2-2_
  6
CONTINUOUS
 62
    7
 10
2009.6256955710157
 20
846.27340315765593
 11
2004.8503706236331
 21
846.08351905817017
  0
LINE
  8
_2-2_
  6
CONTINUOUS
 62
    7
 10
2004.8503706236331
 20
846.08351905817017
 11
2000.2201415083459
 21
845.51963629198963
  0
LINE
  8
_2-2_
  6
CONTINUOUS
 62
    7
 10
2000.2201415083459
 20
845.51963629198963
 11
1995.8756953938127
 21
844.5988881516264
  0
LINE
  8
_2-2_
  6
CONTINUOUS
 62
    7
 10
1995.8756953938127
 20
844.5988881516264
 11
1991.9490360768282
 21
843.3492511034043
  0
LINE
  8
_2-2_
  6
CONTINUOUS
 62
    7
 10
1991.9490360768282
 20
843.3492511034043
 11
1988.559473113753
 21
841.80869473668668
  0
LINE
  8
_2-2_
  6
CONTINUOUS
 62
    7
 10
1988.559473113753
 20
841.80869473668668
 11
1985.8099966600191
 21
840.02402807711724
  0
LINE
  8
_2-2_
  6
CONTINUOUS
 62
    7
 10
1985.8099966600191
 20
840.02402807711724
 11
1983.7841481663706
 21
838.04947731806192
  0
LINE
  8
_2-2_
  6
CONTINUOUS
 62
    7
 10
1983.7841481663706
 20
838.04947731806192
 11
1982.5434820141581
 21
835.94503818516375
  0
LINE
  8
_2-2_
  6
CONTINUOUS
 62
    7
 10
1982.5434820141581
 20
835.94503818516375
 11
1982.1256952166098
 21
833.77465299657842
  0
LINE
  8
_2-2_
  6
CONTINUOUS
 62
    7
 10
1982.1256952166098
 20
833.77465299657842
 11
1982.5434820141581
 21
831.6042678079931
  0
LINE
  8
_2-2_
  6
CONTINUOUS
 62
    7
 10
1982.5434820141581
 20
831.6042678079931
 11
1983.7841481663706
 21
829.49982867509493
  0
LINE
  8
_2-2_
  6
CONTINUOUS
 62
    7
 10
1983.7841481663706
 20
829.49982867509493
 11
1985.8099966600191
 21
827.52527791603973
  0
LINE
  8
_2-2_
  6
CONTINUOUS
 62
    7
 10
1985.8099966600191
 20
827.52527791603973
 11
1988.559473113753
 21
825.74061125647017
  0
LINE
  8
_2-2_
  6
CONTINUOUS
 62
    7
 10
1988.559473113753
 20
825.74061125647017
 11
1991.9490360768282
 21
824.20005488975255
  0
LINE
  8
_2-2_
  6
CONTINUOUS
 62
    7
 10
1991.9490360768282
 20
824.20005488975255
 11
1995.8756953938127
 21
822.95041784153045
  0
LINE
  8
_2-2_
  6
CONTINUOUS
 62
    7
 10
1995.8756953938127
 20
822.95041784153045
 11
2000.2201415083457
 21
822.02966970116722
  0
LINE
  8
_2-2_
  6
CONTINUOUS
 62
    7
 10
2000.2201415083457
 20
822.02966970116722
 11
2004.8503706236331
 21
821.46578693498668
  0
LINE
  8
_2-2_
  6
CONTINUOUS
 62
    7
 10
2004.8503706236331
 20
821.46578693498668
 11
2009.6256955710157
 21
821.27590283550091
  0
LINE
  8
_2-2_
  6
CONTINUOUS
 62
    7
 10
2009.6256955710157
 20
821.27590283550091
 11
2014.4010205183981
 21
821.46578693498668
  0
LINE
  8
_2-2_
  6
CONTINUOUS
 62
    7
 10
2014.4010205183981
 20
821.46578693498668
 11
2019.0312496336855
 21
822.02966970116722
  0
LINE
  8
_2-2_
  6
CONTINUOUS
 62
    7
 10
2019.0312496336855
 20
822.02966970116722
 11
2023.3756957482187
 21
822.95041784153045
  0
LINE
  8
_2-2_
  6
CONTINUOUS
 62
    7
 10
2023.3756957482187
 20
822.95041784153045
 11
2027.3023550652033
 21
824.20005488975255
  0
LINE
  8
_2-2_
  6
CONTINUOUS
 62
    7
 10
2027.3023550652033
 20
824.20005488975255
 11
2030.6919180282782
 21
825.74061125647017
  0
LINE
  8
_2-2_
  6
CONTINUOUS
 62
    7
 10
2030.6919180282782
 20
825.74061125647017
 11
2033.4413944820124
 21
827.52527791603961
  0
LINE
  8
_2-2_
  6
CONTINUOUS
 62
    7
 10
2033.4413944820124
 20
827.52527791603961
 11
2035.4672429756608
 21
829.49982867509493
  0
LINE
  8
_2-2_
  6
CONTINUOUS
 62
    7
 10
2035.4672429756608
 20
829.49982867509493
 11
2036.7079091278731
 21
831.60426780799298
  0
LINE
  8
_2-2_
  6
CONTINUOUS
 62
    7
 10
2036.7079091278731
 20
831.60426780799298
 11
2037.1256959254217
 21
833.77465299657831
  0
LINE
  8
_2-2_
  6
CONTINUOUS
 62
    7
 10
2037.1256959254217
 20
833.77465299657831
 11
2037.1256959254217
 21
833.77465299657842
  0
LINE
  8
_2-2_
  6
CONTINUOUS
 62
    7
 10
2139.1257991431762
 20
834.08403120445905
 11
2139.1257991431762
 21
834.08403120445905
  0
LINE
  8
_2-2_
  6
CONTINUOUS
 62
    7
 10
2139.1257991431762
 20
834.08403120445905
 11
2138.7080123456276
 21
836.25441639304438
  0
LINE
  8
_2-2_
  6
CONTINUOUS
 62
    7
 10
2138.7080123456276
 20
836.25441639304438
 11
2137.4673461934153
 21
838.35885552594254
  0
LINE
  8
_2-2_
  6
CONTINUOUS
 62
    7
 10
2137.4673461934153
 20
838.35885552594254
 11
2135.4414976997668
 21
840.33340628499786
  0
LINE
  8
_2-2_
  6
CONTINUOUS
 62
    7
 10
2135.4414976997668
 20
840.33340628499786
 11
2132.6920212460327
 21
842.1180729445673
  0
LINE
  8
_2-2_
  6
CONTINUOUS
 62
    7
 10
2132.6920212460327
 20
842.1180729445673
 11
2129.302458282958
 21
843.65862931128493
  0
LINE
  8
_2-2_
  6
CONTINUOUS
 62
    7
 10
2129.302458282958
 20
843.65862931128493
 11
2125.3757989659734
 21
844.90826635950702
  0
LINE
  8
_2-2_
  6
CONTINUOUS
 62
    7
 10
2125.3757989659734
 20
844.90826635950702
 11
2121.0313528514403
 21
845.82901449987025
  0
LINE
  8
_2-2_
  6
CONTINUOUS
 62
    7
 10
2121.0313528514403
 20
845.82901449987025
 11
2116.4011237361528
 21
846.3928972660508
  0
LINE
  8
_2-2_
  6
CONTINUOUS
 62
    7
 10
2116.4011237361528
 20
846.3928972660508
 11
2111.6257987887702
 21
846.58278136553656
  0
LINE
  8
_2-2_
  6
CONTINUOUS
 62
    7
 10
2111.6257987887702
 20
846.58278136553656
 11
2106.8504738413876
 21
846.3928972660508
  0
LINE
  8
_2-2_
  6
CONTINUOUS
 62
    7
 10
2106.8504738413876
 20
846.3928972660508
 11
2102.2202447261002
 21
845.82901449987025
  0
LINE
  8
_2-2_
  6
CONTINUOUS
 62
    7
 10
2102.2202447261002
 20
845.82901449987025
 11
2097.875798611567
 21
844.90826635950702
  0
LINE
  8
_2-2_
  6
CONTINUOUS
 62
    7
 10
2097.875798611567
 20
844.90826635950702
 11
2093.9491392945824
 21
843.65862931128493
  0
LINE
  8
_2-2_
  6
CONTINUOUS
 62
    7
 10
2093.9491392945824
 20
843.65862931128493
 11
2090.5595763315077
 21
842.1180729445673
  0
LINE
  8
_2-2_
  6
CONTINUOUS
 62
    7
 10
2090.5595763315077
 20
842.1180729445673
 11
2087.8100998777736
 21
840.33340628499786
  0
LINE
  8
_2-2_
  6
CONTINUOUS
 62
    7
 10
2087.8100998777736
 20
840.33340628499786
 11
2085.7842513841251
 21
838.35885552594254
  0
LINE
  8
_2-2_
  6
CONTINUOUS
 62
    7
 10
2085.7842513841251
 20
838.35885552594254
 11
2084.5435852319129
 21
836.25441639304438
  0
LINE
  8
_2-2_
  6
CONTINUOUS
 62
    7
 10
2084.5435852319129
 20
836.25441639304438
 11
2084.1257984343642
 21
834.08403120445905
  0
LINE
  8
_2-2_
  6
CONTINUOUS
 62
    7
 10
2084.1257984343642
 20
834.08403120445905
 11
2084.5435852319129
 21
831.91364601587372
  0
LINE
  8
_2-2_
  6
CONTINUOUS
 62
    7
 10
2084.5435852319129
 20
831.91364601587372
 11
2085.7842513841251
 21
829.80920688297556
  0
LINE
  8
_2-2_
  6
CONTINUOUS
 62
    7
 10
2085.7842513841251
 20
829.80920688297556
 11
2087.8100998777736
 21
827.83465612392035
  0
LINE
  8
_2-2_
  6
CONTINUOUS
 62
    7
 10
2087.8100998777736
 20
827.83465612392035
 11
2090.5595763315077
 21
826.0499894643508
  0
LINE
  8
_2-2_
  6
CONTINUOUS
 62
    7
 10
2090.5595763315077
 20
826.0499894643508
 11
2093.9491392945824
 21
824.50943309763318
  0
LINE
  8
_2-2_
  6
CONTINUOUS
 62
    7
 10
2093.9491392945824
 20
824.50943309763318
 11
2097.875798611567
 21
823.25979604941108
  0
LINE
  8
_2-2_
  6
CONTINUOUS
 62
    7
 10
2097.875798611567
 20
823.25979604941108
 11
2102.2202447261002
 21
822.33904790904785
  0
LINE
  8
_2-2_
  6
CONTINUOUS
 62
    7
 10
2102.2202447261002
 20
822.33904790904785
 11
2106.8504738413876
 21
821.77516514286731
  0
LINE
  8
_2-2_
  6
CONTINUOUS
 62
    7
 10
2106.8504738413876
 20
821.77516514286731
 11
2111.6257987887702
 21
821.58528104338154
  0
LINE
  8
_2-2_
  6
CONTINUOUS
 62
    7
 10
2111.6257987887702
 20
821.58528104338154
 11
2116.4011237361528
 21
821.77516514286731
  0
LINE
  8
_2-2_
  6
CONTINUOUS
 62
    7
 10
2116.4011237361528
 20
821.77516514286731
 11
2121.0313528514398
 21
822.33904790904785
  0
LINE
  8
_2-2_
  6
CONTINUOUS
 62
    7
 10
2121.0313528514398
 20
822.33904790904785
 11
2125.375798965973
 21
823.25979604941108
  0
LINE
  8
_2-2_
  6
CONTINUOUS
 62
    7
 10
2125.375798965973
 20
823.25979604941108
 11
2129.3024582829576
 21
824.50943309763318
  0
LINE
  8
_2-2_
  6
CONTINUOUS
 62
    7
 10
2129.3024582829576
 20
824.50943309763318
 11
2132.6920212460327
 21
826.0499894643508
  0
LINE
  8
_2-2_
  6
CONTINUOUS
 62
    7
 10
2132.6920212460327
 20
826.0499894643508
 11
2135.4414976997668
 21
827.83465612392024
  0
LINE
  8
_2-2_
  6
CONTINUOUS
 62
    7
 10
2135.4414976997668
 20
827.83465612392024
 11
2137.4673461934153
 21
829.80920688297556
  0
LINE
  8
_2-2_
  6
CONTINUOUS
 62
    7
 10
2137.4673461934153
 20
829.80920688297556
 11
2138.7080123456276
 21
831.91364601587361
  0
LINE
  8
_2-2_
  6
CONTINUOUS
 62
    7
 10
2138.7080123456276
 20
831.91364601587361
 11
2139.1257991431762
 21
834.08403120445894
  0
LINE
  8
_2-2_
  6
CONTINUOUS
 62
    7
 10
2139.1257991431762
 20
834.08403120445894
 11
2139.1257991431762
 21
834.08403120445905
  0
LINE
  8
_2-2_
  6
CONTINUOUS
 62
    7
 10
2167.1257845913578
 20
814.03705604288098
 11
2167.1257845913578
 21
814.03705604288098
  0
LINE
  8
_2-2_
  6
CONTINUOUS
 62
    7
 10
2167.1257845913578
 20
814.03705604288098
 11
2166.7079977938092
 21
816.2074412314663
  0
LINE
  8
_2-2_
  6
CONTINUOUS
 62
    7
 10
2166.7079977938092
 20
816.2074412314663
 11
2165.467331641597
 21
818.31188036436447
  0
LINE
  8
_2-2_
  6
CONTINUOUS
 62
    7
 10
2165.467331641597
 20
818.31188036436447
 11
2163.4414831479485
 21
820.28643112341979
  0
LINE
  8
_2-2_
  6
CONTINUOUS
 62
    7
 10
2163.4414831479485
 20
820.28643112341979
 11
2160.6920066942143
 21
822.07109778298923
  0
LINE
  8
_2-2_
  6
CONTINUOUS
 62
    7
 10
2160.6920066942143
 20
822.07109778298923
 11
2157.3024437311396
 21
823.61165414970685
  0
LINE
  8
_2-2_
  6
CONTINUOUS
 62
    7
 10
2157.3024437311396
 20
823.61165414970685
 11
2153.3757844141551
 21
824.86129119792895
  0
LINE
  8
_2-2_
  6
CONTINUOUS
 62
    7
 10
2153.3757844141551
 20
824.86129119792895
 11
2149.0313382996219
 21
825.78203933829218
  0
LINE
  8
_2-2_
  6
CONTINUOUS
 62
    7
 10
2149.0313382996219
 20
825.78203933829218
 11
2144.4011091843345
 21
826.34592210447272
  0
LINE
  8
_2-2_
  6
CONTINUOUS
 62
    7
 10
2144.4011091843345
 20
826.34592210447272
 11
2139.6257842369519
 21
826.53580620395849
  0
LINE
  8
_2-2_
  6
CONTINUOUS
 62
    7
 10
2139.6257842369519
 20
826.53580620395849
 11
2134.8504592895692
 21
826.34592210447272
  0
LINE
  8
_2-2_
  6
CONTINUOUS
 62
    7
 10
2134.8504592895692
 20
826.34592210447272
 11
2130.2202301742818
 21
825.78203933829218
  0
LINE
  8
_2-2_
  6
CONTINUOUS
 62
    7
 10
2130.2202301742818
 20
825.78203933829218
 11
2125.8757840597491
 21
824.86129119792895
  0
LINE
  8
_2-2_
  6
CONTINUOUS
 62
    7
 10
2125.8757840597491
 20
824.86129119792895
 11
2121.9491247427641
 21
823.61165414970685
  0
LINE
  8
_2-2_
  6
CONTINUOUS
 62
    7
 10
2121.9491247427641
 20
823.61165414970685
 11
2118.5595617796894
 21
822.07109778298923
  0
LINE
  8
_2-2_
  6
CONTINUOUS
 62
    7
 10
2118.5595617796894
 20
822.07109778298923
 11
2115.8100853259552
 21
820.28643112341979
  0
LINE
  8
_2-2_
  6
CONTINUOUS
 62
    7
 10
2115.8100853259552
 20
820.28643112341979
 11
2113.7842368323068
 21
818.31188036436447
  0
LINE
  8
_2-2_
  6
CONTINUOUS
 62
    7
 10
2113.7842368323068
 20
818.31188036436447
 11
2112.5435706800945
 21
816.2074412314663
  0
LINE
  8
_2-2_
  6
CONTINUOUS
 62
    7
 10
2112.5435706800945
 20
816.2074412314663
 11
2112.1257838825459
 21
814.03705604288098
  0
LINE
  8
_2-2_
  6
CONTINUOUS
 62
    7
 10
2112.1257838825459
 20
814.03705604288098
 11
2112.5435706800945
 21
811.86667085429565
  0
LINE
  8
_2-2_
  6
CONTINUOUS
 62
    7
 10
2112.5435706800945
 20
811.86667085429565
 11
2113.7842368323068
 21
809.76223172139748
  0
LINE
  8
_2-2_
  6
CONTINUOUS
 62
    7
 10
2113.7842368323068
 20
809.76223172139748
 11
2115.8100853259552
 21
807.78768096234228
  0
LINE
  8
_2-2_
  6
CONTINUOUS
 62
    7
 10
2115.8100853259552
 20
807.78768096234228
 11
2118.5595617796894
 21
806.00301430277273
  0
LINE
  8
_2-2_
  6
CONTINUOUS
 62
    7
 10
2118.5595617796894
 20
806.00301430277273
 11
2121.9491247427641
 21
804.4624579360551
  0
LINE
  8
_2-2_
  6
CONTINUOUS
 62
    7
 10
2121.9491247427641
 20
804.4624579360551
 11
2125.8757840597486
 21
803.212820887833
  0
LINE
  8
_2-2_
  6
CONTINUOUS
 62
    7
 10
2125.8757840597486
 20
803.212820887833
 11
2130.2202301742818
 21
802.29207274746977
  0
LINE
  8
_2-2_
  6
CONTINUOUS
 62
    7
 10
2130.2202301742818
 20
802.29207274746977
 11
2134.8504592895692
 21
801.72818998128923
  0
LINE
  8
_2-2_
  6
CONTINUOUS
 62
    7
 10
2134.8504592895692
 20
801.72818998128923
 11
2139.6257842369519
 21
801.53830588180347
  0
LINE
  8
_2-2_
  6
CONTINUOUS
 62
    7
 10
2139.6257842369519
 20
801.53830588180347
 11
2144.4011091843345
 21
801.72818998128923
  0
LINE
  8
_2-2_
  6
CONTINUOUS
 62
    7
 10
2144.4011091843345
 20
801.72818998128923
 11
2149.0313382996214
 21
802.29207274746977
  0
LINE
  8
_2-2_
  6
CONTINUOUS
 62
    7
 10
2149.0313382996214
 20
802.29207274746977
 11
2153.3757844141546
 21
803.212820887833
  0
LINE
  8
_2-2_
  6
CONTINUOUS
 62
    7
 10
2153.3757844141546
 20
803.212820887833
 11
2157.3024437311392
 21
804.4624579360551
  0
LINE
  8
_2-2_
  6
CONTINUOUS
 62
    7
 10
2157.3024437311392
 20
804.4624579360551
 11
2160.6920066942143
 21
806.00301430277273
  0
LINE
  8
_2-2_
  6
CONTINUOUS
 62
    7
 10
2160.6920066942143
 20
806.00301430277273
 11
2163.4414831479485
 21
807.78768096234217
  0
LINE
  8
_2-2_
  6
CONTINUOUS
 62
    7
 10
2163.4414831479485
 20
807.78768096234217
 11
2165.467331641597
 21
809.76223172139748
  0
LINE
  8
_2-2_
  6
CONTINUOUS
 62
    7
 10
2165.467331641597
 20
809.76223172139748
 11
2166.7079977938092
 21
811.86667085429553
  0
LINE
  8
_2-2_
  6
CONTINUOUS
 62
    7
 10
2166.7079977938092
 20
811.86667085429553
 11
2167.1257845913578
 21
814.03705604288086
  0
LINE
  8
_2-2_
  6
CONTINUOUS
 62
    7
 10
2167.1257845913578
 20
814.03705604288086
 11
2167.1257845913578
 21
814.03705604288098
  0
LINE
  8
_2-2_
  6
CONTINUOUS
 62
    7
 10
2118.8619092854751
 20
813.53706411413214
 11
2118.8619092854751
 21
813.53706411413214
  0
LINE
  8
_2-2_
  6
CONTINUOUS
 62
    7
 10
2118.8619092854751
 20
813.53706411413214
 11
2118.4441224879265
 21
815.70744930271746
  0
LINE
  8
_2-2_
  6
CONTINUOUS
 62
    7
 10
2118.4441224879265
 20
815.70744930271746
 11
2117.2034563357142
 21
817.81188843561563
  0
LINE
  8
_2-2_
  6
CONTINUOUS
 62
    7
 10
2117.2034563357142
 20
817.81188843561563
 11
2115.1776078420658
 21
819.78643919467095
  0
LINE
  8
_2-2_
  6
CONTINUOUS
 62
    7
 10
2115.1776078420658
 20
819.78643919467095
 11
2112.4281313883316
 21
821.57110585424039
  0
LINE
  8
_2-2_
  6
CONTINUOUS
 62
    7
 10
2112.4281313883316
 20
821.57110585424039
 11
2109.0385684252569
 21
823.11166222095801
  0
LINE
  8
_2-2_
  6
CONTINUOUS
 62
    7
 10
2109.0385684252569
 20
823.11166222095801
 11
2105.1119091082724
 21
824.36129926918011
  0
LINE
  8
_2-2_
  6
CONTINUOUS
 62
    7
 10
2105.1119091082724
 20
824.36129926918011
 11
2100.7674629937392
 21
825.28204740954334
  0
LINE
  8
_2-2_
  6
CONTINUOUS
 62
    7
 10
2100.7674629937392
 20
825.28204740954334
 11
2096.1372338784518
 21
825.84593017572388
  0
LINE
  8
_2-2_
  6
CONTINUOUS
 62
    7
 10
2096.1372338784518
 20
825.84593017572388
 11
2091.3619089310691
 21
826.03581427520965
  0
LINE
  8
_2-2_
  6
CONTINUOUS
 62
    7
 10
2091.3619089310691
 20
826.03581427520965
 11
2086.5865839836865
 21
825.84593017572388
  0
LINE
  8
_2-2_
  6
CONTINUOUS
 62
    7
 10
2086.5865839836865
 20
825.84593017572388
 11
2081.9563548683991
 21
825.28204740954334
  0
LINE
  8
_2-2_
  6
CONTINUOUS
 62
    7
 10
2081.9563548683991
 20
825.28204740954334
 11
2077.6119087538664
 21
824.36129926918011
  0
LINE
  8
_2-2_
  6
CONTINUOUS
 62
    7
 10
2077.6119087538664
 20
824.36129926918011
 11
2073.6852494368813
 21
823.11166222095801
  0
LINE
  8
_2-2_
  6
CONTINUOUS
 62
    7
 10
2073.6852494368813
 20
823.11166222095801
 11
2070.2956864738067
 21
821.57110585424039
  0
LINE
  8
_2-2_
  6
CONTINUOUS
 62
    7
 10
2070.2956864738067
 20
821.57110585424039
 11
2067.5462100200725
 21
819.78643919467095
  0
LINE
  8
_2-2_
  6
CONTINUOUS
 62
    7
 10
2067.5462100200725
 20
819.78643919467095
 11
2065.520361526424
 21
817.81188843561563
  0
LINE
  8
_2-2_
  6
CONTINUOUS
 62
    7
 10
2065.520361526424
 20
817.81188843561563
 11
2064.2796953742118
 21
815.70744930271746
  0
LINE
  8
_2-2_
  6
CONTINUOUS
 62
    7
 10
2064.2796953742118
 20
815.70744930271746
 11
2063.8619085766632
 21
813.53706411413214
  0
LINE
  8
_2-2_
  6
CONTINUOUS
 62
    7
 10
2063.8619085766632
 20
813.53706411413214
 11
2064.2796953742118
 21
811.36667892554681
  0
LINE
  8
_2-2_
  6
CONTINUOUS
 62
    7
 10
2064.2796953742118
 20
811.36667892554681
 11
2065.520361526424
 21
809.26223979264864
  0
LINE
  8
_2-2_
  6
CONTINUOUS
 62
    7
 10
2065.520361526424
 20
809.26223979264864
 11
2067.5462100200725
 21
807.28768903359344
  0
LINE
  8
_2-2_
  6
CONTINUOUS
 62
    7
 10
2067.5462100200725
 20
807.28768903359344
 11
2070.2956864738067
 21
805.50302237402389
  0
LINE
  8
_2-2_
  6
CONTINUOUS
 62
    7
 10
2070.2956864738067
 20
805.50302237402389
 11
2073.6852494368813
 21
803.96246600730626
  0
LINE
  8
_2-2_
  6
CONTINUOUS
 62
    7
 10
2073.6852494368813
 20
803.96246600730626
 11
2077.6119087538659
 21
802.71282895908416
  0
LINE
  8
_2-2_
  6
CONTINUOUS
 62
    7
 10
2077.6119087538659
 20
802.71282895908416
 11
2081.9563548683991
 21
801.79208081872093
  0
LINE
  8
_2-2_
  6
CONTINUOUS
 62
    7
 10
2081.9563548683991
 20
801.79208081872093
 11
2086.5865839836865
 21
801.22819805254039
  0
LINE
  8
_2-2_
  6
CONTINUOUS
 62
    7
 10
2086.5865839836865
 20
801.22819805254039
 11
2091.3619089310691
 21
801.03831395305463
  0
LINE
  8
_2-2_
  6
CONTINUOUS
 62
    7
 10
2091.3619089310691
 20
801.03831395305463
 11
2096.1372338784518
 21
801.22819805254039
  0
LINE
  8
_2-2_
  6
CONTINUOUS
 62
    7
 10
2096.1372338784518
 20
801.22819805254039
 11
2100.7674629937387
 21
801.79208081872093
  0
LINE
  8
_2-2_
  6
CONTINUOUS
 62
    7
 10
2100.7674629937387
 20
801.79208081872093
 11
2105.1119091082719
 21
802.71282895908416
  0
LINE
  8
_2-2_
  6
CONTINUOUS
 62
    7
 10
2105.1119091082719
 20
802.71282895908416
 11
2109.0385684252565
 21
803.96246600730626
  0
LINE
  8
_2-2_
  6
CONTINUOUS
 62
    7
 10
2109.0385684252565
 20
803.96246600730626
 11
2112.4281313883316
 21
805.50302237402389
  0
LINE
  8
_2-2_
  6
CONTINUOUS
 62
    7
 10
2112.4281313883316
 20
805.50302237402389
 11
2115.1776078420658
 21
807.28768903359332
  0
LINE
  8
_2-2_
  6
CONTINUOUS
 62
    7
 10
2115.1776078420658
 20
807.28768903359332
 11
2117.2034563357142
 21
809.26223979264864
  0
LINE
  8
_2-2_
  6
CONTINUOUS
 62
    7
 10
2117.2034563357142
 20
809.26223979264864
 11
2118.4441224879265
 21
811.36667892554669
  0
LINE
  8
_2-2_
  6
CONTINUOUS
 62
    7
 10
2118.4441224879265
 20
811.36667892554669
 11
2118.8619092854751
 21
813.53706411413202
  0
LINE
  8
_2-2_
  6
CONTINUOUS
 62
    7
 10
2118.8619092854751
 20
813.53706411413202
 11
2118.8619092854751
 21
813.53706411413214
  0
LINE
  8
_2-2_
  6
CONTINUOUS
 62
    7
 10
2064.3896915047326
 20
813.53706411413214
 11
2064.3896915047326
 21
813.53706411413214
  0
LINE
  8
_2-2_
  6
CONTINUOUS
 62
    7
 10
2064.3896915047326
 20
813.53706411413214
 11
2063.971904707184
 21
815.70744930271746
  0
LINE
  8
_2-2_
  6
CONTINUOUS
 62
    7
 10
2063.971904707184
 20
815.70744930271746
 11
2062.7312385549717
 21
817.81188843561563
  0
LINE
  8
_2-2_
  6
CONTINUOUS
 62
    7
 10
2062.7312385549717
 20
817.81188843561563
 11
2060.7053900613232
 21
819.78643919467095
  0
LINE
  8
_2-2_
  6
CONTINUOUS
 62
    7
 10
2060.7053900613232
 20
819.78643919467095
 11
2057.9559136075891
 21
821.57110585424039
  0
LINE
  8
_2-2_
  6
CONTINUOUS
 62
    7
 10
2057.9559136075891
 20
821.57110585424039
 11
2054.5663506445139
 21
823.11166222095801
  0
LINE
  8
_2-2_
  6
CONTINUOUS
 62
    7
 10
2054.5663506445139
 20
823.11166222095801
 11
2050.6396913275294
 21
824.36129926918011
  0
LINE
  8
_2-2_
  6
CONTINUOUS
 62
    7
 10
2050.6396913275294
 20
824.36129926918011
 11
2046.2952452129962
 21
825.28204740954334
  0
LINE
  8
_2-2_
  6
CONTINUOUS
 62
    7
 10
2046.2952452129962
 20
825.28204740954334
 11
2041.665016097709
 21
825.84593017572388
  0
LINE
  8
_2-2_
  6
CONTINUOUS
 62
    7
 10
2041.665016097709
 20
825.84593017572388
 11
2036.8896911503264
 21
826.03581427520965
  0
LINE
  8
_2-2_
  6
CONTINUOUS
 62
    7
 10
2036.8896911503264
 20
826.03581427520965
 11
2032.1143662029438
 21
825.84593017572388
  0
LINE
  8
_2-2_
  6
CONTINUOUS
 62
    7
 10
2032.1143662029438
 20
825.84593017572388
 11
2027.4841370876566
 21
825.28204740954334
  0
LINE
  8
_2-2_
  6
CONTINUOUS
 62
    7
 10
2027.4841370876566
 20
825.28204740954334
 11
2023.1396909731234
 21
824.36129926918011
  0
LINE
  8
_2-2_
  6
CONTINUOUS
 62
    7
 10
2023.1396909731234
 20
824.36129926918011
 11
2019.2130316561388
 21
823.11166222095801
  0
LINE
  8
_2-2_
  6
CONTINUOUS
 62
    7
 10
2019.2130316561388
 20
823.11166222095801
 11
2015.8234686930637
 21
821.57110585424039
  0
LINE
  8
_2-2_
  6
CONTINUOUS
 62
    7
 10
2015.8234686930637
 20
821.57110585424039
 11
2013.0739922393298
 21
819.78643919467095
  0
LINE
  8
_2-2_
  6
CONTINUOUS
 62
    7
 10
2013.0739922393298
 20
819.78643919467095
 11
2011.0481437456813
 21
817.81188843561563
  0
LINE
  8
_2-2_
  6
CONTINUOUS
 62
    7
 10
2011.0481437456813
 20
817.81188843561563
 11
2009.8074775934688
 21
815.70744930271746
  0
LINE
  8
_2-2_
  6
CONTINUOUS
 62
    7
 10
2009.8074775934688
 20
815.70744930271746
 11
2009.3896907959204
 21
813.53706411413214
  0
LINE
  8
_2-2_
  6
CONTINUOUS
 62
    7
 10
2009.3896907959204
 20
813.53706411413214
 11
2009.8074775934688
 21
811.36667892554681
  0
LINE
  8
_2-2_
  6
CONTINUOUS
 62
    7
 10
2009.8074775934688
 20
811.36667892554681
 11
2011.0481437456813
 21
809.26223979264864
  0
LINE
  8
_2-2_
  6
CONTINUOUS
 62
    7
 10
2011.0481437456813
 20
809.26223979264864
 11
2013.0739922393298
 21
807.28768903359344
  0
LINE
  8
_2-2_
  6
CONTINUOUS
 62
    7
 10
2013.0739922393298
 20
807.28768903359344
 11
2015.8234686930637
 21
805.50302237402389
  0
LINE
  8
_2-2_
  6
CONTINUOUS
 62
    7
 10
2015.8234686930637
 20
805.50302237402389
 11
2019.2130316561388
 21
803.96246600730626
  0
LINE
  8
_2-2_
  6
CONTINUOUS
 62
    7
 10
2019.2130316561388
 20
803.96246600730626
 11
2023.1396909731234
 21
802.71282895908416
  0
LINE
  8
_2-2_
  6
CONTINUOUS
 62
    7
 10
2023.1396909731234
 20
802.71282895908416
 11
2027.4841370876563
 21
801.79208081872093
  0
LINE
  8
_2-2_
  6
CONTINUOUS
 62
    7
 10
2027.4841370876563
 20
801.79208081872093
 11
2032.1143662029438
 21
801.22819805254039
  0
LINE
  8
_2-2_
  6
CONTINUOUS
 62
    7
 10
2032.1143662029438
 20
801.22819805254039
 11
2036.8896911503264
 21
801.03831395305463
  0
LINE
  8
_2-2_
  6
CONTINUOUS
 62
    7
 10
2036.8896911503264
 20
801.03831395305463
 11
2041.6650160977088
 21
801.22819805254039
  0
LINE
  8
_2-2_
  6
CONTINUOUS
 62
    7
 10
2041.6650160977088
 20
801.22819805254039
 11
2046.2952452129962
 21
801.79208081872093
  0
LINE
  8
_2-2_
  6
CONTINUOUS
 62
    7
 10
2046.2952452129962
 20
801.79208081872093
 11
2050.6396913275294
 21
802.71282895908416
  0
LINE
  8
_2-2_
  6
CONTINUOUS
 62
    7
 10
2050.6396913275294
 20
802.71282895908416
 11
2054.5663506445139
 21
803.96246600730626
  0
LINE
  8
_2-2_
  6
CONTINUOUS
 62
    7
 10
2054.5663506445139
 20
803.96246600730626
 11
2057.9559136075891
 21
805.50302237402389
  0
LINE
  8
_2-2_
  6
CONTINUOUS
 62
    7
 10
2057.9559136075891
 20
805.50302237402389
 11
2060.7053900613228
 21
807.28768903359332
  0
LINE
  8
_2-2_
  6
CONTINUOUS
 62
    7
 10
2060.7053900613228
 20
807.28768903359332
 11
2062.7312385549717
 21
809.26223979264864
  0
LINE
  8
_2-2_
  6
CONTINUOUS
 62
    7
 10
2062.7312385549717
 20
809.26223979264864
 11
2063.971904707184
 21
811.36667892554669
  0
LINE
  8
_2-2_
  6
CONTINUOUS
 62
    7
 10
2063.971904707184
 20
811.36667892554669
 11
2064.3896915047326
 21
813.53706411413202
  0
LINE
  8
_2-2_
  6
CONTINUOUS
 62
    7
 10
2064.3896915047326
 20
813.53706411413202
 11
2064.3896915047326
 21
813.53706411413214
  0
LINE
  8
_2-2_
  6
CONTINUOUS
 62
    7
 10
2016.1258161988499
 20
813.03707218538364
 11
2016.1258161988499
 21
813.03707218538364
  0
LINE
  8
_2-2_
  6
CONTINUOUS
 62
    7
 10
2016.1258161988499
 20
813.03707218538364
 11
2015.7080294013015
 21
815.20745737396896
  0
LINE
  8
_2-2_
  6
CONTINUOUS
 62
    7
 10
2015.7080294013015
 20
815.20745737396896
 11
2014.467363249089
 21
817.31189650686713
  0
LINE
  8
_2-2_
  6
CONTINUOUS
 62
    7
 10
2014.467363249089
 20
817.31189650686713
 11
2012.4415147554405
 21
819.28644726592245
  0
LINE
  8
_2-2_
  6
CONTINUOUS
 62
    7
 10
2012.4415147554405
 20
819.28644726592245
 11
2009.6920383017066
 21
821.07111392549189
  0
LINE
  8
_2-2_
  6
CONTINUOUS
 62
    7
 10
2009.6920383017066
 20
821.07111392549189
 11
2006.3024753386314
 21
822.61167029220951
  0
LINE
  8
_2-2_
  6
CONTINUOUS
 62
    7
 10
2006.3024753386314
 20
822.61167029220951
 11
2002.3758160216469
 21
823.86130734043161
  0
LINE
  8
_2-2_
  6
CONTINUOUS
 62
    7
 10
2002.3758160216469
 20
823.86130734043161
 11
1998.0313699071137
 21
824.78205548079484
  0
LINE
  8
_2-2_
  6
CONTINUOUS
 62
    7
 10
1998.0313699071137
 20
824.78205548079484
 11
1993.4011407918265
 21
825.34593824697538
  0
LINE
  8
_2-2_
  6
CONTINUOUS
 62
    7
 10
1993.4011407918265
 20
825.34593824697538
 11
1988.6258158444439
 21
825.53582234646115
  0
LINE
  8
_2-2_
  6
CONTINUOUS
 62
    7
 10
1988.6258158444439
 20
825.53582234646115
 11
1983.8504908970613
 21
825.34593824697538
  0
LINE
  8
_2-2_
  6
CONTINUOUS
 62
    7
 10
1983.8504908970613
 20
825.34593824697538
 11
1979.2202617817741
 21
824.78205548079484
  0
LINE
  8
_2-2_
  6
CONTINUOUS
 62
    7
 10
1979.2202617817741
 20
824.78205548079484
 11
1974.8758156672409
 21
823.86130734043161
  0
LINE
  8
_2-2_
  6
CONTINUOUS
 62
    7
 10
1974.8758156672409
 20
823.86130734043161
 11
1970.9491563502563
 21
822.61167029220951
  0
LINE
  8
_2-2_
  6
CONTINUOUS
 62
    7
 10
1970.9491563502563
 20
822.61167029220951
 11
1967.5595933871812
 21
821.07111392549189
  0
LINE
  8
_2-2_
  6
CONTINUOUS
 62
    7
 10
1967.5595933871812
 20
821.07111392549189
 11
1964.8101169334473
 21
819.28644726592245
  0
LINE
  8
_2-2_
  6
CONTINUOUS
 62
    7
 10
1964.8101169334473
 20
819.28644726592245
 11
1962.7842684397988
 21
817.31189650686713
  0
LINE
  8
_2-2_
  6
CONTINUOUS
 62
    7
 10
1962.7842684397988
 20
817.31189650686713
 11
1961.5436022875863
 21
815.20745737396896
  0
LINE
  8
_2-2_
  6
CONTINUOUS
 62
    7
 10
1961.5436022875863
 20
815.20745737396896
 11
1961.1258154900379
 21
813.03707218538364
  0
LINE
  8
_2-2_
  6
CONTINUOUS
 62
    7
 10
1961.1258154900379
 20
813.03707218538364
 11
1961.5436022875863
 21
810.86668699679831
  0
LINE
  8
_2-2_
  6
CONTINUOUS
 62
    7
 10
1961.5436022875863
 20
810.86668699679831
 11
1962.7842684397988
 21
808.76224786390014
  0
LINE
  8
_2-2_
  6
CONTINUOUS
 62
    7
 10
1962.7842684397988
 20
808.76224786390014
 11
1964.8101169334473
 21
806.78769710484494
  0
LINE
  8
_2-2_
  6
CONTINUOUS
 62
    7
 10
1964.8101169334473
 20
806.78769710484494
 11
1967.5595933871812
 21
805.00303044527539
  0
LINE
  8
_2-2_
  6
CONTINUOUS
 62
    7
 10
1967.5595933871812
 20
805.00303044527539
 11
1970.9491563502563
 21
803.46247407855776
  0
LINE
  8
_2-2_
  6
CONTINUOUS
 62
    7
 10
1970.9491563502563
 20
803.46247407855776
 11
1974.8758156672409
 21
802.21283703033566
  0
LINE
  8
_2-2_
  6
CONTINUOUS
 62
    7
 10
1974.8758156672409
 20
802.21283703033566
 11
1979.2202617817738
 21
801.29208888997243
  0
LINE
  8
_2-2_
  6
CONTINUOUS
 62
    7
 10
1979.2202617817738
 20
801.29208888997243
 11
1983.8504908970613
 21
800.72820612379189
  0
LINE
  8
_2-2_
  6
CONTINUOUS
 62
    7
 10
1983.8504908970613
 20
800.72820612379189
 11
1988.6258158444439
 21
800.53832202430613
  0
LINE
  8
_2-2_
  6
CONTINUOUS
 62
    7
 10
1988.6258158444439
 20
800.53832202430613
 11
1993.4011407918263
 21
800.72820612379189
  0
LINE
  8
_2-2_
  6
CONTINUOUS
 62
    7
 10
1993.4011407918263
 20
800.72820612379189
 11
1998.0313699071137
 21
801.29208888997243
  0
LINE
  8
_2-2_
  6
CONTINUOUS
 62
    7
 10
1998.0313699071137
 20
801.29208888997243
 11
2002.3758160216469
 21
802.21283703033566
  0
LINE
  8
_2-2_
  6
CONTINUOUS
 62
    7
 10
2002.3758160216469
 20
802.21283703033566
 11
2006.3024753386314
 21
803.46247407855776
  0
LINE
  8
_2-2_
  6
CONTINUOUS
 62
    7
 10
2006.3024753386314
 20
803.46247407855776
 11
2009.6920383017064
 21
805.00303044527527
  0
LINE
  8
_2-2_
  6
CONTINUOUS
 62
    7
 10
2009.6920383017064
 20
805.00303044527527
 11
2012.4415147554405
 21
806.78769710484482
  0
LINE
  8
_2-2_
  6
CONTINUOUS
 62
    7
 10
2012.4415147554405
 20
806.78769710484482
 11
2014.467363249089
 21
808.76224786390014
  0
LINE
  8
_2-2_
  6
CONTINUOUS
 62
    7
 10
2014.467363249089
 20
808.76224786390014
 11
2015.7080294013012
 21
810.86668699679819
  0
LINE
  8
_2-2_
  6
CONTINUOUS
 62
    7
 10
2015.7080294013012
 20
810.86668699679819
 11
2016.1258161988499
 21
813.03707218538352
  0
LINE
  8
_2-2_
  6
CONTINUOUS
 62
    7
 10
2016.1258161988499
 20
813.03707218538352
 11
2016.1258161988499
 21
813.03707218538364
  0
LINE
  8
_2-2_
  6
CONTINUOUS
 62
    7
 10
2163.12563044224
 20
793.54509681348168
 11
2163.12563044224
 21
793.54509681348168
  0
LINE
  8
_2-2_
  6
CONTINUOUS
 62
    7
 10
2163.12563044224
 20
793.54509681348168
 11
2162.7078436446914
 21
795.71548200206701
  0
LINE
  8
_2-2_
  6
CONTINUOUS
 62
    7
 10
2162.7078436446914
 20
795.71548200206701
 11
2161.4671774924791
 21
797.81992113496517
  0
LINE
  8
_2-2_
  6
CONTINUOUS
 62
    7
 10
2161.4671774924791
 20
797.81992113496517
 11
2159.4413289988306
 21
799.79447189402049
  0
LINE
  8
_2-2_
  6
CONTINUOUS
 62
    7
 10
2159.4413289988306
 20
799.79447189402049
 11
2156.6918525450965
 21
801.57913855358993
  0
LINE
  8
_2-2_
  6
CONTINUOUS
 62
    7
 10
2156.6918525450965
 20
801.57913855358993
 11
2153.3022895820218
 21
803.11969492030755
  0
LINE
  8
_2-2_
  6
CONTINUOUS
 62
    7
 10
2153.3022895820218
 20
803.11969492030755
 11
2149.3756302650372
 21
804.36933196852965
  0
LINE
  8
_2-2_
  6
CONTINUOUS
 62
    7
 10
2149.3756302650372
 20
804.36933196852965
 11
2145.031184150504
 21
805.29008010889288
  0
LINE
  8
_2-2_
  6
CONTINUOUS
 62
    7
 10
2145.031184150504
 20
805.29008010889288
 11
2140.4009550352166
 21
805.85396287507342
  0
LINE
  8
_2-2_
  6
CONTINUOUS
 62
    7
 10
2140.4009550352166
 20
805.85396287507342
 11
2135.625630087834
 21
806.04384697455919
  0
LINE
  8
_2-2_
  6
CONTINUOUS
 62
    7
 10
2135.625630087834
 20
806.04384697455919
 11
2130.8503051404514
 21
805.85396287507342
  0
LINE
  8
_2-2_
  6
CONTINUOUS
 62
    7
 10
2130.8503051404514
 20
805.85396287507342
 11
2126.220076025164
 21
805.29008010889288
  0
LINE
  8
_2-2_
  6
CONTINUOUS
 62
    7
 10
2126.220076025164
 20
805.29008010889288
 11
2121.8756299106308
 21
804.36933196852965
  0
LINE
  8
_2-2_
  6
CONTINUOUS
 62
    7
 10
2121.8756299106308
 20
804.36933196852965
 11
2117.9489705936462
 21
803.11969492030755
  0
LINE
  8
_2-2_
  6
CONTINUOUS
 62
    7
 10
2117.9489705936462
 20
803.11969492030755
 11
2114.5594076305715
 21
801.57913855358993
  0
LINE
  8
_2-2_
  6
CONTINUOUS
 62
    7
 10
2114.5594076305715
 20
801.57913855358993
 11
2111.8099311768374
 21
799.79447189402049
  0
LINE
  8
_2-2_
  6
CONTINUOUS
 62
    7
 10
2111.8099311768374
 20
799.79447189402049
 11
2109.7840826831889
 21
797.81992113496517
  0
LINE
  8
_2-2_
  6
CONTINUOUS
 62
    7
 10
2109.7840826831889
 20
797.81992113496517
 11
2108.5434165309766
 21
795.71548200206701
  0
LINE
  8
_2-2_
  6
CONTINUOUS
 62
    7
 10
2108.5434165309766
 20
795.71548200206701
 11
2108.125629733428
 21
793.54509681348168
  0
LINE
  8
_2-2_
  6
CONTINUOUS
 62
    7
 10
2108.125629733428
 20
793.54509681348168
 11
2108.5434165309766
 21
791.37471162489635
  0
LINE
  8
_2-2_
  6
CONTINUOUS
 62
    7
 10
2108.5434165309766
 20
791.37471162489635
 11
2109.7840826831889
 21
789.27027249199818
  0
LINE
  8
_2-2_
  6
CONTINUOUS
 62
    7
 10
2109.7840826831889
 20
789.27027249199818
 11
2111.8099311768374
 21
787.29572173294298
  0
LINE
  8
_2-2_
  6
CONTINUOUS
 62
    7
 10
2111.8099311768374
 20
787.29572173294298
 11
2114.5594076305715
 21
785.51105507337343
  0
LINE
  8
_2-2_
  6
CONTINUOUS
 62
    7
 10
2114.5594076305715
 20
785.51105507337343
 11
2117.9489705936462
 21
783.9704987066558
  0
LINE
  8
_2-2_
  6
CONTINUOUS
 62
    7
 10
2117.9489705936462
 20
783.9704987066558
 11
2121.8756299106308
 21
782.72086165843371
  0
LINE
  8
_2-2_
  6
CONTINUOUS
 62
    7
 10
2121.8756299106308
 20
782.72086165843371
 11
2126.220076025164
 21
781.80011351807048
  0
LINE
  8
_2-2_
  6
CONTINUOUS
 62
    7
 10
2126.220076025164
 20
781.80011351807048
 11
2130.8503051404514
 21
781.23623075188993
  0
LINE
  8
_2-2_
  6
CONTINUOUS
 62
    7
 10
2130.8503051404514
 20
781.23623075188993
 11
2135.625630087834
 21
781.04634665240417
  0
LINE
  8
_2-2_
  6
CONTINUOUS
 62
    7
 10
2135.625630087834
 20
781.04634665240417
 11
2140.4009550352166
 21
781.23623075188993
  0
LINE
  8
_2-2_
  6
CONTINUOUS
 62
    7
 10
2140.4009550352166
 20
781.23623075188993
 11
2145.0311841505036
 21
781.80011351807048
  0
LINE
  8
_2-2_
  6
CONTINUOUS
 62
    7
 10
2145.0311841505036
 20
781.80011351807048
 11
2149.3756302650368
 21
782.72086165843371
  0
LINE
  8
_2-2_
  6
CONTINUOUS
 62
    7
 10
2149.3756302650368
 20
782.72086165843371
 11
2153.3022895820213
 21
783.9704987066558
  0
LINE
  8
_2-2_
  6
CONTINUOUS
 62
    7
 10
2153.3022895820213
 20
783.9704987066558
 11
2156.6918525450965
 21
785.51105507337343
  0
LINE
  8
_2-2_
  6
CONTINUOUS
 62
    7
 10
2156.6918525450965
 20
785.51105507337343
 11
2159.4413289988306
 21
787.29572173294287
  0
LINE
  8
_2-2_
  6
CONTINUOUS
 62
    7
 10
2159.4413289988306
 20
787.29572173294287
 11
2161.4671774924791
 21
789.27027249199818
  0
LINE
  8
_2-2_
  6
CONTINUOUS
 62
    7
 10
2161.4671774924791
 20
789.27027249199818
 11
2162.7078436446914
 21
791.37471162489624
  0
LINE
  8
_2-2_
  6
CONTINUOUS
 62
    7
 10
2162.7078436446914
 20
791.37471162489624
 11
2163.12563044224
 21
793.54509681348156
  0
LINE
  8
_2-2_
  6
CONTINUOUS
 62
    7
 10
2163.12563044224
 20
793.54509681348156
 11
2163.12563044224
 21
793.54509681348168
  0
LINE
  8
_2-2_
  6
CONTINUOUS
 62
    7
 10
2114.8617551363573
 20
793.04510488473306
 11
2114.8617551363573
 21
793.04510488473306
  0
LINE
  8
_2-2_
  6
CONTINUOUS
 62
    7
 10
2114.8617551363573
 20
793.04510488473306
 11
2114.4439683388086
 21
795.21549007331839
  0
LINE
  8
_2-2_
  6
CONTINUOUS
 62
    7
 10
2114.4439683388086
 20
795.21549007331839
 11
2113.2033021865964
 21
797.31992920621656
  0
LINE
  8
_2-2_
  6
CONTINUOUS
 62
    7
 10
2113.2033021865964
 20
797.31992920621656
 11
2111.1774536929479
 21
799.29447996527188
  0
LINE
  8
_2-2_
  6
CONTINUOUS
 62
    7
 10
2111.1774536929479
 20
799.29447996527188
 11
2108.4279772392138
 21
801.07914662484131
  0
LINE
  8
_2-2_
  6
CONTINUOUS
 62
    7
 10
2108.4279772392138
 20
801.07914662484131
 11
2105.0384142761391
 21
802.61970299155894
  0
LINE
  8
_2-2_
  6
CONTINUOUS
 62
    7
 10
2105.0384142761391
 20
802.61970299155894
 11
2101.1117549591545
 21
803.86934003978104
  0
LINE
  8
_2-2_
  6
CONTINUOUS
 62
    7
 10
2101.1117549591545
 20
803.86934003978104
 11
2096.7673088446213
 21
804.79008818014427
  0
LINE
  8
_2-2_
  6
CONTINUOUS
 62
    7
 10
2096.7673088446213
 20
804.79008818014427
 11
2092.1370797293339
 21
805.35397094632481
  0
LINE
  8
_2-2_
  6
CONTINUOUS
 62
    7
 10
2092.1370797293339
 20
805.35397094632481
 11
2087.3617547819513
 21
805.54385504581057
  0
LINE
  8
_2-2_
  6
CONTINUOUS
 62
    7
 10
2087.3617547819513
 20
805.54385504581057
 11
2082.5864298345687
 21
805.35397094632481
  0
LINE
  8
_2-2_
  6
CONTINUOUS
 62
    7
 10
2082.5864298345687
 20
805.35397094632481
 11
2077.9562007192812
 21
804.79008818014427
  0
LINE
  8
_2-2_
  6
CONTINUOUS
 62
    7
 10
2077.9562007192812
 20
804.79008818014427
 11
2073.6117546047481
 21
803.86934003978104
  0
LINE
  8
_2-2_
  6
CONTINUOUS
 62
    7
 10
2073.6117546047481
 20
803.86934003978104
 11
2069.6850952877635
 21
802.61970299155894
  0
LINE
  8
_2-2_
  6
CONTINUOUS
 62
    7
 10
2069.6850952877635
 20
802.61970299155894
 11
2066.2955323246888
 21
801.07914662484131
  0
LINE
  8
_2-2_
  6
CONTINUOUS
 62
    7
 10
2066.2955323246888
 20
801.07914662484131
 11
2063.5460558709547
 21
799.29447996527188
  0
LINE
  8
_2-2_
  6
CONTINUOUS
 62
    7
 10
2063.5460558709547
 20
799.29447996527188
 11
2061.5202073773062
 21
797.31992920621656
  0
LINE
  8
_2-2_
  6
CONTINUOUS
 62
    7
 10
2061.5202073773062
 20
797.31992920621656
 11
2060.2795412250939
 21
795.21549007331839
  0
LINE
  8
_2-2_
  6
CONTINUOUS
 62
    7
 10
2060.2795412250939
 20
795.21549007331839
 11
2059.8617544275453
 21
793.04510488473306
  0
LINE
  8
_2-2_
  6
CONTINUOUS
 62
    7
 10
2059.8617544275453
 20
793.04510488473306
 11
2060.2795412250939
 21
790.87471969614774
  0
LINE
  8
_2-2_
  6
CONTINUOUS
 62
    7
 10
2060.2795412250939
 20
790.87471969614774
 11
2061.5202073773062
 21
788.77028056324957
  0
LINE
  8
_2-2_
  6
CONTINUOUS
 62
    7
 10
2061.5202073773062
 20
788.77028056324957
 11
2063.5460558709547
 21
786.79572980419437
  0
LINE
  8
_2-2_
  6
CONTINUOUS
 62
    7
 10
2063.5460558709547
 20
786.79572980419437
 11
2066.2955323246888
 21
785.01106314462481
  0
LINE
  8
_2-2_
  6
CONTINUOUS
 62
    7
 10
2066.2955323246888
 20
785.01106314462481
 11
2069.6850952877635
 21
783.47050677790719
  0
LINE
  8
_2-2_
  6
CONTINUOUS
 62
    7
 10
2069.6850952877635
 20
783.47050677790719
 11
2073.6117546047481
 21
782.22086972968509
  0
LINE
  8
_2-2_
  6
CONTINUOUS
 62
    7
 10
2073.6117546047481
 20
782.22086972968509
 11
2077.9562007192812
 21
781.30012158932186
  0
LINE
  8
_2-2_
  6
CONTINUOUS
 62
    7
 10
2077.9562007192812
 20
781.30012158932186
 11
2082.5864298345687
 21
780.73623882314132
  0
LINE
  8
_2-2_
  6
CONTINUOUS
 62
    7
 10
2082.5864298345687
 20
780.73623882314132
 11
2087.3617547819513
 21
780.54635472365555
  0
LINE
  8
_2-2_
  6
CONTINUOUS
 62
    7
 10
2087.3617547819513
 20
780.54635472365555
 11
2092.1370797293339
 21
780.73623882314132
  0
LINE
  8
_2-2_
  6
CONTINUOUS
 62
    7
 10
2092.1370797293339
 20
780.73623882314132
 11
2096.7673088446209
 21
781.30012158932186
  0
LINE
  8
_2-2_
  6
CONTINUOUS
 62
    7
 10
2096.7673088446209
 20
781.30012158932186
 11
2101.111754959154
 21
782.22086972968509
  0
LINE
  8
_2-2_
  6
CONTINUOUS
 62
    7
 10
2101.111754959154
 20
782.22086972968509
 11
2105.0384142761386
 21
783.47050677790719
  0
LINE
  8
_2-2_
  6
CONTINUOUS
 62
    7
 10
2105.0384142761386
 20
783.47050677790719
 11
2108.4279772392138
 21
785.01106314462481
  0
LINE
  8
_2-2_
  6
CONTINUOUS
 62
    7
 10
2108.4279772392138
 20
785.01106314462481
 11
2111.1774536929479
 21
786.79572980419425
  0
LINE
  8
_2-2_
  6
CONTINUOUS
 62
    7
 10
2111.1774536929479
 20
786.79572980419425
 11
2113.2033021865964
 21
788.77028056324957
  0
LINE
  8
_2-2_
  6
CONTINUOUS
 62
    7
 10
2113.2033021865964
 20
788.77028056324957
 11
2114.4439683388086
 21
790.87471969614762
  0
LINE
  8
_2-2_
  6
CONTINUOUS
 62
    7
 10
2114.4439683388086
 20
790.87471969614762
 11
2114.8617551363573
 21
793.04510488473295
  0
LINE
  8
_2-2_
  6
CONTINUOUS
 62
    7
 10
2114.8617551363573
 20
793.04510488473295
 11
2114.8617551363573
 21
793.04510488473306
  0
LINE
  8
_2-2_
  6
CONTINUOUS
 62
    7
 10
2060.3895373556147
 20
793.04510488473306
 11
2060.3895373556147
 21
793.04510488473306
  0
LINE
  8
_2-2_
  6
CONTINUOUS
 62
    7
 10
2060.3895373556147
 20
793.04510488473306
 11
2059.9717505580661
 21
795.21549007331839
  0
LINE
  8
_2-2_
  6
CONTINUOUS
 62
    7
 10
2059.9717505580661
 20
795.21549007331839
 11
2058.7310844058538
 21
797.31992920621656
  0
LINE
  8
_2-2_
  6
CONTINUOUS
 62
    7
 10
2058.7310844058538
 20
797.31992920621656
 11
2056.7052359122054
 21
799.29447996527188
  0
LINE
  8
_2-2_
  6
CONTINUOUS
 62
    7
 10
2056.7052359122054
 20
799.29447996527188
 11
2053.9557594584712
 21
801.07914662484131
  0
LINE
  8
_2-2_
  6
CONTINUOUS
 62
    7
 10
2053.9557594584712
 20
801.07914662484131
 11
2050.5661964953961
 21
802.61970299155894
  0
LINE
  8
_2-2_
  6
CONTINUOUS
 62
    7
 10
2050.5661964953961
 20
802.61970299155894
 11
2046.6395371784115
 21
803.86934003978104
  0
LINE
  8
_2-2_
  6
CONTINUOUS
 62
    7
 10
2046.6395371784115
 20
803.86934003978104
 11
2042.2950910638783
 21
804.79008818014427
  0
LINE
  8
_2-2_
  6
CONTINUOUS
 62
    7
 10
2042.2950910638783
 20
804.79008818014427
 11
2037.6648619485911
 21
805.35397094632481
  0
LINE
  8
_2-2_
  6
CONTINUOUS
 62
    7
 10
2037.6648619485911
 20
805.35397094632481
 11
2032.8895370012085
 21
805.54385504581057
  0
LINE
  8
_2-2_
  6
CONTINUOUS
 62
    7
 10
2032.8895370012085
 20
805.54385504581057
 11
2028.1142120538259
 21
805.35397094632481
  0
LINE
  8
_2-2_
  6
CONTINUOUS
 62
    7
 10
2028.1142120538259
 20
805.35397094632481
 11
2023.4839829385387
 21
804.79008818014427
  0
LINE
  8
_2-2_
  6
CONTINUOUS
 62
    7
 10
2023.4839829385387
 20
804.79008818014427
 11
2019.1395368240055
 21
803.86934003978104
  0
LINE
  8
_2-2_
  6
CONTINUOUS
 62
    7
 10
2019.1395368240055
 20
803.86934003978104
 11
2015.2128775070209
 21
802.61970299155894
  0
LINE
  8
_2-2_
  6
CONTINUOUS
 62
    7
 10
2015.2128775070209
 20
802.61970299155894
 11
2011.8233145439458
 21
801.07914662484131
  0
LINE
  8
_2-2_
  6
CONTINUOUS
 62
    7
 10
2011.8233145439458
 20
801.07914662484131
 11
2009.0738380902119
 21
799.29447996527188
  0
LINE
  8
_2-2_
  6
CONTINUOUS
 62
    7
 10
2009.0738380902119
 20
799.29447996527188
 11
2007.0479895965634
 21
797.31992920621656
  0
LINE
  8
_2-2_
  6
CONTINUOUS
 62
    7
 10
2007.0479895965634
 20
797.31992920621656
 11
2005.8073234443509
 21
795.21549007331839
  0
LINE
  8
_2-2_
  6
CONTINUOUS
 62
    7
 10
2005.8073234443509
 20
795.21549007331839
 11
2005.3895366468025
 21
793.04510488473306
  0
LINE
  8
_2-2_
  6
CONTINUOUS
 62
    7
 10
2005.3895366468025
 20
793.04510488473306
 11
2005.8073234443509
 21
790.87471969614774
  0
LINE
  8
_2-2_
  6
CONTINUOUS
 62
    7
 10
2005.8073234443509
 20
790.87471969614774
 11
2007.0479895965634
 21
788.77028056324957
  0
LINE
  8
_2-2_
  6
CONTINUOUS
 62
    7
 10
2007.0479895965634
 20
788.77028056324957
 11
2009.0738380902119
 21
786.79572980419437
  0
LINE
  8
_2-2_
  6
CONTINUOUS
 62
    7
 10
2009.0738380902119
 20
786.79572980419437
 11
2011.8233145439458
 21
785.01106314462481
  0
LINE
  8
_2-2_
  6
CONTINUOUS
 62
    7
 10
2011.8233145439458
 20
785.01106314462481
 11
2015.2128775070209
 21
783.47050677790719
  0
LINE
  8
_2-2_
  6
CONTINUOUS
 62
    7
 10
2015.2128775070209
 20
783.47050677790719
 11
2019.1395368240055
 21
782.22086972968509
  0
LINE
  8
_2-2_
  6
CONTINUOUS
 62
    7
 10
2019.1395368240055
 20
782.22086972968509
 11
2023.4839829385385
 21
781.30012158932186
  0
LINE
  8
_2-2_
  6
CONTINUOUS
 62
    7
 10
2023.4839829385385
 20
781.30012158932186
 11
2028.1142120538259
 21
780.73623882314132
  0
LINE
  8
_2-2_
  6
CONTINUOUS
 62
    7
 10
2028.1142120538259
 20
780.73623882314132
 11
2032.8895370012085
 21
780.54635472365555
  0
LINE
  8
_2-2_
  6
CONTINUOUS
 62
    7
 10
2032.8895370012085
 20
780.54635472365555
 11
2037.6648619485909
 21
780.73623882314132
  0
LINE
  8
_2-2_
  6
CONTINUOUS
 62
    7
 10
2037.6648619485909
 20
780.73623882314132
 11
2042.2950910638783
 21
781.30012158932186
  0
LINE
  8
_2-2_
  6
CONTINUOUS
 62
    7
 10
2042.2950910638783
 20
781.30012158932186
 11
2046.6395371784115
 21
782.22086972968509
  0
LINE
  8
_2-2_
  6
CONTINUOUS
 62
    7
 10
2046.6395371784115
 20
782.22086972968509
 11
2050.5661964953961
 21
783.47050677790719
  0
LINE
  8
_2-2_
  6
CONTINUOUS
 62
    7
 10
2050.5661964953961
 20
783.47050677790719
 11
2053.9557594584712
 21
785.01106314462481
  0
LINE
  8
_2-2_
  6
CONTINUOUS
 62
    7
 10
2053.9557594584712
 20
785.01106314462481
 11
2056.7052359122049
 21
786.79572980419425
  0
LINE
  8
_2-2_
  6
CONTINUOUS
 62
    7
 10
2056.7052359122049
 20
786.79572980419425
 11
2058.7310844058538
 21
788.77028056324957
  0
LINE
  8
_2-2_
  6
CONTINUOUS
 62
    7
 10
2058.7310844058538
 20
788.77028056324957
 11
2059.9717505580661
 21
790.87471969614762
  0
LINE
  8
_2-2_
  6
CONTINUOUS
 62
    7
 10
2059.9717505580661
 20
790.87471969614762
 11
2060.3895373556147
 21
793.04510488473295
  0
LINE
  8
_2-2_
  6
CONTINUOUS
 62
    7
 10
2060.3895373556147
 20
793.04510488473295
 11
2060.3895373556147
 21
793.04510488473306
  0
LINE
  8
_2-2_
  6
CONTINUOUS
 62
    7
 10
2012.1256620497315
 20
792.54511295598468
 11
2012.1256620497315
 21
792.54511295598468
  0
LINE
  8
_2-2_
  6
CONTINUOUS
 62
    7
 10
2012.1256620497315
 20
792.54511295598468
 11
2011.7078752521832
 21
794.71549814457001
  0
LINE
  8
_2-2_
  6
CONTINUOUS
 62
    7
 10
2011.7078752521832
 20
794.71549814457001
 11
2010.4672090999707
 21
796.81993727746817
  0
LINE
  8
_2-2_
  6
CONTINUOUS
 62
    7
 10
2010.4672090999707
 20
796.81993727746817
 11
2008.4413606063222
 21
798.79448803652349
  0
LINE
  8
_2-2_
  6
CONTINUOUS
 62
    7
 10
2008.4413606063222
 20
798.79448803652349
 11
2005.6918841525883
 21
800.57915469609293
  0
LINE
  8
_2-2_
  6
CONTINUOUS
 62
    7
 10
2005.6918841525883
 20
800.57915469609293
 11
2002.3023211895131
 21
802.11971106281055
  0
LINE
  8
_2-2_
  6
CONTINUOUS
 62
    7
 10
2002.3023211895131
 20
802.11971106281055
 11
1998.3756618725286
 21
803.36934811103265
  0
LINE
  8
_2-2_
  6
CONTINUOUS
 62
    7
 10
1998.3756618725286
 20
803.36934811103265
 11
1994.0312157579954
 21
804.29009625139588
  0
LINE
  8
_2-2_
  6
CONTINUOUS
 62
    7
 10
1994.0312157579954
 20
804.29009625139588
 11
1989.4009866427082
 21
804.85397901757642
  0
LINE
  8
_2-2_
  6
CONTINUOUS
 62
    7
 10
1989.4009866427082
 20
804.85397901757642
 11
1984.6256616953256
 21
805.04386311706219
  0
LINE
  8
_2-2_
  6
CONTINUOUS
 62
    7
 10
1984.6256616953256
 20
805.04386311706219
 11
1979.8503367479429
 21
804.85397901757642
  0
LINE
  8
_2-2_
  6
CONTINUOUS
 62
    7
 10
1979.8503367479429
 20
804.85397901757642
 11
1975.2201076326558
 21
804.29009625139588
  0
LINE
  8
_2-2_
  6
CONTINUOUS
 62
    7
 10
1975.2201076326558
 20
804.29009625139588
 11
1970.8756615181226
 21
803.36934811103265
  0
LINE
  8
_2-2_
  6
CONTINUOUS
 62
    7
 10
1970.8756615181226
 20
803.36934811103265
 11
1966.949002201138
 21
802.11971106281055
  0
LINE
  8
_2-2_
  6
CONTINUOUS
 62
    7
 10
1966.949002201138
 20
802.11971106281055
 11
1963.5594392380629
 21
800.57915469609293
  0
LINE
  8
_2-2_
  6
CONTINUOUS
 62
    7
 10
1963.5594392380629
 20
800.57915469609293
 11
1960.8099627843289
 21
798.79448803652349
  0
LINE
  8
_2-2_
  6
CONTINUOUS
 62
    7
 10
1960.8099627843289
 20
798.79448803652349
 11
1958.7841142906805
 21
796.81993727746817
  0
LINE
  8
_2-2_
  6
CONTINUOUS
 62
    7
 10
1958.7841142906805
 20
796.81993727746817
 11
1957.543448138468
 21
794.71549814457001
  0
LINE
  8
_2-2_
  6
CONTINUOUS
 62
    7
 10
1957.543448138468
 20
794.71549814457001
 11
1957.1256613409196
 21
792.54511295598468
  0
LINE
  8
_2-2_
  6
CONTINUOUS
 62
    7
 10
1957.1256613409196
 20
792.54511295598468
 11
1957.543448138468
 21
790.37472776739935
  0
LINE
  8
_2-2_
  6
CONTINUOUS
 62
    7
 10
1957.543448138468
 20
790.37472776739935
 11
1958.7841142906805
 21
788.27028863450118
  0
LINE
  8
_2-2_
  6
CONTINUOUS
 62
    7
 10
1958.7841142906805
 20
788.27028863450118
 11
1960.8099627843289
 21
786.29573787544598
  0
LINE
  8
_2-2_
  6
CONTINUOUS
 62
    7
 10
1960.8099627843289
 20
786.29573787544598
 11
1963.5594392380629
 21
784.51107121587643
  0
LINE
  8
_2-2_
  6
CONTINUOUS
 62
    7
 10
1963.5594392380629
 20
784.51107121587643
 11
1966.949002201138
 21
782.9705148491588
  0
LINE
  8
_2-2_
  6
CONTINUOUS
 62
    7
 10
1966.949002201138
 20
782.9705148491588
 11
1970.8756615181226
 21
781.72087780093671
  0
LINE
  8
_2-2_
  6
CONTINUOUS
 62
    7
 10
1970.8756615181226
 20
781.72087780093671
 11
1975.2201076326555
 21
780.80012966057348
  0
LINE
  8
_2-2_
  6
CONTINUOUS
 62
    7
 10
1975.2201076326555
 20
780.80012966057348
 11
1979.8503367479429
 21
780.23624689439293
  0
LINE
  8
_2-2_
  6
CONTINUOUS
 62
    7
 10
1979.8503367479429
 20
780.23624689439293
 11
1984.6256616953256
 21
780.04636279490717
  0
LINE
  8
_2-2_
  6
CONTINUOUS
 62
    7
 10
1984.6256616953256
 20
780.04636279490717
 11
1989.4009866427079
 21
780.23624689439293
  0
LINE
  8
_2-2_
  6
CONTINUOUS
 62
    7
 10
1989.4009866427079
 20
780.23624689439293
 11
1994.0312157579954
 21
780.80012966057348
  0
LINE
  8
_2-2_
  6
CONTINUOUS
 62
    7
 10
1994.0312157579954
 20
780.80012966057348
 11
1998.3756618725286
 21
781.72087780093671
  0
LINE
  8
_2-2_
  6
CONTINUOUS
 62
    7
 10
1998.3756618725286
 20
781.72087780093671
 11
2002.3023211895131
 21
782.9705148491588
  0
LINE
  8
_2-2_
  6
CONTINUOUS
 62
    7
 10
2002.3023211895131
 20
782.9705148491588
 11
2005.691884152588
 21
784.51107121587643
  0
LINE
  8
_2-2_
  6
CONTINUOUS
 62
    7
 10
2005.691884152588
 20
784.51107121587643
 11
2008.4413606063222
 21
786.29573787544587
  0
LINE
  8
_2-2_
  6
CONTINUOUS
 62
    7
 10
2008.4413606063222
 20
786.29573787544587
 11
2010.4672090999707
 21
788.27028863450118
  0
LINE
  8
_2-2_
  6
CONTINUOUS
 62
    7
 10
2010.4672090999707
 20
788.27028863450118
 11
2011.7078752521829
 21
790.37472776739924
  0
LINE
  8
_2-2_
  6
CONTINUOUS
 62
    7
 10
2011.7078752521829
 20
790.37472776739924
 11
2012.1256620497315
 21
792.54511295598456
  0
LINE
  8
_2-2_
  6
CONTINUOUS
 62
    7
 10
2012.1256620497315
 20
792.54511295598456
 11
2012.1256620497315
 21
792.54511295598468
  0
ARC
  8
_2-1_
  6
CONTINUOUS
 62
    7
 10
2852.9340419990212
 20
1678.4935737668775
 40
10.000000051204761
 50
0
 51
90
  0
ARC
  8
_2-1_
  6
CONTINUOUS
 62
    7
 10
1277.1366450777386
 20
1673.7856445165214
 40
10.000000051204761
 50
90
 51
180
  0
ARC
  8
_2-1_
  6
CONTINUOUS
 62
    7
 10
1272.1366164306876
 20
1678.5058220380981
 40
10.000000051204761
 50
90
 51
180
  0
ARC
  8
_2-1_
  6
CONTINUOUS
 62
    7
 10
2847.5931395895232
 20
1673.7856445165214
 40
10.000000051204761
 50
0
 51
90
  0
ARC
  8
_2-1_
  6
CONTINUOUS
 62
    7
 10
2753.4658314178346
 20
1678.5058220380981
 40
10.000000051204761
 50
90
 51
168.94827270507812
  0
ARC
  8
_2-1_
  6
CONTINUOUS
 62
    7
 10
2757.9657587765728
 20
1673.7856445165214
 40
10.000000051204761
 50
90
 51
173.16758728027344
  0
ARC
  8
_2-1_
  6
CONTINUOUS
 62
    7
 10
1366.754730327709
 20
1674.0243764457553
 40
10.000000051204761
 50
5.5657501220703125
 51
90
  0
ARC
  8
_2-1_
  6
CONTINUOUS
 62
    7
 10
1371.4260241239685
 20
1678.5058220380981
 40
10.000000051204761
 50
0
 51
90
  0
ARC
  8
_2-1_
  6
CONTINUOUS
 62
    7
 10
1572.940159580422
 20
1279.1967605531904
 40
60.000002015971766
 50
207.28205871582031
 51
271.2381591796875
  0
ARC
  8
_2-1_
  6
CONTINUOUS
 62
    7
 10
2554.9371027117991
 20
1278.8810394905709
 40
60.000002015971766
 50
276.89270019531256
 51
335.45449829101568
  0
ARC
  8
_2-1_
  6
CONTINUOUS
 62
    7
 10
1747.3063299554653
 20
1760.1384718906004
 40
1000.0000427128265
 50
329.09036254882812
 51
355.59658813476562
  0
ARC
  8
_2-1_
  6
CONTINUOUS
 62
    7
 10
2559.5103009787304
 20
1274.0135546356553
 40
60.000002015971766
 50
266.88064575195312
 51
335.36247253417969
  0
ARC
  8
_2-1_
  6
CONTINUOUS
 62
    7
 10
1752.4529004189037
 20
1757.097073043175
 40
1000.0000427128265
 50
328.89036560058594
 51
355.39659118652349
  0
ARC
  8
_2-1_
  6
CONTINUOUS
 62
    7
 10
1570.8033830502777
 20
1273.6885380100557
 40
60.000002015971766
 50
207.14015197753906
 51
264.10389709472656
  0
ARC
  8
_2-1_
  6
CONTINUOUS
 62
    7
 10
2372.4846674208475
 20
1764.5793450845254
 40
1000.0000427128265
 50
185.00338745117187
 51
211.69319152832028
  0
ARC
  8
_2-1_
  6
CONTINUOUS
 62
    7
 10
2377.5884782945786
 20
1765.2840581179585
 40
1000.0000427128265
 50
184.84805297851565
 51
211.34915161132815
  0
CIRCLE
  8
_2-1_
  6
CONTINUOUS
 62
    7
 10
2063.0369068572877
 20
3761.936209836982
 40
799.99999042643537
  0
CIRCLE
  8
_2-1_
  6
CONTINUOUS
 62
    7
 10
2062.3715632670633
 20
3760.7918713543868
 40
680.00001373438295
  0
CIRCLE
  8
_2-2_
  6
CONTINUOUS
 62
    7
 10
2062.4999513957491
 20
3761.0941411905765
 40
500.00002135641324
  0
CIRCLE
  8
_2-1_
  6
CONTINUOUS
 62
    7
 10
2063.0817442787197
 20
4168.7848477750213
 40
34.999998897659268
  0
CIRCLE
  8
_2-2_
  6
CONTINUOUS
 62
    7
 10
2063.0817442787197
 20
4168.7848477750213
 40
22.500000755989412
  0
CIRCLE
  8
_2-2_
  6
CONTINUOUS
 62
    7
 10
2062.3321938238546
 20
3326.2778882354382
 40
15.000000503992942
  0
CIRCLE
  8
_2-2_
  6
CONTINUOUS
 62
    7
 10
2283.5781848568713
 20
3386.3108211502604
 40
15.000000503992942
  0
CIRCLE
  8
_2-2_
  6
CONTINUOUS
 62
    7
 10
2441.0811103909173
 20
3546.2242502043146
 40
15.000000503992942
  0
CIRCLE
  8
_2-2_
  6
CONTINUOUS
 62
    7
 10
2497.9087144711762
 20
3763.3723196375781
 40
15.000000503992942
  0
CIRCLE
  8
_2-2_
  6
CONTINUOUS
 62
    7
 10
2438.8692038399831
 20
3979.9305035801003
 40
15.000000503992942
  0
CIRCLE
  8
_2-2_
  6
CONTINUOUS
 62
    7
 10
2279.7392267057789
 20
4138.225411080025
 40
15.000000503992942
  0
CIRCLE
  8
_2-2_
  6
CONTINUOUS
 62
    7
 10
1627.9548008009272
 20
3763.3014546398031
 40
15.000000503992942
  0
CIRCLE
  8
_2-2_
  6
CONTINUOUS
 62
    7
 10
1684.7812019259773
 20
3546.1581970273755
 40
15.000000503992942
  0
CIRCLE
  8
_2-2_
  6
CONTINUOUS
 62
    7
 10
1842.3068742494322
 20
3386.2570162445422
 40
15.000000503992942
  0
CIRCLE
  8
_2-2_
  6
CONTINUOUS
 62
    7
 10
1846.0202876205149
 20
4138.2149125618362
 40
15.000000503992942
  0
CIRCLE
  8
_2-2_
  6
CONTINUOUS
 62
    7
 10
1686.9329607164539
 20
3979.8679499092245
 40
15.000000503992942
  0
CIRCLE
  8
_2-2_
  6
CONTINUOUS
 62
    7
 10
2062.8991138060583
 20
3761.2227480383908
 40
15.000000503992942
  0
CIRCLE
  8
_2-2_
  6
CONTINUOUS
 62
    7
 10
1833.3006766772176
 20
3760.9301018438741
 40
15.000000503992942
  0
CIRCLE
  8
_2-2_
  6
CONTINUOUS
 62
    7
 10
2062.2707337486236
 20
3531.7645098711992
 40
15.000000503992942
  0
CIRCLE
  8
_2-2_
  6
CONTINUOUS
 62
    7
 10
2062.7425109097394
 20
3991.2050372385147
 40
15.000000503992942
  0
CIRCLE
  8
_2-2_
  6
CONTINUOUS
 62
    7
 10
1793.3914346584479
 20
3180.9294034155178
 40
24.999999700826105
  0
CIRCLE
  8
_2-2_
  6
CONTINUOUS
 62
    7
 10
1792.8439806787203
 20
4341.318808006964
 40
24.999999700826105
  0
CIRCLE
  8
_2-2_
  6
CONTINUOUS
 62
    7
 10
2335.9388881668619
 20
3181.6017460178682
 40
24.999999700826105
  0
CIRCLE
  8
_2-2_
  6
CONTINUOUS
 62
    7
 10
2336.5782041807433
 20
4339.6171731838385
 40
24.999999700826105
  0
CIRCLE
  8
_2-2_
  6
CONTINUOUS
 62
    7
 10
2777.6811010589008
 20
3753.4118505058141
 40
24.999999700826105
  0
CIRCLE
  8
_2-2_
  6
CONTINUOUS
 62
    7
 10
2062.7698508008561
 20
3760.5823384288656
 40
15.000000503992942
  0
CIRCLE
  8
_2-2_
  6
CONTINUOUS
 62
    7
 10
2452.7023138686955
 20
4357.4515309573135
 40
22.000000283524795
  0
CIRCLE
  8
_2-2_
  6
CONTINUOUS
 62
    7
 10
2452.4999986744297
 20
4357.0508375131021
 40
12.499999850413053
  0
ARC
  8
_2-2_
  6
CONTINUOUS
 62
    7
 10
1366.8586219139543
 20
3907.3734946232507
 40
1.9999999675223725
 50
90
 51
180
  0
ARC
  8
_2-2_
  6
CONTINUOUS
 62
    7
 10
1383.8586755701012
 20
3907.3734946232507
 40
1.9999999675223725
 50
0
 51
90
  0
ARC
  8
_2-2_
  6
CONTINUOUS
 62
    7
 10
1371.4418812608167
 20
3810.8020001856971
 40
0.9999999837611862
 50
90
 51
180
  0
ARC
  8
_2-2_
  6
CONTINUOUS
 62
    7
 10
1376.4419099078673
 20
3810.8020001856971
 40
0.9999999837611862
 50
0
 51
90
  0
ARC
  8
_2-2_
  6
CONTINUOUS
 62
    7
 10
1405.4578457099587
 20
3810.7586937981678
 40
0.9999999837611862
 50
90
 51
180
  0
ARC
  8
_2-2_
  6
CONTINUOUS
 62
    7
 10
1410.4578743570098
 20
3810.7586937981678
 40
0.9999999837611862
 50
0
 51
90
  0
ARC
  8
_2-2_
  6
CONTINUOUS
 62
    7
 10
1468.0607283897843
 20
3810.8304336724595
 40
0.9999999837611862
 50
90
 51
180
  0
ARC
  8
_2-2_
  6
CONTINUOUS
 62
    7
 10
1473.060757036835
 20
3810.8304336724595
 40
0.9999999837611862
 50
0
 51
90
  0
ARC
  8
_2-2_
  6
CONTINUOUS
 62
    7
 10
1438.7705188000061
 20
3810.7586937981678
 40
0.9999999837611862
 50
90
 51
180
  0
ARC
  8
_2-2_
  6
CONTINUOUS
 62
    7
 10
1443.7705474470572
 20
3810.7586937981678
 40
0.9999999837611862
 50
0
 51
90
  0
CIRCLE
  8
_2-2_
  6
CONTINUOUS
 62
    7
 10
1414.2771477864976
 20
3891.1379736823001
 40
3.2500000807194174
  0
CIRCLE
  8
_2-2_
  6
CONTINUOUS
 62
    7
 10
1414.2771477864976
 20
3855.1376799358823
 40
3.2500000807194174
  0
CIRCLE
  8
_2-2_
  6
CONTINUOUS
 62
    7
 10
1414.2771477864976
 20
3839.1379382159257
 40
3.2500000807194174
  0
CIRCLE
  8
_4-0_
  6
CONTINUOUS
 62
    7
 10
4407.2958706888912
 20
2526.2474958500807
 40
840.01487378448121
  0
CIRCLE
  8
_4-0_
  6
CONTINUOUS
 62
    7
 10
2887.4999756978746
 20
1637.4516947389106
 40
119.30353397568219
  0
TEXT
  8
_1-0_
 62
    6
 10
5307.665554621045
 20
4472.508728734314
 40
250
 41
1
 50
0
  1
M91-160-B16
  0
ENDSEC
  0
EOF
