  0
SECTION
  2
HEADER
  9
$ACADVER
  1
AC1009
  9
$INSBASE
 10
0
 20
0
 30
0
  9
$EXTMIN
 10
0
 20
0
  9
$EXTMAX
 10
2970
 20
2100
  9
$LIMMIN
 10
0
 20
0
  9
$LIMMAX
 10
2970
 20
2100
  9
$LTSCALE
 40
10
  0
ENDSEC
  0
SECTION
  2
TABLES
  0
TABLE
  2
LTYPE
 70
     9
  0
LTYPE
  2
CONTINUOUS
 70
    64
  3
実線
 72
    65
 73
     0
 40
0.0
  0
LTYPE
  2
DASHED1
 70
    64
  3
--  --  --  --  --  --  --  --  
 72
    65
 73
     2
 40
2.5
 49
1.25
 49
-1.25
  0
LTYPE
  2
DASHED2
 70
    64
  3
----    ----    ----    ----    
 72
    65
 73
     2
 40
5.0
 49
2.5
 49
-2.5
  0
LTYPE
  2
DASHED3
 70
    64
  3
------  ------  ------  ------  
 72
    65
 73
     2
 40
5.0
 49
3.75
 49
-1.25
  0
LTYPE
  2
CENTER1
 70
    64
  3
----- - ----- - ----- - ----- - 
 72
    65
 73
     4
 40
10.0
 49
6.25
 49
-1.25
 49
1.25
 49
-1.25
  0
LTYPE
  2
CENTER2
 70
    64
  3
----------  --  ----------  --  
 72
    65
 73
     4
 40
20.0
 49
12.5
 49
-2.5
 49
2.5
 49
-2.5
  0
LTYPE
  2
PHANTOM1
 70
    64
  3
--- - - --- - - --- - - --- - - 
 72
    65
 73
     6
 40
10.0
 49
3.25
 49
-1.25
 49
1.25
 49
-1.25
 49
1.25
 49
-1.25
  0
LTYPE
  2
PHANTOM2
 70
    64
  3
--------  -  -  --------  -  -  
 72
    65
 73
     6
 40
20.0
 49
10.0
 49
-2.5
 49
1.25
 49
-2.5
 49
1.25
 49
-2.5
  0
LTYPE
  2
DOT
 70
    64
  3
-   -   -   -   -   -   -   -   
 72
    65
 73
     2
 40
2.5
 49
0.625
 49
-1.875
  0
LTYPE
  2
DUMMY
 70
    64
  3
ダミー
 72
    65
 73
     0
 40
0.0
  0
LTYPE
  2
RAND1
 70
    64
  3
ランダム線1
 72
    65
 73
     4
 40
10.0
 49
1.0
 49
-2.0
 49
3.0
 49
-4.0
  0
LTYPE
  2
RAND2
 70
    64
  3
ランダム線2
 72
    65
 73
     4
 40
14.0
 49
2.0
 49
-3.0
 49
4.0
 49
-5.0
  0
LTYPE
  2
RAND3
 70
    64
  3
ランダム線3
 72
    65
 73
     4
 40
18.0
 49
3.0
 49
-4.0
 49
5.0
 49
-6.0
  0
LTYPE
  2
RAND4
 70
    64
  3
ランダム線4
 72
    65
 73
     4
 40
22.0
 49
4.0
 49
-5.0
 49
6.0
 49
-7.0
  0
LTYPE
  2
RAND5
 70
    64
  3
ランダム線5
 72
    65
 73
     4
 40
26.0
 49
5.0
 49
-6.0
 49
7.0
 49
-8.0
  0
LTYPE
  2
LONG1
 70
    64
  3
----------  --  ----------  --  
 72
    65
 73
     4
 40
40.0
 49
32.5
 49
-2.5
 49
2.5
 49
-2.5
  0
LTYPE
  2
LONG2
 70
    64
  3
--------  -  -  --------  -  -  
 72
    65
 73
     6
 40
40.0
 49
30.0
 49
-2.5
 49
1.25
 49
-2.5
 49
1.25
 49
-2.5
  0
LTYPE
  2
LONG3
 70
    64
  3
+++++++++++++++..+++++++++++++++
 72
    65
 73
     2
 40
40.0
 49
37.5
 49
-2.5
  0
LTYPE
  2
LONG4
 70
    64
  3
+++++++++++++++..+++++++++++++++
 72
    65
 73
     2
 40
80.0
 49
75.0
 49
-5.0
  0
LTYPE
  2
LONG5
 70
    64
  3
----------  --  ----------  --  
 72
    65
 73
     4
 40
60.0
 49
37.5
 49
-7.5
 49
7.5
 49
-7.5
  0
LTYPE
  2
dashed
 70
   64
  3
-------   -------------   ------
 72
   65
 73
    2
 40
7.5
 49
6
 49
-1.5
  0
LTYPE
  2
dashed_spaced
 70
   64
  3
----        --------        ----
 72
   65
 73
    2
 40
12
 49
6
 49
-6
  0
LTYPE
  2
long_dashed_dotted
 70
   64
  3
------------- --- --------------
 72
   65
 73
    4
 40
15.25
 49
12
 49
-1.5
 49
0.25
 49
-1.5
  0
LTYPE
  2
long_dashed_double-dotted
 70
   64
  3
----------- --- --- ------------
 72
   65
 73
    6
 40
17
 49
12
 49
-1.5
 49
0.25
 49
-1.5
 49
0.25
 49
-1.5
  0
LTYPE
  2
long_dashed_triplicate-dotted
 70
   64
  3
--------- --- --- --- ----------
 72
   65
 73
    8
 40
18.75
 49
12
 49
-1.5
 49
0.25
 49
-1.5
 49
0.25
 49
-1.5
 49
0.25
 49
-1.5
  0
LTYPE
  2
dotted
 70
   64
  3
   -       -       -       -    
 72
   65
 73
    2
 40
1.75
 49
0.25
 49
-1.5
  0
LTYPE
  2
chain
 70
   64
  3
-------------- -- --------------
 72
   65
 73
    4
 40
18.5
 49
12
 49
-1.5
 49
3.5
 49
-1.5
  0
LTYPE
  2
chain_double_dash
 70
   64
  3
------------ -- -- -------------
 72
   65
 73
    6
 40
23.5
 49
12
 49
-1.5
 49
3.5
 49
-1.5
 49
3.5
 49
-1.5
  0
LTYPE
  2
dashed_dotted
 70
   64
  3
-----------     -     ----------
 72
   65
 73
    4
 40
9.25
 49
6
 49
-1.5
 49
0.25
 49
-1.5
  0
LTYPE
  2
double-dashed_dotted
 70
   64
  3
------   -----------   -   -----
 72
   65
 73
    6
 40
16.75
 49
6
 49
-1.5
 49
6
 49
-1.5
 49
0.25
 49
-1.5
  0
LTYPE
  2
dashed_double-dotted
 70
   64
  3
---------    -    -    ---------
 72
   65
 73
    6
 40
11
 49
6
 49
-1.5
 49
0.25
 49
-1.5
 49
0.25
 49
-1.5
  0
LTYPE
  2
double-dashed_double-dotted
 70
   64
  3
-----   ---------   -   -   ----
 72
   65
 73
    8
 40
18.5
 49
6
 49
-1.5
 49
6
 49
-1.5
 49
0.25
 49
-1.5
 49
0.25
 49
-1.5
  0
LTYPE
  2
dashed_triplicate-dotted
 70
   64
  3
-------    -    -    -    ------
 72
   65
 73
    8
 40
12.75
 49
6
 49
-1.5
 49
0.25
 49
-1.5
 49
0.25
 49
-1.5
 49
0.25
 49
-1.5
  0
LTYPE
  2
double-dashed_triplicate-dotted
 70
   64
  3
-----  ---------  -  -  -  -----
 72
   65
 73
   10
 40
20.25
 49
6
 49
-1.5
 49
6
 49
-1.5
 49
0.25
 49
-1.5
 49
0.25
 49
-1.5
 49
0.25
 49
-1.5
  0
LTYPE
  2
undefined
 70
   64
  3
--------------------------------
 72
   65
 73
    0
 40
0
  0
LTYPE
  2
_
 70
   64
  3
                                
 72
   65
 73
    0
 40
0
  0
LTYPE
  2
__18
 70
   64
  3
                                
 72
   65
 73
    0
 40
0
  0
LTYPE
  2
__19
 70
   64
  3
                                
 72
   65
 73
    0
 40
0
  0
LTYPE
  2
__20
 70
   64
  3
                                
 72
   65
 73
    0
 40
0
  0
LTYPE
  2
__21
 70
   64
  3
                                
 72
   65
 73
    0
 40
0
  0
LTYPE
  2
__22
 70
   64
  3
                                
 72
   65
 73
    0
 40
0
  0
LTYPE
  2
__23
 70
   64
  3
                                
 72
   65
 73
    0
 40
0
  0
LTYPE
  2
__24
 70
   64
  3
                                
 72
   65
 73
    0
 40
0
  0
LTYPE
  2
__25
 70
   64
  3
                                
 72
   65
 73
    0
 40
0
  0
LTYPE
  2
__26
 70
   64
  3
                                
 72
   65
 73
    0
 40
0
  0
LTYPE
  2
__27
 70
   64
  3
                                
 72
   65
 73
    0
 40
0
  0
LTYPE
  2
__28
 70
   64
  3
                                
 72
   65
 73
    0
 40
0
  0
LTYPE
  2
__29
 70
   64
  3
                                
 72
   65
 73
    0
 40
0
  0
LTYPE
  2
__30
 70
   64
  3
                                
 72
   65
 73
    0
 40
0
  0
LTYPE
  2
__31
 70
   64
  3
                                
 72
   65
 73
    0
 40
0
  0
LTYPE
  2
__32
 70
   64
  3
                                
 72
   65
 73
    0
 40
0
  0
ENDTAB
  0
TABLE
  2
STYLE
  5
3
100
AcDbSymbolTable
 70
     1
  0
STYLE
  5
10
100
AcDbSymbolTableRecord
100
AcDbTextStyleTableRecord
  2
STANDARD
 70
     0
 40
0.0
 41
1.0
 50
0.0
 71
     0
 42
0.2
  3
txt
  4
bigfont.shx
  0
STYLE
  5
26
100
AcDbSymbolTableRecord
100
AcDbTextStyleTableRecord
  2
TATEGAKI
 70
    68
 40
0.0
 41
1.0
 50
0.0
 71
     0
 42
1.0
  3
txt
  4
bigfont.shx
  0
ENDTAB
  0
TABLE
  2
LAYER
 70
   11
  0
LAYER
  2
_0-0_
 70
   64
 62
    7
  6
CONTINUOUS
  0
LAYER
  2
_1-0_
 70
   64
 62
    7
  6
CONTINUOUS
  0
LAYER
  2
_1-1_
 70
   64
 62
    7
  6
CONTINUOUS
  0
LAYER
  2
_1-3_
 70
   64
 62
    7
  6
CONTINUOUS
  0
LAYER
  2
_3-1_
 70
   64
 62
    7
  6
CONTINUOUS
  0
LAYER
  2
_4-0_
 70
   64
 62
    7
  6
CONTINUOUS
  0
LAYER
  2
_5-0_
 70
   64
 62
    7
  6
CONTINUOUS
  0
LAYER
  2
_5-1_
 70
   64
 62
    7
  6
CONTINUOUS
  0
LAYER
  2
_7-0_
 70
   64
 62
    7
  6
CONTINUOUS
  0
LAYER
  2
_7-1_
 70
   64
 62
    7
  6
CONTINUOUS
  0
LAYER
  2
ADD_LINE
 70
   64
 62
    7
  6
CONTINUOUS
  0
ENDTAB
  0
ENDSEC
  0
SECTION
  2
BLOCKS
  0
ENDSEC
  0
SECTION
  2
ENTITIES
  0
LINE
  8
_7-0_
  6
CONTINUOUS
 62
    7
 10
1777.0694759177425
 20
1159.6112019306904
 11
1777.0694759177425
 21
1398.9747045215031
  0
LINE
  8
_7-0_
  6
CONTINUOUS
 62
    7
 10
1457.0695672348199
 20
1398.9747045215031
 11
1777.0694759177425
 21
1398.9747045215031
  0
LINE
  8
_7-0_
  6
CONTINUOUS
 62
    7
 10
1457.0695672348199
 20
1309.6112302095273
 11
1457.0695672348199
 21
1398.9747045215031
  0
LINE
  8
_1-0_
  6
CONTINUOUS
 62
    7
 10
276.15827170117939
 20
1562.7287539920292
 11
852.15824731068255
 21
1562.7287539920292
  0
LINE
  8
_1-0_
  6
CONTINUOUS
 62
    7
 10
852.15824731068255
 20
1562.7287539920292
 11
852.15824731068255
 21
1286.7287474525481
  0
LINE
  8
_1-0_
  6
CONTINUOUS
 62
    7
 10
852.15824731068255
 20
1286.7287474525481
 11
276.15827170117939
 21
1286.7287474525481
  0
LINE
  8
_1-0_
  6
CONTINUOUS
 62
    7
 10
276.15827170117939
 20
1286.7287474525481
 11
276.15827170117939
 21
1562.7287539920292
  0
LINE
  8
_1-1_
  6
CONTINUOUS
 62
    7
 10
634.76661225543523
 20
423.95737312935495
 11
664.76660916243736
 21
421.15737458453674
  0
LINE
  8
_1-1_
  6
CONTINUOUS
 62
    7
 10
664.76660916243736
 20
421.15737458453674
 11
659.96659915879889
 21
425.95738458817527
  0
LINE
  8
_1-1_
  6
CONTINUOUS
 62
    7
 10
771.76663166767844
 20
424.23737735821931
 11
741.76659101685027
 21
421.43737881340115
  0
LINE
  8
_1-1_
  6
CONTINUOUS
 62
    7
 10
741.76659101685027
 20
421.43737881340115
 11
746.56660102048886
 21
426.23738881703963
  0
LINE
  8
_1-1_
  6
CONTINUOUS
 62
    7
 10
680.67671978335579
 20
416.38575432383413
 11
720.67673024063401
 21
416.38575432383413
  0
LINE
  8
_1-1_
  6
CONTINUOUS
 62
    7
 10
720.67673024063401
 20
416.38575432383413
 11
720.67673024063401
 21
380.38572304037075
  0
LINE
  8
_1-1_
  6
CONTINUOUS
 62
    7
 10
720.67673024063401
 20
380.38572304037075
 11
680.67671978335579
 21
380.38572304037075
  0
LINE
  8
_1-1_
  6
CONTINUOUS
 62
    7
 10
680.67671978335579
 20
380.38572304037075
 11
680.67671978335579
 21
416.38575432383413
  0
LINE
  8
_1-1_
  6
CONTINUOUS
 62
    7
 10
1467.6171659963009
 20
416.44725814289103
 11
1507.6171327097536
 21
416.44725814289103
  0
LINE
  8
_1-1_
  6
CONTINUOUS
 62
    7
 10
1507.6171327097536
 20
416.44725814289103
 11
1507.6171327097536
 21
380.44727060325357
  0
LINE
  8
_1-1_
  6
CONTINUOUS
 62
    7
 10
1507.6171327097536
 20
380.44727060325357
 11
1467.6171659963009
 21
380.44727060325357
  0
LINE
  8
_1-1_
  6
CONTINUOUS
 62
    7
 10
1467.6171659963009
 20
380.44727060325357
 11
1467.6171659963009
 21
416.44725814289103
  0
LINE
  8
_1-1_
  6
CONTINUOUS
 62
    7
 10
1301.4171367630533
 20
416.06323109630455
 11
1673.8170744553495
 21
416.06323109630455
  0
LINE
  8
_1-1_
  6
CONTINUOUS
 62
    7
 10
1055.8767435081218
 20
416.22705172387788
 11
343.87671047195965
 21
416.22705172387788
  0
LINE
  8
_1-1_
  6
CONTINUOUS
 62
    7
 10
266.55827356581528
 20
1277.1287274452709
 11
861.75826731795962
 21
1277.1287274452709
  0
LINE
  8
_1-1_
  6
CONTINUOUS
 62
    7
 10
861.75826731795962
 20
1277.1287274452709
 11
862.22650122918662
 21
1277.1748334376507
  0
LINE
  8
_1-1_
  6
CONTINUOUS
 62
    7
 10
862.22650122918662
 20
1277.1748334376507
 11
862.6767126841894
 21
1277.3114016617587
  0
LINE
  8
_1-1_
  6
CONTINUOUS
 62
    7
 10
862.6767126841894
 20
1277.3114016617587
 11
863.09166661560766
 21
1277.5331828585001
  0
LINE
  8
_1-1_
  6
CONTINUOUS
 62
    7
 10
863.09166661560766
 20
1277.5331828585001
 11
863.45535278320312
 21
1277.8316907256726
  0
LINE
  8
_1-1_
  6
CONTINUOUS
 62
    7
 10
863.45535278320312
 20
1277.8316907256726
 11
863.75377316272397
 21
1278.1953768932681
  0
LINE
  8
_1-1_
  6
CONTINUOUS
 62
    7
 10
863.75377316272397
 20
1278.1953768932681
 11
863.97555435946538
 21
1278.6102433370347
  0
LINE
  8
_1-1_
  6
CONTINUOUS
 62
    7
 10
863.97555435946538
 20
1278.6102433370347
 11
864.11212258357341
 21
1279.0605422796889
  0
LINE
  8
_1-1_
  6
CONTINUOUS
 62
    7
 10
864.11212258357341
 20
1279.0605422796889
 11
864.15822857595322
 21
1279.5286887032644
  0
LINE
  8
_1-1_
  6
CONTINUOUS
 62
    7
 10
864.15822857595322
 20
1279.5286887032644
 11
864.15822857595322
 21
1574.7287352572996
  0
LINE
  8
_1-1_
  6
CONTINUOUS
 62
    7
 10
864.15822857595322
 20
1574.7287352572996
 11
864.11212258357341
 21
1575.1969691685267
  0
LINE
  8
_1-1_
  6
CONTINUOUS
 62
    7
 10
864.11212258357341
 20
1575.1969691685267
 11
863.97555435946538
 21
1575.6471806235295
  0
LINE
  8
_1-1_
  6
CONTINUOUS
 62
    7
 10
863.97555435946538
 20
1575.6471806235295
 11
863.75377316272397
 21
1576.0620470672961
  0
LINE
  8
_1-1_
  6
CONTINUOUS
 62
    7
 10
863.75377316272397
 20
1576.0620470672961
 11
863.45535278320312
 21
1576.425820722543
  0
LINE
  8
_1-1_
  6
CONTINUOUS
 62
    7
 10
863.45535278320312
 20
1576.425820722543
 11
863.09166661560766
 21
1576.7243285897155
  0
LINE
  8
_1-1_
  6
CONTINUOUS
 62
    7
 10
863.09166661560766
 20
1576.7243285897155
 11
862.6767126841894
 21
1576.9460222988052
  0
LINE
  8
_1-1_
  6
CONTINUOUS
 62
    7
 10
862.6767126841894
 20
1576.9460222988052
 11
862.22650122918662
 21
1577.0826780105649
  0
LINE
  8
_1-1_
  6
CONTINUOUS
 62
    7
 10
862.22650122918662
 20
1577.0826780105649
 11
861.75826731795962
 21
1577.1286965152931
  0
LINE
  8
_1-1_
  6
CONTINUOUS
 62
    7
 10
861.75826731795962
 20
1577.1286965152931
 11
266.55827356581528
 21
1577.1286965152931
  0
LINE
  8
_1-1_
  6
CONTINUOUS
 62
    7
 10
266.55827356581528
 20
1577.1286965152931
 11
266.09003965458811
 21
1577.0826780105649
  0
LINE
  8
_1-1_
  6
CONTINUOUS
 62
    7
 10
266.09003965458811
 20
1577.0826780105649
 11
265.63982819958539
 21
1576.9460222988052
  0
LINE
  8
_1-1_
  6
CONTINUOUS
 62
    7
 10
265.63982819958539
 20
1576.9460222988052
 11
265.22489614008009
 21
1576.7243285897155
  0
LINE
  8
_1-1_
  6
CONTINUOUS
 62
    7
 10
265.22489614008009
 20
1576.7243285897155
 11
264.86120997248463
 21
1576.425820722543
  0
LINE
  8
_1-1_
  6
CONTINUOUS
 62
    7
 10
264.86120997248463
 20
1576.425820722543
 11
264.56274584913797
 21
1576.0620470672961
  0
LINE
  8
_1-1_
  6
CONTINUOUS
 62
    7
 10
264.56274584913797
 20
1576.0620470672961
 11
264.34096465239645
 21
1575.6471806235295
  0
LINE
  8
_1-1_
  6
CONTINUOUS
 62
    7
 10
264.34096465239645
 20
1575.6471806235295
 11
264.20437455637568
 21
1575.1969691685267
  0
LINE
  8
_1-1_
  6
CONTINUOUS
 62
    7
 10
264.20437455637568
 20
1575.1969691685267
 11
264.15826856399588
 21
1574.7287352572996
  0
LINE
  8
_1-1_
  6
CONTINUOUS
 62
    7
 10
264.15826856399588
 20
1574.7287352572996
 11
264.15826856399588
 21
1279.5286887032644
  0
LINE
  8
_1-1_
  6
CONTINUOUS
 62
    7
 10
264.15826856399588
 20
1279.5286887032644
 11
264.20437455637568
 21
1279.0605422796889
  0
LINE
  8
_1-1_
  6
CONTINUOUS
 62
    7
 10
264.20437455637568
 20
1279.0605422796889
 11
264.34096465239645
 21
1278.6102433370347
  0
LINE
  8
_1-1_
  6
CONTINUOUS
 62
    7
 10
264.34096465239645
 20
1278.6102433370347
 11
264.56274584913797
 21
1278.1953768932681
  0
LINE
  8
_1-1_
  6
CONTINUOUS
 62
    7
 10
264.56274584913797
 20
1278.1953768932681
 11
264.86120997248463
 21
1277.8316907256726
  0
LINE
  8
_1-1_
  6
CONTINUOUS
 62
    7
 10
264.86120997248463
 20
1277.8316907256726
 11
265.22489614008009
 21
1277.5331828585001
  0
LINE
  8
_1-1_
  6
CONTINUOUS
 62
    7
 10
265.22489614008009
 20
1277.5331828585001
 11
265.63982819958539
 21
1277.3114016617587
  0
LINE
  8
_1-1_
  6
CONTINUOUS
 62
    7
 10
265.63982819958539
 20
1277.3114016617587
 11
266.09003965458811
 21
1277.1748334376507
  0
LINE
  8
_1-1_
  6
CONTINUOUS
 62
    7
 10
266.09003965458811
 20
1277.1748334376507
 11
266.55827356581528
 21
1277.1287274452709
  0
LINE
  8
_1-1_
  6
CONTINUOUS
 62
    7
 10
704.15796802771126
 20
1547.753842622617
 11
412.15852597505432
 21
1547.753842622617
  0
LINE
  8
_1-1_
  6
CONTINUOUS
 62
    7
 10
703.95884613272756
 20
1307.5963021061134
 11
412.15852597505432
 21
1307.5963021061134
  0
LINE
  8
_1-1_
  6
CONTINUOUS
 62
    7
 10
672.39811326546089
 20
1519.5520231622527
 11
408.39550710552913
 21
1519.5520231622527
  0
LINE
  8
_1-1_
  6
CONTINUOUS
 62
    7
 10
672.39811326546089
 20
1335.5520188025985
 11
408.39550710552913
 21
1335.5520188025985
  0
LINE
  8
_1-1_
  6
CONTINUOUS
 62
    7
 10
399.87670324023622
 20
709.82703661826577
 11
399.87670324023622
 21
696.22703743717375
  0
LINE
  8
_1-1_
  6
CONTINUOUS
 62
    7
 10
999.87668512410642
 20
709.82703661826577
 11
999.87668512410642
 21
696.22703743717375
  0
LINE
  8
_1-1_
  6
CONTINUOUS
 62
    7
 10
997.47672386611282
 20
712.22704162008517
 11
961.64090690465503
 21
712.22704162008517
  0
LINE
  8
_1-1_
  6
CONTINUOUS
 62
    7
 10
426.05388346786197
 20
712.22704162008517
 11
402.27670824205546
 21
712.22704162008517
  0
LINE
  8
_1-1_
  6
CONTINUOUS
 62
    7
 10
399.87670324023622
 20
696.22703743717375
 11
402.27670824205546
 21
696.22703743717375
  0
LINE
  8
_1-1_
  6
CONTINUOUS
 62
    7
 10
997.47672386611282
 20
696.22703743717375
 11
999.87668512410642
 21
696.22703743717375
  0
LINE
  8
_1-1_
  6
CONTINUOUS
 62
    7
 10
885.17284997181537
 20
520.22703516897548
 11
516.75605008040611
 21
520.22703516897548
  0
LINE
  8
_1-1_
  6
CONTINUOUS
 62
    7
 10
959.35013023582655
 20
710.54290432727475
 11
904.2624805700824
 21
534.26158551543836
  0
LINE
  8
_1-1_
  6
CONTINUOUS
 62
    7
 10
402.27670824205546
 20
696.22703743717375
 11
402.27670824205546
 21
707.42703161644658
  0
LINE
  8
_1-1_
  6
CONTINUOUS
 62
    7
 10
997.47672386611282
 20
696.22703743717375
 11
997.47672386611282
 21
707.42703161644658
  0
LINE
  8
_1-1_
  6
CONTINUOUS
 62
    7
 10
404.67671324387481
 20
709.82703661826577
 11
424.32206540494349
 21
709.82703661826577
  0
LINE
  8
_1-1_
  6
CONTINUOUS
 62
    7
 10
963.29092401335129
 20
709.82703661826577
 11
995.07667512046783
 21
709.82703661826577
  0
LINE
  8
_1-1_
  6
CONTINUOUS
 62
    7
 10
961.00014734452293
 20
708.14289932545546
 11
905.91249767877866
 21
531.86158051361906
  0
LINE
  8
_1-1_
  6
CONTINUOUS
 62
    7
 10
886.82286708051163
 20
517.82703016715618
 11
864.16330285974436
 21
517.82703016715618
  0
LINE
  8
_1-1_
  6
CONTINUOUS
 62
    7
 10
844.1632757591924
 20
517.82703016715618
 11
514.75179547048447
 21
517.82703016715618
  0
LINE
  8
_1-1_
  6
CONTINUOUS
 62
    7
 10
428.36596337984884
 20
710.47072701472575
 11
452.27384515710781
 21
624.59599778458869
  0
LINE
  8
_1-1_
  6
CONTINUOUS
 62
    7
 10
452.58897567807935
 20
623.90838858703842
 11
492.09336858918761
 21
564.65182109228886
  0
LINE
  8
_1-1_
  6
CONTINUOUS
 62
    7
 10
492.46234775970333
 20
563.72379582821168
 11
497.04040159129733
 21
536.86635536576784
  0
LINE
  8
_1-1_
  6
CONTINUOUS
 62
    7
 10
426.63414531693036
 20
708.07072201290634
 11
450.21867273396964
 21
623.35734761359606
  0
LINE
  8
_1-1_
  6
CONTINUOUS
 62
    7
 10
490.17069621435922
 20
563.01011531049221
 11
495.03619072520138
 21
534.46635036394855
  0
LINE
  8
_1-1_
  6
CONTINUOUS
 62
    7
 10
489.79992354698624
 20
563.94076520411659
 11
450.53559675179855
 21
622.66711378649848
  0
LINE
  8
_1-1_
  6
CONTINUOUS
 62
    7
 10
1339.6313930202175
 20
712.22704162008517
 11
1365.2769107892245
 21
712.22704162008517
  0
LINE
  8
_1-1_
  6
CONTINUOUS
 62
    7
 10
1609.1859218052455
 20
712.22704162008517
 11
1634.8313520866009
 21
712.22704162008517
  0
LINE
  8
_1-1_
  6
CONTINUOUS
 62
    7
 10
1337.2313442745724
 20
709.82703661826577
 11
1337.2313442745724
 21
696.22703743717375
  0
LINE
  8
_1-1_
  6
CONTINUOUS
 62
    7
 10
1637.2313133445946
 20
709.82703661826577
 11
1637.2313133445946
 21
696.22703743717375
  0
LINE
  8
_1-1_
  6
CONTINUOUS
 62
    7
 10
1412.537127756244
 20
520.22703516897548
 11
1561.9256173505746
 21
520.22703516897548
  0
LINE
  8
_1-1_
  6
CONTINUOUS
 62
    7
 10
1367.6520255541709
 20
710.17191294077281
 11
1392.7447088528784
 21
537.35322414678035
  0
LINE
  8
_1-1_
  6
CONTINUOUS
 62
    7
 10
1606.8108070402991
 20
710.17191294077281
 11
1581.7181237415916
 21
537.35322414678035
  0
LINE
  8
_1-1_
  6
CONTINUOUS
 62
    7
 10
1337.2313442745724
 20
696.22703743717375
 11
1339.6313930202175
 21
696.22703743717375
  0
LINE
  8
_1-1_
  6
CONTINUOUS
 62
    7
 10
1339.6313930202175
 20
696.22703743717375
 11
1339.6313930202175
 21
707.42703161644658
  0
LINE
  8
_1-1_
  6
CONTINUOUS
 62
    7
 10
1342.0313542782108
 20
709.82703661826577
 11
1363.2254128474526
 21
709.82703661826577
  0
LINE
  8
_1-1_
  6
CONTINUOUS
 62
    7
 10
1611.2373322593658
 20
709.82703661826577
 11
1632.4422392974029
 21
709.82703661826577
  0
LINE
  8
_1-1_
  6
CONTINUOUS
 62
    7
 10
1365.6004401247471
 20
707.7719079389534
 11
1390.6932109111062
 21
534.95326288878687
  0
LINE
  8
_1-1_
  6
CONTINUOUS
 62
    7
 10
1410.4856298144718
 20
517.82703016715618
 11
1477.5346786911423
 21
517.82703016715618
  0
LINE
  8
_1-1_
  6
CONTINUOUS
 62
    7
 10
1608.8622174944194
 20
707.7719079389534
 11
1583.7695341957121
 21
534.95326288878687
  0
LINE
  8
_1-1_
  6
CONTINUOUS
 62
    7
 10
1634.8423755306994
 20
707.42703161644658
 11
1634.8423755306994
 21
696.22703743717375
  0
LINE
  8
_1-1_
  6
CONTINUOUS
 62
    7
 10
1637.2313133445946
 20
696.22703743717375
 11
1634.8313520866009
 21
696.22703743717375
  0
LINE
  8
_1-1_
  6
CONTINUOUS
 62
    7
 10
997.47672386611282
 20
696.22703743717375
 11
957.27641043055473
 21
696.22703743717375
  0
LINE
  8
_1-1_
  6
CONTINUOUS
 62
    7
 10
429.93146741712422
 20
696.22703743717375
 11
402.27670824205546
 21
696.22703743717375
  0
LINE
  8
_1-1_
  6
CONTINUOUS
 62
    7
 10
1365.2769107892245
 20
712.22704162008517
 11
1609.1859218052455
 21
712.22704162008517
  0
LINE
  8
_1-1_
  6
CONTINUOUS
 62
    7
 10
1339.6313930202175
 20
696.22703743717375
 11
1367.2767035289162
 21
696.22703743717375
  0
LINE
  8
_1-1_
  6
CONTINUOUS
 62
    7
 10
1607.1859540902508
 20
696.22703743717375
 11
1634.8313520866009
 21
696.22703743717375
  0
LINE
  8
_1-1_
  6
CONTINUOUS
 62
    7
 10
1410.7844876322506
 20
517.82703016715618
 11
1563.9772027799982
 21
517.82703016715618
  0
LINE
  8
_1-1_
  6
CONTINUOUS
 62
    7
 10
1497.5347057916943
 20
517.82703016715618
 11
1563.9772027799982
 21
517.82703016715618
  0
LINE
  8
_1-1_
  6
CONTINUOUS
 62
    7
 10
864.16330285974436
 20
517.82703016715618
 11
864.16330285974436
 21
515.42702516533689
  0
LINE
  8
_1-1_
  6
CONTINUOUS
 62
    7
 10
844.1632757591924
 20
517.82703016715618
 11
844.1632757591924
 21
515.42702516533689
  0
LINE
  8
_1-1_
  6
CONTINUOUS
 62
    7
 10
864.16330285974436
 20
515.42702516533689
 11
844.1632757591924
 21
515.42702516533689
  0
LINE
  8
_1-1_
  6
CONTINUOUS
 62
    7
 10
870.16329349237981
 20
520.22703516897548
 11
864.16330285974436
 21
517.82703016715618
  0
LINE
  8
_1-1_
  6
CONTINUOUS
 62
    7
 10
844.1632757591924
 20
517.82703016715618
 11
838.16328512655718
 21
520.22703516897548
  0
LINE
  8
_1-1_
  6
CONTINUOUS
 62
    7
 10
961.64090690465503
 20
712.22704162008517
 11
426.05388346786197
 21
712.22704162008517
  0
LINE
  8
_1-3_
  6
CONTINUOUS
 62
    7
 10
823.89501151891284
 20
517.82703016715618
 11
791.89500315309033
 21
517.82703016715618
  0
LINE
  8
_1-3_
  6
CONTINUOUS
 62
    7
 10
791.89500315309033
 20
517.82703016715618
 11
791.89500315309033
 21
501.82702598424493
  0
LINE
  8
_1-3_
  6
CONTINUOUS
 62
    7
 10
791.89500315309033
 20
501.82702598424493
 11
823.89501151891284
 21
501.82702598424493
  0
LINE
  8
_1-3_
  6
CONTINUOUS
 62
    7
 10
823.89501151891284
 20
501.82702598424493
 11
823.89501151891284
 21
517.82703016715618
  0
LINE
  8
_1-3_
  6
CONTINUOUS
 62
    7
 10
814.29499151163566
 20
501.82702598424493
 11
801.49502316036728
 21
501.82702598424493
  0
LINE
  8
_1-3_
  6
CONTINUOUS
 62
    7
 10
801.49502316036728
 20
501.82702598424493
 11
801.49502316036728
 21
489.02705763297649
  0
LINE
  8
_1-3_
  6
CONTINUOUS
 62
    7
 10
801.49502316036728
 20
489.02705763297649
 11
814.29499151163566
 21
489.02705763297649
  0
LINE
  8
_1-3_
  6
CONTINUOUS
 62
    7
 10
814.29499151163566
 20
489.02705763297649
 11
814.29499151163566
 21
501.82702598424493
  0
LINE
  8
_1-3_
  6
CONTINUOUS
 62
    7
 10
813.49500442563794
 20
501.02703889824704
 11
802.29501024636522
 21
501.02703889824704
  0
LINE
  8
_1-3_
  6
CONTINUOUS
 62
    7
 10
802.29501024636522
 20
501.02703889824704
 11
802.29501024636522
 21
489.82704471897432
  0
LINE
  8
_1-3_
  6
CONTINUOUS
 62
    7
 10
802.29501024636522
 20
489.82704471897432
 11
813.49500442563794
 21
489.82704471897432
  0
LINE
  8
_1-3_
  6
CONTINUOUS
 62
    7
 10
813.49500442563794
 20
489.82704471897432
 11
813.49500442563794
 21
501.02703889824704
  0
LINE
  8
_1-3_
  6
CONTINUOUS
 62
    7
 10
803.89498441836076
 20
484.22704762933796
 11
803.09499733236294
 21
471.42703553424377
  0
LINE
  8
_1-3_
  6
CONTINUOUS
 62
    7
 10
811.89503025364229
 20
505.02706181588781
 11
803.89498441836076
 21
505.02706181588781
  0
LINE
  8
_1-3_
  6
CONTINUOUS
 62
    7
 10
803.89498441836076
 20
505.02706181588781
 11
803.89498441836076
 21
501.82702598424493
  0
LINE
  8
_1-3_
  6
CONTINUOUS
 62
    7
 10
803.89498441836076
 20
501.82702598424493
 11
811.89503025364229
 21
501.82702598424493
  0
LINE
  8
_1-3_
  6
CONTINUOUS
 62
    7
 10
811.89503025364229
 20
501.82702598424493
 11
811.89503025364229
 21
505.02706181588781
  0
LINE
  8
_1-3_
  6
CONTINUOUS
 62
    7
 10
1429.6313399973983
 20
517.82703016715618
 11
1544.8314051094201
 21
517.82703016715618
  0
LINE
  8
_1-3_
  6
CONTINUOUS
 62
    7
 10
1544.8314051094201
 20
517.82703016715618
 11
1544.8314051094201
 21
501.82702598424493
  0
LINE
  8
_1-3_
  6
CONTINUOUS
 62
    7
 10
1544.8314051094201
 20
501.82702598424493
 11
1429.6313399973983
 21
501.82702598424493
  0
LINE
  8
_1-3_
  6
CONTINUOUS
 62
    7
 10
1429.6313399973983
 20
501.82702598424493
 11
1429.6313399973983
 21
517.82703016715618
  0
LINE
  8
_1-3_
  6
CONTINUOUS
 62
    7
 10
1377.5920225754667
 20
505.99555011881819
 11
1385.5919809230966
 21
505.99555011881819
  0
LINE
  8
_1-3_
  6
CONTINUOUS
 62
    7
 10
1385.5919809230966
 20
505.99555011881819
 11
1385.5919809230966
 21
502.79555803100106
  0
LINE
  8
_1-3_
  6
CONTINUOUS
 62
    7
 10
1385.5919809230966
 20
502.79555803100106
 11
1377.5920225754667
 21
502.79555803100106
  0
LINE
  8
_1-3_
  6
CONTINUOUS
 62
    7
 10
1377.5920225754667
 20
502.79555803100106
 11
1377.5920225754667
 21
505.99555011881819
  0
LINE
  8
_1-3_
  6
CONTINUOUS
 62
    7
 10
608.05514493964347
 20
517.82703016715618
 11
576.05513657382085
 21
517.82703016715618
  0
LINE
  8
_1-3_
  6
CONTINUOUS
 62
    7
 10
576.05513657382085
 20
517.82703016715618
 11
576.05513657382085
 21
501.82702598424493
  0
LINE
  8
_1-3_
  6
CONTINUOUS
 62
    7
 10
576.05513657382085
 20
501.82702598424493
 11
608.05514493964347
 21
501.82702598424493
  0
LINE
  8
_1-3_
  6
CONTINUOUS
 62
    7
 10
608.05514493964347
 20
501.82702598424493
 11
608.05514493964347
 21
517.82703016715618
  0
LINE
  8
_1-3_
  6
CONTINUOUS
 62
    7
 10
598.4551686761921
 20
501.82702598424493
 11
585.65515658109803
 21
501.82702598424493
  0
LINE
  8
_1-3_
  6
CONTINUOUS
 62
    7
 10
585.65515658109803
 20
501.82702598424493
 11
585.65515658109803
 21
489.02705763297649
  0
LINE
  8
_1-3_
  6
CONTINUOUS
 62
    7
 10
585.65515658109803
 20
489.02705763297649
 11
598.4551686761921
 21
489.02705763297649
  0
LINE
  8
_1-3_
  6
CONTINUOUS
 62
    7
 10
598.4551686761921
 20
489.02705763297649
 11
598.4551686761921
 21
501.82702598424493
  0
LINE
  8
_1-3_
  6
CONTINUOUS
 62
    7
 10
597.65513784636846
 20
501.02703889824704
 11
586.45514366709585
 21
501.02703889824704
  0
LINE
  8
_1-3_
  6
CONTINUOUS
 62
    7
 10
586.45514366709585
 20
501.02703889824704
 11
586.45514366709585
 21
489.82704471897432
  0
LINE
  8
_1-3_
  6
CONTINUOUS
 62
    7
 10
586.45514366709585
 20
489.82704471897432
 11
597.65513784636846
 21
489.82704471897432
  0
LINE
  8
_1-3_
  6
CONTINUOUS
 62
    7
 10
597.65513784636846
 20
489.82704471897432
 11
597.65513784636846
 21
501.02703889824704
  0
LINE
  8
_1-3_
  6
CONTINUOUS
 62
    7
 10
596.05516367437292
 20
505.02706181588781
 11
588.05516158291744
 21
505.02706181588781
  0
LINE
  8
_1-3_
  6
CONTINUOUS
 62
    7
 10
588.05516158291744
 20
505.02706181588781
 11
588.05516158291744
 21
501.82702598424493
  0
LINE
  8
_1-3_
  6
CONTINUOUS
 62
    7
 10
588.05516158291744
 20
501.82702598424493
 11
596.05516367437292
 21
501.82702598424493
  0
LINE
  8
_1-3_
  6
CONTINUOUS
 62
    7
 10
596.05516367437292
 20
501.82702598424493
 11
596.05516367437292
 21
505.02706181588781
  0
LINE
  8
_1-3_
  6
CONTINUOUS
 62
    7
 10
1589.4849274977753
 20
505.99555011881819
 11
1597.4849733330566
 21
505.99555011881819
  0
LINE
  8
_1-3_
  6
CONTINUOUS
 62
    7
 10
1597.4849733330566
 20
505.99555011881819
 11
1597.4849733330566
 21
502.79555803100106
  0
LINE
  8
_1-3_
  6
CONTINUOUS
 62
    7
 10
1597.4849733330566
 20
502.79555803100106
 11
1589.4849274977753
 21
502.79555803100106
  0
LINE
  8
_1-3_
  6
CONTINUOUS
 62
    7
 10
1589.4849274977753
 20
502.79555803100106
 11
1589.4849274977753
 21
505.99555011881819
  0
LINE
  8
_1-1_
  6
CONTINUOUS
 62
    7
 10
768.38558388492766
 20
464.22706427261176
 11
852.38562771712486
 21
464.22706427261176
  0
LINE
  8
_1-1_
  6
CONTINUOUS
 62
    7
 10
852.38562771712486
 20
464.22706427261176
 11
852.38562771712486
 21
416.22705172387788
  0
LINE
  8
_1-1_
  6
CONTINUOUS
 62
    7
 10
852.38562771712486
 20
416.22705172387788
 11
768.38558388492766
 21
416.22705172387788
  0
LINE
  8
_1-1_
  6
CONTINUOUS
 62
    7
 10
768.38558388492766
 20
416.22705172387788
 11
768.38558388492766
 21
464.22706427261176
  0
LINE
  8
_1-1_
  6
CONTINUOUS
 62
    7
 10
411.87672824933259
 20
664.22702907135113
 11
343.87671047195965
 21
664.22702907135113
  0
LINE
  8
_1-1_
  6
CONTINUOUS
 62
    7
 10
411.87672824933259
 20
696.22703743717375
 11
411.87672824933259
 21
664.22702907135113
  0
LINE
  8
_1-1_
  6
CONTINUOUS
 62
    7
 10
311.87670210613703
 20
696.22703743717375
 11
411.87672824933259
 21
696.22703743717375
  0
LINE
  8
_1-1_
  6
CONTINUOUS
 62
    7
 10
987.87670385883575
 20
664.22702907135113
 11
987.87670385883575
 21
696.22703743717375
  0
LINE
  8
_1-1_
  6
CONTINUOUS
 62
    7
 10
1055.8767435081218
 20
664.22702907135113
 11
987.87670385883575
 21
664.22702907135113
  0
LINE
  8
_1-1_
  6
CONTINUOUS
 62
    7
 10
987.87670385883575
 20
696.22703743717375
 11
1087.8767518739442
 21
696.22703743717375
  0
LINE
  8
_1-1_
  6
CONTINUOUS
 62
    7
 10
343.87671047195965
 20
416.22705172387788
 11
343.87671047195965
 21
664.22702907135113
  0
LINE
  8
_1-1_
  6
CONTINUOUS
 62
    7
 10
1055.8767435081218
 20
664.22702907135113
 11
1055.8767435081218
 21
416.22705172387788
  0
LINE
  8
_1-3_
  6
CONTINUOUS
 62
    7
 10
812.69501733964012
 20
467.42705636042888
 11
803.09499733236294
 21
467.42705636042888
  0
LINE
  8
_1-3_
  6
CONTINUOUS
 62
    7
 10
803.09499733236294
 20
467.42705636042888
 11
803.09499733236294
 21
464.22706427261176
  0
LINE
  8
_1-3_
  6
CONTINUOUS
 62
    7
 10
803.09499733236294
 20
464.22706427261176
 11
812.69501733964012
 21
464.22706427261176
  0
LINE
  8
_1-3_
  6
CONTINUOUS
 62
    7
 10
812.69501733964012
 20
464.22706427261176
 11
812.69501733964012
 21
467.42705636042888
  0
LINE
  8
_1-3_
  6
CONTINUOUS
 62
    7
 10
811.89503025364229
 20
483.42706054334008
 11
803.89498441836076
 21
483.42706054334008
  0
LINE
  8
_1-3_
  6
CONTINUOUS
 62
    7
 10
803.89498441836076
 20
483.42706054334008
 11
803.89498441836076
 21
480.22702471169725
  0
LINE
  8
_1-3_
  6
CONTINUOUS
 62
    7
 10
803.89498441836076
 20
480.22702471169725
 11
811.89503025364229
 21
480.22702471169725
  0
LINE
  8
_1-3_
  6
CONTINUOUS
 62
    7
 10
811.89503025364229
 20
480.22702471169725
 11
811.89503025364229
 21
483.42706054334008
  0
LINE
  8
_1-3_
  6
CONTINUOUS
 62
    7
 10
811.89503025364229
 20
480.22702471169725
 11
812.69501733964012
 21
467.42705636042888
  0
LINE
  8
_1-3_
  6
CONTINUOUS
 62
    7
 10
808.85500933672927
 20
513.82705099334123
 11
806.9350053352739
 21
513.82705099334123
  0
LINE
  8
_1-3_
  6
CONTINUOUS
 62
    7
 10
806.9350053352739
 20
513.82705099334123
 11
806.9350053352739
 21
483.42706054334008
  0
LINE
  8
_1-3_
  6
CONTINUOUS
 62
    7
 10
806.9350053352739
 20
483.42706054334008
 11
808.85500933672927
 21
483.42706054334008
  0
LINE
  8
_1-3_
  6
CONTINUOUS
 62
    7
 10
808.85500933672927
 20
483.42706054334008
 11
808.85500933672927
 21
513.82705099334123
  0
LINE
  8
_1-3_
  6
CONTINUOUS
 62
    7
 10
596.85515076037075
 20
467.42705636042888
 11
587.25517449691949
 21
467.42705636042888
  0
LINE
  8
_1-3_
  6
CONTINUOUS
 62
    7
 10
587.25517449691949
 20
467.42705636042888
 11
587.25517449691949
 21
464.22706427261176
  0
LINE
  8
_1-3_
  6
CONTINUOUS
 62
    7
 10
587.25517449691949
 20
464.22706427261176
 11
596.85515076037075
 21
464.22706427261176
  0
LINE
  8
_1-3_
  6
CONTINUOUS
 62
    7
 10
596.85515076037075
 20
464.22706427261176
 11
596.85515076037075
 21
467.42705636042888
  0
LINE
  8
_1-3_
  6
CONTINUOUS
 62
    7
 10
596.05516367437292
 20
483.42706054334008
 11
588.05516158291744
 21
483.42706054334008
  0
LINE
  8
_1-3_
  6
CONTINUOUS
 62
    7
 10
588.05516158291744
 20
483.42706054334008
 11
588.05516158291744
 21
480.22702471169725
  0
LINE
  8
_1-3_
  6
CONTINUOUS
 62
    7
 10
588.05516158291744
 20
480.22702471169725
 11
596.05516367437292
 21
480.22702471169725
  0
LINE
  8
_1-3_
  6
CONTINUOUS
 62
    7
 10
596.05516367437292
 20
480.22702471169725
 11
596.05516367437292
 21
483.42706054334008
  0
LINE
  8
_1-3_
  6
CONTINUOUS
 62
    7
 10
596.05516367437292
 20
480.22702471169725
 11
596.85515076037075
 21
467.42705636042888
  0
LINE
  8
_1-3_
  6
CONTINUOUS
 62
    7
 10
588.05516158291744
 20
480.22702471169725
 11
587.25517449691949
 21
467.42705636042888
  0
LINE
  8
_1-3_
  6
CONTINUOUS
 62
    7
 10
593.01514275746001
 20
513.82705099334123
 11
591.09513875600442
 21
513.82705099334123
  0
LINE
  8
_1-3_
  6
CONTINUOUS
 62
    7
 10
591.09513875600442
 20
513.82705099334123
 11
591.09513875600442
 21
483.42706054334008
  0
LINE
  8
_1-3_
  6
CONTINUOUS
 62
    7
 10
591.09513875600442
 20
483.42706054334008
 11
593.01514275746001
 21
483.42706054334008
  0
LINE
  8
_1-3_
  6
CONTINUOUS
 62
    7
 10
593.01514275746001
 20
483.42706054334008
 11
593.01514275746001
 21
513.82705099334123
  0
LINE
  8
_1-1_
  6
CONTINUOUS
 62
    7
 10
552.38561490327697
 20
464.22706427261176
 11
636.38561499164837
 21
464.22706427261176
  0
LINE
  8
_1-1_
  6
CONTINUOUS
 62
    7
 10
636.38561499164837
 20
464.22706427261176
 11
636.38561499164837
 21
416.22705172387788
  0
LINE
  8
_1-1_
  6
CONTINUOUS
 62
    7
 10
636.38561499164837
 20
416.22705172387788
 11
552.38561490327697
 21
416.22705172387788
  0
LINE
  8
_1-1_
  6
CONTINUOUS
 62
    7
 10
552.38561490327697
 20
416.22705172387788
 11
552.38561490327697
 21
464.22706427261176
  0
LINE
  8
_1-1_
  6
CONTINUOUS
 62
    7
 10
1351.4171170267819
 20
464.06324364503837
 11
1411.4171108407863
 21
464.06324364503837
  0
LINE
  8
_1-1_
  6
CONTINUOUS
 62
    7
 10
1411.4171108407863
 20
464.06324364503837
 11
1411.4171108407863
 21
416.06323109630455
  0
LINE
  8
_1-1_
  6
CONTINUOUS
 62
    7
 10
1411.4171108407863
 20
416.06323109630455
 11
1351.4171170267819
 21
416.06323109630455
  0
LINE
  8
_1-1_
  6
CONTINUOUS
 62
    7
 10
1351.4171170267819
 20
416.06323109630455
 11
1351.4171170267819
 21
464.06324364503837
  0
LINE
  8
_1-1_
  6
CONTINUOUS
 62
    7
 10
1563.4171068346177
 20
464.06324364503837
 11
1623.4171881362738
 21
464.06324364503837
  0
LINE
  8
_1-1_
  6
CONTINUOUS
 62
    7
 10
1623.4171881362738
 20
464.06324364503837
 11
1623.4171881362738
 21
416.06323109630455
  0
LINE
  8
_1-1_
  6
CONTINUOUS
 62
    7
 10
1623.4171881362738
 20
416.06323109630455
 11
1563.4171068346177
 21
416.06323109630455
  0
LINE
  8
_1-1_
  6
CONTINUOUS
 62
    7
 10
1563.4171068346177
 20
416.06323109630455
 11
1563.4171068346177
 21
464.06324364503837
  0
LINE
  8
_1-3_
  6
CONTINUOUS
 62
    7
 10
1376.7920354894691
 20
467.26323573285549
 11
1386.3920554967458
 21
467.26323573285549
  0
LINE
  8
_1-3_
  6
CONTINUOUS
 62
    7
 10
1386.3920554967458
 20
467.26323573285549
 11
1386.3920554967458
 21
464.06324364503837
  0
LINE
  8
_1-3_
  6
CONTINUOUS
 62
    7
 10
1386.3920554967458
 20
464.06324364503837
 11
1376.7920354894691
 21
464.06324364503837
  0
LINE
  8
_1-3_
  6
CONTINUOUS
 62
    7
 10
1376.7920354894691
 20
464.06324364503837
 11
1376.7920354894691
 21
467.26323573285549
  0
LINE
  8
_1-3_
  6
CONTINUOUS
 62
    7
 10
1377.5920225754667
 20
483.26323991576669
 11
1385.5919809230966
 21
483.26323991576669
  0
LINE
  8
_1-3_
  6
CONTINUOUS
 62
    7
 10
1385.5919809230966
 20
483.26323991576669
 11
1385.5919809230966
 21
480.06324782794962
  0
LINE
  8
_1-3_
  6
CONTINUOUS
 62
    7
 10
1385.5919809230966
 20
480.06324782794962
 11
1377.5920225754667
 21
480.06324782794962
  0
LINE
  8
_1-3_
  6
CONTINUOUS
 62
    7
 10
1377.5920225754667
 20
480.06324782794962
 11
1377.5920225754667
 21
483.26323991576669
  0
LINE
  8
_1-3_
  6
CONTINUOUS
 62
    7
 10
1377.5920225754667
 20
480.06324782794962
 11
1376.7920354894691
 21
467.26323573285549
  0
LINE
  8
_1-3_
  6
CONTINUOUS
 62
    7
 10
1385.5919809230966
 20
480.06324782794962
 11
1386.3920554967458
 21
467.26323573285549
  0
LINE
  8
_1-3_
  6
CONTINUOUS
 62
    7
 10
1380.6320434923796
 20
513.66323036576784
 11
1382.5520474938353
 21
513.66323036576784
  0
LINE
  8
_1-3_
  6
CONTINUOUS
 62
    7
 10
1382.5520474938353
 20
513.66323036576784
 11
1382.5520474938353
 21
483.26323991576669
  0
LINE
  8
_1-3_
  6
CONTINUOUS
 62
    7
 10
1382.5520474938353
 20
483.26323991576669
 11
1380.6320434923796
 21
483.26323991576669
  0
LINE
  8
_1-3_
  6
CONTINUOUS
 62
    7
 10
1380.6320434923796
 20
483.26323991576669
 11
1380.6320434923796
 21
513.66323036576784
  0
LINE
  8
_1-3_
  6
CONTINUOUS
 62
    7
 10
1588.6849404117775
 20
467.26323573285549
 11
1598.2849604190546
 21
467.26323573285549
  0
LINE
  8
_1-3_
  6
CONTINUOUS
 62
    7
 10
1598.2849604190546
 20
467.26323573285549
 11
1598.2849604190546
 21
464.06324364503837
  0
LINE
  8
_1-3_
  6
CONTINUOUS
 62
    7
 10
1598.2849604190546
 20
464.06324364503837
 11
1588.6849404117775
 21
464.06324364503837
  0
LINE
  8
_1-3_
  6
CONTINUOUS
 62
    7
 10
1588.6849404117775
 20
464.06324364503837
 11
1588.6849404117775
 21
467.26323573285549
  0
LINE
  8
_1-3_
  6
CONTINUOUS
 62
    7
 10
1589.4849274977753
 20
483.26323991576669
 11
1597.4849733330566
 21
483.26323991576669
  0
LINE
  8
_1-3_
  6
CONTINUOUS
 62
    7
 10
1597.4849733330566
 20
483.26323991576669
 11
1597.4849733330566
 21
480.06324782794962
  0
LINE
  8
_1-3_
  6
CONTINUOUS
 62
    7
 10
1597.4849733330566
 20
480.06324782794962
 11
1589.4849274977753
 21
480.06324782794962
  0
LINE
  8
_1-3_
  6
CONTINUOUS
 62
    7
 10
1589.4849274977753
 20
480.06324782794962
 11
1589.4849274977753
 21
483.26323991576669
  0
LINE
  8
_1-3_
  6
CONTINUOUS
 62
    7
 10
1589.4849274977753
 20
480.06324782794962
 11
1588.6849404117775
 21
467.26323573285549
  0
LINE
  8
_1-3_
  6
CONTINUOUS
 62
    7
 10
1597.4849733330566
 20
480.06324782794962
 11
1598.2849604190546
 21
467.26323573285549
  0
LINE
  8
_1-3_
  6
CONTINUOUS
 62
    7
 10
1592.5249484146884
 20
513.66323036576784
 11
1594.4449524161437
 21
513.66323036576784
  0
LINE
  8
_1-3_
  6
CONTINUOUS
 62
    7
 10
1594.4449524161437
 20
513.66323036576784
 11
1594.4449524161437
 21
483.26323991576669
  0
LINE
  8
_1-3_
  6
CONTINUOUS
 62
    7
 10
1594.4449524161437
 20
483.26323991576669
 11
1592.5249484146884
 21
483.26323991576669
  0
LINE
  8
_1-3_
  6
CONTINUOUS
 62
    7
 10
1592.5249484146884
 20
483.26323991576669
 11
1592.5249484146884
 21
513.66323036576784
  0
LINE
  8
_1-1_
  6
CONTINUOUS
 62
    7
 10
288.57003547049857
 20
1342.1094807510669
 11
288.41334508652847
 21
1341.9501657375497
  0
LINE
  8
_1-1_
  6
CONTINUOUS
 62
    7
 10
288.41334508652847
 20
1341.9501657375497
 11
288.23987894536913
 21
1341.8093106185145
  0
LINE
  8
_1-1_
  6
CONTINUOUS
 62
    7
 10
288.23987894536913
 20
1341.8093106185145
 11
288.0517586225709
 21
1341.6886651469931
  0
LINE
  8
_1-1_
  6
CONTINUOUS
 62
    7
 10
288.0517586225709
 20
1341.6886651469931
 11
287.8513681566393
 21
1341.589804100714
  0
LINE
  8
_1-1_
  6
CONTINUOUS
 62
    7
 10
287.8513681566393
 20
1341.589804100714
 11
287.6412009456443
 21
1341.5138648191473
  0
LINE
  8
_1-1_
  6
CONTINUOUS
 62
    7
 10
287.6412009456443
 20
1341.5138648191473
 11
287.42385974722015
 21
1341.461897154112
  0
LINE
  8
_1-1_
  6
CONTINUOUS
 62
    7
 10
287.42385974722015
 20
1341.461897154112
 11
287.20207855047863
 21
1341.4344260315174
  0
LINE
  8
_1-1_
  6
CONTINUOUS
 62
    7
 10
287.20207855047863
 20
1341.4344260315174
 11
286.97863508835724
 21
1341.4318888896219
  0
LINE
  8
_1-1_
  6
CONTINUOUS
 62
    7
 10
286.97863508835724
 20
1341.4318888896219
 11
286.75630709379334
 21
1341.4543732160766
  0
LINE
  8
_1-1_
  6
CONTINUOUS
 62
    7
 10
286.75630709379334
 20
1341.4543732160766
 11
286.53785042781169
 21
1341.5014415726237
  0
LINE
  8
_1-1_
  6
CONTINUOUS
 62
    7
 10
286.53785042781169
 20
1341.5014415726237
 11
286.32602095143682
 21
1341.5725690333538
  0
LINE
  8
_1-1_
  6
CONTINUOUS
 62
    7
 10
286.32602095143682
 20
1341.5725690333538
 11
286.12346516612877
 21
1341.6669682094027
  0
LINE
  8
_1-1_
  6
CONTINUOUS
 62
    7
 10
286.12346516612877
 20
1341.6669682094027
 11
285.93267646995741
 21
1341.7833267859969
  0
LINE
  8
_1-1_
  6
CONTINUOUS
 62
    7
 10
285.93267646995741
 20
1341.7833267859969
 11
285.75608264525414
 21
1341.9202449607112
  0
LINE
  8
_1-1_
  6
CONTINUOUS
 62
    7
 10
285.75608264525414
 20
1341.9202449607112
 11
285.59584901139544
 21
1342.0760604681655
  0
LINE
  8
_1-1_
  6
CONTINUOUS
 62
    7
 10
285.59584901139544
 20
1342.0760604681655
 11
285.45400965628016
 21
1342.2486736047222
  0
LINE
  8
_1-1_
  6
CONTINUOUS
 62
    7
 10
285.45400965628016
 20
1342.2486736047222
 11
273.1935776522721
 21
1362.1179941538217
  0
LINE
  8
_1-1_
  6
CONTINUOUS
 62
    7
 10
273.1935776522721
 20
1362.1179941538217
 11
264.21041120433443
 21
1383.6682149526234
  0
LINE
  8
_1-1_
  6
CONTINUOUS
 62
    7
 10
264.21041120433443
 20
1383.6682149526234
 11
258.72804126223997
 21
1406.3629492093237
  0
LINE
  8
_1-1_
  6
CONTINUOUS
 62
    7
 10
258.72804126223997
 20
1406.3629492093237
 11
256.88292669053237
 21
1429.6374641330085
  0
LINE
  8
_1-1_
  6
CONTINUOUS
 62
    7
 10
256.88292669053237
 20
1429.6374641330085
 11
258.72095476246244
 21
1452.9125039826026
  0
LINE
  8
_1-1_
  6
CONTINUOUS
 62
    7
 10
258.72095476246244
 20
1452.9125039826026
 11
264.19641318008246
 21
1475.6089005046829
  0
LINE
  8
_1-1_
  6
CONTINUOUS
 62
    7
 10
264.19641318008246
 20
1475.6089005046829
 11
273.17301805415212
 21
1497.1618334206835
  0
LINE
  8
_1-1_
  6
CONTINUOUS
 62
    7
 10
273.17301805415212
 20
1497.1618334206835
 11
285.42739153828859
 21
1517.034828451149
  0
LINE
  8
_1-1_
  6
CONTINUOUS
 62
    7
 10
285.42739153828859
 20
1517.034828451149
 11
285.56951522827148
 21
1517.2078790259636
  0
LINE
  8
_1-1_
  6
CONTINUOUS
 62
    7
 10
285.56951522827148
 20
1517.2078790259636
 11
285.73007694082366
 21
1517.3639569963725
  0
LINE
  8
_1-1_
  6
CONTINUOUS
 62
    7
 10
285.73007694082366
 20
1517.3639569963725
 11
285.9071082037849
 21
1517.5011376340417
  0
LINE
  8
_1-1_
  6
CONTINUOUS
 62
    7
 10
285.9071082037849
 20
1517.5011376340417
 11
286.09833433821393
 21
1517.6176711859389
  0
LINE
  8
_1-1_
  6
CONTINUOUS
 62
    7
 10
286.09833433821393
 20
1517.6176711859389
 11
286.3014150494314
 21
1517.7121578496394
  0
LINE
  8
_1-1_
  6
CONTINUOUS
 62
    7
 10
286.3014150494314
 20
1517.7121578496394
 11
286.5137694517158
 21
1517.7831978227182
  0
LINE
  8
_1-1_
  6
CONTINUOUS
 62
    7
 10
286.5137694517158
 20
1517.7831978227182
 11
286.73272917169402
 21
1517.830091203962
  0
LINE
  8
_1-1_
  6
CONTINUOUS
 62
    7
 10
286.73272917169402
 20
1517.830091203962
 11
286.95556022025443
 21
1517.8523130674621
  0
LINE
  8
_1-1_
  6
CONTINUOUS
 62
    7
 10
286.95556022025443
 20
1517.8523130674621
 11
287.17948486445948
 21
1517.8493384873084
  0
LINE
  8
_1-1_
  6
CONTINUOUS
 62
    7
 10
287.17948486445948
 20
1517.8493384873084
 11
287.401681627546
 21
1517.8215174141076
  0
LINE
  8
_1-1_
  6
CONTINUOUS
 62
    7
 10
287.401681627546
 20
1517.8215174141076
 11
287.61935090466352
 21
1517.7688498478597
  0
LINE
  8
_1-1_
  6
CONTINUOUS
 62
    7
 10
287.61935090466352
 20
1517.7688498478597
 11
287.82978057861328
 21
1517.6923856403835
  0
LINE
  8
_1-1_
  6
CONTINUOUS
 62
    7
 10
287.82978057861328
 20
1517.6923856403835
 11
288.03034601984791
 21
1517.5926497175885
  0
LINE
  8
_1-1_
  6
CONTINUOUS
 62
    7
 10
288.03034601984791
 20
1517.5926497175885
 11
288.21851008647201
 21
1517.4712168572032
  0
LINE
  8
_1-1_
  6
CONTINUOUS
 62
    7
 10
288.21851008647201
 20
1517.4712168572032
 11
288.39191061189268
 21
1517.3294868616522
  0
LINE
  8
_1-1_
  6
CONTINUOUS
 62
    7
 10
288.39191061189268
 20
1517.3294868616522
 11
288.54838227673383
 21
1517.1693844592708
  0
LINE
  8
_1-1_
  6
CONTINUOUS
 62
    7
 10
288.54838227673383
 20
1517.1693844592708
 11
304.68989773606694
 21
1498.6772945212581
  0
LINE
  8
_1-1_
  6
CONTINUOUS
 62
    7
 10
304.68989773606694
 20
1498.6772945212581
 11
304.88320170222096
 21
1498.4155314677469
  0
LINE
  8
_1-1_
  6
CONTINUOUS
 62
    7
 10
304.88320170222096
 20
1498.4155314677469
 11
305.03153701546569
 21
1498.1259473410353
  0
LINE
  8
_1-1_
  6
CONTINUOUS
 62
    7
 10
305.03153701546569
 20
1498.1259473410353
 11
305.13094485956731
 21
1497.8162410544612
  0
LINE
  8
_1-1_
  6
CONTINUOUS
 62
    7
 10
305.13094485956731
 20
1497.8162410544612
 11
305.1787787330656
 21
1497.4942864966667
  0
LINE
  8
_1-1_
  6
CONTINUOUS
 62
    7
 10
305.1787787330656
 20
1497.4942864966667
 11
305.17381380883876
 21
1497.1690074081125
  0
LINE
  8
_1-1_
  6
CONTINUOUS
 62
    7
 10
305.17381380883876
 20
1497.1690074081125
 11
305.11615944645115
 21
1496.8488026033494
  0
LINE
  8
_1-1_
  6
CONTINUOUS
 62
    7
 10
305.11615944645115
 20
1496.8488026033494
 11
305.00732480789236
 21
1496.5420708969293
  0
LINE
  8
_1-1_
  6
CONTINUOUS
 62
    7
 10
305.00732480789236
 20
1496.5420708969293
 11
304.85024072949034
 21
1496.2572111034024
  0
LINE
  8
_1-1_
  6
CONTINUOUS
 62
    7
 10
304.85024072949034
 20
1496.2572111034024
 11
296.22422074719282
 21
1480.9034782026724
  0
LINE
  8
_1-1_
  6
CONTINUOUS
 62
    7
 10
296.22422074719282
 20
1480.9034782026724
 11
289.938276725386
 21
1464.4528251265006
  0
LINE
  8
_1-1_
  6
CONTINUOUS
 62
    7
 10
289.938276725386
 20
1464.4528251265006
 11
286.12777393296881
 21
1447.259139425506
  0
LINE
  8
_1-1_
  6
CONTINUOUS
 62
    7
 10
286.12777393296881
 20
1447.259139425506
 11
284.87479765903072
 21
1429.6929313041069
  0
LINE
  8
_1-1_
  6
CONTINUOUS
 62
    7
 10
284.87479765903072
 20
1429.6929313041069
 11
286.20631597216982
 21
1412.1324973677115
  0
LINE
  8
_1-1_
  6
CONTINUOUS
 62
    7
 10
286.20631597216982
 20
1412.1324973677115
 11
290.09367666649541
 21
1394.9561342217285
  0
LINE
  8
_1-1_
  6
CONTINUOUS
 62
    7
 10
290.09367666649541
 20
1394.9561342217285
 11
296.45313218753768
 21
1378.5335646817123
  0
LINE
  8
_1-1_
  6
CONTINUOUS
 62
    7
 10
296.45313218753768
 20
1378.5335646817123
 11
305.14772061675671
 21
1363.2186762982813
  0
LINE
  8
_1-1_
  6
CONTINUOUS
 62
    7
 10
288.57825930974656
 20
1342.1188419297855
 11
304.99595141318764
 21
1360.7952683496658
  0
LINE
  8
_1-1_
  6
CONTINUOUS
 62
    7
 10
402.69389310858884
 20
754.86865422900576
 11
433.49392084541466
 21
754.86865422900576
  0
LINE
  8
_1-1_
  6
CONTINUOUS
 62
    7
 10
433.49392084541466
 20
754.86865422900576
 11
433.49392084541466
 21
727.1886548664578
  0
LINE
  8
_1-1_
  6
CONTINUOUS
 62
    7
 10
433.49392084541466
 20
727.1886548664578
 11
402.69389310858884
 21
727.1886548664578
  0
LINE
  8
_1-1_
  6
CONTINUOUS
 62
    7
 10
402.69389310858884
 20
727.1886548664578
 11
402.69389310858884
 21
754.86865422900576
  0
LINE
  8
_1-1_
  6
CONTINUOUS
 62
    7
 10
403.25377033484017
 20
754.85789324786208
 11
403.33390902368251
 21
727.17833132357202
  0
LINE
  8
_1-1_
  6
CONTINUOUS
 62
    7
 10
403.71570513515394
 20
727.1886548664578
 11
403.66819934034908
 21
727.18624895603955
  0
LINE
  8
_1-1_
  6
CONTINUOUS
 62
    7
 10
403.66819934034908
 20
727.18624895603955
 11
403.62064980171823
 21
727.18414925240177
  0
LINE
  8
_1-1_
  6
CONTINUOUS
 62
    7
 10
403.62064980171823
 20
727.18414925240177
 11
403.57301277543581
 21
727.18239949937026
  0
LINE
  8
_1-1_
  6
CONTINUOUS
 62
    7
 10
403.57301277543581
 20
727.18239949937026
 11
403.52528826150194
 21
727.18091220929352
  0
LINE
  8
_1-1_
  6
CONTINUOUS
 62
    7
 10
403.52528826150194
 20
727.18091220929352
 11
403.47752000374214
 21
727.17981861364876
  0
LINE
  8
_1-1_
  6
CONTINUOUS
 62
    7
 10
403.47752000374214
 20
727.17981861364876
 11
403.42970800215664
 21
727.17898748095888
  0
LINE
  8
_1-1_
  6
CONTINUOUS
 62
    7
 10
403.42970800215664
 20
727.17898748095888
 11
403.3818522567455
 21
727.17850629887516
  0
LINE
  8
_1-1_
  6
CONTINUOUS
 62
    7
 10
403.3818522567455
 20
727.17850629887516
 11
403.33390902368251
 21
727.17833132357202
  0
LINE
  8
_1-1_
  6
CONTINUOUS
 62
    7
 10
403.33390902368251
 20
727.17833132357202
 11
402.69621153135546
 21
727.207333480069
  0
LINE
  8
_1-1_
  6
CONTINUOUS
 62
    7
 10
402.69621153135546
 20
727.207333480069
 11
402.0692750201722
 21
727.2942524619084
  0
LINE
  8
_1-1_
  6
CONTINUOUS
 62
    7
 10
402.0692750201722
 20
727.2942524619084
 11
401.45314323395837
 21
727.43908826909001
  0
LINE
  8
_1-1_
  6
CONTINUOUS
 62
    7
 10
401.45314323395837
 20
727.43908826909001
 11
400.84777242888805
 21
727.64188464543986
  0
LINE
  8
_1-1_
  6
CONTINUOUS
 62
    7
 10
400.84777242888805
 20
727.64188464543986
 11
400.2531188611357
 21
727.90264159095784
  0
LINE
  8
_1-1_
  6
CONTINUOUS
 62
    7
 10
400.2531188611357
 20
727.90264159095784
 11
399.66927001835302
 21
728.22135910564396
  0
LINE
  8
_1-1_
  6
CONTINUOUS
 62
    7
 10
399.66927001835302
 20
728.22135910564396
 11
399.09622590053959
 21
728.5979934456725
  0
LINE
  8
_1-1_
  6
CONTINUOUS
 62
    7
 10
399.09622590053959
 20
728.5979934456725
 11
398.53389902004409
 21
729.03254461104336
  0
LINE
  8
_1-1_
  6
CONTINUOUS
 62
    7
 10
398.53389902004409
 20
729.03254461104336
 11
397.9916942994106
 21
729.51731368841808
  0
LINE
  8
_1-1_
  6
CONTINUOUS
 62
    7
 10
397.9916942994106
 20
729.51731368841808
 11
397.47892917353215
 21
730.04451427680635
  0
LINE
  8
_1-1_
  6
CONTINUOUS
 62
    7
 10
397.47892917353215
 20
730.04451427680635
 11
396.99555989858254
 21
730.61410263238258
  0
LINE
  8
_1-1_
  6
CONTINUOUS
 62
    7
 10
396.99555989858254
 20
730.61410263238258
 11
396.54158647456228
 21
731.22612249897247
  0
LINE
  8
_1-1_
  6
CONTINUOUS
 62
    7
 10
396.54158647456228
 20
731.22612249897247
 11
396.11709638912248
 21
731.88053013275021
  0
LINE
  8
_1-1_
  6
CONTINUOUS
 62
    7
 10
396.11709638912248
 20
731.88053013275021
 11
395.72200215461169
 21
732.57741302136753
  0
LINE
  8
_1-1_
  6
CONTINUOUS
 62
    7
 10
395.72200215461169
 20
732.57741302136753
 11
395.3563037710299
 21
733.31668367717259
  0
LINE
  8
_1-1_
  6
CONTINUOUS
 62
    7
 10
395.3563037710299
 20
733.31668367717259
 11
395.02004498220316
 21
734.09838584399131
  0
LINE
  8
_1-1_
  6
CONTINUOUS
 62
    7
 10
395.02004498220316
 20
734.09838584399131
 11
394.71860627870296
 21
734.90904642348119
  0
LINE
  8
_1-1_
  6
CONTINUOUS
 62
    7
 10
394.71860627870296
 20
734.90904642348119
 11
394.45736815110138
 21
735.73519231729972
  0
LINE
  8
_1-1_
  6
CONTINUOUS
 62
    7
 10
394.45736815110138
 20
735.73519231729972
 11
394.23633059939817
 21
736.57691101309865
  0
LINE
  8
_1-1_
  6
CONTINUOUS
 62
    7
 10
394.23633059939817
 20
736.57691101309865
 11
394.05544987976782
 21
737.43411502322624
  0
LINE
  8
_1-1_
  6
CONTINUOUS
 62
    7
 10
394.05544987976782
 20
737.43411502322624
 11
393.91476973603585
 21
738.30689183533423
  0
LINE
  8
_1-1_
  6
CONTINUOUS
 62
    7
 10
393.91476973603585
 20
738.30689183533423
 11
393.81429016820249
 21
739.19515396177076
  0
LINE
  8
_1-1_
  6
CONTINUOUS
 62
    7
 10
393.81429016820249
 20
739.19515396177076
 11
393.75401117626768
 21
740.09898889018757
  0
LINE
  8
_1-1_
  6
CONTINUOUS
 62
    7
 10
393.75401117626768
 20
740.09898889018757
 11
393.73388901640539
 21
741.01830913293315
  0
LINE
  8
_1-1_
  6
CONTINUOUS
 62
    7
 10
393.73388901640539
 20
741.01830913293315
 11
393.75401117626768
 21
741.93771686333025
  0
LINE
  8
_1-1_
  6
CONTINUOUS
 62
    7
 10
393.75401117626768
 20
741.93771686333025
 11
393.81429016820249
 21
742.84146430409555
  0
LINE
  8
_1-1_
  6
CONTINUOUS
 62
    7
 10
393.81429016820249
 20
742.84146430409555
 11
393.91476973603585
 21
743.72981391818359
  0
LINE
  8
_1-1_
  6
CONTINUOUS
 62
    7
 10
393.91476973603585
 20
743.72981391818359
 11
394.05544987976782
 21
744.60259073029147
  0
LINE
  8
_1-1_
  6
CONTINUOUS
 62
    7
 10
394.05544987976782
 20
744.60259073029147
 11
394.23633059939817
 21
745.45979474041917
  0
LINE
  8
_1-1_
  6
CONTINUOUS
 62
    7
 10
394.23633059939817
 20
745.45979474041917
 11
394.45736815110138
 21
746.3015134362181
  0
LINE
  8
_1-1_
  6
CONTINUOUS
 62
    7
 10
394.45736815110138
 20
746.3015134362181
 11
394.71860627870296
 21
747.12765933003664
  0
LINE
  8
_1-1_
  6
CONTINUOUS
 62
    7
 10
394.71860627870296
 20
747.12765933003664
 11
395.02004498220316
 21
747.93831990952651
  0
LINE
  8
_1-1_
  6
CONTINUOUS
 62
    7
 10
395.02004498220316
 20
747.93831990952651
 11
395.3563037710299
 21
748.72002207634523
  0
LINE
  8
_1-1_
  6
CONTINUOUS
 62
    7
 10
395.3563037710299
 20
748.72002207634523
 11
395.72200215461169
 21
749.45929273215029
  0
LINE
  8
_1-1_
  6
CONTINUOUS
 62
    7
 10
395.72200215461169
 20
749.45929273215029
 11
396.11709638912248
 21
750.15613187694169
  0
LINE
  8
_1-1_
  6
CONTINUOUS
 62
    7
 10
396.11709638912248
 20
750.15613187694169
 11
396.54158647456228
 21
750.81062699837105
  0
LINE
  8
_1-1_
  6
CONTINUOUS
 62
    7
 10
396.54158647456228
 20
750.81062699837105
 11
396.99555989858254
 21
751.42260312113524
  0
LINE
  8
_1-1_
  6
CONTINUOUS
 62
    7
 10
396.99555989858254
 20
751.42260312113524
 11
397.47892917353215
 21
751.99223522053717
  0
LINE
  8
_1-1_
  6
CONTINUOUS
 62
    7
 10
397.47892917353215
 20
751.99223522053717
 11
397.9916942994106
 21
752.51934832127392
  0
LINE
  8
_1-1_
  6
CONTINUOUS
 62
    7
 10
397.9916942994106
 20
752.51934832127392
 11
398.53389902004409
 21
753.00411739864853
  0
LINE
  8
_1-1_
  6
CONTINUOUS
 62
    7
 10
398.53389902004409
 20
753.00411739864853
 11
399.0873459039048
 21
753.43236945310605
  0
LINE
  8
_1-1_
  6
CONTINUOUS
 62
    7
 10
399.0873459039048
 20
753.43236945310605
 11
399.65124756212856
 21
753.80445443525275
  0
LINE
  8
_1-1_
  6
CONTINUOUS
 62
    7
 10
399.65124756212856
 20
753.80445443525275
 11
400.22556025088988
 21
754.12045983274015
  0
LINE
  8
_1-1_
  6
CONTINUOUS
 62
    7
 10
400.22556025088988
 20
754.12045983274015
 11
400.81032771401425
 21
754.380210670265
  0
LINE
  8
_1-1_
  6
CONTINUOUS
 62
    7
 10
400.81032771401425
 20
754.380210670265
 11
401.40554995150183
 21
754.58388192313055
  0
LINE
  8
_1-1_
  6
CONTINUOUS
 62
    7
 10
401.40554995150183
 20
754.58388192313055
 11
402.01118321952663
 21
754.73138610368528
  0
LINE
  8
_1-1_
  6
CONTINUOUS
 62
    7
 10
402.01118321952663
 20
754.73138610368528
 11
402.62727126191476
 21
754.82272321192909
  0
LINE
  8
_1-1_
  6
CONTINUOUS
 62
    7
 10
402.62727126191476
 20
754.82272321192909
 11
403.25377033484017
 21
754.85789324786208
  0
LINE
  8
_1-1_
  6
CONTINUOUS
 62
    7
 10
406.57712001137753
 20
714.53601572044113
 11
406.57712001137753
 21
730.35085228879484
  0
LINE
  8
_1-1_
  6
CONTINUOUS
 62
    7
 10
406.57712001137753
 20
730.35085228879484
 11
406.58530010679982
 21
730.33996007617372
  0
LINE
  8
_1-1_
  6
CONTINUOUS
 62
    7
 10
406.58530010679982
 20
730.33996007617372
 11
406.65126579608693
 21
730.2576779398679
  0
LINE
  8
_1-1_
  6
CONTINUOUS
 62
    7
 10
406.65126579608693
 20
730.2576779398679
 11
406.72099345439193
 21
730.17613944860034
  0
LINE
  8
_1-1_
  6
CONTINUOUS
 62
    7
 10
406.72099345439193
 20
730.17613944860034
 11
406.79443933788878
 21
730.09534460237114
  0
LINE
  8
_1-1_
  6
CONTINUOUS
 62
    7
 10
406.79443933788878
 20
730.09534460237114
 11
406.87160344657741
 21
730.01524965735473
  0
LINE
  8
_1-1_
  6
CONTINUOUS
 62
    7
 10
406.87160344657741
 20
730.01524965735473
 11
406.95252952428405
 21
729.93585461355087
  0
LINE
  8
_1-1_
  6
CONTINUOUS
 62
    7
 10
406.95252952428405
 20
729.93585461355087
 11
407.03717382718224
 21
729.85720321478527
  0
LINE
  8
_1-1_
  6
CONTINUOUS
 62
    7
 10
407.03717382718224
 20
729.85720321478527
 11
407.12553635527257
 21
729.77925171723223
  0
LINE
  8
_1-1_
  6
CONTINUOUS
 62
    7
 10
407.12553635527257
 20
729.77925171723223
 11
407.21761710855492
 21
729.70204386471778
  0
LINE
  8
_1-1_
  6
CONTINUOUS
 62
    7
 10
407.21761710855492
 20
729.70204386471778
 11
407.31345983085475
 21
729.62553591341577
  0
LINE
  8
_1-1_
  6
CONTINUOUS
 62
    7
 10
407.31345983085475
 20
729.62553591341577
 11
407.41302077834661
 21
729.54977160715225
  0
LINE
  8
_1-1_
  6
CONTINUOUS
 62
    7
 10
407.41302077834661
 20
729.54977160715225
 11
407.51629995103042
 21
729.47470720210117
  0
LINE
  8
_1-1_
  6
CONTINUOUS
 62
    7
 10
407.51629995103042
 20
729.47470720210117
 11
407.62329734890614
 21
729.40038644208869
  0
LINE
  8
_1-1_
  6
CONTINUOUS
 62
    7
 10
407.62329734890614
 20
729.40038644208869
 11
407.73405671579951
 21
729.32676558328865
  0
LINE
  8
_1-1_
  6
CONTINUOUS
 62
    7
 10
407.73405671579951
 20
729.32676558328865
 11
407.84853430788485
 21
729.25388836952709
  0
LINE
  8
_1-1_
  6
CONTINUOUS
 62
    7
 10
407.84853430788485
 20
729.25388836952709
 11
407.96673012516209
 21
729.18171105697809
  0
LINE
  8
_1-1_
  6
CONTINUOUS
 62
    7
 10
407.96673012516209
 20
729.18171105697809
 11
408.08868791145699
 21
729.11027738946746
  0
LINE
  8
_1-1_
  6
CONTINUOUS
 62
    7
 10
408.08868791145699
 20
729.11027738946746
 11
408.21432017911803
 21
729.03954362316938
  0
LINE
  8
_1-1_
  6
CONTINUOUS
 62
    7
 10
408.21432017911803
 20
729.03954362316938
 11
408.34318948988738
 21
728.96981596486444
  0
LINE
  8
_1-1_
  6
CONTINUOUS
 62
    7
 10
408.34318948988738
 20
728.96981596486444
 11
408.47472717402979
 21
728.9014006213331
  0
LINE
  8
_1-1_
  6
CONTINUOUS
 62
    7
 10
408.47472717402979
 20
728.9014006213331
 11
408.60888948771947
 21
728.83429759257535
  0
LINE
  8
_1-1_
  6
CONTINUOUS
 62
    7
 10
408.60888948771947
 20
728.83429759257535
 11
408.74576391860785
 21
728.76850687859132
  0
LINE
  8
_1-1_
  6
CONTINUOUS
 62
    7
 10
408.74576391860785
 20
728.76850687859132
 11
408.88526297904349
 21
728.70407222320659
  0
LINE
  8
_1-1_
  6
CONTINUOUS
 62
    7
 10
408.88526297904349
 20
728.70407222320659
 11
409.0274304128522
 21
728.64086239494418
  0
LINE
  8
_1-1_
  6
CONTINUOUS
 62
    7
 10
409.0274304128522
 20
728.64086239494418
 11
409.17226622003386
 21
728.57900862528084
  0
LINE
  8
_1-1_
  6
CONTINUOUS
 62
    7
 10
409.17226622003386
 20
728.57900862528084
 11
409.31977040058854
 21
728.5184671703912
  0
LINE
  8
_1-1_
  6
CONTINUOUS
 62
    7
 10
409.31977040058854
 20
728.5184671703912
 11
409.46994295451634
 21
728.45923803027529
  0
LINE
  8
_1-1_
  6
CONTINUOUS
 62
    7
 10
409.46994295451634
 20
728.45923803027529
 11
409.62274013799117
 21
728.40132120493297
  0
LINE
  8
_1-1_
  6
CONTINUOUS
 62
    7
 10
409.62274013799117
 20
728.40132120493297
 11
409.77820569483924
 21
728.34467295053844
  0
LINE
  8
_1-1_
  6
CONTINUOUS
 62
    7
 10
409.77820569483924
 20
728.34467295053844
 11
409.93638336888608
 21
728.28938075474321
  0
LINE
  8
_1-1_
  6
CONTINUOUS
 62
    7
 10
409.93638336888608
 20
728.28938075474321
 11
410.09718567248012
 21
728.2354008737218
  0
LINE
  8
_1-1_
  6
CONTINUOUS
 62
    7
 10
410.09718567248012
 20
728.2354008737218
 11
410.26065634944729
 21
728.18268956364807
  0
LINE
  8
_1-1_
  6
CONTINUOUS
 62
    7
 10
410.26065634944729
 20
728.18268956364807
 11
410.42675165596154
 21
728.13133431217375
  0
LINE
  8
_1-1_
  6
CONTINUOUS
 62
    7
 10
410.42675165596154
 20
728.13133431217375
 11
410.59555907967467
 21
728.08124763164744
  0
LINE
  8
_1-1_
  6
CONTINUOUS
 62
    7
 10
410.59555907967467
 20
728.08124763164744
 11
410.7670348767607
 21
728.03247326589462
  0
LINE
  8
_1-1_
  6
CONTINUOUS
 62
    7
 10
410.7670348767607
 20
728.03247326589462
 11
410.94113530339428
 21
727.9850549587411
  0
LINE
  8
_1-1_
  6
CONTINUOUS
 62
    7
 10
410.94113530339428
 20
727.9850549587411
 11
411.11790410340063
 21
727.93890522253548
  0
LINE
  8
_1-1_
  6
CONTINUOUS
 62
    7
 10
411.11790410340063
 20
727.93890522253548
 11
411.29734127678006
 21
727.89406780110357
  0
LINE
  8
_1-1_
  6
CONTINUOUS
 62
    7
 10
411.29734127678006
 20
727.89406780110357
 11
411.47944682353256
 21
727.85054269444527
  0
LINE
  8
_1-1_
  6
CONTINUOUS
 62
    7
 10
411.47944682353256
 20
727.85054269444527
 11
411.66422074365801
 21
727.80832990256044
  0
LINE
  8
_1-1_
  6
CONTINUOUS
 62
    7
 10
411.66422074365801
 20
727.80832990256044
 11
411.85166303715647
 21
727.76742942544945
  0
LINE
  8
_1-1_
  6
CONTINUOUS
 62
    7
 10
411.85166303715647
 20
727.76742942544945
 11
412.04172996020219
 21
727.72784126311194
  0
LINE
  8
_1-1_
  6
CONTINUOUS
 62
    7
 10
412.04172996020219
 20
727.72784126311194
 11
412.23446525662098
 21
727.68956541554803
  0
LINE
  8
_1-1_
  6
CONTINUOUS
 62
    7
 10
412.23446525662098
 20
727.68956541554803
 11
412.42991267023854
 21
727.65255813893202
  0
LINE
  8
_1-1_
  6
CONTINUOUS
 62
    7
 10
412.42991267023854
 20
727.65255813893202
 11
412.62798471340346
 21
727.61690692091531
  0
LINE
  8
_1-1_
  6
CONTINUOUS
 62
    7
 10
412.62798471340346
 20
727.61690692091531
 11
412.82872512994118
 21
727.58256801767232
  0
LINE
  8
_1-1_
  6
CONTINUOUS
 62
    7
 10
412.82872512994118
 20
727.58256801767232
 11
413.03209017602626
 21
727.5494976853771
  0
LINE
  8
_1-1_
  6
CONTINUOUS
 62
    7
 10
413.03209017602626
 20
727.5494976853771
 11
413.23816733931011
 21
727.51778341168131
  0
LINE
  8
_1-1_
  6
CONTINUOUS
 62
    7
 10
413.23816733931011
 20
727.51778341168131
 11
413.44691287596703
 21
727.48733770893341
  0
LINE
  8
_1-1_
  6
CONTINUOUS
 62
    7
 10
413.44691287596703
 20
727.48733770893341
 11
413.65828304217132
 21
727.45824806478493
  0
LINE
  8
_1-1_
  6
CONTINUOUS
 62
    7
 10
413.65828304217132
 20
727.45824806478493
 11
413.8714467052327
 21
727.43055822306144
  0
LINE
  8
_1-1_
  6
CONTINUOUS
 62
    7
 10
413.8714467052327
 20
727.43055822306144
 11
414.08548524480977
 21
727.40439941524073
  0
LINE
  8
_1-1_
  6
CONTINUOUS
 62
    7
 10
414.08548524480977
 20
727.40439941524073
 11
414.30039866090283
 21
727.37981538514828
  0
LINE
  8
_1-1_
  6
CONTINUOUS
 62
    7
 10
414.30039866090283
 20
727.37981538514828
 11
414.51618695351146
 21
727.35680613278419
  0
LINE
  8
_1-1_
  6
CONTINUOUS
 62
    7
 10
414.51618695351146
 20
727.35680613278419
 11
414.73285012263591
 21
727.33528417049683
  0
LINE
  8
_1-1_
  6
CONTINUOUS
 62
    7
 10
414.73285012263591
 20
727.33528417049683
 11
414.95043191210186
 21
727.31533698593785
  0
LINE
  8
_1-1_
  6
CONTINUOUS
 62
    7
 10
414.95043191210186
 20
727.31533698593785
 11
415.1688885780834
 21
727.29696457910723
  0
LINE
  8
_1-1_
  6
CONTINUOUS
 62
    7
 10
415.1688885780834
 20
727.29696457910723
 11
415.38817637675521
 21
727.28007946235323
  0
LINE
  8
_1-1_
  6
CONTINUOUS
 62
    7
 10
415.38817637675521
 20
727.28007946235323
 11
415.60838279576842
 21
727.26481286715352
  0
LINE
  8
_1-1_
  6
CONTINUOUS
 62
    7
 10
415.60838279576842
 20
727.26481286715352
 11
415.82946409129733
 21
727.25103356203044
  0
LINE
  8
_1-1_
  6
CONTINUOUS
 62
    7
 10
415.82946409129733
 20
727.25103356203044
 11
416.05146400716762
 21
727.23882903463596
  0
LINE
  8
_1-1_
  6
CONTINUOUS
 62
    7
 10
416.05146400716762
 20
727.23882903463596
 11
416.2742950557282
 21
727.22819928496961
  0
LINE
  8
_1-1_
  6
CONTINUOUS
 62
    7
 10
416.2742950557282
 20
727.22819928496961
 11
416.49800098080436
 21
727.21905682538011
  0
LINE
  8
_1-1_
  6
CONTINUOUS
 62
    7
 10
416.49800098080436
 20
727.21905682538011
 11
416.72262552622203
 21
727.21148914351886
  0
LINE
  8
_1-1_
  6
CONTINUOUS
 62
    7
 10
416.72262552622203
 20
727.21148914351886
 11
416.94812494815551
 21
727.20549623938598
  0
LINE
  8
_1-1_
  6
CONTINUOUS
 62
    7
 10
416.94812494815551
 20
727.20549623938598
 11
417.17449924660457
 21
727.20103436915565
  0
LINE
  8
_1-1_
  6
CONTINUOUS
 62
    7
 10
417.17449924660457
 20
727.20103436915565
 11
417.40174842156961
 21
727.19810353282799
  0
LINE
  8
_1-1_
  6
CONTINUOUS
 62
    7
 10
417.40174842156961
 20
727.19810353282799
 11
417.62987247305034
 21
727.19674747422857
  0
LINE
  8
_1-1_
  6
CONTINUOUS
 62
    7
 10
417.62987247305034
 20
727.19674747422857
 11
417.85887140104677
 21
727.19692244953171
  0
LINE
  8
_1-1_
  6
CONTINUOUS
 62
    7
 10
417.85887140104677
 20
727.19692244953171
 11
418.08878894938459
 21
727.1986284587374
  0
LINE
  8
_1-1_
  6
CONTINUOUS
 62
    7
 10
418.08878894938459
 20
727.1986284587374
 11
418.31953763041258
 21
727.20190924567135
  0
LINE
  8
_1-1_
  6
CONTINUOUS
 62
    7
 10
418.31953763041258
 20
727.20190924567135
 11
418.55120493178191
 21
727.20672106650795
  0
LINE
  8
_1-1_
  6
CONTINUOUS
 62
    7
 10
418.55120493178191
 20
727.20672106650795
 11
418.7837471096671
 21
727.21310766507304
  0
LINE
  8
_1-1_
  6
CONTINUOUS
 62
    7
 10
418.7837471096671
 20
727.21310766507304
 11
419.01716416406816
 21
727.22102529754034
  0
LINE
  8
_1-1_
  6
CONTINUOUS
 62
    7
 10
419.01716416406816
 20
727.22102529754034
 11
419.25145609498486
 21
727.23051770773623
  0
LINE
  8
_1-1_
  6
CONTINUOUS
 62
    7
 10
419.25145609498486
 20
727.23051770773623
 11
419.48662290241725
 21
727.24149740800897
  0
LINE
  8
_1-1_
  6
CONTINUOUS
 62
    7
 10
419.48662290241725
 20
727.24149740800897
 11
419.7226645863654
 21
727.25409562983555
  0
LINE
  8
_1-1_
  6
CONTINUOUS
 62
    7
 10
419.7226645863654
 20
727.25409562983555
 11
419.95962489065505
 21
727.26818114173909
  0
LINE
  8
_1-1_
  6
CONTINUOUS
 62
    7
 10
419.95962489065505
 20
727.26818114173909
 11
420.19746007146068
 21
727.283841431371
  0
LINE
  8
_1-1_
  6
CONTINUOUS
 62
    7
 10
420.19746007146068
 20
727.283841431371
 11
420.43612638495603
 21
727.30103275490535
  0
LINE
  8
_1-1_
  6
CONTINUOUS
 62
    7
 10
420.43612638495603
 20
727.30103275490535
 11
420.67571131879305
 21
727.31979885616806
  0
LINE
  8
_1-1_
  6
CONTINUOUS
 62
    7
 10
420.67571131879305
 20
727.31979885616806
 11
420.9161711291456
 21
727.34009599133344
  0
LINE
  8
_1-1_
  6
CONTINUOUS
 62
    7
 10
420.9161711291456
 20
727.34009599133344
 11
421.1565434518468
 21
727.36188041657556
  0
LINE
  8
_1-1_
  6
CONTINUOUS
 62
    7
 10
421.1565434518468
 20
727.36188041657556
 11
421.39573469125168
 21
727.38502090041698
  0
LINE
  8
_1-1_
  6
CONTINUOUS
 62
    7
 10
421.39573469125168
 20
727.38502090041698
 11
421.63378859118609
 21
727.4095174428578
  0
LINE
  8
_1-1_
  6
CONTINUOUS
 62
    7
 10
421.63378859118609
 20
727.4095174428578
 11
421.77709336446526
 21
727.4251777324896
  0
LINE
  8
_1-1_
  6
CONTINUOUS
 62
    7
 10
421.77709336446526
 20
727.4251777324896
 11
421.77709336446526
 21
714.53601572044113
  0
LINE
  8
_1-1_
  6
CONTINUOUS
 62
    7
 10
421.77709336446526
 20
714.53601572044113
 11
406.57712001137753
 21
714.53601572044113
  0
LINE
  8
_1-1_
  6
CONTINUOUS
 62
    7
 10
405.16528803409301
 20
713.4270222490818
 11
423.16530367582459
 21
713.4270222490818
  0
LINE
  8
_1-1_
  6
CONTINUOUS
 62
    7
 10
423.16530367582459
 20
713.4270222490818
 11
423.16530367582459
 21
712.22704162008517
  0
LINE
  8
_1-1_
  6
CONTINUOUS
 62
    7
 10
423.16530367582459
 20
712.22704162008517
 11
405.16528803409301
 21
712.22704162008517
  0
LINE
  8
_1-1_
  6
CONTINUOUS
 62
    7
 10
405.16528803409301
 20
712.22704162008517
 11
405.16528803409301
 21
713.4270222490818
  0
LINE
  8
_1-1_
  6
CONTINUOUS
 62
    7
 10
421.76497632472206
 20
714.57192940141238
 11
423.16530367582459
 21
713.4270222490818
  0
LINE
  8
_1-1_
  6
CONTINUOUS
 62
    7
 10
406.59746089036855
 20
714.60438732014654
 11
405.16528803409301
 21
713.4270222490818
  0
LINE
  8
_1-1_
  6
CONTINUOUS
 62
    7
 10
412.50703303510164
 20
714.33444417121325
 11
416.34699729418656
 21
714.33444417121325
  0
LINE
  8
_1-1_
  6
CONTINUOUS
 62
    7
 10
416.34699729418656
 20
714.33444417121325
 11
416.34699729418656
 21
713.61446454258032
  0
LINE
  8
_1-1_
  6
CONTINUOUS
 62
    7
 10
416.34699729418656
 20
713.61446454258032
 11
412.50703303510164
 21
713.61446454258032
  0
LINE
  8
_1-1_
  6
CONTINUOUS
 62
    7
 10
412.50703303510164
 20
713.61446454258032
 11
412.50703303510164
 21
714.33444417121325
  0
LINE
  8
_1-1_
  6
CONTINUOUS
 62
    7
 10
1408.4339568973969
 20
757.45986349334112
 11
1564.562320193729
 21
757.45986349334112
  0
LINE
  8
_1-1_
  6
CONTINUOUS
 62
    7
 10
1564.562320193729
 20
757.45986349334112
 11
1564.562320193729
 21
730.01984275906239
  0
LINE
  8
_1-1_
  6
CONTINUOUS
 62
    7
 10
1564.562320193729
 20
730.01984275906239
 11
1408.4339568973969
 21
730.01984275906239
  0
LINE
  8
_1-1_
  6
CONTINUOUS
 62
    7
 10
1408.4339568973969
 20
730.01984275906239
 11
1408.4339568973969
 21
757.45986349334112
  0
LINE
  8
_1-1_
  6
CONTINUOUS
 62
    7
 10
1435.4601172959021
 20
730.01984275906239
 11
1435.5512794288427
 21
730.09306992343022
  0
LINE
  8
_1-1_
  6
CONTINUOUS
 62
    7
 10
1435.5512794288427
 20
730.09306992343022
 11
1435.6430539753444
 21
730.1655971865855
  0
LINE
  8
_1-1_
  6
CONTINUOUS
 62
    7
 10
1435.6430539753444
 20
730.1655971865855
 11
1435.7355284230587
 21
730.23733706087671
  0
LINE
  8
_1-1_
  6
CONTINUOUS
 62
    7
 10
1435.7355284230587
 20
730.23733706087671
 11
1435.8285277966825
 21
730.30837703395537
  0
LINE
  8
_1-1_
  6
CONTINUOUS
 62
    7
 10
1435.8285277966825
 20
730.30837703395537
 11
1435.922227071519
 21
730.37867336199542
  0
LINE
  8
_1-1_
  6
CONTINUOUS
 62
    7
 10
1435.922227071519
 20
730.37867336199542
 11
1436.0166262475677
 21
730.44822604499723
  0
LINE
  8
_1-1_
  6
CONTINUOUS
 62
    7
 10
1436.0166262475677
 20
730.44822604499723
 11
1436.1115503495264
 21
730.51703508296055
  0
LINE
  8
_1-1_
  6
CONTINUOUS
 62
    7
 10
1436.1115503495264
 20
730.51703508296055
 11
1436.2071743526974
 21
730.58514421971142
  0
LINE
  8
_1-1_
  6
CONTINUOUS
 62
    7
 10
1436.2071743526974
 20
730.58514421971142
 11
1437.0061115868762
 21
731.10888904586261
  0
LINE
  8
_1-1_
  6
CONTINUOUS
 62
    7
 10
1437.0061115868762
 20
731.10888904586261
 11
1437.8203591600809
 21
731.56281872605723
  0
LINE
  8
_1-1_
  6
CONTINUOUS
 62
    7
 10
1437.8203591600809
 20
731.56281872605723
 11
1438.6499170723107
 21
731.94688951646958
  0
LINE
  8
_1-1_
  6
CONTINUOUS
 62
    7
 10
1438.6499170723107
 20
731.94688951646958
 11
1439.4947853235662
 21
732.26114516092537
  0
LINE
  8
_1-1_
  6
CONTINUOUS
 62
    7
 10
1439.4947853235662
 20
732.26114516092537
 11
1440.3548764261959
 21
732.5055856594247
  0
LINE
  8
_1-1_
  6
CONTINUOUS
 62
    7
 10
1440.3548764261959
 20
732.5055856594247
 11
1441.2303653555025
 21
732.68016726814176
  0
LINE
  8
_1-1_
  6
CONTINUOUS
 62
    7
 10
1441.2303653555025
 20
732.68016726814176
 11
1442.1210771361834
 21
732.78493373090225
  0
LINE
  8
_1-1_
  6
CONTINUOUS
 62
    7
 10
1442.1210771361834
 20
732.78493373090225
 11
1443.0271867435411
 21
732.81984130388059
  0
LINE
  8
_1-1_
  6
CONTINUOUS
 62
    7
 10
1443.0271867435411
 20
732.81984130388059
 11
1443.9332088632473
 21
732.78493373090225
  0
LINE
  8
_1-1_
  6
CONTINUOUS
 62
    7
 10
1443.9332088632473
 20
732.78493373090225
 11
1444.8240081315794
 21
732.68016726814176
  0
LINE
  8
_1-1_
  6
CONTINUOUS
 62
    7
 10
1444.8240081315794
 20
732.68016726814176
 11
1445.6994095732348
 21
732.5055856594247
  0
LINE
  8
_1-1_
  6
CONTINUOUS
 62
    7
 10
1445.6994095732348
 20
732.5055856594247
 11
1446.5595881635156
 21
732.26114516092537
  0
LINE
  8
_1-1_
  6
CONTINUOUS
 62
    7
 10
1446.5595881635156
 20
732.26114516092537
 11
1447.4044564147712
 21
731.94688951646958
  0
LINE
  8
_1-1_
  6
CONTINUOUS
 62
    7
 10
1447.4044564147712
 20
731.94688951646958
 11
1448.2339268393498
 21
731.56281872605723
  0
LINE
  8
_1-1_
  6
CONTINUOUS
 62
    7
 10
1448.2339268393498
 20
731.56281872605723
 11
1449.0481744125543
 21
731.10888904586261
  0
LINE
  8
_1-1_
  6
CONTINUOUS
 62
    7
 10
1449.0481744125543
 20
731.10888904586261
 11
1449.8471991343849
 21
730.58514421971142
  0
LINE
  8
_1-1_
  6
CONTINUOUS
 62
    7
 10
1449.8471991343849
 20
730.58514421971142
 11
1449.9425606746011
 21
730.51716631443799
  0
LINE
  8
_1-1_
  6
CONTINUOUS
 62
    7
 10
1449.9425606746011
 20
730.51716631443799
 11
1450.0373972889079
 21
730.44844476412618
  0
LINE
  8
_1-1_
  6
CONTINUOUS
 62
    7
 10
1450.0373972889079
 20
730.44844476412618
 11
1450.1317089773054
 21
730.37893582495019
  0
LINE
  8
_1-1_
  6
CONTINUOUS
 62
    7
 10
1450.1317089773054
 20
730.37893582495019
 11
1450.2253207644901
 21
730.30863949691002
  0
LINE
  8
_1-1_
  6
CONTINUOUS
 62
    7
 10
1450.2253207644901
 20
730.30863949691002
 11
1450.3184076257653
 21
730.23759952383148
  0
LINE
  8
_1-1_
  6
CONTINUOUS
 62
    7
 10
1450.3184076257653
 20
730.23759952383148
 11
1450.410969561131
 21
730.16577216188875
  0
LINE
  8
_1-1_
  6
CONTINUOUS
 62
    7
 10
1450.410969561131
 20
730.16577216188875
 11
1450.5029190829362
 21
730.09320115490766
  0
LINE
  8
_1-1_
  6
CONTINUOUS
 62
    7
 10
1450.5029190829362
 20
730.09320115490766
 11
1450.59425619118
 21
730.01984275906239
  0
LINE
  8
_1-1_
  6
CONTINUOUS
 62
    7
 10
1450.59425619118
 20
730.01984275906239
 11
1450.5871696914026
 21
730.01984275906239
  0
LINE
  8
_1-1_
  6
CONTINUOUS
 62
    7
 10
1450.5871696914026
 20
730.01984275906239
 11
1450.5871696914026
 21
714.81982566214901
  0
LINE
  8
_1-1_
  6
CONTINUOUS
 62
    7
 10
1450.5871696914026
 20
714.81982566214901
 11
1435.3871525944892
 21
714.81982566214901
  0
LINE
  8
_1-1_
  6
CONTINUOUS
 62
    7
 10
1435.3871525944892
 20
714.81982566214901
 11
1435.3871525944892
 21
730.01984275906239
  0
LINE
  8
_1-1_
  6
CONTINUOUS
 62
    7
 10
1435.3871525944892
 20
730.01984275906239
 11
1435.4601172959021
 21
730.01984275906239
  0
LINE
  8
_1-1_
  6
CONTINUOUS
 62
    7
 10
1516.5674694164377
 20
730.0938573122944
 11
1516.6586315493785
 21
730.16708447666235
  0
LINE
  8
_1-1_
  6
CONTINUOUS
 62
    7
 10
1516.6586315493785
 20
730.16708447666235
 11
1516.7504935835318
 21
730.23961173981775
  0
LINE
  8
_1-1_
  6
CONTINUOUS
 62
    7
 10
1516.7504935835318
 20
730.23961173981775
 11
1516.8428805435947
 21
730.31135161410884
  0
LINE
  8
_1-1_
  6
CONTINUOUS
 62
    7
 10
1516.8428805435947
 20
730.31135161410884
 11
1516.9359674048699
 21
730.38239158718739
  0
LINE
  8
_1-1_
  6
CONTINUOUS
 62
    7
 10
1516.9359674048699
 20
730.38239158718739
 11
1517.0297541673581
 21
730.45268791522756
  0
LINE
  8
_1-1_
  6
CONTINUOUS
 62
    7
 10
1517.0297541673581
 20
730.45268791522756
 11
1517.1240658557551
 21
730.52224059822936
  0
LINE
  8
_1-1_
  6
CONTINUOUS
 62
    7
 10
1517.1240658557551
 20
730.52224059822936
 11
1517.2190774453652
 21
730.59104963619279
  0
LINE
  8
_1-1_
  6
CONTINUOUS
 62
    7
 10
1517.2190774453652
 20
730.59104963619279
 11
1517.3146139608846
 21
730.65915877294356
  0
LINE
  8
_1-1_
  6
CONTINUOUS
 62
    7
 10
1517.3146139608846
 20
730.65915877294356
 11
1518.1135511950633
 21
731.18290359909463
  0
LINE
  8
_1-1_
  6
CONTINUOUS
 62
    7
 10
1518.1135511950633
 20
731.18290359909463
 11
1518.9277112806164
 21
731.63683327928925
  0
LINE
  8
_1-1_
  6
CONTINUOUS
 62
    7
 10
1518.9277112806164
 20
731.63683327928925
 11
1519.7572691928465
 21
732.0209040697016
  0
LINE
  8
_1-1_
  6
CONTINUOUS
 62
    7
 10
1519.7572691928465
 20
732.0209040697016
 11
1520.6022249317537
 21
732.33515971415738
  0
LINE
  8
_1-1_
  6
CONTINUOUS
 62
    7
 10
1520.6022249317537
 20
732.33515971415738
 11
1521.4624035220347
 21
732.57960021265671
  0
LINE
  8
_1-1_
  6
CONTINUOUS
 62
    7
 10
1521.4624035220347
 20
732.57960021265671
 11
1522.3378049636899
 21
732.75418182137389
  0
LINE
  8
_1-1_
  6
CONTINUOUS
 62
    7
 10
1522.3378049636899
 20
732.75418182137389
 11
1523.228604232022
 21
732.85894828413439
  0
LINE
  8
_1-1_
  6
CONTINUOUS
 62
    7
 10
1523.228604232022
 20
732.85894828413439
 11
1524.1346263517285
 21
732.89385585711261
  0
LINE
  8
_1-1_
  6
CONTINUOUS
 62
    7
 10
1524.1346263517285
 20
732.89385585711261
 11
1525.0406484714345
 21
732.85894828413439
  0
LINE
  8
_1-1_
  6
CONTINUOUS
 62
    7
 10
1525.0406484714345
 20
732.85894828413439
 11
1525.9314477397666
 21
732.75418182137389
  0
LINE
  8
_1-1_
  6
CONTINUOUS
 62
    7
 10
1525.9314477397666
 20
732.75418182137389
 11
1526.806849181422
 21
732.57960021265671
  0
LINE
  8
_1-1_
  6
CONTINUOUS
 62
    7
 10
1526.806849181422
 20
732.57960021265671
 11
1527.667027771703
 21
732.33515971415738
  0
LINE
  8
_1-1_
  6
CONTINUOUS
 62
    7
 10
1527.667027771703
 20
732.33515971415738
 11
1528.511808535307
 21
732.0209040697016
  0
LINE
  8
_1-1_
  6
CONTINUOUS
 62
    7
 10
1528.511808535307
 20
732.0209040697016
 11
1529.341366447537
 21
731.63683327928925
  0
LINE
  8
_1-1_
  6
CONTINUOUS
 62
    7
 10
1529.341366447537
 20
731.63683327928925
 11
1530.1557015083929
 21
731.18290359909463
  0
LINE
  8
_1-1_
  6
CONTINUOUS
 62
    7
 10
1530.1557015083929
 20
731.18290359909463
 11
1530.9546387425721
 21
730.65915877294356
  0
LINE
  8
_1-1_
  6
CONTINUOUS
 62
    7
 10
1530.9546387425721
 20
730.65915877294356
 11
1531.0500002827882
 21
730.59118086767012
  0
LINE
  8
_1-1_
  6
CONTINUOUS
 62
    7
 10
1531.0500002827882
 20
730.59118086767012
 11
1531.144836897095
 21
730.5224593173582
  0
LINE
  8
_1-1_
  6
CONTINUOUS
 62
    7
 10
1531.144836897095
 20
730.5224593173582
 11
1531.2391485854926
 21
730.45295037818221
  0
LINE
  8
_1-1_
  6
CONTINUOUS
 62
    7
 10
1531.2391485854926
 20
730.45295037818221
 11
1531.3327603726773
 21
730.38265405014215
  0
LINE
  8
_1-1_
  6
CONTINUOUS
 62
    7
 10
1531.3327603726773
 20
730.38265405014215
 11
1531.4258472339525
 21
730.3116140770635
  0
LINE
  8
_1-1_
  6
CONTINUOUS
 62
    7
 10
1531.4258472339525
 20
730.3116140770635
 11
1531.5184091693186
 21
730.23978671512077
  0
LINE
  8
_1-1_
  6
CONTINUOUS
 62
    7
 10
1531.5184091693186
 20
730.23978671512077
 11
1531.6102712034717
 21
730.16721570813968
  0
LINE
  8
_1-1_
  6
CONTINUOUS
 62
    7
 10
1531.6102712034717
 20
730.16721570813968
 11
1531.7016083117155
 21
730.0938573122944
  0
LINE
  8
_1-1_
  6
CONTINUOUS
 62
    7
 10
1531.7016083117155
 20
730.0938573122944
 11
1531.6946092995897
 21
730.0938573122944
  0
LINE
  8
_1-1_
  6
CONTINUOUS
 62
    7
 10
1531.6946092995897
 20
730.0938573122944
 11
1531.6946092995897
 21
714.89384021538103
  0
LINE
  8
_1-1_
  6
CONTINUOUS
 62
    7
 10
1531.6946092995897
 20
714.89384021538103
 11
1516.4946796903278
 21
714.89384021538103
  0
LINE
  8
_1-1_
  6
CONTINUOUS
 62
    7
 10
1516.4946796903278
 20
714.89384021538103
 11
1516.4946796903278
 21
730.0938573122944
  0
LINE
  8
_1-1_
  6
CONTINUOUS
 62
    7
 10
1516.4946796903278
 20
730.0938573122944
 11
1516.5674694164377
 21
730.0938573122944
  0
LINE
  8
_1-1_
  6
CONTINUOUS
 62
    7
 10
1450.6733450282034
 20
730.01984275906239
 11
1516.6733294748431
 21
730.01984275906239
  0
LINE
  8
_1-1_
  6
CONTINUOUS
 62
    7
 10
1397.2232017369802
 20
744.04809399461192
 11
1397.2232017369802
 21
743.35151731277517
  0
LINE
  8
_1-1_
  6
CONTINUOUS
 62
    7
 10
1531.6946092995897
 20
730.01984275906239
 11
1564.562320193729
 21
730.01984275906239
  0
LINE
  8
_1-1_
  6
CONTINUOUS
 62
    7
 10
1435.3871525944892
 20
729.85982784433247
 11
1407.4031773865452
 21
729.85982784433247
  0
LINE
  8
_1-1_
  6
CONTINUOUS
 62
    7
 10
1435.3871525944892
 20
729.85982784433247
 11
1407.4030898988938
 21
729.85982784433247
  0
LINE
  8
_1-1_
  6
CONTINUOUS
 62
    7
 10
1435.3871525944892
 20
729.85982784433247
 11
1407.4031773865452
 21
729.85982784433247
  0
LINE
  8
_1-1_
  6
CONTINUOUS
 62
    7
 10
1436.7471481382156
 20
757.45986349334112
 11
1406.3494761109812
 21
757.45986349334112
  0
LINE
  8
_1-1_
  6
CONTINUOUS
 62
    7
 10
1435.446206759302
 20
729.85982784433247
 11
1407.4031773865452
 21
729.85982784433247
  0
LINE
  8
_1-1_
  6
CONTINUOUS
 62
    7
 10
1436.6733085602866
 20
757.45986349334112
 11
1564.9313431080702
 21
757.45986349334112
  0
LINE
  8
_1-1_
  6
CONTINUOUS
 62
    7
 10
1434.0193706497721
 20
713.64246059108427
 11
1452.019342547678
 21
713.64246059108427
  0
LINE
  8
_1-1_
  6
CONTINUOUS
 62
    7
 10
1452.019342547678
 20
713.64246059108427
 11
1452.019342547678
 21
712.44247996208742
  0
LINE
  8
_1-1_
  6
CONTINUOUS
 62
    7
 10
1452.019342547678
 20
712.44247996208742
 11
1434.0193706497721
 21
712.44247996208742
  0
LINE
  8
_1-1_
  6
CONTINUOUS
 62
    7
 10
1434.0193706497721
 20
712.44247996208742
 11
1434.0193706497721
 21
713.64246059108427
  0
LINE
  8
_1-1_
  6
CONTINUOUS
 62
    7
 10
1435.4196105132232
 20
714.78736774341473
 11
1434.0193706497721
 21
713.64246059108427
  0
LINE
  8
_1-1_
  6
CONTINUOUS
 62
    7
 10
1450.5871696914026
 20
714.81982566214901
 11
1452.019342547678
 21
713.64246059108427
  0
LINE
  8
_1-1_
  6
CONTINUOUS
 62
    7
 10
1515.1702916207921
 20
713.80492516005813
 11
1533.1701760310464
 21
713.80492516005813
  0
LINE
  8
_1-1_
  6
CONTINUOUS
 62
    7
 10
1533.1701760310464
 20
713.80492516005813
 11
1533.1701760310464
 21
712.60494453106151
  0
LINE
  8
_1-1_
  6
CONTINUOUS
 62
    7
 10
1533.1701760310464
 20
712.60494453106151
 11
1515.1702916207921
 21
712.60494453106151
  0
LINE
  8
_1-1_
  6
CONTINUOUS
 62
    7
 10
1515.1702916207921
 20
712.60494453106151
 11
1515.1702916207921
 21
713.80492516005813
  0
LINE
  8
_1-1_
  6
CONTINUOUS
 62
    7
 10
1516.5704439965912
 20
714.94978856856289
 11
1515.1702916207921
 21
713.80492516005813
  0
LINE
  8
_1-1_
  6
CONTINUOUS
 62
    7
 10
1531.7380031747707
 20
714.98229023112287
 11
1533.1701760310464
 21
713.80492516005813
  0
LINE
  8
_1-1_
  6
CONTINUOUS
 62
    7
 10
1521.9885542586042
 20
714.71234708218958
 11
1525.8285622615151
 21
714.71234708218958
  0
LINE
  8
_1-1_
  6
CONTINUOUS
 62
    7
 10
1525.8285622615151
 20
714.71234708218958
 11
1525.8285622615151
 21
713.99236745355665
  0
LINE
  8
_1-1_
  6
CONTINUOUS
 62
    7
 10
1525.8285622615151
 20
713.99236745355665
 11
1521.9885542586042
 21
713.99236745355665
  0
LINE
  8
_1-1_
  6
CONTINUOUS
 62
    7
 10
1521.9885542586042
 20
713.99236745355665
 11
1521.9885542586042
 21
714.71234708218958
  0
LINE
  8
_1-1_
  6
CONTINUOUS
 62
    7
 10
1441.1077951556467
 20
714.62455322383448
 11
1444.9478031585572
 21
714.62455322383448
  0
LINE
  8
_1-1_
  6
CONTINUOUS
 62
    7
 10
1444.9478031585572
 20
714.62455322383448
 11
1444.9478031585572
 21
713.82452239401096
  0
LINE
  8
_1-1_
  6
CONTINUOUS
 62
    7
 10
1444.9478031585572
 20
713.82452239401096
 11
1441.1077951556467
 21
713.82452239401096
  0
LINE
  8
_1-1_
  6
CONTINUOUS
 62
    7
 10
1441.1077951556467
 20
713.82452239401096
 11
1441.1077951556467
 21
714.62455322383448
  0
LINE
  8
_1-1_
  6
CONTINUOUS
 62
    7
 10
1301.4171367630533
 20
696.22703743717375
 11
1349.2314130274945
 21
696.22703743717375
  0
LINE
  8
_1-1_
  6
CONTINUOUS
 62
    7
 10
1301.4171367630533
 20
664.22702907135113
 11
1349.2314130274945
 21
664.22702907135113
  0
LINE
  8
_1-1_
  6
CONTINUOUS
 62
    7
 10
1349.2314130274945
 20
664.22702907135113
 11
1349.2314130274945
 21
696.22703743717375
  0
LINE
  8
_1-1_
  6
CONTINUOUS
 62
    7
 10
1673.045608343765
 20
696.22703743717375
 11
1625.2313320793241
 21
696.22703743717375
  0
LINE
  8
_1-1_
  6
CONTINUOUS
 62
    7
 10
1673.045608343765
 20
664.22702907135113
 11
1625.2313320793241
 21
664.22702907135113
  0
LINE
  8
_1-1_
  6
CONTINUOUS
 62
    7
 10
1625.2313320793241
 20
664.22702907135113
 11
1625.2313320793241
 21
696.22703743717375
  0
LINE
  8
_1-0_
  6
CONTINUOUS
 62
    7
 10
1673.045608343765
 20
664.22702907135113
 11
1673.045608343765
 21
416.06323109630455
  0
LINE
  8
_1-0_
  6
CONTINUOUS
 62
    7
 10
1301.4171367630533
 20
664.22702907135113
 11
1301.4171367630533
 21
416.06323109630455
  0
LINE
  8
_1-1_
  6
CONTINUOUS
 62
    7
 10
397.87669178141584
 20
464.22706427261176
 11
481.87669186978724
 21
464.22706427261176
  0
LINE
  8
_1-1_
  6
CONTINUOUS
 62
    7
 10
481.87669186978724
 20
464.22706427261176
 11
481.87669186978724
 21
416.22705172387788
  0
LINE
  8
_1-1_
  6
CONTINUOUS
 62
    7
 10
481.87669186978724
 20
416.22705172387788
 11
397.87669178141584
 21
416.22705172387788
  0
LINE
  8
_1-1_
  6
CONTINUOUS
 62
    7
 10
397.87669178141584
 20
416.22705172387788
 11
397.87669178141584
 21
464.22706427261176
  0
LINE
  8
_1-3_
  6
CONTINUOUS
 62
    7
 10
439.69080243791848
 20
505.18401466281256
 11
431.69080034646288
 21
505.18401466281256
  0
LINE
  8
_1-3_
  6
CONTINUOUS
 62
    7
 10
431.69080034646288
 20
505.18401466281256
 11
431.69080034646288
 21
501.98402257499544
  0
LINE
  8
_1-3_
  6
CONTINUOUS
 62
    7
 10
431.69080034646288
 20
501.98402257499544
 11
439.69080243791848
 21
501.98402257499544
  0
LINE
  8
_1-3_
  6
CONTINUOUS
 62
    7
 10
439.69080243791848
 20
501.98402257499544
 11
439.69080243791848
 21
505.18401466281256
  0
LINE
  8
_1-3_
  6
CONTINUOUS
 62
    7
 10
440.49078952391625
 20
467.58400920735363
 11
430.89081326046511
 21
467.58400920735363
  0
LINE
  8
_1-3_
  6
CONTINUOUS
 62
    7
 10
430.89081326046511
 20
467.58400920735363
 11
430.89081326046511
 21
464.38401711953651
  0
LINE
  8
_1-3_
  6
CONTINUOUS
 62
    7
 10
430.89081326046511
 20
464.38401711953651
 11
440.49078952391625
 21
464.38401711953651
  0
LINE
  8
_1-3_
  6
CONTINUOUS
 62
    7
 10
440.49078952391625
 20
464.38401711953651
 11
440.49078952391625
 21
467.58400920735363
  0
LINE
  8
_1-3_
  6
CONTINUOUS
 62
    7
 10
439.69080243791848
 20
483.58401339026489
 11
431.69080034646288
 21
483.58401339026489
  0
LINE
  8
_1-3_
  6
CONTINUOUS
 62
    7
 10
431.69080034646288
 20
483.58401339026489
 11
431.69080034646288
 21
480.38402130244776
  0
LINE
  8
_1-3_
  6
CONTINUOUS
 62
    7
 10
431.69080034646288
 20
480.38402130244776
 11
439.69080243791848
 21
480.38402130244776
  0
LINE
  8
_1-3_
  6
CONTINUOUS
 62
    7
 10
439.69080243791848
 20
480.38402130244776
 11
439.69080243791848
 21
483.58401339026489
  0
LINE
  8
_1-3_
  6
CONTINUOUS
 62
    7
 10
439.69080243791848
 20
480.38402130244776
 11
440.49078952391625
 21
467.58400920735363
  0
LINE
  8
_1-3_
  6
CONTINUOUS
 62
    7
 10
431.69080034646288
 20
480.38402130244776
 11
430.89081326046511
 21
467.58400920735363
  0
LINE
  8
_1-3_
  6
CONTINUOUS
 62
    7
 10
436.65082526483133
 20
513.98400384026604
 11
434.7308212633759
 21
513.98400384026604
  0
LINE
  8
_1-3_
  6
CONTINUOUS
 62
    7
 10
434.7308212633759
 20
513.98400384026604
 11
434.7308212633759
 21
483.58401339026489
  0
LINE
  8
_1-3_
  6
CONTINUOUS
 62
    7
 10
434.7308212633759
 20
483.58401339026489
 11
436.65082526483133
 21
483.58401339026489
  0
LINE
  8
_1-3_
  6
CONTINUOUS
 62
    7
 10
436.65082526483133
 20
483.58401339026489
 11
436.65082526483133
 21
513.98400384026604
  0
LINE
  8
_1-3_
  6
CONTINUOUS
 62
    7
 10
1373.5919996578261
 20
502.79555803100106
 11
1601.4850837383492
 21
502.79555803100106
  0
LINE
  8
_1-3_
  6
CONTINUOUS
 62
    7
 10
1601.4850837383492
 20
502.79555803100106
 11
1601.4850837383492
 21
489.99554593590693
  0
LINE
  8
_1-3_
  6
CONTINUOUS
 62
    7
 10
1601.4850837383492
 20
489.99554593590693
 11
1373.5919996578261
 21
489.99554593590693
  0
LINE
  8
_1-3_
  6
CONTINUOUS
 62
    7
 10
1373.5919996578261
 20
489.99554593590693
 11
1373.5919996578261
 21
502.79555803100106
  0
LINE
  8
_4-0_
  6
CONTINUOUS
 62
    7
 10
415.23529170562853
 20
499.3001638876425
 11
891.23530678767497
 21
499.3001638876425
  0
LINE
  8
_4-0_
  6
CONTINUOUS
 62
    7
 10
891.23530678767497
 20
499.3001638876425
 11
891.23530678767497
 21
489.30015033736652
  0
LINE
  8
_4-0_
  6
CONTINUOUS
 62
    7
 10
891.23530678767497
 20
489.30015033736652
 11
415.23529170562853
 21
489.30015033736652
  0
LINE
  8
_4-0_
  6
CONTINUOUS
 62
    7
 10
415.23529170562853
 20
489.30015033736652
 11
415.23529170562853
 21
499.3001638876425
  0
LINE
  8
_5-0_
  6
CONTINUOUS
 62
    7
 10
430.85879277998868
 20
509.08679505572815
 11
440.85880633026477
 21
509.08679505572815
  0
LINE
  8
_5-0_
  6
CONTINUOUS
 62
    7
 10
440.85880633026477
 20
509.08679505572815
 11
440.85880633026477
 21
505.08681588191325
  0
LINE
  8
_5-0_
  6
CONTINUOUS
 62
    7
 10
440.85880633026477
 20
505.08681588191325
 11
430.85879277998868
 21
505.08681588191325
  0
LINE
  8
_5-0_
  6
CONTINUOUS
 62
    7
 10
430.85879277998868
 20
505.08681588191325
 11
430.85879277998868
 21
509.08679505572815
  0
LINE
  8
_5-0_
  6
CONTINUOUS
 62
    7
 10
431.81805113567805
 20
511.19096056374804
 11
439.8180532271337
 21
511.19096056374804
  0
LINE
  8
_5-0_
  6
CONTINUOUS
 62
    7
 10
439.8180532271337
 20
511.19096056374804
 11
439.8180532271337
 21
507.19098138993309
  0
LINE
  8
_5-0_
  6
CONTINUOUS
 62
    7
 10
439.8180532271337
 20
507.19098138993309
 11
431.81805113567805
 21
507.19098138993309
  0
LINE
  8
_5-0_
  6
CONTINUOUS
 62
    7
 10
431.81805113567805
 20
507.19098138993309
 11
431.81805113567805
 21
511.19096056374804
  0
LINE
  8
_5-0_
  6
CONTINUOUS
 62
    7
 10
436.08657365600106
 20
542.00542376308363
 11
436.08657365600106
 21
541.40862674786774
  0
LINE
  8
_5-0_
  6
CONTINUOUS
 62
    7
 10
436.08657365600106
 20
541.40862674786774
 11
436.68665145815112
 21
541.40862674786774
  0
LINE
  8
_5-0_
  6
CONTINUOUS
 62
    7
 10
436.68665145815112
 20
541.40862674786774
 11
436.68665145815112
 21
541.00858946104302
  0
LINE
  8
_5-0_
  6
CONTINUOUS
 62
    7
 10
436.68665145815112
 20
541.00858946104302
 11
436.08657365600106
 21
541.00858946104302
  0
LINE
  8
_5-0_
  6
CONTINUOUS
 62
    7
 10
436.08657365600106
 20
541.00858946104302
 11
436.08657365600106
 21
540.40544959108797
  0
LINE
  8
_5-0_
  6
CONTINUOUS
 62
    7
 10
436.08657365600106
 20
540.40544959108797
 11
435.68658011300215
 21
540.40544959108797
  0
LINE
  8
_5-0_
  6
CONTINUOUS
 62
    7
 10
435.68658011300215
 20
540.40544959108797
 11
435.68658011300215
 21
541.00858946104302
  0
LINE
  8
_5-0_
  6
CONTINUOUS
 62
    7
 10
435.68658011300215
 20
541.00858946104302
 11
435.08663354232965
 21
541.00858946104302
  0
LINE
  8
_5-0_
  6
CONTINUOUS
 62
    7
 10
435.08663354232965
 20
541.00858946104302
 11
435.08663354232965
 21
541.40862674786774
  0
LINE
  8
_5-0_
  6
CONTINUOUS
 62
    7
 10
435.08663354232965
 20
541.40862674786774
 11
435.68658011300215
 21
541.40862674786774
  0
LINE
  8
_5-0_
  6
CONTINUOUS
 62
    7
 10
435.68658011300215
 20
541.40862674786774
 11
435.68658011300215
 21
542.00542376308363
  0
LINE
  8
_5-0_
  6
CONTINUOUS
 62
    7
 10
435.68658011300215
 20
542.00542376308363
 11
436.08657365600106
 21
542.00542376308363
  0
LINE
  8
_5-0_
  6
CONTINUOUS
 62
    7
 10
409.84430261560391
 20
525.22319248744418
 11
410.8043921039831
 21
525.77747050399478
  0
LINE
  8
_5-0_
  6
CONTINUOUS
 62
    7
 10
410.8043921039831
 20
525.77747050399478
 11
410.8043921039831
 21
526.8860265370962
  0
LINE
  8
_5-0_
  6
CONTINUOUS
 62
    7
 10
410.8043921039831
 20
526.8860265370962
 11
409.84430261560391
 21
527.44034829747261
  0
LINE
  8
_5-0_
  6
CONTINUOUS
 62
    7
 10
409.84430261560391
 20
527.44034829747261
 11
408.88425687105041
 21
526.8860265370962
  0
LINE
  8
_5-0_
  6
CONTINUOUS
 62
    7
 10
408.88425687105041
 20
526.8860265370962
 11
408.88425687105041
 21
525.77747050399478
  0
LINE
  8
_5-0_
  6
CONTINUOUS
 62
    7
 10
408.88425687105041
 20
525.77747050399478
 11
409.84430261560391
 21
525.22319248744418
  0
LINE
  8
_5-0_
  6
CONTINUOUS
 62
    7
 10
420.8874751794292
 20
514.13382644358751
 11
421.8475209239827
 21
514.68814820396392
  0
LINE
  8
_5-0_
  6
CONTINUOUS
 62
    7
 10
421.8475209239827
 20
514.68814820396392
 11
421.8475209239827
 21
515.79670423706523
  0
LINE
  8
_5-0_
  6
CONTINUOUS
 62
    7
 10
421.8475209239827
 20
515.79670423706523
 11
420.8874751794292
 21
516.35098225361594
  0
LINE
  8
_5-0_
  6
CONTINUOUS
 62
    7
 10
420.8874751794292
 20
516.35098225361594
 11
419.92742943487571
 21
515.79670423706523
  0
LINE
  8
_5-0_
  6
CONTINUOUS
 62
    7
 10
419.92742943487571
 20
515.79670423706523
 11
419.92742943487571
 21
514.68814820396392
  0
LINE
  8
_5-0_
  6
CONTINUOUS
 62
    7
 10
419.92742943487571
 20
514.68814820396392
 11
420.8874751794292
 21
514.13382644358751
  0
LINE
  8
_5-0_
  6
CONTINUOUS
 62
    7
 10
435.818030309493
 20
510.08240453064667
 11
436.77807605404638
 21
510.63668254719738
  0
LINE
  8
_5-0_
  6
CONTINUOUS
 62
    7
 10
436.77807605404638
 20
510.63668254719738
 11
436.77807605404638
 21
511.7452823241245
  0
LINE
  8
_5-0_
  6
CONTINUOUS
 62
    7
 10
436.77807605404638
 20
511.7452823241245
 11
435.818030309493
 21
512.29956034067516
  0
LINE
  8
_5-0_
  6
CONTINUOUS
 62
    7
 10
435.818030309493
 20
512.29956034067516
 11
434.85798456493956
 21
511.7452823241245
  0
LINE
  8
_5-0_
  6
CONTINUOUS
 62
    7
 10
434.85798456493956
 20
511.7452823241245
 11
434.85798456493956
 21
510.63668254719738
  0
LINE
  8
_5-0_
  6
CONTINUOUS
 62
    7
 10
434.85798456493956
 20
510.63668254719738
 11
435.818030309493
 21
510.08240453064667
  0
LINE
  8
_5-0_
  6
CONTINUOUS
 62
    7
 10
450.89928291939401
 20
514.14065048041027
 11
451.85932866394751
 21
514.69492849696098
  0
LINE
  8
_5-0_
  6
CONTINUOUS
 62
    7
 10
451.85932866394751
 20
514.69492849696098
 11
451.85932866394751
 21
515.80352827388811
  0
LINE
  8
_5-0_
  6
CONTINUOUS
 62
    7
 10
451.85932866394751
 20
515.80352827388811
 11
450.89928291939401
 21
516.3578062904387
  0
LINE
  8
_5-0_
  6
CONTINUOUS
 62
    7
 10
450.89928291939401
 20
516.3578062904387
 11
449.9391934310147
 21
515.80352827388811
  0
LINE
  8
_5-0_
  6
CONTINUOUS
 62
    7
 10
449.9391934310147
 20
515.80352827388811
 11
449.9391934310147
 21
514.69492849696098
  0
LINE
  8
_5-0_
  6
CONTINUOUS
 62
    7
 10
449.9391934310147
 20
514.69492849696098
 11
450.89928291939401
 21
514.14065048041027
  0
LINE
  8
_5-0_
  6
CONTINUOUS
 62
    7
 10
405.88745485401517
 20
540.11459689342837
 11
406.84754434239437
 21
540.66887490997897
  0
LINE
  8
_5-0_
  6
CONTINUOUS
 62
    7
 10
406.84754434239437
 20
540.66887490997897
 11
406.84754434239437
 21
541.77747468690609
  0
LINE
  8
_5-0_
  6
CONTINUOUS
 62
    7
 10
406.84754434239437
 20
541.77747468690609
 11
405.88745485401517
 21
542.3317527034568
  0
LINE
  8
_5-0_
  6
CONTINUOUS
 62
    7
 10
405.88745485401517
 20
542.3317527034568
 11
404.92740910946168
 21
541.77747468690609
  0
LINE
  8
_5-0_
  6
CONTINUOUS
 62
    7
 10
404.92740910946168
 20
541.77747468690609
 11
404.92740910946168
 21
540.66887490997897
  0
LINE
  8
_5-0_
  6
CONTINUOUS
 62
    7
 10
404.92740910946168
 20
540.66887490997897
 11
405.88745485401517
 21
540.11459689342837
  0
LINE
  8
_5-0_
  6
CONTINUOUS
 62
    7
 10
409.84430261560391
 20
555.11859790698895
 11
410.8043921039831
 21
555.67291966736536
  0
LINE
  8
_5-0_
  6
CONTINUOUS
 62
    7
 10
410.8043921039831
 20
555.67291966736536
 11
410.8043921039831
 21
556.78147570046679
  0
LINE
  8
_5-0_
  6
CONTINUOUS
 62
    7
 10
410.8043921039831
 20
556.78147570046679
 11
409.84430261560391
 21
557.33575371701738
  0
LINE
  8
_5-0_
  6
CONTINUOUS
 62
    7
 10
409.84430261560391
 20
557.33575371701738
 11
408.88425687105041
 21
556.78147570046679
  0
LINE
  8
_5-0_
  6
CONTINUOUS
 62
    7
 10
408.88425687105041
 20
556.78147570046679
 11
408.88425687105041
 21
555.67291966736536
  0
LINE
  8
_5-0_
  6
CONTINUOUS
 62
    7
 10
408.88425687105041
 20
555.67291966736536
 11
409.84430261560391
 21
555.11859790698895
  0
LINE
  8
_5-0_
  6
CONTINUOUS
 62
    7
 10
420.89928601239166
 20
566.10219138009211
 11
421.85933175694515
 21
566.65646939664271
  0
LINE
  8
_5-0_
  6
CONTINUOUS
 62
    7
 10
421.85933175694515
 20
566.65646939664271
 11
421.85933175694515
 21
567.76502542974401
  0
LINE
  8
_5-0_
  6
CONTINUOUS
 62
    7
 10
421.85933175694515
 20
567.76502542974401
 11
420.89928601239166
 21
568.31934719012042
  0
LINE
  8
_5-0_
  6
CONTINUOUS
 62
    7
 10
420.89928601239166
 20
568.31934719012042
 11
419.93919652401246
 21
567.76502542974401
  0
LINE
  8
_5-0_
  6
CONTINUOUS
 62
    7
 10
419.93919652401246
 20
567.76502542974401
 11
419.93919652401246
 21
566.65646939664271
  0
LINE
  8
_5-0_
  6
CONTINUOUS
 62
    7
 10
419.93919652401246
 20
566.65646939664271
 11
420.89928601239166
 21
566.10219138009211
  0
LINE
  8
_5-0_
  6
CONTINUOUS
 62
    7
 10
435.87201019051452
 20
570.11459380043061
 11
436.83205593506796
 21
570.66887181698121
  0
LINE
  8
_5-0_
  6
CONTINUOUS
 62
    7
 10
436.83205593506796
 20
570.66887181698121
 11
436.83205593506796
 21
571.77747159390833
  0
LINE
  8
_5-0_
  6
CONTINUOUS
 62
    7
 10
436.83205593506796
 20
571.77747159390833
 11
435.87201019051452
 21
572.33174961045893
  0
LINE
  8
_5-0_
  6
CONTINUOUS
 62
    7
 10
435.87201019051452
 20
572.33174961045893
 11
434.91192070213515
 21
571.77747159390833
  0
LINE
  8
_5-0_
  6
CONTINUOUS
 62
    7
 10
434.91192070213515
 20
571.77747159390833
 11
434.91192070213515
 21
570.66887181698121
  0
LINE
  8
_5-0_
  6
CONTINUOUS
 62
    7
 10
434.91192070213515
 20
570.66887181698121
 11
435.87201019051452
 21
570.11459380043061
  0
LINE
  8
_5-0_
  6
CONTINUOUS
 62
    7
 10
450.89928291939401
 20
566.08854330644635
 11
451.85932866394751
 21
566.64282132299707
  0
LINE
  8
_5-0_
  6
CONTINUOUS
 62
    7
 10
451.85932866394751
 20
566.64282132299707
 11
451.85932866394751
 21
567.75142109992419
  0
LINE
  8
_5-0_
  6
CONTINUOUS
 62
    7
 10
451.85932866394751
 20
567.75142109992419
 11
450.89928291939401
 21
568.3056991164749
  0
LINE
  8
_5-0_
  6
CONTINUOUS
 62
    7
 10
450.89928291939401
 20
568.3056991164749
 11
449.9391934310147
 21
567.75142109992419
  0
LINE
  8
_5-0_
  6
CONTINUOUS
 62
    7
 10
449.9391934310147
 20
567.75142109992419
 11
449.9391934310147
 21
566.64282132299707
  0
LINE
  8
_5-0_
  6
CONTINUOUS
 62
    7
 10
449.9391934310147
 20
566.64282132299707
 11
450.89928291939401
 21
566.08854330644635
  0
LINE
  8
_5-0_
  6
CONTINUOUS
 62
    7
 10
461.80540607702767
 20
555.22292693149166
 11
462.76545182158117
 21
555.77720494804237
  0
LINE
  8
_5-0_
  6
CONTINUOUS
 62
    7
 10
462.76545182158117
 20
555.77720494804237
 11
462.76545182158117
 21
556.88576098114356
  0
LINE
  8
_5-0_
  6
CONTINUOUS
 62
    7
 10
462.76545182158117
 20
556.88576098114356
 11
461.80540607702767
 21
557.44008274152009
  0
LINE
  8
_5-0_
  6
CONTINUOUS
 62
    7
 10
461.80540607702767
 20
557.44008274152009
 11
460.84536033247417
 21
556.88576098114356
  0
LINE
  8
_5-0_
  6
CONTINUOUS
 62
    7
 10
460.84536033247417
 20
556.88576098114356
 11
460.84536033247417
 21
555.77720494804237
  0
LINE
  8
_5-0_
  6
CONTINUOUS
 62
    7
 10
460.84536033247417
 20
555.77720494804237
 11
461.80540607702767
 21
555.22292693149166
  0
LINE
  8
_5-0_
  6
CONTINUOUS
 62
    7
 10
465.8874486680196
 20
540.11459689342837
 11
466.84753815639897
 21
540.66887490997897
  0
LINE
  8
_5-0_
  6
CONTINUOUS
 62
    7
 10
466.84753815639897
 20
540.66887490997897
 11
466.84753815639897
 21
541.77747468690609
  0
LINE
  8
_5-0_
  6
CONTINUOUS
 62
    7
 10
466.84753815639897
 20
541.77747468690609
 11
465.8874486680196
 21
542.3317527034568
  0
LINE
  8
_5-0_
  6
CONTINUOUS
 62
    7
 10
465.8874486680196
 20
542.3317527034568
 11
464.9274029234661
 21
541.77747468690609
  0
LINE
  8
_5-0_
  6
CONTINUOUS
 62
    7
 10
464.9274029234661
 20
541.77747468690609
 11
464.9274029234661
 21
540.66887490997897
  0
LINE
  8
_5-0_
  6
CONTINUOUS
 62
    7
 10
464.9274029234661
 20
540.66887490997897
 11
465.8874486680196
 21
540.11459689342837
  0
LINE
  8
_5-0_
  6
CONTINUOUS
 62
    7
 10
461.80540607702767
 20
525.11886346294148
 11
462.76545182158117
 21
525.673185223318
  0
LINE
  8
_5-0_
  6
CONTINUOUS
 62
    7
 10
462.76545182158117
 20
525.673185223318
 11
462.76545182158117
 21
526.7817412564192
  0
LINE
  8
_5-0_
  6
CONTINUOUS
 62
    7
 10
462.76545182158117
 20
526.7817412564192
 11
461.80540607702767
 21
527.33601927296991
  0
LINE
  8
_5-0_
  6
CONTINUOUS
 62
    7
 10
461.80540607702767
 20
527.33601927296991
 11
460.84536033247417
 21
526.7817412564192
  0
LINE
  8
_5-0_
  6
CONTINUOUS
 62
    7
 10
460.84536033247417
 20
526.7817412564192
 11
460.84536033247417
 21
525.673185223318
  0
LINE
  8
_5-0_
  6
CONTINUOUS
 62
    7
 10
460.84536033247417
 20
525.673185223318
 11
461.80540607702767
 21
525.11886346294148
  0
LINE
  8
_7-0_
  6
CONTINUOUS
 62
    7
 10
1304.5774532008816
 20
1168.9747428157614
 11
1388.78982956345
 21
1428.1528861734398
  0
LINE
  8
_7-0_
  6
CONTINUOUS
 62
    7
 10
1388.78982956345
 20
1428.1528861734398
 11
1535.0187901088168
 21
1428.1528861734398
  0
LINE
  8
_7-0_
  6
CONTINUOUS
 62
    7
 10
1535.0187901088168
 20
1428.1528861734398
 11
1536.9695897636266
 21
1427.960763290582
  0
LINE
  8
_7-0_
  6
CONTINUOUS
 62
    7
 10
1536.9695897636266
 20
1427.960763290582
 11
1538.8456749639913
 21
1427.3916561170893
  0
LINE
  8
_7-0_
  6
CONTINUOUS
 62
    7
 10
1538.8456749639913
 20
1427.3916561170893
 11
1540.5744309591048
 21
1426.4675240535073
  0
LINE
  8
_7-0_
  6
CONTINUOUS
 62
    7
 10
1540.5744309591048
 20
1426.4675240535073
 11
1542.0898920596796
 21
1425.2239745740262
  0
LINE
  8
_7-0_
  6
CONTINUOUS
 62
    7
 10
1542.0898920596796
 20
1425.2239745740262
 11
1543.3334415391605
 21
1423.7086009611035
  0
LINE
  8
_7-0_
  6
CONTINUOUS
 62
    7
 10
1543.3334415391605
 20
1423.7086009611035
 11
1544.2574861150911
 21
1421.9796699906869
  0
LINE
  8
_7-0_
  6
CONTINUOUS
 62
    7
 10
1544.2574861150911
 20
1421.9796699906869
 11
1544.8266807762352
 21
1420.103759765625
  0
LINE
  8
_7-0_
  6
CONTINUOUS
 62
    7
 10
1544.8266807762352
 20
1420.103759765625
 11
1545.018803659093
 21
1418.1528726231636
  0
LINE
  8
_7-0_
  6
CONTINUOUS
 62
    7
 10
1545.018803659093
 20
1418.1528726231636
 11
1545.018803659093
 21
1398.9747045215031
  0
LINE
  8
_7-0_
  6
CONTINUOUS
 62
    7
 10
1545.018803659093
 20
1398.9747045215031
 11
1539.2314955074355
 21
1398.9747045215031
  0
LINE
  8
_7-0_
  6
CONTINUOUS
 62
    7
 10
1539.2314955074355
 20
1398.9747045215031
 11
1539.2314955074355
 21
1412.7834929830778
  0
LINE
  8
_7-0_
  6
CONTINUOUS
 62
    7
 10
1539.2314955074355
 20
1412.7834929830778
 11
1539.0393726245775
 21
1414.7343801255392
  0
LINE
  8
_7-0_
  6
CONTINUOUS
 62
    7
 10
1539.0393726245775
 20
1414.7343801255392
 11
1538.4703529387366
 21
1416.610290350601
  0
LINE
  8
_7-0_
  6
CONTINUOUS
 62
    7
 10
1538.4703529387366
 20
1416.610290350601
 11
1537.546308362806
 21
1418.3392213210175
  0
LINE
  8
_7-0_
  6
CONTINUOUS
 62
    7
 10
1537.546308362806
 20
1418.3392213210175
 11
1536.3025839080219
 21
1419.8545949339405
  0
LINE
  8
_7-0_
  6
CONTINUOUS
 62
    7
 10
1536.3025839080219
 20
1419.8545949339405
 11
1534.7872977827506
 21
1421.0982319010732
  0
LINE
  8
_7-0_
  6
CONTINUOUS
 62
    7
 10
1534.7872977827506
 20
1421.0982319010732
 11
1533.0583668123338
 21
1422.0222764770037
  0
LINE
  8
_7-0_
  6
CONTINUOUS
 62
    7
 10
1533.0583668123338
 20
1422.0222764770037
 11
1531.1824565872721
 21
1422.591383650496
  0
LINE
  8
_7-0_
  6
CONTINUOUS
 62
    7
 10
1531.1824565872721
 20
1422.591383650496
 11
1529.2314819571593
 21
1422.7835065333538
  0
LINE
  8
_7-0_
  6
CONTINUOUS
 62
    7
 10
1529.2314819571593
 20
1422.7835065333538
 11
1397.0452518536777
 21
1422.7835065333538
  0
LINE
  8
_7-0_
  6
CONTINUOUS
 62
    7
 10
1397.0452518536777
 20
1422.7835065333538
 11
1314.5774667511573
 21
1168.9747428157614
  0
LINE
  8
_7-0_
  6
CONTINUOUS
 62
    7
 10
1545.018803659093
 20
1398.9747045215031
 11
1539.2314955074355
 21
1398.9747045215031
  0
LINE
  8
_7-0_
  6
CONTINUOUS
 62
    7
 10
1539.2314955074355
 20
1398.9747045215031
 11
1545.018803659093
 21
1398.9747045215031
  0
LINE
  8
_7-0_
  6
CONTINUOUS
 62
    7
 10
1457.0695672348199
 20
1388.9747784588785
 11
1777.0694759177425
 21
1388.9747784588785
  0
LINE
  8
_7-0_
  6
CONTINUOUS
 62
    7
 10
1457.0695672348199
 20
1309.6112302095273
 11
1637.0694611891815
 21
1309.6112302095273
  0
LINE
  8
_7-0_
  6
CONTINUOUS
 62
    7
 10
1636.2682492760619
 20
1159.6112019306904
 11
1636.2682492760619
 21
1309.6112302095273
  0
LINE
  8
_7-0_
  6
CONTINUOUS
 62
    7
 10
1004.999962000313
 20
734.98069881012066
 11
1278.7785695786642
 21
1066.9866254062727
  0
LINE
  8
_7-0_
  6
CONTINUOUS
 62
    7
 10
1278.7785695786642
 20
1066.9866254062727
 11
1265.6072161464617
 21
1038.0975904427899
  0
LINE
  8
_7-0_
  6
CONTINUOUS
 62
    7
 10
1278.7785695786642
 20
1066.9866254062727
 11
1252.9272808531537
 21
1048.5536771207242
  0
LINE
  8
_7-0_
  6
CONTINUOUS
 62
    7
 10
1265.6072161464617
 20
1038.0975904427899
 11
1252.9272808531537
 21
1048.5536771207242
  0
LINE
  8
_1-1_
  6
CONTINUOUS
 62
    7
 10
711.2767097388454
 20
375.44726382811547
 11
711.2767097388454
 21
375.44726382811547
  0
LINE
  8
_1-1_
  6
CONTINUOUS
 62
    7
 10
711.2767097388454
 20
375.44726382811547
 11
711.10959501982597
 21
376.31541790354959
  0
LINE
  8
_1-1_
  6
CONTINUOUS
 62
    7
 10
711.10959501982597
 20
376.31541790354959
 11
710.61332855894113
 21
377.15719355670888
  0
LINE
  8
_1-1_
  6
CONTINUOUS
 62
    7
 10
710.61332855894113
 20
377.15719355670888
 11
709.80298916148172
 21
377.94701386033097
  0
LINE
  8
_1-1_
  6
CONTINUOUS
 62
    7
 10
709.80298916148172
 20
377.94701386033097
 11
708.70319857998811
 21
378.66088052415876
  0
LINE
  8
_1-1_
  6
CONTINUOUS
 62
    7
 10
708.70319857998811
 20
378.66088052415876
 11
707.34737339475805
 21
379.27710307084584
  0
LINE
  8
_1-1_
  6
CONTINUOUS
 62
    7
 10
707.34737339475805
 20
379.27710307084584
 11
705.77670966796427
 21
379.77695789013467
  0
LINE
  8
_1-1_
  6
CONTINUOUS
 62
    7
 10
705.77670966796427
 20
379.77695789013467
 11
704.03893122215095
 21
380.14525714627996
  0
LINE
  8
_1-1_
  6
CONTINUOUS
 62
    7
 10
704.03893122215095
 20
380.14525714627996
 11
702.18683957603605
 21
380.37081025275216
  0
LINE
  8
_1-1_
  6
CONTINUOUS
 62
    7
 10
702.18683957603605
 20
380.37081025275216
 11
700.27670959708303
 21
380.44676389254647
  0
LINE
  8
_1-1_
  6
CONTINUOUS
 62
    7
 10
700.27670959708303
 20
380.44676389254647
 11
698.36657961813
 21
380.37081025275216
  0
LINE
  8
_1-1_
  6
CONTINUOUS
 62
    7
 10
698.36657961813
 20
380.37081025275216
 11
696.5144879720151
 21
380.14525714627996
  0
LINE
  8
_1-1_
  6
CONTINUOUS
 62
    7
 10
696.5144879720151
 20
380.14525714627996
 11
694.77670952620178
 21
379.77695789013467
  0
LINE
  8
_1-1_
  6
CONTINUOUS
 62
    7
 10
694.77670952620178
 20
379.77695789013467
 11
693.206045799408
 21
379.27710307084584
  0
LINE
  8
_1-1_
  6
CONTINUOUS
 62
    7
 10
693.206045799408
 20
379.27710307084584
 11
691.85022061417794
 21
378.66088052415876
  0
LINE
  8
_1-1_
  6
CONTINUOUS
 62
    7
 10
691.85022061417794
 20
378.66088052415876
 11
690.75043003268433
 21
377.94701386033097
  0
LINE
  8
_1-1_
  6
CONTINUOUS
 62
    7
 10
690.75043003268433
 20
377.94701386033097
 11
689.94009063522492
 21
377.15719355670888
  0
LINE
  8
_1-1_
  6
CONTINUOUS
 62
    7
 10
689.94009063522492
 20
377.15719355670888
 11
689.44382417434008
 21
376.31541790354964
  0
LINE
  8
_1-1_
  6
CONTINUOUS
 62
    7
 10
689.44382417434008
 20
376.31541790354964
 11
689.27670945532066
 21
375.44726382811547
  0
LINE
  8
_1-1_
  6
CONTINUOUS
 62
    7
 10
689.27670945532066
 20
375.44726382811547
 11
689.44382417434008
 21
374.57910975268135
  0
LINE
  8
_1-1_
  6
CONTINUOUS
 62
    7
 10
689.44382417434008
 20
374.57910975268135
 11
689.94009063522492
 21
373.73733409952212
  0
LINE
  8
_1-1_
  6
CONTINUOUS
 62
    7
 10
689.94009063522492
 20
373.73733409952212
 11
690.75043003268433
 21
372.94751379589997
  0
LINE
  8
_1-1_
  6
CONTINUOUS
 62
    7
 10
690.75043003268433
 20
372.94751379589997
 11
691.85022061417794
 21
372.23364713207218
  0
LINE
  8
_1-1_
  6
CONTINUOUS
 62
    7
 10
691.85022061417794
 20
372.23364713207218
 11
693.206045799408
 21
371.61742458538515
  0
LINE
  8
_1-1_
  6
CONTINUOUS
 62
    7
 10
693.206045799408
 20
371.61742458538515
 11
694.77670952620178
 21
371.11756976609627
  0
LINE
  8
_1-1_
  6
CONTINUOUS
 62
    7
 10
694.77670952620178
 20
371.11756976609627
 11
696.5144879720151
 21
370.74927050995097
  0
LINE
  8
_1-1_
  6
CONTINUOUS
 62
    7
 10
696.5144879720151
 20
370.74927050995097
 11
698.36657961813
 21
370.52371740347877
  0
LINE
  8
_1-1_
  6
CONTINUOUS
 62
    7
 10
698.36657961813
 20
370.52371740347877
 11
700.27670959708303
 21
370.44776376368446
  0
LINE
  8
_1-1_
  6
CONTINUOUS
 62
    7
 10
700.27670959708303
 20
370.44776376368446
 11
702.18683957603605
 21
370.52371740347877
  0
LINE
  8
_1-1_
  6
CONTINUOUS
 62
    7
 10
702.18683957603605
 20
370.52371740347877
 11
704.03893122215095
 21
370.74927050995097
  0
LINE
  8
_1-1_
  6
CONTINUOUS
 62
    7
 10
704.03893122215095
 20
370.74927050995097
 11
705.77670966796416
 21
371.11756976609627
  0
LINE
  8
_1-1_
  6
CONTINUOUS
 62
    7
 10
705.77670966796416
 20
371.11756976609627
 11
707.34737339475805
 21
371.61742458538509
  0
LINE
  8
_1-1_
  6
CONTINUOUS
 62
    7
 10
707.34737339475805
 20
371.61742458538509
 11
708.70319857998811
 21
372.23364713207212
  0
LINE
  8
_1-1_
  6
CONTINUOUS
 62
    7
 10
708.70319857998811
 20
372.23364713207212
 11
709.80298916148172
 21
372.94751379589997
  0
LINE
  8
_1-1_
  6
CONTINUOUS
 62
    7
 10
709.80298916148172
 20
372.94751379589997
 11
710.61332855894113
 21
373.73733409952206
  0
LINE
  8
_1-1_
  6
CONTINUOUS
 62
    7
 10
710.61332855894113
 20
373.73733409952206
 11
711.10959501982597
 21
374.57910975268129
  0
LINE
  8
_1-1_
  6
CONTINUOUS
 62
    7
 10
711.10959501982597
 20
374.57910975268129
 11
711.2767097388454
 21
375.44726382811547
  0
LINE
  8
_1-1_
  6
CONTINUOUS
 62
    7
 10
711.2767097388454
 20
375.44726382811547
 11
711.2767097388454
 21
375.44726382811547
  0
LINE
  8
_1-1_
  6
CONTINUOUS
 62
    7
 10
690.47669555229561
 20
375.34232239005178
 11
690.47669555229561
 21
375.34232239005178
  0
LINE
  8
_1-1_
  6
CONTINUOUS
 62
    7
 10
690.47669555229561
 20
375.34232239005178
 11
690.30958083327619
 21
376.2104764654859
  0
LINE
  8
_1-1_
  6
CONTINUOUS
 62
    7
 10
690.30958083327619
 20
376.2104764654859
 11
689.81331437239135
 21
377.05225211864519
  0
LINE
  8
_1-1_
  6
CONTINUOUS
 62
    7
 10
689.81331437239135
 20
377.05225211864519
 11
689.00297497493193
 21
377.84207242226728
  0
LINE
  8
_1-1_
  6
CONTINUOUS
 62
    7
 10
689.00297497493193
 20
377.84207242226728
 11
687.90318439343832
 21
378.55593908609507
  0
LINE
  8
_1-1_
  6
CONTINUOUS
 62
    7
 10
687.90318439343832
 20
378.55593908609507
 11
686.54735920820826
 21
379.17216163278215
  0
LINE
  8
_1-1_
  6
CONTINUOUS
 62
    7
 10
686.54735920820826
 20
379.17216163278215
 11
684.97669548141448
 21
379.67201645207098
  0
LINE
  8
_1-1_
  6
CONTINUOUS
 62
    7
 10
684.97669548141448
 20
379.67201645207098
 11
683.23891703560116
 21
380.04031570821627
  0
LINE
  8
_1-1_
  6
CONTINUOUS
 62
    7
 10
683.23891703560116
 20
380.04031570821627
 11
681.38682538948626
 21
380.26586881468847
  0
LINE
  8
_1-1_
  6
CONTINUOUS
 62
    7
 10
681.38682538948626
 20
380.26586881468847
 11
679.47669541053324
 21
380.34182245448278
  0
LINE
  8
_1-1_
  6
CONTINUOUS
 62
    7
 10
679.47669541053324
 20
380.34182245448278
 11
677.56656543158022
 21
380.26586881468847
  0
LINE
  8
_1-1_
  6
CONTINUOUS
 62
    7
 10
677.56656543158022
 20
380.26586881468847
 11
675.71447378546532
 21
380.04031570821627
  0
LINE
  8
_1-1_
  6
CONTINUOUS
 62
    7
 10
675.71447378546532
 20
380.04031570821627
 11
673.976695339652
 21
379.67201645207098
  0
LINE
  8
_1-1_
  6
CONTINUOUS
 62
    7
 10
673.976695339652
 20
379.67201645207098
 11
672.40603161285821
 21
379.17216163278215
  0
LINE
  8
_1-1_
  6
CONTINUOUS
 62
    7
 10
672.40603161285821
 20
379.17216163278215
 11
671.05020642762815
 21
378.55593908609507
  0
LINE
  8
_1-1_
  6
CONTINUOUS
 62
    7
 10
671.05020642762815
 20
378.55593908609507
 11
669.95041584613455
 21
377.84207242226728
  0
LINE
  8
_1-1_
  6
CONTINUOUS
 62
    7
 10
669.95041584613455
 20
377.84207242226728
 11
669.14007644867513
 21
377.05225211864519
  0
LINE
  8
_1-1_
  6
CONTINUOUS
 62
    7
 10
669.14007644867513
 20
377.05225211864519
 11
668.64380998779029
 21
376.21047646548595
  0
LINE
  8
_1-1_
  6
CONTINUOUS
 62
    7
 10
668.64380998779029
 20
376.21047646548595
 11
668.47669526877087
 21
375.34232239005178
  0
LINE
  8
_1-1_
  6
CONTINUOUS
 62
    7
 10
668.47669526877087
 20
375.34232239005178
 11
668.64380998779029
 21
374.47416831461766
  0
LINE
  8
_1-1_
  6
CONTINUOUS
 62
    7
 10
668.64380998779029
 20
374.47416831461766
 11
669.14007644867513
 21
373.63239266145843
  0
LINE
  8
_1-1_
  6
CONTINUOUS
 62
    7
 10
669.14007644867513
 20
373.63239266145843
 11
669.95041584613455
 21
372.84257235783627
  0
LINE
  8
_1-1_
  6
CONTINUOUS
 62
    7
 10
669.95041584613455
 20
372.84257235783627
 11
671.05020642762815
 21
372.12870569400849
  0
LINE
  8
_1-1_
  6
CONTINUOUS
 62
    7
 10
671.05020642762815
 20
372.12870569400849
 11
672.40603161285821
 21
371.51248314732146
  0
LINE
  8
_1-1_
  6
CONTINUOUS
 62
    7
 10
672.40603161285821
 20
371.51248314732146
 11
673.976695339652
 21
371.01262832803258
  0
LINE
  8
_1-1_
  6
CONTINUOUS
 62
    7
 10
673.976695339652
 20
371.01262832803258
 11
675.71447378546532
 21
370.64432907188728
  0
LINE
  8
_1-1_
  6
CONTINUOUS
 62
    7
 10
675.71447378546532
 20
370.64432907188728
 11
677.56656543158022
 21
370.41877596541508
  0
LINE
  8
_1-1_
  6
CONTINUOUS
 62
    7
 10
677.56656543158022
 20
370.41877596541508
 11
679.47669541053324
 21
370.34282232562077
  0
LINE
  8
_1-1_
  6
CONTINUOUS
 62
    7
 10
679.47669541053324
 20
370.34282232562077
 11
681.38682538948626
 21
370.41877596541508
  0
LINE
  8
_1-1_
  6
CONTINUOUS
 62
    7
 10
681.38682538948626
 20
370.41877596541508
 11
683.23891703560116
 21
370.64432907188728
  0
LINE
  8
_1-1_
  6
CONTINUOUS
 62
    7
 10
683.23891703560116
 20
370.64432907188728
 11
684.97669548141437
 21
371.01262832803258
  0
LINE
  8
_1-1_
  6
CONTINUOUS
 62
    7
 10
684.97669548141437
 20
371.01262832803258
 11
686.54735920820826
 21
371.5124831473214
  0
LINE
  8
_1-1_
  6
CONTINUOUS
 62
    7
 10
686.54735920820826
 20
371.5124831473214
 11
687.90318439343832
 21
372.12870569400843
  0
LINE
  8
_1-1_
  6
CONTINUOUS
 62
    7
 10
687.90318439343832
 20
372.12870569400843
 11
689.00297497493193
 21
372.84257235783627
  0
LINE
  8
_1-1_
  6
CONTINUOUS
 62
    7
 10
689.00297497493193
 20
372.84257235783627
 11
689.81331437239135
 21
373.63239266145837
  0
LINE
  8
_1-1_
  6
CONTINUOUS
 62
    7
 10
689.81331437239135
 20
373.63239266145837
 11
690.30958083327619
 21
374.4741683146176
  0
LINE
  8
_1-1_
  6
CONTINUOUS
 62
    7
 10
690.30958083327619
 20
374.4741683146176
 11
690.47669555229561
 21
375.34232239005178
  0
LINE
  8
_1-1_
  6
CONTINUOUS
 62
    7
 10
690.47669555229561
 20
375.34232239005178
 11
690.47669555229561
 21
375.34232239005178
  0
LINE
  8
_1-1_
  6
CONTINUOUS
 62
    7
 10
731.27669309557166
 20
375.46607367320405
 11
731.27669309557166
 21
375.46607367320405
  0
LINE
  8
_1-1_
  6
CONTINUOUS
 62
    7
 10
731.27669309557166
 20
375.46607367320405
 11
731.10957837655224
 21
376.33422774863817
  0
LINE
  8
_1-1_
  6
CONTINUOUS
 62
    7
 10
731.10957837655224
 20
376.33422774863817
 11
730.6133119156674
 21
377.17600340179746
  0
LINE
  8
_1-1_
  6
CONTINUOUS
 62
    7
 10
730.6133119156674
 20
377.17600340179746
 11
729.80297251820798
 21
377.96582370541955
  0
LINE
  8
_1-1_
  6
CONTINUOUS
 62
    7
 10
729.80297251820798
 20
377.96582370541955
 11
728.70318193671437
 21
378.67969036924734
  0
LINE
  8
_1-1_
  6
CONTINUOUS
 62
    7
 10
728.70318193671437
 20
378.67969036924734
 11
727.34735675148431
 21
379.29591291593442
  0
LINE
  8
_1-1_
  6
CONTINUOUS
 62
    7
 10
727.34735675148431
 20
379.29591291593442
 11
725.77669302469053
 21
379.79576773522325
  0
LINE
  8
_1-1_
  6
CONTINUOUS
 62
    7
 10
725.77669302469053
 20
379.79576773522325
 11
724.03891457887721
 21
380.16406699136854
  0
LINE
  8
_1-1_
  6
CONTINUOUS
 62
    7
 10
724.03891457887721
 20
380.16406699136854
 11
722.18682293276231
 21
380.38962009784075
  0
LINE
  8
_1-1_
  6
CONTINUOUS
 62
    7
 10
722.18682293276231
 20
380.38962009784075
 11
720.27669295380929
 21
380.46557373763505
  0
LINE
  8
_1-1_
  6
CONTINUOUS
 62
    7
 10
720.27669295380929
 20
380.46557373763505
 11
718.36656297485627
 21
380.38962009784075
  0
LINE
  8
_1-1_
  6
CONTINUOUS
 62
    7
 10
718.36656297485627
 20
380.38962009784075
 11
716.51447132874137
 21
380.16406699136854
  0
LINE
  8
_1-1_
  6
CONTINUOUS
 62
    7
 10
716.51447132874137
 20
380.16406699136854
 11
714.77669288292805
 21
379.79576773522325
  0
LINE
  8
_1-1_
  6
CONTINUOUS
 62
    7
 10
714.77669288292805
 20
379.79576773522325
 11
713.20602915613426
 21
379.29591291593442
  0
LINE
  8
_1-1_
  6
CONTINUOUS
 62
    7
 10
713.20602915613426
 20
379.29591291593442
 11
711.8502039709042
 21
378.67969036924734
  0
LINE
  8
_1-1_
  6
CONTINUOUS
 62
    7
 10
711.8502039709042
 20
378.67969036924734
 11
710.7504133894106
 21
377.96582370541955
  0
LINE
  8
_1-1_
  6
CONTINUOUS
 62
    7
 10
710.7504133894106
 20
377.96582370541955
 11
709.94007399195118
 21
377.17600340179746
  0
LINE
  8
_1-1_
  6
CONTINUOUS
 62
    7
 10
709.94007399195118
 20
377.17600340179746
 11
709.44380753106634
 21
376.33422774863823
  0
LINE
  8
_1-1_
  6
CONTINUOUS
 62
    7
 10
709.44380753106634
 20
376.33422774863823
 11
709.27669281204692
 21
375.46607367320405
  0
LINE
  8
_1-1_
  6
CONTINUOUS
 62
    7
 10
709.27669281204692
 20
375.46607367320405
 11
709.44380753106634
 21
374.59791959776993
  0
LINE
  8
_1-1_
  6
CONTINUOUS
 62
    7
 10
709.44380753106634
 20
374.59791959776993
 11
709.94007399195118
 21
373.7561439446107
  0
LINE
  8
_1-1_
  6
CONTINUOUS
 62
    7
 10
709.94007399195118
 20
373.7561439446107
 11
710.7504133894106
 21
372.96632364098855
  0
LINE
  8
_1-1_
  6
CONTINUOUS
 62
    7
 10
710.7504133894106
 20
372.96632364098855
 11
711.8502039709042
 21
372.25245697716076
  0
LINE
  8
_1-1_
  6
CONTINUOUS
 62
    7
 10
711.8502039709042
 20
372.25245697716076
 11
713.20602915613426
 21
371.63623443047373
  0
LINE
  8
_1-1_
  6
CONTINUOUS
 62
    7
 10
713.20602915613426
 20
371.63623443047373
 11
714.77669288292805
 21
371.13637961118485
  0
LINE
  8
_1-1_
  6
CONTINUOUS
 62
    7
 10
714.77669288292805
 20
371.13637961118485
 11
716.51447132874137
 21
370.76808035503956
  0
LINE
  8
_1-1_
  6
CONTINUOUS
 62
    7
 10
716.51447132874137
 20
370.76808035503956
 11
718.36656297485627
 21
370.54252724856735
  0
LINE
  8
_1-1_
  6
CONTINUOUS
 62
    7
 10
718.36656297485627
 20
370.54252724856735
 11
720.27669295380929
 21
370.46657360877305
  0
LINE
  8
_1-1_
  6
CONTINUOUS
 62
    7
 10
720.27669295380929
 20
370.46657360877305
 11
722.18682293276231
 21
370.54252724856735
  0
LINE
  8
_1-1_
  6
CONTINUOUS
 62
    7
 10
722.18682293276231
 20
370.54252724856735
 11
724.03891457887721
 21
370.76808035503956
  0
LINE
  8
_1-1_
  6
CONTINUOUS
 62
    7
 10
724.03891457887721
 20
370.76808035503956
 11
725.77669302469042
 21
371.13637961118485
  0
LINE
  8
_1-1_
  6
CONTINUOUS
 62
    7
 10
725.77669302469042
 20
371.13637961118485
 11
727.34735675148431
 21
371.63623443047368
  0
LINE
  8
_1-1_
  6
CONTINUOUS
 62
    7
 10
727.34735675148431
 20
371.63623443047368
 11
728.70318193671437
 21
372.2524569771607
  0
LINE
  8
_1-1_
  6
CONTINUOUS
 62
    7
 10
728.70318193671437
 20
372.2524569771607
 11
729.80297251820798
 21
372.96632364098855
  0
LINE
  8
_1-1_
  6
CONTINUOUS
 62
    7
 10
729.80297251820798
 20
372.96632364098855
 11
730.6133119156674
 21
373.75614394461064
  0
LINE
  8
_1-1_
  6
CONTINUOUS
 62
    7
 10
730.6133119156674
 20
373.75614394461064
 11
731.10957837655224
 21
374.59791959776987
  0
LINE
  8
_1-1_
  6
CONTINUOUS
 62
    7
 10
731.10957837655224
 20
374.59791959776987
 11
731.27669309557166
 21
375.46607367320405
  0
LINE
  8
_1-1_
  6
CONTINUOUS
 62
    7
 10
731.27669309557166
 20
375.46607367320405
 11
731.27669309557166
 21
375.46607367320405
  0
LINE
  8
_1-1_
  6
CONTINUOUS
 62
    7
 10
742.47673101867019
 20
367.44726173665981
 11
742.47673101867019
 21
367.44726173665981
  0
LINE
  8
_1-1_
  6
CONTINUOUS
 62
    7
 10
742.47673101867019
 20
367.44726173665981
 11
742.30961629965077
 21
368.31541581209393
  0
LINE
  8
_1-1_
  6
CONTINUOUS
 62
    7
 10
742.30961629965077
 20
368.31541581209393
 11
741.81334983876593
 21
369.15719146525322
  0
LINE
  8
_1-1_
  6
CONTINUOUS
 62
    7
 10
741.81334983876593
 20
369.15719146525322
 11
741.00301044130651
 21
369.94701176887531
  0
LINE
  8
_1-1_
  6
CONTINUOUS
 62
    7
 10
741.00301044130651
 20
369.94701176887531
 11
739.90321985981291
 21
370.6608784327031
  0
LINE
  8
_1-1_
  6
CONTINUOUS
 62
    7
 10
739.90321985981291
 20
370.6608784327031
 11
738.54739467458285
 21
371.27710097939018
  0
LINE
  8
_1-1_
  6
CONTINUOUS
 62
    7
 10
738.54739467458285
 20
371.27710097939018
 11
736.97673094778906
 21
371.77695579867901
  0
LINE
  8
_1-1_
  6
CONTINUOUS
 62
    7
 10
736.97673094778906
 20
371.77695579867901
 11
735.23895250197575
 21
372.1452550548243
  0
LINE
  8
_1-1_
  6
CONTINUOUS
 62
    7
 10
735.23895250197575
 20
372.1452550548243
 11
733.38686085586085
 21
372.37080816129651
  0
LINE
  8
_1-1_
  6
CONTINUOUS
 62
    7
 10
733.38686085586085
 20
372.37080816129651
 11
731.47673087690782
 21
372.44676180109082
  0
LINE
  8
_1-1_
  6
CONTINUOUS
 62
    7
 10
731.47673087690782
 20
372.44676180109082
 11
729.5666008979548
 21
372.37080816129651
  0
LINE
  8
_1-1_
  6
CONTINUOUS
 62
    7
 10
729.5666008979548
 20
372.37080816129651
 11
727.7145092518399
 21
372.1452550548243
  0
LINE
  8
_1-1_
  6
CONTINUOUS
 62
    7
 10
727.7145092518399
 20
372.1452550548243
 11
725.97673080602658
 21
371.77695579867901
  0
LINE
  8
_1-1_
  6
CONTINUOUS
 62
    7
 10
725.97673080602658
 20
371.77695579867901
 11
724.4060670792328
 21
371.27710097939018
  0
LINE
  8
_1-1_
  6
CONTINUOUS
 62
    7
 10
724.4060670792328
 20
371.27710097939018
 11
723.05024189400274
 21
370.6608784327031
  0
LINE
  8
_1-1_
  6
CONTINUOUS
 62
    7
 10
723.05024189400274
 20
370.6608784327031
 11
721.95045131250913
 21
369.94701176887531
  0
LINE
  8
_1-1_
  6
CONTINUOUS
 62
    7
 10
721.95045131250913
 20
369.94701176887531
 11
721.14011191504972
 21
369.15719146525322
  0
LINE
  8
_1-1_
  6
CONTINUOUS
 62
    7
 10
721.14011191504972
 20
369.15719146525322
 11
720.64384545416488
 21
368.31541581209399
  0
LINE
  8
_1-1_
  6
CONTINUOUS
 62
    7
 10
720.64384545416488
 20
368.31541581209399
 11
720.47673073514545
 21
367.44726173665981
  0
LINE
  8
_1-1_
  6
CONTINUOUS
 62
    7
 10
720.47673073514545
 20
367.44726173665981
 11
720.64384545416488
 21
366.57910766122569
  0
LINE
  8
_1-1_
  6
CONTINUOUS
 62
    7
 10
720.64384545416488
 20
366.57910766122569
 11
721.14011191504972
 21
365.73733200806646
  0
LINE
  8
_1-1_
  6
CONTINUOUS
 62
    7
 10
721.14011191504972
 20
365.73733200806646
 11
721.95045131250913
 21
364.94751170444431
  0
LINE
  8
_1-1_
  6
CONTINUOUS
 62
    7
 10
721.95045131250913
 20
364.94751170444431
 11
723.05024189400274
 21
364.23364504061652
  0
LINE
  8
_1-1_
  6
CONTINUOUS
 62
    7
 10
723.05024189400274
 20
364.23364504061652
 11
724.4060670792328
 21
363.6174224939295
  0
LINE
  8
_1-1_
  6
CONTINUOUS
 62
    7
 10
724.4060670792328
 20
363.6174224939295
 11
725.97673080602658
 21
363.11756767464061
  0
LINE
  8
_1-1_
  6
CONTINUOUS
 62
    7
 10
725.97673080602658
 20
363.11756767464061
 11
727.7145092518399
 21
362.74926841849532
  0
LINE
  8
_1-1_
  6
CONTINUOUS
 62
    7
 10
727.7145092518399
 20
362.74926841849532
 11
729.5666008979548
 21
362.52371531202311
  0
LINE
  8
_1-1_
  6
CONTINUOUS
 62
    7
 10
729.5666008979548
 20
362.52371531202311
 11
731.47673087690782
 21
362.44776167222881
  0
LINE
  8
_1-1_
  6
CONTINUOUS
 62
    7
 10
731.47673087690782
 20
362.44776167222881
 11
733.38686085586085
 21
362.52371531202311
  0
LINE
  8
_1-1_
  6
CONTINUOUS
 62
    7
 10
733.38686085586085
 20
362.52371531202311
 11
735.23895250197575
 21
362.74926841849532
  0
LINE
  8
_1-1_
  6
CONTINUOUS
 62
    7
 10
735.23895250197575
 20
362.74926841849532
 11
736.97673094778895
 21
363.11756767464061
  0
LINE
  8
_1-1_
  6
CONTINUOUS
 62
    7
 10
736.97673094778895
 20
363.11756767464061
 11
738.54739467458285
 21
363.61742249392944
  0
LINE
  8
_1-1_
  6
CONTINUOUS
 62
    7
 10
738.54739467458285
 20
363.61742249392944
 11
739.90321985981291
 21
364.23364504061647
  0
LINE
  8
_1-1_
  6
CONTINUOUS
 62
    7
 10
739.90321985981291
 20
364.23364504061647
 11
741.00301044130651
 21
364.94751170444431
  0
LINE
  8
_1-1_
  6
CONTINUOUS
 62
    7
 10
741.00301044130651
 20
364.94751170444431
 11
741.81334983876593
 21
365.7373320080664
  0
LINE
  8
_1-1_
  6
CONTINUOUS
 62
    7
 10
741.81334983876593
 20
365.7373320080664
 11
742.30961629965077
 21
366.57910766122563
  0
LINE
  8
_1-1_
  6
CONTINUOUS
 62
    7
 10
742.30961629965077
 20
366.57910766122563
 11
742.47673101867019
 21
367.44726173665981
  0
LINE
  8
_1-1_
  6
CONTINUOUS
 62
    7
 10
742.47673101867019
 20
367.44726173665981
 11
742.47673101867019
 21
367.44726173665981
  0
LINE
  8
_1-1_
  6
CONTINUOUS
 62
    7
 10
723.17113715249127
 20
367.24726496516041
 11
723.17113715249127
 21
367.24726496516041
  0
LINE
  8
_1-1_
  6
CONTINUOUS
 62
    7
 10
723.17113715249127
 20
367.24726496516041
 11
723.00402243347185
 21
368.11541904059453
  0
LINE
  8
_1-1_
  6
CONTINUOUS
 62
    7
 10
723.00402243347185
 20
368.11541904059453
 11
722.50775597258701
 21
368.95719469375382
  0
LINE
  8
_1-1_
  6
CONTINUOUS
 62
    7
 10
722.50775597258701
 20
368.95719469375382
 11
721.69741657512759
 21
369.74701499737591
  0
LINE
  8
_1-1_
  6
CONTINUOUS
 62
    7
 10
721.69741657512759
 20
369.74701499737591
 11
720.59762599363398
 21
370.4608816612037
  0
LINE
  8
_1-1_
  6
CONTINUOUS
 62
    7
 10
720.59762599363398
 20
370.4608816612037
 11
719.24180080840392
 21
371.07710420789078
  0
LINE
  8
_1-1_
  6
CONTINUOUS
 62
    7
 10
719.24180080840392
 20
371.07710420789078
 11
717.67113708161014
 21
371.57695902717961
  0
LINE
  8
_1-1_
  6
CONTINUOUS
 62
    7
 10
717.67113708161014
 20
371.57695902717961
 11
715.93335863579682
 21
371.9452582833249
  0
LINE
  8
_1-1_
  6
CONTINUOUS
 62
    7
 10
715.93335863579682
 20
371.9452582833249
 11
714.08126698968192
 21
372.17081138979711
  0
LINE
  8
_1-1_
  6
CONTINUOUS
 62
    7
 10
714.08126698968192
 20
372.17081138979711
 11
712.1711370107289
 21
372.24676502959142
  0
LINE
  8
_1-1_
  6
CONTINUOUS
 62
    7
 10
712.1711370107289
 20
372.24676502959142
 11
710.26100703177588
 21
372.17081138979711
  0
LINE
  8
_1-1_
  6
CONTINUOUS
 62
    7
 10
710.26100703177588
 20
372.17081138979711
 11
708.40891538566098
 21
371.9452582833249
  0
LINE
  8
_1-1_
  6
CONTINUOUS
 62
    7
 10
708.40891538566098
 20
371.9452582833249
 11
706.67113693984766
 21
371.57695902717961
  0
LINE
  8
_1-1_
  6
CONTINUOUS
 62
    7
 10
706.67113693984766
 20
371.57695902717961
 11
705.10047321305387
 21
371.07710420789078
  0
LINE
  8
_1-1_
  6
CONTINUOUS
 62
    7
 10
705.10047321305387
 20
371.07710420789078
 11
703.74464802782381
 21
370.4608816612037
  0
LINE
  8
_1-1_
  6
CONTINUOUS
 62
    7
 10
703.74464802782381
 20
370.4608816612037
 11
702.64485744633021
 21
369.74701499737591
  0
LINE
  8
_1-1_
  6
CONTINUOUS
 62
    7
 10
702.64485744633021
 20
369.74701499737591
 11
701.83451804887079
 21
368.95719469375382
  0
LINE
  8
_1-1_
  6
CONTINUOUS
 62
    7
 10
701.83451804887079
 20
368.95719469375382
 11
701.33825158798595
 21
368.11541904059459
  0
LINE
  8
_1-1_
  6
CONTINUOUS
 62
    7
 10
701.33825158798595
 20
368.11541904059459
 11
701.17113686896653
 21
367.24726496516041
  0
LINE
  8
_1-1_
  6
CONTINUOUS
 62
    7
 10
701.17113686896653
 20
367.24726496516041
 11
701.33825158798595
 21
366.37911088972629
  0
LINE
  8
_1-1_
  6
CONTINUOUS
 62
    7
 10
701.33825158798595
 20
366.37911088972629
 11
701.83451804887079
 21
365.53733523656706
  0
LINE
  8
_1-1_
  6
CONTINUOUS
 62
    7
 10
701.83451804887079
 20
365.53733523656706
 11
702.64485744633021
 21
364.74751493294491
  0
LINE
  8
_1-1_
  6
CONTINUOUS
 62
    7
 10
702.64485744633021
 20
364.74751493294491
 11
703.74464802782381
 21
364.03364826911712
  0
LINE
  8
_1-1_
  6
CONTINUOUS
 62
    7
 10
703.74464802782381
 20
364.03364826911712
 11
705.10047321305387
 21
363.4174257224301
  0
LINE
  8
_1-1_
  6
CONTINUOUS
 62
    7
 10
705.10047321305387
 20
363.4174257224301
 11
706.67113693984766
 21
362.91757090314121
  0
LINE
  8
_1-1_
  6
CONTINUOUS
 62
    7
 10
706.67113693984766
 20
362.91757090314121
 11
708.40891538566098
 21
362.54927164699592
  0
LINE
  8
_1-1_
  6
CONTINUOUS
 62
    7
 10
708.40891538566098
 20
362.54927164699592
 11
710.26100703177588
 21
362.32371854052371
  0
LINE
  8
_1-1_
  6
CONTINUOUS
 62
    7
 10
710.26100703177588
 20
362.32371854052371
 11
712.1711370107289
 21
362.24776490072941
  0
LINE
  8
_1-1_
  6
CONTINUOUS
 62
    7
 10
712.1711370107289
 20
362.24776490072941
 11
714.08126698968192
 21
362.32371854052371
  0
LINE
  8
_1-1_
  6
CONTINUOUS
 62
    7
 10
714.08126698968192
 20
362.32371854052371
 11
715.93335863579682
 21
362.54927164699592
  0
LINE
  8
_1-1_
  6
CONTINUOUS
 62
    7
 10
715.93335863579682
 20
362.54927164699592
 11
717.67113708161003
 21
362.91757090314121
  0
LINE
  8
_1-1_
  6
CONTINUOUS
 62
    7
 10
717.67113708161003
 20
362.91757090314121
 11
719.24180080840392
 21
363.41742572243004
  0
LINE
  8
_1-1_
  6
CONTINUOUS
 62
    7
 10
719.24180080840392
 20
363.41742572243004
 11
720.59762599363398
 21
364.03364826911707
  0
LINE
  8
_1-1_
  6
CONTINUOUS
 62
    7
 10
720.59762599363398
 20
364.03364826911707
 11
721.69741657512759
 21
364.74751493294491
  0
LINE
  8
_1-1_
  6
CONTINUOUS
 62
    7
 10
721.69741657512759
 20
364.74751493294491
 11
722.50775597258701
 21
365.537335236567
  0
LINE
  8
_1-1_
  6
CONTINUOUS
 62
    7
 10
722.50775597258701
 20
365.537335236567
 11
723.00402243347185
 21
366.37911088972623
  0
LINE
  8
_1-1_
  6
CONTINUOUS
 62
    7
 10
723.00402243347185
 20
366.37911088972623
 11
723.17113715249127
 21
367.24726496516041
  0
LINE
  8
_1-1_
  6
CONTINUOUS
 62
    7
 10
723.17113715249127
 20
367.24726496516041
 11
723.17113715249127
 21
367.24726496516041
  0
LINE
  8
_1-1_
  6
CONTINUOUS
 62
    7
 10
701.38225004019421
 20
367.24726496516041
 11
701.38225004019421
 21
367.24726496516041
  0
LINE
  8
_1-1_
  6
CONTINUOUS
 62
    7
 10
701.38225004019421
 20
367.24726496516041
 11
701.21513532117478
 21
368.11541904059453
  0
LINE
  8
_1-1_
  6
CONTINUOUS
 62
    7
 10
701.21513532117478
 20
368.11541904059453
 11
700.71886886028994
 21
368.95719469375382
  0
LINE
  8
_1-1_
  6
CONTINUOUS
 62
    7
 10
700.71886886028994
 20
368.95719469375382
 11
699.90852946283053
 21
369.74701499737591
  0
LINE
  8
_1-1_
  6
CONTINUOUS
 62
    7
 10
699.90852946283053
 20
369.74701499737591
 11
698.80873888133692
 21
370.4608816612037
  0
LINE
  8
_1-1_
  6
CONTINUOUS
 62
    7
 10
698.80873888133692
 20
370.4608816612037
 11
697.45291369610686
 21
371.07710420789078
  0
LINE
  8
_1-1_
  6
CONTINUOUS
 62
    7
 10
697.45291369610686
 20
371.07710420789078
 11
695.88224996931308
 21
371.57695902717961
  0
LINE
  8
_1-1_
  6
CONTINUOUS
 62
    7
 10
695.88224996931308
 20
371.57695902717961
 11
694.14447152349976
 21
371.9452582833249
  0
LINE
  8
_1-1_
  6
CONTINUOUS
 62
    7
 10
694.14447152349976
 20
371.9452582833249
 11
692.29237987738486
 21
372.17081138979711
  0
LINE
  8
_1-1_
  6
CONTINUOUS
 62
    7
 10
692.29237987738486
 20
372.17081138979711
 11
690.38224989843184
 21
372.24676502959142
  0
LINE
  8
_1-1_
  6
CONTINUOUS
 62
    7
 10
690.38224989843184
 20
372.24676502959142
 11
688.47211991947881
 21
372.17081138979711
  0
LINE
  8
_1-1_
  6
CONTINUOUS
 62
    7
 10
688.47211991947881
 20
372.17081138979711
 11
686.62002827336391
 21
371.9452582833249
  0
LINE
  8
_1-1_
  6
CONTINUOUS
 62
    7
 10
686.62002827336391
 20
371.9452582833249
 11
684.8822498275506
 21
371.57695902717961
  0
LINE
  8
_1-1_
  6
CONTINUOUS
 62
    7
 10
684.8822498275506
 20
371.57695902717961
 11
683.31158610075681
 21
371.07710420789078
  0
LINE
  8
_1-1_
  6
CONTINUOUS
 62
    7
 10
683.31158610075681
 20
371.07710420789078
 11
681.95576091552675
 21
370.4608816612037
  0
LINE
  8
_1-1_
  6
CONTINUOUS
 62
    7
 10
681.95576091552675
 20
370.4608816612037
 11
680.85597033403315
 21
369.74701499737591
  0
LINE
  8
_1-1_
  6
CONTINUOUS
 62
    7
 10
680.85597033403315
 20
369.74701499737591
 11
680.04563093657373
 21
368.95719469375382
  0
LINE
  8
_1-1_
  6
CONTINUOUS
 62
    7
 10
680.04563093657373
 20
368.95719469375382
 11
679.54936447568889
 21
368.11541904059459
  0
LINE
  8
_1-1_
  6
CONTINUOUS
 62
    7
 10
679.54936447568889
 20
368.11541904059459
 11
679.38224975666947
 21
367.24726496516041
  0
LINE
  8
_1-1_
  6
CONTINUOUS
 62
    7
 10
679.38224975666947
 20
367.24726496516041
 11
679.54936447568889
 21
366.37911088972629
  0
LINE
  8
_1-1_
  6
CONTINUOUS
 62
    7
 10
679.54936447568889
 20
366.37911088972629
 11
680.04563093657373
 21
365.53733523656706
  0
LINE
  8
_1-1_
  6
CONTINUOUS
 62
    7
 10
680.04563093657373
 20
365.53733523656706
 11
680.85597033403315
 21
364.74751493294491
  0
LINE
  8
_1-1_
  6
CONTINUOUS
 62
    7
 10
680.85597033403315
 20
364.74751493294491
 11
681.95576091552675
 21
364.03364826911712
  0
LINE
  8
_1-1_
  6
CONTINUOUS
 62
    7
 10
681.95576091552675
 20
364.03364826911712
 11
683.31158610075681
 21
363.4174257224301
  0
LINE
  8
_1-1_
  6
CONTINUOUS
 62
    7
 10
683.31158610075681
 20
363.4174257224301
 11
684.8822498275506
 21
362.91757090314121
  0
LINE
  8
_1-1_
  6
CONTINUOUS
 62
    7
 10
684.8822498275506
 20
362.91757090314121
 11
686.62002827336391
 21
362.54927164699592
  0
LINE
  8
_1-1_
  6
CONTINUOUS
 62
    7
 10
686.62002827336391
 20
362.54927164699592
 11
688.47211991947881
 21
362.32371854052371
  0
LINE
  8
_1-1_
  6
CONTINUOUS
 62
    7
 10
688.47211991947881
 20
362.32371854052371
 11
690.38224989843184
 21
362.24776490072941
  0
LINE
  8
_1-1_
  6
CONTINUOUS
 62
    7
 10
690.38224989843184
 20
362.24776490072941
 11
692.29237987738486
 21
362.32371854052371
  0
LINE
  8
_1-1_
  6
CONTINUOUS
 62
    7
 10
692.29237987738486
 20
362.32371854052371
 11
694.14447152349976
 21
362.54927164699592
  0
LINE
  8
_1-1_
  6
CONTINUOUS
 62
    7
 10
694.14447152349976
 20
362.54927164699592
 11
695.88224996931297
 21
362.91757090314121
  0
LINE
  8
_1-1_
  6
CONTINUOUS
 62
    7
 10
695.88224996931297
 20
362.91757090314121
 11
697.45291369610686
 21
363.41742572243004
  0
LINE
  8
_1-1_
  6
CONTINUOUS
 62
    7
 10
697.45291369610686
 20
363.41742572243004
 11
698.80873888133692
 21
364.03364826911707
  0
LINE
  8
_1-1_
  6
CONTINUOUS
 62
    7
 10
698.80873888133692
 20
364.03364826911707
 11
699.90852946283053
 21
364.74751493294491
  0
LINE
  8
_1-1_
  6
CONTINUOUS
 62
    7
 10
699.90852946283053
 20
364.74751493294491
 11
700.71886886028994
 21
365.537335236567
  0
LINE
  8
_1-1_
  6
CONTINUOUS
 62
    7
 10
700.71886886028994
 20
365.537335236567
 11
701.21513532117478
 21
366.37911088972623
  0
LINE
  8
_1-1_
  6
CONTINUOUS
 62
    7
 10
701.21513532117478
 20
366.37911088972623
 11
701.38225004019421
 21
367.24726496516041
  0
LINE
  8
_1-1_
  6
CONTINUOUS
 62
    7
 10
701.38225004019421
 20
367.24726496516041
 11
701.38225004019421
 21
367.24726496516041
  0
LINE
  8
_1-1_
  6
CONTINUOUS
 62
    7
 10
682.0766999178411
 20
367.04726819366101
 11
682.0766999178411
 21
367.04726819366101
  0
LINE
  8
_1-1_
  6
CONTINUOUS
 62
    7
 10
682.0766999178411
 20
367.04726819366101
 11
681.90958519882167
 21
367.91542226909513
  0
LINE
  8
_1-1_
  6
CONTINUOUS
 62
    7
 10
681.90958519882167
 20
367.91542226909513
 11
681.41331873793683
 21
368.75719792225442
  0
LINE
  8
_1-1_
  6
CONTINUOUS
 62
    7
 10
681.41331873793683
 20
368.75719792225442
 11
680.60297934047742
 21
369.54701822587651
  0
LINE
  8
_1-1_
  6
CONTINUOUS
 62
    7
 10
680.60297934047742
 20
369.54701822587651
 11
679.50318875898381
 21
370.2608848897043
  0
LINE
  8
_1-1_
  6
CONTINUOUS
 62
    7
 10
679.50318875898381
 20
370.2608848897043
 11
678.14736357375375
 21
370.87710743639138
  0
LINE
  8
_1-1_
  6
CONTINUOUS
 62
    7
 10
678.14736357375375
 20
370.87710743639138
 11
676.57669984695997
 21
371.37696225568021
  0
LINE
  8
_1-1_
  6
CONTINUOUS
 62
    7
 10
676.57669984695997
 20
371.37696225568021
 11
674.83892140114665
 21
371.7452615118255
  0
LINE
  8
_1-1_
  6
CONTINUOUS
 62
    7
 10
674.83892140114665
 20
371.7452615118255
 11
672.98682975503175
 21
371.97081461829771
  0
LINE
  8
_1-1_
  6
CONTINUOUS
 62
    7
 10
672.98682975503175
 20
371.97081461829771
 11
671.07669977607873
 21
372.04676825809202
  0
LINE
  8
_1-1_
  6
CONTINUOUS
 62
    7
 10
671.07669977607873
 20
372.04676825809202
 11
669.1665697971257
 21
371.97081461829771
  0
LINE
  8
_1-1_
  6
CONTINUOUS
 62
    7
 10
669.1665697971257
 20
371.97081461829771
 11
667.3144781510108
 21
371.7452615118255
  0
LINE
  8
_1-1_
  6
CONTINUOUS
 62
    7
 10
667.3144781510108
 20
371.7452615118255
 11
665.57669970519748
 21
371.37696225568021
  0
LINE
  8
_1-1_
  6
CONTINUOUS
 62
    7
 10
665.57669970519748
 20
371.37696225568021
 11
664.0060359784037
 21
370.87710743639138
  0
LINE
  8
_1-1_
  6
CONTINUOUS
 62
    7
 10
664.0060359784037
 20
370.87710743639138
 11
662.65021079317364
 21
370.2608848897043
  0
LINE
  8
_1-1_
  6
CONTINUOUS
 62
    7
 10
662.65021079317364
 20
370.2608848897043
 11
661.55042021168003
 21
369.54701822587651
  0
LINE
  8
_1-1_
  6
CONTINUOUS
 62
    7
 10
661.55042021168003
 20
369.54701822587651
 11
660.74008081422062
 21
368.75719792225442
  0
LINE
  8
_1-1_
  6
CONTINUOUS
 62
    7
 10
660.74008081422062
 20
368.75719792225442
 11
660.24381435333578
 21
367.91542226909519
  0
LINE
  8
_1-1_
  6
CONTINUOUS
 62
    7
 10
660.24381435333578
 20
367.91542226909519
 11
660.07669963431636
 21
367.04726819366101
  0
LINE
  8
_1-1_
  6
CONTINUOUS
 62
    7
 10
660.07669963431636
 20
367.04726819366101
 11
660.24381435333578
 21
366.17911411822689
  0
LINE
  8
_1-1_
  6
CONTINUOUS
 62
    7
 10
660.24381435333578
 20
366.17911411822689
 11
660.74008081422062
 21
365.33733846506766
  0
LINE
  8
_1-1_
  6
CONTINUOUS
 62
    7
 10
660.74008081422062
 20
365.33733846506766
 11
661.55042021168003
 21
364.54751816144551
  0
LINE
  8
_1-1_
  6
CONTINUOUS
 62
    7
 10
661.55042021168003
 20
364.54751816144551
 11
662.65021079317364
 21
363.83365149761772
  0
LINE
  8
_1-1_
  6
CONTINUOUS
 62
    7
 10
662.65021079317364
 20
363.83365149761772
 11
664.0060359784037
 21
363.2174289509307
  0
LINE
  8
_1-1_
  6
CONTINUOUS
 62
    7
 10
664.0060359784037
 20
363.2174289509307
 11
665.57669970519748
 21
362.71757413164181
  0
LINE
  8
_1-1_
  6
CONTINUOUS
 62
    7
 10
665.57669970519748
 20
362.71757413164181
 11
667.3144781510108
 21
362.34927487549652
  0
LINE
  8
_1-1_
  6
CONTINUOUS
 62
    7
 10
667.3144781510108
 20
362.34927487549652
 11
669.1665697971257
 21
362.12372176902431
  0
LINE
  8
_1-1_
  6
CONTINUOUS
 62
    7
 10
669.1665697971257
 20
362.12372176902431
 11
671.07669977607873
 21
362.04776812923001
  0
LINE
  8
_1-1_
  6
CONTINUOUS
 62
    7
 10
671.07669977607873
 20
362.04776812923001
 11
672.98682975503175
 21
362.12372176902431
  0
LINE
  8
_1-1_
  6
CONTINUOUS
 62
    7
 10
672.98682975503175
 20
362.12372176902431
 11
674.83892140114665
 21
362.34927487549652
  0
LINE
  8
_1-1_
  6
CONTINUOUS
 62
    7
 10
674.83892140114665
 20
362.34927487549652
 11
676.57669984695985
 21
362.71757413164181
  0
LINE
  8
_1-1_
  6
CONTINUOUS
 62
    7
 10
676.57669984695985
 20
362.71757413164181
 11
678.14736357375375
 21
363.21742895093064
  0
LINE
  8
_1-1_
  6
CONTINUOUS
 62
    7
 10
678.14736357375375
 20
363.21742895093064
 11
679.50318875898381
 21
363.83365149761767
  0
LINE
  8
_1-1_
  6
CONTINUOUS
 62
    7
 10
679.50318875898381
 20
363.83365149761767
 11
680.60297934047742
 21
364.54751816144551
  0
LINE
  8
_1-1_
  6
CONTINUOUS
 62
    7
 10
680.60297934047742
 20
364.54751816144551
 11
681.41331873793683
 21
365.3373384650676
  0
LINE
  8
_1-1_
  6
CONTINUOUS
 62
    7
 10
681.41331873793683
 20
365.3373384650676
 11
681.90958519882167
 21
366.17911411822683
  0
LINE
  8
_1-1_
  6
CONTINUOUS
 62
    7
 10
681.90958519882167
 20
366.17911411822683
 11
682.0766999178411
 21
367.04726819366101
  0
LINE
  8
_1-1_
  6
CONTINUOUS
 62
    7
 10
682.0766999178411
 20
367.04726819366101
 11
682.0766999178411
 21
367.04726819366101
  0
LINE
  8
_1-1_
  6
CONTINUOUS
 62
    7
 10
740.87671310284884
 20
359.25049991681306
 11
740.87671310284884
 21
359.25049991681306
  0
LINE
  8
_1-1_
  6
CONTINUOUS
 62
    7
 10
740.87671310284884
 20
359.25049991681306
 11
740.70959838382942
 21
360.11865399224718
  0
LINE
  8
_1-1_
  6
CONTINUOUS
 62
    7
 10
740.70959838382942
 20
360.11865399224718
 11
740.21333192294458
 21
360.96042964540646
  0
LINE
  8
_1-1_
  6
CONTINUOUS
 62
    7
 10
740.21333192294458
 20
360.96042964540646
 11
739.40299252548516
 21
361.75024994902856
  0
LINE
  8
_1-1_
  6
CONTINUOUS
 62
    7
 10
739.40299252548516
 20
361.75024994902856
 11
738.30320194399155
 21
362.46411661285634
  0
LINE
  8
_1-1_
  6
CONTINUOUS
 62
    7
 10
738.30320194399155
 20
362.46411661285634
 11
736.94737675876149
 21
363.08033915954343
  0
LINE
  8
_1-1_
  6
CONTINUOUS
 62
    7
 10
736.94737675876149
 20
363.08033915954343
 11
735.37671303196771
 21
363.58019397883226
  0
LINE
  8
_1-1_
  6
CONTINUOUS
 62
    7
 10
735.37671303196771
 20
363.58019397883226
 11
733.63893458615439
 21
363.94849323497755
  0
LINE
  8
_1-1_
  6
CONTINUOUS
 62
    7
 10
733.63893458615439
 20
363.94849323497755
 11
731.78684294003949
 21
364.17404634144975
  0
LINE
  8
_1-1_
  6
CONTINUOUS
 62
    7
 10
731.78684294003949
 20
364.17404634144975
 11
729.87671296108647
 21
364.24999998124406
  0
LINE
  8
_1-1_
  6
CONTINUOUS
 62
    7
 10
729.87671296108647
 20
364.24999998124406
 11
727.96658298213345
 21
364.17404634144975
  0
LINE
  8
_1-1_
  6
CONTINUOUS
 62
    7
 10
727.96658298213345
 20
364.17404634144975
 11
726.11449133601855
 21
363.94849323497755
  0
LINE
  8
_1-1_
  6
CONTINUOUS
 62
    7
 10
726.11449133601855
 20
363.94849323497755
 11
724.37671289020523
 21
363.58019397883226
  0
LINE
  8
_1-1_
  6
CONTINUOUS
 62
    7
 10
724.37671289020523
 20
363.58019397883226
 11
722.80604916341144
 21
363.08033915954343
  0
LINE
  8
_1-1_
  6
CONTINUOUS
 62
    7
 10
722.80604916341144
 20
363.08033915954343
 11
721.45022397818138
 21
362.46411661285634
  0
LINE
  8
_1-1_
  6
CONTINUOUS
 62
    7
 10
721.45022397818138
 20
362.46411661285634
 11
720.35043339668778
 21
361.75024994902856
  0
LINE
  8
_1-1_
  6
CONTINUOUS
 62
    7
 10
720.35043339668778
 20
361.75024994902856
 11
719.54009399922836
 21
360.96042964540646
  0
LINE
  8
_1-1_
  6
CONTINUOUS
 62
    7
 10
719.54009399922836
 20
360.96042964540646
 11
719.04382753834352
 21
360.11865399224723
  0
LINE
  8
_1-1_
  6
CONTINUOUS
 62
    7
 10
719.04382753834352
 20
360.11865399224723
 11
718.8767128193241
 21
359.25049991681306
  0
LINE
  8
_1-1_
  6
CONTINUOUS
 62
    7
 10
718.8767128193241
 20
359.25049991681306
 11
719.04382753834352
 21
358.38234584137894
  0
LINE
  8
_1-1_
  6
CONTINUOUS
 62
    7
 10
719.04382753834352
 20
358.38234584137894
 11
719.54009399922836
 21
357.5405701882197
  0
LINE
  8
_1-1_
  6
CONTINUOUS
 62
    7
 10
719.54009399922836
 20
357.5405701882197
 11
720.35043339668778
 21
356.75074988459755
  0
LINE
  8
_1-1_
  6
CONTINUOUS
 62
    7
 10
720.35043339668778
 20
356.75074988459755
 11
721.45022397818138
 21
356.03688322076977
  0
LINE
  8
_1-1_
  6
CONTINUOUS
 62
    7
 10
721.45022397818138
 20
356.03688322076977
 11
722.80604916341144
 21
355.42066067408274
  0
LINE
  8
_1-1_
  6
CONTINUOUS
 62
    7
 10
722.80604916341144
 20
355.42066067408274
 11
724.37671289020523
 21
354.92080585479385
  0
LINE
  8
_1-1_
  6
CONTINUOUS
 62
    7
 10
724.37671289020523
 20
354.92080585479385
 11
726.11449133601855
 21
354.55250659864856
  0
LINE
  8
_1-1_
  6
CONTINUOUS
 62
    7
 10
726.11449133601855
 20
354.55250659864856
 11
727.96658298213345
 21
354.32695349217636
  0
LINE
  8
_1-1_
  6
CONTINUOUS
 62
    7
 10
727.96658298213345
 20
354.32695349217636
 11
729.87671296108647
 21
354.25099985238205
  0
LINE
  8
_1-1_
  6
CONTINUOUS
 62
    7
 10
729.87671296108647
 20
354.25099985238205
 11
731.78684294003949
 21
354.32695349217636
  0
LINE
  8
_1-1_
  6
CONTINUOUS
 62
    7
 10
731.78684294003949
 20
354.32695349217636
 11
733.63893458615439
 21
354.55250659864856
  0
LINE
  8
_1-1_
  6
CONTINUOUS
 62
    7
 10
733.63893458615439
 20
354.55250659864856
 11
735.3767130319676
 21
354.92080585479385
  0
LINE
  8
_1-1_
  6
CONTINUOUS
 62
    7
 10
735.3767130319676
 20
354.92080585479385
 11
736.94737675876149
 21
355.42066067408268
  0
LINE
  8
_1-1_
  6
CONTINUOUS
 62
    7
 10
736.94737675876149
 20
355.42066067408268
 11
738.30320194399155
 21
356.03688322076971
  0
LINE
  8
_1-1_
  6
CONTINUOUS
 62
    7
 10
738.30320194399155
 20
356.03688322076971
 11
739.40299252548516
 21
356.75074988459755
  0
LINE
  8
_1-1_
  6
CONTINUOUS
 62
    7
 10
739.40299252548516
 20
356.75074988459755
 11
740.21333192294458
 21
357.54057018821965
  0
LINE
  8
_1-1_
  6
CONTINUOUS
 62
    7
 10
740.21333192294458
 20
357.54057018821965
 11
740.70959838382942
 21
358.38234584137888
  0
LINE
  8
_1-1_
  6
CONTINUOUS
 62
    7
 10
740.70959838382942
 20
358.38234584137888
 11
740.87671310284884
 21
359.25049991681306
  0
LINE
  8
_1-1_
  6
CONTINUOUS
 62
    7
 10
740.87671310284884
 20
359.25049991681306
 11
740.87671310284884
 21
359.25049991681306
  0
LINE
  8
_1-1_
  6
CONTINUOUS
 62
    7
 10
721.57116298049561
 20
359.05050314531366
 11
721.57116298049561
 21
359.05050314531366
  0
LINE
  8
_1-1_
  6
CONTINUOUS
 62
    7
 10
721.57116298049561
 20
359.05050314531366
 11
721.40404826147619
 21
359.91865722074778
  0
LINE
  8
_1-1_
  6
CONTINUOUS
 62
    7
 10
721.40404826147619
 20
359.91865722074778
 11
720.90778180059135
 21
360.76043287390706
  0
LINE
  8
_1-1_
  6
CONTINUOUS
 62
    7
 10
720.90778180059135
 20
360.76043287390706
 11
720.09744240313194
 21
361.55025317752916
  0
LINE
  8
_1-1_
  6
CONTINUOUS
 62
    7
 10
720.09744240313194
 20
361.55025317752916
 11
718.99765182163833
 21
362.26411984135694
  0
LINE
  8
_1-1_
  6
CONTINUOUS
 62
    7
 10
718.99765182163833
 20
362.26411984135694
 11
717.64182663640827
 21
362.88034238804403
  0
LINE
  8
_1-1_
  6
CONTINUOUS
 62
    7
 10
717.64182663640827
 20
362.88034238804403
 11
716.07116290961449
 21
363.38019720733286
  0
LINE
  8
_1-1_
  6
CONTINUOUS
 62
    7
 10
716.07116290961449
 20
363.38019720733286
 11
714.33338446380117
 21
363.74849646347815
  0
LINE
  8
_1-1_
  6
CONTINUOUS
 62
    7
 10
714.33338446380117
 20
363.74849646347815
 11
712.48129281768627
 21
363.97404956995035
  0
LINE
  8
_1-1_
  6
CONTINUOUS
 62
    7
 10
712.48129281768627
 20
363.97404956995035
 11
710.57116283873324
 21
364.05000320974466
  0
LINE
  8
_1-1_
  6
CONTINUOUS
 62
    7
 10
710.57116283873324
 20
364.05000320974466
 11
708.66103285978022
 21
363.97404956995035
  0
LINE
  8
_1-1_
  6
CONTINUOUS
 62
    7
 10
708.66103285978022
 20
363.97404956995035
 11
706.80894121366532
 21
363.74849646347815
  0
LINE
  8
_1-1_
  6
CONTINUOUS
 62
    7
 10
706.80894121366532
 20
363.74849646347815
 11
705.071162767852
 21
363.38019720733286
  0
LINE
  8
_1-1_
  6
CONTINUOUS
 62
    7
 10
705.071162767852
 20
363.38019720733286
 11
703.50049904105822
 21
362.88034238804403
  0
LINE
  8
_1-1_
  6
CONTINUOUS
 62
    7
 10
703.50049904105822
 20
362.88034238804403
 11
702.14467385582816
 21
362.26411984135694
  0
LINE
  8
_1-1_
  6
CONTINUOUS
 62
    7
 10
702.14467385582816
 20
362.26411984135694
 11
701.04488327433455
 21
361.55025317752916
  0
LINE
  8
_1-1_
  6
CONTINUOUS
 62
    7
 10
701.04488327433455
 20
361.55025317752916
 11
700.23454387687514
 21
360.76043287390706
  0
LINE
  8
_1-1_
  6
CONTINUOUS
 62
    7
 10
700.23454387687514
 20
360.76043287390706
 11
699.7382774159903
 21
359.91865722074783
  0
LINE
  8
_1-1_
  6
CONTINUOUS
 62
    7
 10
699.7382774159903
 20
359.91865722074783
 11
699.57116269697087
 21
359.05050314531366
  0
LINE
  8
_1-1_
  6
CONTINUOUS
 62
    7
 10
699.57116269697087
 20
359.05050314531366
 11
699.7382774159903
 21
358.18234906987954
  0
LINE
  8
_1-1_
  6
CONTINUOUS
 62
    7
 10
699.7382774159903
 20
358.18234906987954
 11
700.23454387687514
 21
357.3405734167203
  0
LINE
  8
_1-1_
  6
CONTINUOUS
 62
    7
 10
700.23454387687514
 20
357.3405734167203
 11
701.04488327433455
 21
356.55075311309815
  0
LINE
  8
_1-1_
  6
CONTINUOUS
 62
    7
 10
701.04488327433455
 20
356.55075311309815
 11
702.14467385582816
 21
355.83688644927037
  0
LINE
  8
_1-1_
  6
CONTINUOUS
 62
    7
 10
702.14467385582816
 20
355.83688644927037
 11
703.50049904105822
 21
355.22066390258334
  0
LINE
  8
_1-1_
  6
CONTINUOUS
 62
    7
 10
703.50049904105822
 20
355.22066390258334
 11
705.071162767852
 21
354.72080908329445
  0
LINE
  8
_1-1_
  6
CONTINUOUS
 62
    7
 10
705.071162767852
 20
354.72080908329445
 11
706.80894121366532
 21
354.35250982714916
  0
LINE
  8
_1-1_
  6
CONTINUOUS
 62
    7
 10
706.80894121366532
 20
354.35250982714916
 11
708.66103285978022
 21
354.12695672067696
  0
LINE
  8
_1-1_
  6
CONTINUOUS
 62
    7
 10
708.66103285978022
 20
354.12695672067696
 11
710.57116283873324
 21
354.05100308088265
  0
LINE
  8
_1-1_
  6
CONTINUOUS
 62
    7
 10
710.57116283873324
 20
354.05100308088265
 11
712.48129281768627
 21
354.12695672067696
  0
LINE
  8
_1-1_
  6
CONTINUOUS
 62
    7
 10
712.48129281768627
 20
354.12695672067696
 11
714.33338446380117
 21
354.35250982714916
  0
LINE
  8
_1-1_
  6
CONTINUOUS
 62
    7
 10
714.33338446380117
 20
354.35250982714916
 11
716.07116290961437
 21
354.72080908329445
  0
LINE
  8
_1-1_
  6
CONTINUOUS
 62
    7
 10
716.07116290961437
 20
354.72080908329445
 11
717.64182663640827
 21
355.22066390258328
  0
LINE
  8
_1-1_
  6
CONTINUOUS
 62
    7
 10
717.64182663640827
 20
355.22066390258328
 11
718.99765182163833
 21
355.83688644927031
  0
LINE
  8
_1-1_
  6
CONTINUOUS
 62
    7
 10
718.99765182163833
 20
355.83688644927031
 11
720.09744240313194
 21
356.55075311309815
  0
LINE
  8
_1-1_
  6
CONTINUOUS
 62
    7
 10
720.09744240313194
 20
356.55075311309815
 11
720.90778180059135
 21
357.34057341672025
  0
LINE
  8
_1-1_
  6
CONTINUOUS
 62
    7
 10
720.90778180059135
 20
357.34057341672025
 11
721.40404826147619
 21
358.18234906987948
  0
LINE
  8
_1-1_
  6
CONTINUOUS
 62
    7
 10
721.40404826147619
 20
358.18234906987948
 11
721.57116298049561
 21
359.05050314531366
  0
LINE
  8
_1-1_
  6
CONTINUOUS
 62
    7
 10
721.57116298049561
 20
359.05050314531366
 11
721.57116298049561
 21
359.05050314531366
  0
LINE
  8
_1-1_
  6
CONTINUOUS
 62
    7
 10
699.78227586819844
 20
359.05050314531366
 11
699.78227586819844
 21
359.05050314531366
  0
LINE
  8
_1-1_
  6
CONTINUOUS
 62
    7
 10
699.78227586819844
 20
359.05050314531366
 11
699.61516114917902
 21
359.91865722074778
  0
LINE
  8
_1-1_
  6
CONTINUOUS
 62
    7
 10
699.61516114917902
 20
359.91865722074778
 11
699.11889468829418
 21
360.76043287390706
  0
LINE
  8
_1-1_
  6
CONTINUOUS
 62
    7
 10
699.11889468829418
 20
360.76043287390706
 11
698.30855529083476
 21
361.55025317752916
  0
LINE
  8
_1-1_
  6
CONTINUOUS
 62
    7
 10
698.30855529083476
 20
361.55025317752916
 11
697.20876470934115
 21
362.26411984135694
  0
LINE
  8
_1-1_
  6
CONTINUOUS
 62
    7
 10
697.20876470934115
 20
362.26411984135694
 11
695.85293952411109
 21
362.88034238804403
  0
LINE
  8
_1-1_
  6
CONTINUOUS
 62
    7
 10
695.85293952411109
 20
362.88034238804403
 11
694.28227579731731
 21
363.38019720733286
  0
LINE
  8
_1-1_
  6
CONTINUOUS
 62
    7
 10
694.28227579731731
 20
363.38019720733286
 11
692.54449735150399
 21
363.74849646347815
  0
LINE
  8
_1-1_
  6
CONTINUOUS
 62
    7
 10
692.54449735150399
 20
363.74849646347815
 11
690.69240570538909
 21
363.97404956995035
  0
LINE
  8
_1-1_
  6
CONTINUOUS
 62
    7
 10
690.69240570538909
 20
363.97404956995035
 11
688.78227572643607
 21
364.05000320974466
  0
LINE
  8
_1-1_
  6
CONTINUOUS
 62
    7
 10
688.78227572643607
 20
364.05000320974466
 11
686.87214574748305
 21
363.97404956995035
  0
LINE
  8
_1-1_
  6
CONTINUOUS
 62
    7
 10
686.87214574748305
 20
363.97404956995035
 11
685.02005410136815
 21
363.74849646347815
  0
LINE
  8
_1-1_
  6
CONTINUOUS
 62
    7
 10
685.02005410136815
 20
363.74849646347815
 11
683.28227565555483
 21
363.38019720733286
  0
LINE
  8
_1-1_
  6
CONTINUOUS
 62
    7
 10
683.28227565555483
 20
363.38019720733286
 11
681.71161192876104
 21
362.88034238804403
  0
LINE
  8
_1-1_
  6
CONTINUOUS
 62
    7
 10
681.71161192876104
 20
362.88034238804403
 11
680.35578674353098
 21
362.26411984135694
  0
LINE
  8
_1-1_
  6
CONTINUOUS
 62
    7
 10
680.35578674353098
 20
362.26411984135694
 11
679.25599616203738
 21
361.55025317752916
  0
LINE
  8
_1-1_
  6
CONTINUOUS
 62
    7
 10
679.25599616203738
 20
361.55025317752916
 11
678.44565676457796
 21
360.76043287390706
  0
LINE
  8
_1-1_
  6
CONTINUOUS
 62
    7
 10
678.44565676457796
 20
360.76043287390706
 11
677.94939030369312
 21
359.91865722074783
  0
LINE
  8
_1-1_
  6
CONTINUOUS
 62
    7
 10
677.94939030369312
 20
359.91865722074783
 11
677.7822755846737
 21
359.05050314531366
  0
LINE
  8
_1-1_
  6
CONTINUOUS
 62
    7
 10
677.7822755846737
 20
359.05050314531366
 11
677.94939030369312
 21
358.18234906987954
  0
LINE
  8
_1-1_
  6
CONTINUOUS
 62
    7
 10
677.94939030369312
 20
358.18234906987954
 11
678.44565676457796
 21
357.3405734167203
  0
LINE
  8
_1-1_
  6
CONTINUOUS
 62
    7
 10
678.44565676457796
 20
357.3405734167203
 11
679.25599616203738
 21
356.55075311309815
  0
LINE
  8
_1-1_
  6
CONTINUOUS
 62
    7
 10
679.25599616203738
 20
356.55075311309815
 11
680.35578674353098
 21
355.83688644927037
  0
LINE
  8
_1-1_
  6
CONTINUOUS
 62
    7
 10
680.35578674353098
 20
355.83688644927037
 11
681.71161192876104
 21
355.22066390258334
  0
LINE
  8
_1-1_
  6
CONTINUOUS
 62
    7
 10
681.71161192876104
 20
355.22066390258334
 11
683.28227565555483
 21
354.72080908329445
  0
LINE
  8
_1-1_
  6
CONTINUOUS
 62
    7
 10
683.28227565555483
 20
354.72080908329445
 11
685.02005410136815
 21
354.35250982714916
  0
LINE
  8
_1-1_
  6
CONTINUOUS
 62
    7
 10
685.02005410136815
 20
354.35250982714916
 11
686.87214574748305
 21
354.12695672067696
  0
LINE
  8
_1-1_
  6
CONTINUOUS
 62
    7
 10
686.87214574748305
 20
354.12695672067696
 11
688.78227572643607
 21
354.05100308088265
  0
LINE
  8
_1-1_
  6
CONTINUOUS
 62
    7
 10
688.78227572643607
 20
354.05100308088265
 11
690.69240570538909
 21
354.12695672067696
  0
LINE
  8
_1-1_
  6
CONTINUOUS
 62
    7
 10
690.69240570538909
 20
354.12695672067696
 11
692.54449735150399
 21
354.35250982714916
  0
LINE
  8
_1-1_
  6
CONTINUOUS
 62
    7
 10
692.54449735150399
 20
354.35250982714916
 11
694.2822757973172
 21
354.72080908329445
  0
LINE
  8
_1-1_
  6
CONTINUOUS
 62
    7
 10
694.2822757973172
 20
354.72080908329445
 11
695.85293952411109
 21
355.22066390258328
  0
LINE
  8
_1-1_
  6
CONTINUOUS
 62
    7
 10
695.85293952411109
 20
355.22066390258328
 11
697.20876470934115
 21
355.83688644927031
  0
LINE
  8
_1-1_
  6
CONTINUOUS
 62
    7
 10
697.20876470934115
 20
355.83688644927031
 11
698.30855529083476
 21
356.55075311309815
  0
LINE
  8
_1-1_
  6
CONTINUOUS
 62
    7
 10
698.30855529083476
 20
356.55075311309815
 11
699.11889468829418
 21
357.34057341672025
  0
LINE
  8
_1-1_
  6
CONTINUOUS
 62
    7
 10
699.11889468829418
 20
357.34057341672025
 11
699.61516114917902
 21
358.18234906987948
  0
LINE
  8
_1-1_
  6
CONTINUOUS
 62
    7
 10
699.61516114917902
 20
358.18234906987948
 11
699.78227586819844
 21
359.05050314531366
  0
LINE
  8
_1-1_
  6
CONTINUOUS
 62
    7
 10
699.78227586819844
 20
359.05050314531366
 11
699.78227586819844
 21
359.05050314531366
  0
LINE
  8
_1-1_
  6
CONTINUOUS
 62
    7
 10
680.47672574584544
 20
358.85048450190129
 11
680.47672574584544
 21
358.85048450190129
  0
LINE
  8
_1-1_
  6
CONTINUOUS
 62
    7
 10
680.47672574584544
 20
358.85048450190129
 11
680.30961102682602
 21
359.71863857733541
  0
LINE
  8
_1-1_
  6
CONTINUOUS
 62
    7
 10
680.30961102682602
 20
359.71863857733541
 11
679.81334456594118
 21
360.5604142304947
  0
LINE
  8
_1-1_
  6
CONTINUOUS
 62
    7
 10
679.81334456594118
 20
360.5604142304947
 11
679.00300516848176
 21
361.35023453411679
  0
LINE
  8
_1-1_
  6
CONTINUOUS
 62
    7
 10
679.00300516848176
 20
361.35023453411679
 11
677.90321458698816
 21
362.06410119794458
  0
LINE
  8
_1-1_
  6
CONTINUOUS
 62
    7
 10
677.90321458698816
 20
362.06410119794458
 11
676.5473894017581
 21
362.68032374463166
  0
LINE
  8
_1-1_
  6
CONTINUOUS
 62
    7
 10
676.5473894017581
 20
362.68032374463166
 11
674.97672567496431
 21
363.18017856392049
  0
LINE
  8
_1-1_
  6
CONTINUOUS
 62
    7
 10
674.97672567496431
 20
363.18017856392049
 11
673.23894722915099
 21
363.54847782006578
  0
LINE
  8
_1-1_
  6
CONTINUOUS
 62
    7
 10
673.23894722915099
 20
363.54847782006578
 11
671.38685558303609
 21
363.77403092653799
  0
LINE
  8
_1-1_
  6
CONTINUOUS
 62
    7
 10
671.38685558303609
 20
363.77403092653799
 11
669.47672560408307
 21
363.8499845663323
  0
LINE
  8
_1-1_
  6
CONTINUOUS
 62
    7
 10
669.47672560408307
 20
363.8499845663323
 11
667.56659562513005
 21
363.77403092653799
  0
LINE
  8
_1-1_
  6
CONTINUOUS
 62
    7
 10
667.56659562513005
 20
363.77403092653799
 11
665.71450397901515
 21
363.54847782006578
  0
LINE
  8
_1-1_
  6
CONTINUOUS
 62
    7
 10
665.71450397901515
 20
363.54847782006578
 11
663.97672553320183
 21
363.18017856392049
  0
LINE
  8
_1-1_
  6
CONTINUOUS
 62
    7
 10
663.97672553320183
 20
363.18017856392049
 11
662.40606180640805
 21
362.68032374463166
  0
LINE
  8
_1-1_
  6
CONTINUOUS
 62
    7
 10
662.40606180640805
 20
362.68032374463166
 11
661.05023662117799
 21
362.06410119794458
  0
LINE
  8
_1-1_
  6
CONTINUOUS
 62
    7
 10
661.05023662117799
 20
362.06410119794458
 11
659.95044603968438
 21
361.35023453411679
  0
LINE
  8
_1-1_
  6
CONTINUOUS
 62
    7
 10
659.95044603968438
 20
361.35023453411679
 11
659.14010664222496
 21
360.5604142304947
  0
LINE
  8
_1-1_
  6
CONTINUOUS
 62
    7
 10
659.14010664222496
 20
360.5604142304947
 11
658.64384018134012
 21
359.71863857733547
  0
LINE
  8
_1-1_
  6
CONTINUOUS
 62
    7
 10
658.64384018134012
 20
359.71863857733547
 11
658.4767254623207
 21
358.85048450190129
  0
LINE
  8
_1-1_
  6
CONTINUOUS
 62
    7
 10
658.4767254623207
 20
358.85048450190129
 11
658.64384018134012
 21
357.98233042646717
  0
LINE
  8
_1-1_
  6
CONTINUOUS
 62
    7
 10
658.64384018134012
 20
357.98233042646717
 11
659.14010664222496
 21
357.14055477330794
  0
LINE
  8
_1-1_
  6
CONTINUOUS
 62
    7
 10
659.14010664222496
 20
357.14055477330794
 11
659.95044603968438
 21
356.35073446968579
  0
LINE
  8
_1-1_
  6
CONTINUOUS
 62
    7
 10
659.95044603968438
 20
356.35073446968579
 11
661.05023662117799
 21
355.636867805858
  0
LINE
  8
_1-1_
  6
CONTINUOUS
 62
    7
 10
661.05023662117799
 20
355.636867805858
 11
662.40606180640805
 21
355.02064525917098
  0
LINE
  8
_1-1_
  6
CONTINUOUS
 62
    7
 10
662.40606180640805
 20
355.02064525917098
 11
663.97672553320183
 21
354.52079043988209
  0
LINE
  8
_1-1_
  6
CONTINUOUS
 62
    7
 10
663.97672553320183
 20
354.52079043988209
 11
665.71450397901515
 21
354.1524911837368
  0
LINE
  8
_1-1_
  6
CONTINUOUS
 62
    7
 10
665.71450397901515
 20
354.1524911837368
 11
667.56659562513005
 21
353.92693807726459
  0
LINE
  8
_1-1_
  6
CONTINUOUS
 62
    7
 10
667.56659562513005
 20
353.92693807726459
 11
669.47672560408307
 21
353.85098443747029
  0
LINE
  8
_1-1_
  6
CONTINUOUS
 62
    7
 10
669.47672560408307
 20
353.85098443747029
 11
671.38685558303609
 21
353.92693807726459
  0
LINE
  8
_1-1_
  6
CONTINUOUS
 62
    7
 10
671.38685558303609
 20
353.92693807726459
 11
673.23894722915099
 21
354.1524911837368
  0
LINE
  8
_1-1_
  6
CONTINUOUS
 62
    7
 10
673.23894722915099
 20
354.1524911837368
 11
674.9767256749642
 21
354.52079043988209
  0
LINE
  8
_1-1_
  6
CONTINUOUS
 62
    7
 10
674.9767256749642
 20
354.52079043988209
 11
676.5473894017581
 21
355.02064525917092
  0
LINE
  8
_1-1_
  6
CONTINUOUS
 62
    7
 10
676.5473894017581
 20
355.02064525917092
 11
677.90321458698816
 21
355.63686780585795
  0
LINE
  8
_1-1_
  6
CONTINUOUS
 62
    7
 10
677.90321458698816
 20
355.63686780585795
 11
679.00300516848176
 21
356.35073446968579
  0
LINE
  8
_1-1_
  6
CONTINUOUS
 62
    7
 10
679.00300516848176
 20
356.35073446968579
 11
679.81334456594118
 21
357.14055477330788
  0
LINE
  8
_1-1_
  6
CONTINUOUS
 62
    7
 10
679.81334456594118
 20
357.14055477330788
 11
680.30961102682602
 21
357.98233042646712
  0
LINE
  8
_1-1_
  6
CONTINUOUS
 62
    7
 10
680.30961102682602
 20
357.98233042646712
 11
680.47672574584544
 21
358.85048450190129
  0
LINE
  8
_1-1_
  6
CONTINUOUS
 62
    7
 10
680.47672574584544
 20
358.85048450190129
 11
680.47672574584544
 21
358.85048450190129
  0
LINE
  8
_1-1_
  6
CONTINUOUS
 62
    7
 10
1498.2171122079651
 20
375.50881139099829
 11
1498.2171122079651
 21
375.50881139099829
  0
LINE
  8
_1-1_
  6
CONTINUOUS
 62
    7
 10
1498.2171122079651
 20
375.50881139099829
 11
1498.0499974889456
 21
376.37696546643241
  0
LINE
  8
_1-1_
  6
CONTINUOUS
 62
    7
 10
1498.0499974889456
 20
376.37696546643241
 11
1497.5537310280606
 21
377.2187411195917
  0
LINE
  8
_1-1_
  6
CONTINUOUS
 62
    7
 10
1497.5537310280606
 20
377.2187411195917
 11
1496.7433916306013
 21
378.00856142321379
  0
LINE
  8
_1-1_
  6
CONTINUOUS
 62
    7
 10
1496.7433916306013
 20
378.00856142321379
 11
1495.6436010491077
 21
378.72242808704158
  0
LINE
  8
_1-1_
  6
CONTINUOUS
 62
    7
 10
1495.6436010491077
 20
378.72242808704158
 11
1494.2877758638776
 21
379.33865063372866
  0
LINE
  8
_1-1_
  6
CONTINUOUS
 62
    7
 10
1494.2877758638776
 20
379.33865063372866
 11
1492.7171121370839
 21
379.83850545301749
  0
LINE
  8
_1-1_
  6
CONTINUOUS
 62
    7
 10
1492.7171121370839
 20
379.83850545301749
 11
1490.9793336912705
 21
380.20680470916278
  0
LINE
  8
_1-1_
  6
CONTINUOUS
 62
    7
 10
1490.9793336912705
 20
380.20680470916278
 11
1489.1272420451555
 21
380.43235781563499
  0
LINE
  8
_1-1_
  6
CONTINUOUS
 62
    7
 10
1489.1272420451555
 20
380.43235781563499
 11
1487.2171120662026
 21
380.50831145542929
  0
LINE
  8
_1-1_
  6
CONTINUOUS
 62
    7
 10
1487.2171120662026
 20
380.50831145542929
 11
1485.3069820872497
 21
380.43235781563499
  0
LINE
  8
_1-1_
  6
CONTINUOUS
 62
    7
 10
1485.3069820872497
 20
380.43235781563499
 11
1483.4548904411347
 21
380.20680470916278
  0
LINE
  8
_1-1_
  6
CONTINUOUS
 62
    7
 10
1483.4548904411347
 20
380.20680470916278
 11
1481.7171119953214
 21
379.83850545301749
  0
LINE
  8
_1-1_
  6
CONTINUOUS
 62
    7
 10
1481.7171119953214
 20
379.83850545301749
 11
1480.1464482685276
 21
379.33865063372866
  0
LINE
  8
_1-1_
  6
CONTINUOUS
 62
    7
 10
1480.1464482685276
 20
379.33865063372866
 11
1478.7906230832975
 21
378.72242808704158
  0
LINE
  8
_1-1_
  6
CONTINUOUS
 62
    7
 10
1478.7906230832975
 20
378.72242808704158
 11
1477.6908325018039
 21
378.00856142321379
  0
LINE
  8
_1-1_
  6
CONTINUOUS
 62
    7
 10
1477.6908325018039
 20
378.00856142321379
 11
1476.8804931043446
 21
377.2187411195917
  0
LINE
  8
_1-1_
  6
CONTINUOUS
 62
    7
 10
1476.8804931043446
 20
377.2187411195917
 11
1476.3842266434597
 21
376.37696546643247
  0
LINE
  8
_1-1_
  6
CONTINUOUS
 62
    7
 10
1476.3842266434597
 20
376.37696546643247
 11
1476.2171119244401
 21
375.50881139099829
  0
LINE
  8
_1-1_
  6
CONTINUOUS
 62
    7
 10
1476.2171119244401
 20
375.50881139099829
 11
1476.3842266434597
 21
374.64065731556417
  0
LINE
  8
_1-1_
  6
CONTINUOUS
 62
    7
 10
1476.3842266434597
 20
374.64065731556417
 11
1476.8804931043446
 21
373.79888166240494
  0
LINE
  8
_1-1_
  6
CONTINUOUS
 62
    7
 10
1476.8804931043446
 20
373.79888166240494
 11
1477.6908325018039
 21
373.00906135878279
  0
LINE
  8
_1-1_
  6
CONTINUOUS
 62
    7
 10
1477.6908325018039
 20
373.00906135878279
 11
1478.7906230832975
 21
372.295194694955
  0
LINE
  8
_1-1_
  6
CONTINUOUS
 62
    7
 10
1478.7906230832975
 20
372.295194694955
 11
1480.1464482685276
 21
371.67897214826797
  0
LINE
  8
_1-1_
  6
CONTINUOUS
 62
    7
 10
1480.1464482685276
 20
371.67897214826797
 11
1481.7171119953214
 21
371.17911732897909
  0
LINE
  8
_1-1_
  6
CONTINUOUS
 62
    7
 10
1481.7171119953214
 20
371.17911732897909
 11
1483.4548904411347
 21
370.8108180728338
  0
LINE
  8
_1-1_
  6
CONTINUOUS
 62
    7
 10
1483.4548904411347
 20
370.8108180728338
 11
1485.3069820872495
 21
370.58526496636159
  0
LINE
  8
_1-1_
  6
CONTINUOUS
 62
    7
 10
1485.3069820872495
 20
370.58526496636159
 11
1487.2171120662026
 21
370.50931132656729
  0
LINE
  8
_1-1_
  6
CONTINUOUS
 62
    7
 10
1487.2171120662026
 20
370.50931132656729
 11
1489.1272420451555
 21
370.58526496636159
  0
LINE
  8
_1-1_
  6
CONTINUOUS
 62
    7
 10
1489.1272420451555
 20
370.58526496636159
 11
1490.9793336912705
 21
370.8108180728338
  0
LINE
  8
_1-1_
  6
CONTINUOUS
 62
    7
 10
1490.9793336912705
 20
370.8108180728338
 11
1492.7171121370839
 21
371.17911732897909
  0
LINE
  8
_1-1_
  6
CONTINUOUS
 62
    7
 10
1492.7171121370839
 20
371.17911732897909
 11
1494.2877758638776
 21
371.67897214826792
  0
LINE
  8
_1-1_
  6
CONTINUOUS
 62
    7
 10
1494.2877758638776
 20
371.67897214826792
 11
1495.6436010491077
 21
372.29519469495494
  0
LINE
  8
_1-1_
  6
CONTINUOUS
 62
    7
 10
1495.6436010491077
 20
372.29519469495494
 11
1496.7433916306013
 21
373.00906135878279
  0
LINE
  8
_1-1_
  6
CONTINUOUS
 62
    7
 10
1496.7433916306013
 20
373.00906135878279
 11
1497.5537310280606
 21
373.79888166240488
  0
LINE
  8
_1-1_
  6
CONTINUOUS
 62
    7
 10
1497.5537310280606
 20
373.79888166240488
 11
1498.0499974889456
 21
374.64065731556411
  0
LINE
  8
_1-1_
  6
CONTINUOUS
 62
    7
 10
1498.0499974889456
 20
374.64065731556411
 11
1498.2171122079651
 21
375.50881139099829
  0
LINE
  8
_1-1_
  6
CONTINUOUS
 62
    7
 10
1498.2171122079651
 20
375.50881139099829
 11
1498.2171122079651
 21
375.50881139099829
  0
LINE
  8
_1-1_
  6
CONTINUOUS
 62
    7
 10
1477.4171855090667
 20
375.4038699529346
 11
1477.4171855090667
 21
375.4038699529346
  0
LINE
  8
_1-1_
  6
CONTINUOUS
 62
    7
 10
1477.4171855090667
 20
375.4038699529346
 11
1477.2500707900472
 21
376.27202402836872
  0
LINE
  8
_1-1_
  6
CONTINUOUS
 62
    7
 10
1477.2500707900472
 20
376.27202402836872
 11
1476.7538043291622
 21
377.11379968152801
  0
LINE
  8
_1-1_
  6
CONTINUOUS
 62
    7
 10
1476.7538043291622
 20
377.11379968152801
 11
1475.9434649317029
 21
377.9036199851501
  0
LINE
  8
_1-1_
  6
CONTINUOUS
 62
    7
 10
1475.9434649317029
 20
377.9036199851501
 11
1474.8436743502093
 21
378.61748664897789
  0
LINE
  8
_1-1_
  6
CONTINUOUS
 62
    7
 10
1474.8436743502093
 20
378.61748664897789
 11
1473.4878491649793
 21
379.23370919566497
  0
LINE
  8
_1-1_
  6
CONTINUOUS
 62
    7
 10
1473.4878491649793
 20
379.23370919566497
 11
1471.9171854381855
 21
379.7335640149538
  0
LINE
  8
_1-1_
  6
CONTINUOUS
 62
    7
 10
1471.9171854381855
 20
379.7335640149538
 11
1470.1794069923722
 21
380.10186327109909
  0
LINE
  8
_1-1_
  6
CONTINUOUS
 62
    7
 10
1470.1794069923722
 20
380.10186327109909
 11
1468.3273153462571
 21
380.3274163775713
  0
LINE
  8
_1-1_
  6
CONTINUOUS
 62
    7
 10
1468.3273153462571
 20
380.3274163775713
 11
1466.4171853673042
 21
380.4033700173656
  0
LINE
  8
_1-1_
  6
CONTINUOUS
 62
    7
 10
1466.4171853673042
 20
380.4033700173656
 11
1464.5070553883513
 21
380.3274163775713
  0
LINE
  8
_1-1_
  6
CONTINUOUS
 62
    7
 10
1464.5070553883513
 20
380.3274163775713
 11
1462.6549637422363
 21
380.10186327109909
  0
LINE
  8
_1-1_
  6
CONTINUOUS
 62
    7
 10
1462.6549637422363
 20
380.10186327109909
 11
1460.917185296423
 21
379.7335640149538
  0
LINE
  8
_1-1_
  6
CONTINUOUS
 62
    7
 10
1460.917185296423
 20
379.7335640149538
 11
1459.3465215696292
 21
379.23370919566497
  0
LINE
  8
_1-1_
  6
CONTINUOUS
 62
    7
 10
1459.3465215696292
 20
379.23370919566497
 11
1457.9906963843991
 21
378.61748664897789
  0
LINE
  8
_1-1_
  6
CONTINUOUS
 62
    7
 10
1457.9906963843991
 20
378.61748664897789
 11
1456.8909058029055
 21
377.9036199851501
  0
LINE
  8
_1-1_
  6
CONTINUOUS
 62
    7
 10
1456.8909058029055
 20
377.9036199851501
 11
1456.0805664054462
 21
377.11379968152801
  0
LINE
  8
_1-1_
  6
CONTINUOUS
 62
    7
 10
1456.0805664054462
 20
377.11379968152801
 11
1455.5842999445613
 21
376.27202402836878
  0
LINE
  8
_1-1_
  6
CONTINUOUS
 62
    7
 10
1455.5842999445613
 20
376.27202402836878
 11
1455.4171852255417
 21
375.4038699529346
  0
LINE
  8
_1-1_
  6
CONTINUOUS
 62
    7
 10
1455.4171852255417
 20
375.4038699529346
 11
1455.5842999445613
 21
374.53571587750048
  0
LINE
  8
_1-1_
  6
CONTINUOUS
 62
    7
 10
1455.5842999445613
 20
374.53571587750048
 11
1456.0805664054462
 21
373.69394022434125
  0
LINE
  8
_1-1_
  6
CONTINUOUS
 62
    7
 10
1456.0805664054462
 20
373.69394022434125
 11
1456.8909058029055
 21
372.9041199207191
  0
LINE
  8
_1-1_
  6
CONTINUOUS
 62
    7
 10
1456.8909058029055
 20
372.9041199207191
 11
1457.9906963843991
 21
372.19025325689131
  0
LINE
  8
_1-1_
  6
CONTINUOUS
 62
    7
 10
1457.9906963843991
 20
372.19025325689131
 11
1459.3465215696292
 21
371.57403071020428
  0
LINE
  8
_1-1_
  6
CONTINUOUS
 62
    7
 10
1459.3465215696292
 20
371.57403071020428
 11
1460.917185296423
 21
371.0741758909154
  0
LINE
  8
_1-1_
  6
CONTINUOUS
 62
    7
 10
1460.917185296423
 20
371.0741758909154
 11
1462.6549637422363
 21
370.70587663477011
  0
LINE
  8
_1-1_
  6
CONTINUOUS
 62
    7
 10
1462.6549637422363
 20
370.70587663477011
 11
1464.5070553883511
 21
370.4803235282979
  0
LINE
  8
_1-1_
  6
CONTINUOUS
 62
    7
 10
1464.5070553883511
 20
370.4803235282979
 11
1466.4171853673042
 21
370.4043698885036
  0
LINE
  8
_1-1_
  6
CONTINUOUS
 62
    7
 10
1466.4171853673042
 20
370.4043698885036
 11
1468.3273153462571
 21
370.4803235282979
  0
LINE
  8
_1-1_
  6
CONTINUOUS
 62
    7
 10
1468.3273153462571
 20
370.4803235282979
 11
1470.1794069923722
 21
370.70587663477011
  0
LINE
  8
_1-1_
  6
CONTINUOUS
 62
    7
 10
1470.1794069923722
 20
370.70587663477011
 11
1471.9171854381855
 21
371.0741758909154
  0
LINE
  8
_1-1_
  6
CONTINUOUS
 62
    7
 10
1471.9171854381855
 20
371.0741758909154
 11
1473.4878491649793
 21
371.57403071020423
  0
LINE
  8
_1-1_
  6
CONTINUOUS
 62
    7
 10
1473.4878491649793
 20
371.57403071020423
 11
1474.8436743502093
 21
372.19025325689125
  0
LINE
  8
_1-1_
  6
CONTINUOUS
 62
    7
 10
1474.8436743502093
 20
372.19025325689125
 11
1475.9434649317029
 21
372.9041199207191
  0
LINE
  8
_1-1_
  6
CONTINUOUS
 62
    7
 10
1475.9434649317029
 20
372.9041199207191
 11
1476.7538043291622
 21
373.69394022434119
  0
LINE
  8
_1-1_
  6
CONTINUOUS
 62
    7
 10
1476.7538043291622
 20
373.69394022434119
 11
1477.2500707900472
 21
374.53571587750042
  0
LINE
  8
_1-1_
  6
CONTINUOUS
 62
    7
 10
1477.2500707900472
 20
374.53571587750042
 11
1477.4171855090667
 21
375.4038699529346
  0
LINE
  8
_1-1_
  6
CONTINUOUS
 62
    7
 10
1477.4171855090667
 20
375.4038699529346
 11
1477.4171855090667
 21
375.4038699529346
  0
LINE
  8
_1-1_
  6
CONTINUOUS
 62
    7
 10
1518.2171393085173
 20
375.52762123608687
 11
1518.2171393085173
 21
375.52762123608687
  0
LINE
  8
_1-1_
  6
CONTINUOUS
 62
    7
 10
1518.2171393085173
 20
375.52762123608687
 11
1518.0500245894978
 21
376.39577531152099
  0
LINE
  8
_1-1_
  6
CONTINUOUS
 62
    7
 10
1518.0500245894978
 20
376.39577531152099
 11
1517.5537581286128
 21
377.23755096468028
  0
LINE
  8
_1-1_
  6
CONTINUOUS
 62
    7
 10
1517.5537581286128
 20
377.23755096468028
 11
1516.7434187311535
 21
378.02737126830237
  0
LINE
  8
_1-1_
  6
CONTINUOUS
 62
    7
 10
1516.7434187311535
 20
378.02737126830237
 11
1515.6436281496599
 21
378.74123793213016
  0
LINE
  8
_1-1_
  6
CONTINUOUS
 62
    7
 10
1515.6436281496599
 20
378.74123793213016
 11
1514.2878029644298
 21
379.35746047881725
  0
LINE
  8
_1-1_
  6
CONTINUOUS
 62
    7
 10
1514.2878029644298
 20
379.35746047881725
 11
1512.717139237636
 21
379.85731529810607
  0
LINE
  8
_1-1_
  6
CONTINUOUS
 62
    7
 10
1512.717139237636
 20
379.85731529810607
 11
1510.9793607918227
 21
380.22561455425137
  0
LINE
  8
_1-1_
  6
CONTINUOUS
 62
    7
 10
1510.9793607918227
 20
380.22561455425137
 11
1509.1272691457077
 21
380.45116766072357
  0
LINE
  8
_1-1_
  6
CONTINUOUS
 62
    7
 10
1509.1272691457077
 20
380.45116766072357
 11
1507.2171391667548
 21
380.52712130051788
  0
LINE
  8
_1-1_
  6
CONTINUOUS
 62
    7
 10
1507.2171391667548
 20
380.52712130051788
 11
1505.3070091878019
 21
380.45116766072357
  0
LINE
  8
_1-1_
  6
CONTINUOUS
 62
    7
 10
1505.3070091878019
 20
380.45116766072357
 11
1503.4549175416869
 21
380.22561455425137
  0
LINE
  8
_1-1_
  6
CONTINUOUS
 62
    7
 10
1503.4549175416869
 20
380.22561455425137
 11
1501.7171390958736
 21
379.85731529810607
  0
LINE
  8
_1-1_
  6
CONTINUOUS
 62
    7
 10
1501.7171390958736
 20
379.85731529810607
 11
1500.1464753690798
 21
379.35746047881725
  0
LINE
  8
_1-1_
  6
CONTINUOUS
 62
    7
 10
1500.1464753690798
 20
379.35746047881725
 11
1498.7906501838497
 21
378.74123793213016
  0
LINE
  8
_1-1_
  6
CONTINUOUS
 62
    7
 10
1498.7906501838497
 20
378.74123793213016
 11
1497.6908596023561
 21
378.02737126830237
  0
LINE
  8
_1-1_
  6
CONTINUOUS
 62
    7
 10
1497.6908596023561
 20
378.02737126830237
 11
1496.8805202048968
 21
377.23755096468028
  0
LINE
  8
_1-1_
  6
CONTINUOUS
 62
    7
 10
1496.8805202048968
 20
377.23755096468028
 11
1496.3842537440119
 21
376.39577531152105
  0
LINE
  8
_1-1_
  6
CONTINUOUS
 62
    7
 10
1496.3842537440119
 20
376.39577531152105
 11
1496.2171390249923
 21
375.52762123608687
  0
LINE
  8
_1-1_
  6
CONTINUOUS
 62
    7
 10
1496.2171390249923
 20
375.52762123608687
 11
1496.3842537440119
 21
374.65946716065275
  0
LINE
  8
_1-1_
  6
CONTINUOUS
 62
    7
 10
1496.3842537440119
 20
374.65946716065275
 11
1496.8805202048968
 21
373.81769150749352
  0
LINE
  8
_1-1_
  6
CONTINUOUS
 62
    7
 10
1496.8805202048968
 20
373.81769150749352
 11
1497.6908596023561
 21
373.02787120387137
  0
LINE
  8
_1-1_
  6
CONTINUOUS
 62
    7
 10
1497.6908596023561
 20
373.02787120387137
 11
1498.7906501838497
 21
372.31400454004358
  0
LINE
  8
_1-1_
  6
CONTINUOUS
 62
    7
 10
1498.7906501838497
 20
372.31400454004358
 11
1500.1464753690798
 21
371.69778199335656
  0
LINE
  8
_1-1_
  6
CONTINUOUS
 62
    7
 10
1500.1464753690798
 20
371.69778199335656
 11
1501.7171390958736
 21
371.19792717406767
  0
LINE
  8
_1-1_
  6
CONTINUOUS
 62
    7
 10
1501.7171390958736
 20
371.19792717406767
 11
1503.4549175416869
 21
370.82962791792238
  0
LINE
  8
_1-1_
  6
CONTINUOUS
 62
    7
 10
1503.4549175416869
 20
370.82962791792238
 11
1505.3070091878017
 21
370.60407481145018
  0
LINE
  8
_1-1_
  6
CONTINUOUS
 62
    7
 10
1505.3070091878017
 20
370.60407481145018
 11
1507.2171391667548
 21
370.52812117165587
  0
LINE
  8
_1-1_
  6
CONTINUOUS
 62
    7
 10
1507.2171391667548
 20
370.52812117165587
 11
1509.1272691457077
 21
370.60407481145018
  0
LINE
  8
_1-1_
  6
CONTINUOUS
 62
    7
 10
1509.1272691457077
 20
370.60407481145018
 11
1510.9793607918227
 21
370.82962791792238
  0
LINE
  8
_1-1_
  6
CONTINUOUS
 62
    7
 10
1510.9793607918227
 20
370.82962791792238
 11
1512.717139237636
 21
371.19792717406767
  0
LINE
  8
_1-1_
  6
CONTINUOUS
 62
    7
 10
1512.717139237636
 20
371.19792717406767
 11
1514.2878029644298
 21
371.6977819933565
  0
LINE
  8
_1-1_
  6
CONTINUOUS
 62
    7
 10
1514.2878029644298
 20
371.6977819933565
 11
1515.6436281496599
 21
372.31400454004353
  0
LINE
  8
_1-1_
  6
CONTINUOUS
 62
    7
 10
1515.6436281496599
 20
372.31400454004353
 11
1516.7434187311535
 21
373.02787120387137
  0
LINE
  8
_1-1_
  6
CONTINUOUS
 62
    7
 10
1516.7434187311535
 20
373.02787120387137
 11
1517.5537581286128
 21
373.81769150749346
  0
LINE
  8
_1-1_
  6
CONTINUOUS
 62
    7
 10
1517.5537581286128
 20
373.81769150749346
 11
1518.0500245894978
 21
374.6594671606527
  0
LINE
  8
_1-1_
  6
CONTINUOUS
 62
    7
 10
1518.0500245894978
 20
374.6594671606527
 11
1518.2171393085173
 21
375.52762123608687
  0
LINE
  8
_1-1_
  6
CONTINUOUS
 62
    7
 10
1518.2171393085173
 20
375.52762123608687
 11
1518.2171393085173
 21
375.52762123608687
  0
LINE
  8
_1-1_
  6
CONTINUOUS
 62
    7
 10
1529.4171334877897
 20
367.50880929954263
 11
1529.4171334877897
 21
367.50880929954263
  0
LINE
  8
_1-1_
  6
CONTINUOUS
 62
    7
 10
1529.4171334877897
 20
367.50880929954263
 11
1529.2500187687701
 21
368.37696337497675
  0
LINE
  8
_1-1_
  6
CONTINUOUS
 62
    7
 10
1529.2500187687701
 20
368.37696337497675
 11
1528.7537523078852
 21
369.21873902813604
  0
LINE
  8
_1-1_
  6
CONTINUOUS
 62
    7
 10
1528.7537523078852
 20
369.21873902813604
 11
1527.9434129104259
 21
370.00855933175814
  0
LINE
  8
_1-1_
  6
CONTINUOUS
 62
    7
 10
1527.9434129104259
 20
370.00855933175814
 11
1526.8436223289323
 21
370.72242599558592
  0
LINE
  8
_1-1_
  6
CONTINUOUS
 62
    7
 10
1526.8436223289323
 20
370.72242599558592
 11
1525.4877971437022
 21
371.33864854227301
  0
LINE
  8
_1-1_
  6
CONTINUOUS
 62
    7
 10
1525.4877971437022
 20
371.33864854227301
 11
1523.9171334169084
 21
371.83850336156183
  0
LINE
  8
_1-1_
  6
CONTINUOUS
 62
    7
 10
1523.9171334169084
 20
371.83850336156183
 11
1522.1793549710951
 21
372.20680261770713
  0
LINE
  8
_1-1_
  6
CONTINUOUS
 62
    7
 10
1522.1793549710951
 20
372.20680261770713
 11
1520.3272633249801
 21
372.43235572417933
  0
LINE
  8
_1-1_
  6
CONTINUOUS
 62
    7
 10
1520.3272633249801
 20
372.43235572417933
 11
1518.4171333460272
 21
372.50830936397364
  0
LINE
  8
_1-1_
  6
CONTINUOUS
 62
    7
 10
1518.4171333460272
 20
372.50830936397364
 11
1516.5070033670743
 21
372.43235572417933
  0
LINE
  8
_1-1_
  6
CONTINUOUS
 62
    7
 10
1516.5070033670743
 20
372.43235572417933
 11
1514.6549117209593
 21
372.20680261770713
  0
LINE
  8
_1-1_
  6
CONTINUOUS
 62
    7
 10
1514.6549117209593
 20
372.20680261770713
 11
1512.9171332751459
 21
371.83850336156183
  0
LINE
  8
_1-1_
  6
CONTINUOUS
 62
    7
 10
1512.9171332751459
 20
371.83850336156183
 11
1511.3464695483522
 21
371.33864854227301
  0
LINE
  8
_1-1_
  6
CONTINUOUS
 62
    7
 10
1511.3464695483522
 20
371.33864854227301
 11
1509.9906443631221
 21
370.72242599558592
  0
LINE
  8
_1-1_
  6
CONTINUOUS
 62
    7
 10
1509.9906443631221
 20
370.72242599558592
 11
1508.8908537816285
 21
370.00855933175814
  0
LINE
  8
_1-1_
  6
CONTINUOUS
 62
    7
 10
1508.8908537816285
 20
370.00855933175814
 11
1508.0805143841692
 21
369.21873902813604
  0
LINE
  8
_1-1_
  6
CONTINUOUS
 62
    7
 10
1508.0805143841692
 20
369.21873902813604
 11
1507.5842479232842
 21
368.37696337497681
  0
LINE
  8
_1-1_
  6
CONTINUOUS
 62
    7
 10
1507.5842479232842
 20
368.37696337497681
 11
1507.4171332042647
 21
367.50880929954263
  0
LINE
  8
_1-1_
  6
CONTINUOUS
 62
    7
 10
1507.4171332042647
 20
367.50880929954263
 11
1507.5842479232842
 21
366.64065522410851
  0
LINE
  8
_1-1_
  6
CONTINUOUS
 62
    7
 10
1507.5842479232842
 20
366.64065522410851
 11
1508.0805143841692
 21
365.79887957094928
  0
LINE
  8
_1-1_
  6
CONTINUOUS
 62
    7
 10
1508.0805143841692
 20
365.79887957094928
 11
1508.8908537816285
 21
365.00905926732713
  0
LINE
  8
_1-1_
  6
CONTINUOUS
 62
    7
 10
1508.8908537816285
 20
365.00905926732713
 11
1509.9906443631221
 21
364.29519260349934
  0
LINE
  8
_1-1_
  6
CONTINUOUS
 62
    7
 10
1509.9906443631221
 20
364.29519260349934
 11
1511.3464695483522
 21
363.67897005681232
  0
LINE
  8
_1-1_
  6
CONTINUOUS
 62
    7
 10
1511.3464695483522
 20
363.67897005681232
 11
1512.9171332751459
 21
363.17911523752343
  0
LINE
  8
_1-1_
  6
CONTINUOUS
 62
    7
 10
1512.9171332751459
 20
363.17911523752343
 11
1514.6549117209593
 21
362.81081598137814
  0
LINE
  8
_1-1_
  6
CONTINUOUS
 62
    7
 10
1514.6549117209593
 20
362.81081598137814
 11
1516.507003367074
 21
362.58526287490594
  0
LINE
  8
_1-1_
  6
CONTINUOUS
 62
    7
 10
1516.507003367074
 20
362.58526287490594
 11
1518.4171333460272
 21
362.50930923511163
  0
LINE
  8
_1-1_
  6
CONTINUOUS
 62
    7
 10
1518.4171333460272
 20
362.50930923511163
 11
1520.3272633249801
 21
362.58526287490594
  0
LINE
  8
_1-1_
  6
CONTINUOUS
 62
    7
 10
1520.3272633249801
 20
362.58526287490594
 11
1522.1793549710951
 21
362.81081598137814
  0
LINE
  8
_1-1_
  6
CONTINUOUS
 62
    7
 10
1522.1793549710951
 20
362.81081598137814
 11
1523.9171334169084
 21
363.17911523752343
  0
LINE
  8
_1-1_
  6
CONTINUOUS
 62
    7
 10
1523.9171334169084
 20
363.17911523752343
 11
1525.4877971437022
 21
363.67897005681226
  0
LINE
  8
_1-1_
  6
CONTINUOUS
 62
    7
 10
1525.4877971437022
 20
363.67897005681226
 11
1526.8436223289323
 21
364.29519260349929
  0
LINE
  8
_1-1_
  6
CONTINUOUS
 62
    7
 10
1526.8436223289323
 20
364.29519260349929
 11
1527.9434129104259
 21
365.00905926732713
  0
LINE
  8
_1-1_
  6
CONTINUOUS
 62
    7
 10
1527.9434129104259
 20
365.00905926732713
 11
1528.7537523078852
 21
365.79887957094923
  0
LINE
  8
_1-1_
  6
CONTINUOUS
 62
    7
 10
1528.7537523078852
 20
365.79887957094923
 11
1529.2500187687701
 21
366.64065522410846
  0
LINE
  8
_1-1_
  6
CONTINUOUS
 62
    7
 10
1529.2500187687701
 20
366.64065522410846
 11
1529.4171334877897
 21
367.50880929954263
  0
LINE
  8
_1-1_
  6
CONTINUOUS
 62
    7
 10
1529.4171334877897
 20
367.50880929954263
 11
1529.4171334877897
 21
367.50880929954263
  0
LINE
  8
_1-1_
  6
CONTINUOUS
 62
    7
 10
1510.1115833654367
 20
367.30881252804323
 11
1510.1115833654367
 21
367.30881252804323
  0
LINE
  8
_1-1_
  6
CONTINUOUS
 62
    7
 10
1510.1115833654367
 20
367.30881252804323
 11
1509.9444686464171
 21
368.17696660347735
  0
LINE
  8
_1-1_
  6
CONTINUOUS
 62
    7
 10
1509.9444686464171
 20
368.17696660347735
 11
1509.4482021855322
 21
369.01874225663664
  0
LINE
  8
_1-1_
  6
CONTINUOUS
 62
    7
 10
1509.4482021855322
 20
369.01874225663664
 11
1508.6378627880729
 21
369.80856256025874
  0
LINE
  8
_1-1_
  6
CONTINUOUS
 62
    7
 10
1508.6378627880729
 20
369.80856256025874
 11
1507.5380722065793
 21
370.52242922408652
  0
LINE
  8
_1-1_
  6
CONTINUOUS
 62
    7
 10
1507.5380722065793
 20
370.52242922408652
 11
1506.1822470213492
 21
371.13865177077361
  0
LINE
  8
_1-1_
  6
CONTINUOUS
 62
    7
 10
1506.1822470213492
 20
371.13865177077361
 11
1504.6115832945554
 21
371.63850659006243
  0
LINE
  8
_1-1_
  6
CONTINUOUS
 62
    7
 10
1504.6115832945554
 20
371.63850659006243
 11
1502.8738048487421
 21
372.00680584620773
  0
LINE
  8
_1-1_
  6
CONTINUOUS
 62
    7
 10
1502.8738048487421
 20
372.00680584620773
 11
1501.0217132026271
 21
372.23235895267993
  0
LINE
  8
_1-1_
  6
CONTINUOUS
 62
    7
 10
1501.0217132026271
 20
372.23235895267993
 11
1499.1115832236742
 21
372.30831259247424
  0
LINE
  8
_1-1_
  6
CONTINUOUS
 62
    7
 10
1499.1115832236742
 20
372.30831259247424
 11
1497.2014532447213
 21
372.23235895267993
  0
LINE
  8
_1-1_
  6
CONTINUOUS
 62
    7
 10
1497.2014532447213
 20
372.23235895267993
 11
1495.3493615986063
 21
372.00680584620773
  0
LINE
  8
_1-1_
  6
CONTINUOUS
 62
    7
 10
1495.3493615986063
 20
372.00680584620773
 11
1493.6115831527929
 21
371.63850659006243
  0
LINE
  8
_1-1_
  6
CONTINUOUS
 62
    7
 10
1493.6115831527929
 20
371.63850659006243
 11
1492.0409194259992
 21
371.13865177077361
  0
LINE
  8
_1-1_
  6
CONTINUOUS
 62
    7
 10
1492.0409194259992
 20
371.13865177077361
 11
1490.6850942407691
 21
370.52242922408652
  0
LINE
  8
_1-1_
  6
CONTINUOUS
 62
    7
 10
1490.6850942407691
 20
370.52242922408652
 11
1489.5853036592755
 21
369.80856256025874
  0
LINE
  8
_1-1_
  6
CONTINUOUS
 62
    7
 10
1489.5853036592755
 20
369.80856256025874
 11
1488.7749642618162
 21
369.01874225663664
  0
LINE
  8
_1-1_
  6
CONTINUOUS
 62
    7
 10
1488.7749642618162
 20
369.01874225663664
 11
1488.2786978009312
 21
368.17696660347741
  0
LINE
  8
_1-1_
  6
CONTINUOUS
 62
    7
 10
1488.2786978009312
 20
368.17696660347741
 11
1488.1115830819117
 21
367.30881252804323
  0
LINE
  8
_1-1_
  6
CONTINUOUS
 62
    7
 10
1488.1115830819117
 20
367.30881252804323
 11
1488.2786978009312
 21
366.44065845260911
  0
LINE
  8
_1-1_
  6
CONTINUOUS
 62
    7
 10
1488.2786978009312
 20
366.44065845260911
 11
1488.7749642618162
 21
365.59888279944988
  0
LINE
  8
_1-1_
  6
CONTINUOUS
 62
    7
 10
1488.7749642618162
 20
365.59888279944988
 11
1489.5853036592755
 21
364.80906249582773
  0
LINE
  8
_1-1_
  6
CONTINUOUS
 62
    7
 10
1489.5853036592755
 20
364.80906249582773
 11
1490.6850942407691
 21
364.09519583199994
  0
LINE
  8
_1-1_
  6
CONTINUOUS
 62
    7
 10
1490.6850942407691
 20
364.09519583199994
 11
1492.0409194259992
 21
363.47897328531292
  0
LINE
  8
_1-1_
  6
CONTINUOUS
 62
    7
 10
1492.0409194259992
 20
363.47897328531292
 11
1493.6115831527929
 21
362.97911846602403
  0
LINE
  8
_1-1_
  6
CONTINUOUS
 62
    7
 10
1493.6115831527929
 20
362.97911846602403
 11
1495.3493615986063
 21
362.61081920987874
  0
LINE
  8
_1-1_
  6
CONTINUOUS
 62
    7
 10
1495.3493615986063
 20
362.61081920987874
 11
1497.2014532447211
 21
362.38526610340654
  0
LINE
  8
_1-1_
  6
CONTINUOUS
 62
    7
 10
1497.2014532447211
 20
362.38526610340654
 11
1499.1115832236742
 21
362.30931246361223
  0
LINE
  8
_1-1_
  6
CONTINUOUS
 62
    7
 10
1499.1115832236742
 20
362.30931246361223
 11
1501.0217132026271
 21
362.38526610340654
  0
LINE
  8
_1-1_
  6
CONTINUOUS
 62
    7
 10
1501.0217132026271
 20
362.38526610340654
 11
1502.8738048487421
 21
362.61081920987874
  0
LINE
  8
_1-1_
  6
CONTINUOUS
 62
    7
 10
1502.8738048487421
 20
362.61081920987874
 11
1504.6115832945554
 21
362.97911846602403
  0
LINE
  8
_1-1_
  6
CONTINUOUS
 62
    7
 10
1504.6115832945554
 20
362.97911846602403
 11
1506.1822470213492
 21
363.47897328531286
  0
LINE
  8
_1-1_
  6
CONTINUOUS
 62
    7
 10
1506.1822470213492
 20
363.47897328531286
 11
1507.5380722065793
 21
364.09519583199989
  0
LINE
  8
_1-1_
  6
CONTINUOUS
 62
    7
 10
1507.5380722065793
 20
364.09519583199989
 11
1508.6378627880729
 21
364.80906249582773
  0
LINE
  8
_1-1_
  6
CONTINUOUS
 62
    7
 10
1508.6378627880729
 20
364.80906249582773
 11
1509.4482021855322
 21
365.59888279944983
  0
LINE
  8
_1-1_
  6
CONTINUOUS
 62
    7
 10
1509.4482021855322
 20
365.59888279944983
 11
1509.9444686464171
 21
366.44065845260906
  0
LINE
  8
_1-1_
  6
CONTINUOUS
 62
    7
 10
1509.9444686464171
 20
366.44065845260906
 11
1510.1115833654367
 21
367.30881252804323
  0
LINE
  8
_1-1_
  6
CONTINUOUS
 62
    7
 10
1510.1115833654367
 20
367.30881252804323
 11
1510.1115833654367
 21
367.30881252804323
  0
LINE
  8
_1-1_
  6
CONTINUOUS
 62
    7
 10
1488.322608765488
 20
367.30881252804323
 11
1488.322608765488
 21
367.30881252804323
  0
LINE
  8
_1-1_
  6
CONTINUOUS
 62
    7
 10
1488.322608765488
 20
367.30881252804323
 11
1488.1554940464684
 21
368.17696660347735
  0
LINE
  8
_1-1_
  6
CONTINUOUS
 62
    7
 10
1488.1554940464684
 20
368.17696660347735
 11
1487.6592275855835
 21
369.01874225663664
  0
LINE
  8
_1-1_
  6
CONTINUOUS
 62
    7
 10
1487.6592275855835
 20
369.01874225663664
 11
1486.8488881881242
 21
369.80856256025874
  0
LINE
  8
_1-1_
  6
CONTINUOUS
 62
    7
 10
1486.8488881881242
 20
369.80856256025874
 11
1485.7490976066306
 21
370.52242922408652
  0
LINE
  8
_1-1_
  6
CONTINUOUS
 62
    7
 10
1485.7490976066306
 20
370.52242922408652
 11
1484.3932724214005
 21
371.13865177077361
  0
LINE
  8
_1-1_
  6
CONTINUOUS
 62
    7
 10
1484.3932724214005
 20
371.13865177077361
 11
1482.8226086946067
 21
371.63850659006243
  0
LINE
  8
_1-1_
  6
CONTINUOUS
 62
    7
 10
1482.8226086946067
 20
371.63850659006243
 11
1481.0848302487934
 21
372.00680584620773
  0
LINE
  8
_1-1_
  6
CONTINUOUS
 62
    7
 10
1481.0848302487934
 20
372.00680584620773
 11
1479.2327386026784
 21
372.23235895267993
  0
LINE
  8
_1-1_
  6
CONTINUOUS
 62
    7
 10
1479.2327386026784
 20
372.23235895267993
 11
1477.3226086237255
 21
372.30831259247424
  0
LINE
  8
_1-1_
  6
CONTINUOUS
 62
    7
 10
1477.3226086237255
 20
372.30831259247424
 11
1475.4124786447726
 21
372.23235895267993
  0
LINE
  8
_1-1_
  6
CONTINUOUS
 62
    7
 10
1475.4124786447726
 20
372.23235895267993
 11
1473.5603869986576
 21
372.00680584620773
  0
LINE
  8
_1-1_
  6
CONTINUOUS
 62
    7
 10
1473.5603869986576
 20
372.00680584620773
 11
1471.8226085528443
 21
371.63850659006243
  0
LINE
  8
_1-1_
  6
CONTINUOUS
 62
    7
 10
1471.8226085528443
 20
371.63850659006243
 11
1470.2519448260505
 21
371.13865177077361
  0
LINE
  8
_1-1_
  6
CONTINUOUS
 62
    7
 10
1470.2519448260505
 20
371.13865177077361
 11
1468.8961196408204
 21
370.52242922408652
  0
LINE
  8
_1-1_
  6
CONTINUOUS
 62
    7
 10
1468.8961196408204
 20
370.52242922408652
 11
1467.7963290593268
 21
369.80856256025874
  0
LINE
  8
_1-1_
  6
CONTINUOUS
 62
    7
 10
1467.7963290593268
 20
369.80856256025874
 11
1466.9859896618675
 21
369.01874225663664
  0
LINE
  8
_1-1_
  6
CONTINUOUS
 62
    7
 10
1466.9859896618675
 20
369.01874225663664
 11
1466.4897232009826
 21
368.17696660347741
  0
LINE
  8
_1-1_
  6
CONTINUOUS
 62
    7
 10
1466.4897232009826
 20
368.17696660347741
 11
1466.322608481963
 21
367.30881252804323
  0
LINE
  8
_1-1_
  6
CONTINUOUS
 62
    7
 10
1466.322608481963
 20
367.30881252804323
 11
1466.4897232009826
 21
366.44065845260911
  0
LINE
  8
_1-1_
  6
CONTINUOUS
 62
    7
 10
1466.4897232009826
 20
366.44065845260911
 11
1466.9859896618675
 21
365.59888279944988
  0
LINE
  8
_1-1_
  6
CONTINUOUS
 62
    7
 10
1466.9859896618675
 20
365.59888279944988
 11
1467.7963290593268
 21
364.80906249582773
  0
LINE
  8
_1-1_
  6
CONTINUOUS
 62
    7
 10
1467.7963290593268
 20
364.80906249582773
 11
1468.8961196408204
 21
364.09519583199994
  0
LINE
  8
_1-1_
  6
CONTINUOUS
 62
    7
 10
1468.8961196408204
 20
364.09519583199994
 11
1470.2519448260505
 21
363.47897328531292
  0
LINE
  8
_1-1_
  6
CONTINUOUS
 62
    7
 10
1470.2519448260505
 20
363.47897328531292
 11
1471.8226085528443
 21
362.97911846602403
  0
LINE
  8
_1-1_
  6
CONTINUOUS
 62
    7
 10
1471.8226085528443
 20
362.97911846602403
 11
1473.5603869986576
 21
362.61081920987874
  0
LINE
  8
_1-1_
  6
CONTINUOUS
 62
    7
 10
1473.5603869986576
 20
362.61081920987874
 11
1475.4124786447724
 21
362.38526610340654
  0
LINE
  8
_1-1_
  6
CONTINUOUS
 62
    7
 10
1475.4124786447724
 20
362.38526610340654
 11
1477.3226086237255
 21
362.30931246361223
  0
LINE
  8
_1-1_
  6
CONTINUOUS
 62
    7
 10
1477.3226086237255
 20
362.30931246361223
 11
1479.2327386026784
 21
362.38526610340654
  0
LINE
  8
_1-1_
  6
CONTINUOUS
 62
    7
 10
1479.2327386026784
 20
362.38526610340654
 11
1481.0848302487934
 21
362.61081920987874
  0
LINE
  8
_1-1_
  6
CONTINUOUS
 62
    7
 10
1481.0848302487934
 20
362.61081920987874
 11
1482.8226086946067
 21
362.97911846602403
  0
LINE
  8
_1-1_
  6
CONTINUOUS
 62
    7
 10
1482.8226086946067
 20
362.97911846602403
 11
1484.3932724214005
 21
363.47897328531286
  0
LINE
  8
_1-1_
  6
CONTINUOUS
 62
    7
 10
1484.3932724214005
 20
363.47897328531286
 11
1485.7490976066306
 21
364.09519583199989
  0
LINE
  8
_1-1_
  6
CONTINUOUS
 62
    7
 10
1485.7490976066306
 20
364.09519583199989
 11
1486.8488881881242
 21
364.80906249582773
  0
LINE
  8
_1-1_
  6
CONTINUOUS
 62
    7
 10
1486.8488881881242
 20
364.80906249582773
 11
1487.6592275855835
 21
365.59888279944983
  0
LINE
  8
_1-1_
  6
CONTINUOUS
 62
    7
 10
1487.6592275855835
 20
365.59888279944983
 11
1488.1554940464684
 21
366.44065845260906
  0
LINE
  8
_1-1_
  6
CONTINUOUS
 62
    7
 10
1488.1554940464684
 20
366.44065845260906
 11
1488.322608765488
 21
367.30881252804323
  0
LINE
  8
_1-1_
  6
CONTINUOUS
 62
    7
 10
1488.322608765488
 20
367.30881252804323
 11
1488.322608765488
 21
367.30881252804323
  0
LINE
  8
_1-1_
  6
CONTINUOUS
 62
    7
 10
1469.0171461307866
 20
367.10881575654366
 11
1469.0171461307866
 21
367.10881575654366
  0
LINE
  8
_1-1_
  6
CONTINUOUS
 62
    7
 10
1469.0171461307866
 20
367.10881575654366
 11
1468.8500314117671
 21
367.97696983197778
  0
LINE
  8
_1-1_
  6
CONTINUOUS
 62
    7
 10
1468.8500314117671
 20
367.97696983197778
 11
1468.3537649508821
 21
368.81874548513707
  0
LINE
  8
_1-1_
  6
CONTINUOUS
 62
    7
 10
1468.3537649508821
 20
368.81874548513707
 11
1467.5434255534228
 21
369.60856578875917
  0
LINE
  8
_1-1_
  6
CONTINUOUS
 62
    7
 10
1467.5434255534228
 20
369.60856578875917
 11
1466.4436349719292
 21
370.32243245258695
  0
LINE
  8
_1-1_
  6
CONTINUOUS
 62
    7
 10
1466.4436349719292
 20
370.32243245258695
 11
1465.0878097866992
 21
370.93865499927404
  0
LINE
  8
_1-1_
  6
CONTINUOUS
 62
    7
 10
1465.0878097866992
 20
370.93865499927404
 11
1463.5171460599054
 21
371.43850981856286
  0
LINE
  8
_1-1_
  6
CONTINUOUS
 62
    7
 10
1463.5171460599054
 20
371.43850981856286
 11
1461.7793676140921
 21
371.80680907470816
  0
LINE
  8
_1-1_
  6
CONTINUOUS
 62
    7
 10
1461.7793676140921
 20
371.80680907470816
 11
1459.927275967977
 21
372.03236218118036
  0
LINE
  8
_1-1_
  6
CONTINUOUS
 62
    7
 10
1459.927275967977
 20
372.03236218118036
 11
1458.0171459890241
 21
372.10831582097467
  0
LINE
  8
_1-1_
  6
CONTINUOUS
 62
    7
 10
1458.0171459890241
 20
372.10831582097467
 11
1456.1070160100712
 21
372.03236218118036
  0
LINE
  8
_1-1_
  6
CONTINUOUS
 62
    7
 10
1456.1070160100712
 20
372.03236218118036
 11
1454.2549243639562
 21
371.80680907470816
  0
LINE
  8
_1-1_
  6
CONTINUOUS
 62
    7
 10
1454.2549243639562
 20
371.80680907470816
 11
1452.5171459181429
 21
371.43850981856286
  0
LINE
  8
_1-1_
  6
CONTINUOUS
 62
    7
 10
1452.5171459181429
 20
371.43850981856286
 11
1450.9464821913491
 21
370.93865499927404
  0
LINE
  8
_1-1_
  6
CONTINUOUS
 62
    7
 10
1450.9464821913491
 20
370.93865499927404
 11
1449.590657006119
 21
370.32243245258695
  0
LINE
  8
_1-1_
  6
CONTINUOUS
 62
    7
 10
1449.590657006119
 20
370.32243245258695
 11
1448.4908664246254
 21
369.60856578875917
  0
LINE
  8
_1-1_
  6
CONTINUOUS
 62
    7
 10
1448.4908664246254
 20
369.60856578875917
 11
1447.6805270271661
 21
368.81874548513707
  0
LINE
  8
_1-1_
  6
CONTINUOUS
 62
    7
 10
1447.6805270271661
 20
368.81874548513707
 11
1447.1842605662812
 21
367.97696983197784
  0
LINE
  8
_1-1_
  6
CONTINUOUS
 62
    7
 10
1447.1842605662812
 20
367.97696983197784
 11
1447.0171458472616
 21
367.10881575654366
  0
LINE
  8
_1-1_
  6
CONTINUOUS
 62
    7
 10
1447.0171458472616
 20
367.10881575654366
 11
1447.1842605662812
 21
366.24066168110954
  0
LINE
  8
_1-1_
  6
CONTINUOUS
 62
    7
 10
1447.1842605662812
 20
366.24066168110954
 11
1447.6805270271661
 21
365.39888602795031
  0
LINE
  8
_1-1_
  6
CONTINUOUS
 62
    7
 10
1447.6805270271661
 20
365.39888602795031
 11
1448.4908664246254
 21
364.60906572432816
  0
LINE
  8
_1-1_
  6
CONTINUOUS
 62
    7
 10
1448.4908664246254
 20
364.60906572432816
 11
1449.590657006119
 21
363.89519906050037
  0
LINE
  8
_1-1_
  6
CONTINUOUS
 62
    7
 10
1449.590657006119
 20
363.89519906050037
 11
1450.9464821913491
 21
363.27897651381335
  0
LINE
  8
_1-1_
  6
CONTINUOUS
 62
    7
 10
1450.9464821913491
 20
363.27897651381335
 11
1452.5171459181429
 21
362.77912169452446
  0
LINE
  8
_1-1_
  6
CONTINUOUS
 62
    7
 10
1452.5171459181429
 20
362.77912169452446
 11
1454.2549243639562
 21
362.41082243837917
  0
LINE
  8
_1-1_
  6
CONTINUOUS
 62
    7
 10
1454.2549243639562
 20
362.41082243837917
 11
1456.107016010071
 21
362.18526933190697
  0
LINE
  8
_1-1_
  6
CONTINUOUS
 62
    7
 10
1456.107016010071
 20
362.18526933190697
 11
1458.0171459890241
 21
362.10931569211266
  0
LINE
  8
_1-1_
  6
CONTINUOUS
 62
    7
 10
1458.0171459890241
 20
362.10931569211266
 11
1459.927275967977
 21
362.18526933190697
  0
LINE
  8
_1-1_
  6
CONTINUOUS
 62
    7
 10
1459.927275967977
 20
362.18526933190697
 11
1461.7793676140921
 21
362.41082243837917
  0
LINE
  8
_1-1_
  6
CONTINUOUS
 62
    7
 10
1461.7793676140921
 20
362.41082243837917
 11
1463.5171460599054
 21
362.77912169452446
  0
LINE
  8
_1-1_
  6
CONTINUOUS
 62
    7
 10
1463.5171460599054
 20
362.77912169452446
 11
1465.0878097866992
 21
363.27897651381329
  0
LINE
  8
_1-1_
  6
CONTINUOUS
 62
    7
 10
1465.0878097866992
 20
363.27897651381329
 11
1466.4436349719292
 21
363.89519906050032
  0
LINE
  8
_1-1_
  6
CONTINUOUS
 62
    7
 10
1466.4436349719292
 20
363.89519906050032
 11
1467.5434255534228
 21
364.60906572432816
  0
LINE
  8
_1-1_
  6
CONTINUOUS
 62
    7
 10
1467.5434255534228
 20
364.60906572432816
 11
1468.3537649508821
 21
365.39888602795025
  0
LINE
  8
_1-1_
  6
CONTINUOUS
 62
    7
 10
1468.3537649508821
 20
365.39888602795025
 11
1468.8500314117671
 21
366.24066168110949
  0
LINE
  8
_1-1_
  6
CONTINUOUS
 62
    7
 10
1468.8500314117671
 20
366.24066168110949
 11
1469.0171461307866
 21
367.10881575654366
  0
LINE
  8
_1-1_
  6
CONTINUOUS
 62
    7
 10
1469.0171461307866
 20
367.10881575654366
 11
1469.0171461307866
 21
367.10881575654366
  0
LINE
  8
_1-1_
  6
CONTINUOUS
 62
    7
 10
1527.817159315794
 20
359.31202560778286
 11
1527.817159315794
 21
359.31202560778286
  0
LINE
  8
_1-1_
  6
CONTINUOUS
 62
    7
 10
1527.817159315794
 20
359.31202560778286
 11
1527.6500445967745
 21
360.18017968321698
  0
LINE
  8
_1-1_
  6
CONTINUOUS
 62
    7
 10
1527.6500445967745
 20
360.18017968321698
 11
1527.1537781358895
 21
361.02195533637627
  0
LINE
  8
_1-1_
  6
CONTINUOUS
 62
    7
 10
1527.1537781358895
 20
361.02195533637627
 11
1526.3434387384302
 21
361.81177563999836
  0
LINE
  8
_1-1_
  6
CONTINUOUS
 62
    7
 10
1526.3434387384302
 20
361.81177563999836
 11
1525.2436481569366
 21
362.52564230382615
  0
LINE
  8
_1-1_
  6
CONTINUOUS
 62
    7
 10
1525.2436481569366
 20
362.52564230382615
 11
1523.8878229717066
 21
363.14186485051323
  0
LINE
  8
_1-1_
  6
CONTINUOUS
 62
    7
 10
1523.8878229717066
 20
363.14186485051323
 11
1522.3171592449128
 21
363.64171966980206
  0
LINE
  8
_1-1_
  6
CONTINUOUS
 62
    7
 10
1522.3171592449128
 20
363.64171966980206
 11
1520.5793807990995
 21
364.01001892594735
  0
LINE
  8
_1-1_
  6
CONTINUOUS
 62
    7
 10
1520.5793807990995
 20
364.01001892594735
 11
1518.7272891529844
 21
364.23557203241955
  0
LINE
  8
_1-1_
  6
CONTINUOUS
 62
    7
 10
1518.7272891529844
 20
364.23557203241955
 11
1516.8171591740315
 21
364.31152567221386
  0
LINE
  8
_1-1_
  6
CONTINUOUS
 62
    7
 10
1516.8171591740315
 20
364.31152567221386
 11
1514.9070291950786
 21
364.23557203241955
  0
LINE
  8
_1-1_
  6
CONTINUOUS
 62
    7
 10
1514.9070291950786
 20
364.23557203241955
 11
1513.0549375489636
 21
364.01001892594735
  0
LINE
  8
_1-1_
  6
CONTINUOUS
 62
    7
 10
1513.0549375489636
 20
364.01001892594735
 11
1511.3171591031503
 21
363.64171966980206
  0
LINE
  8
_1-1_
  6
CONTINUOUS
 62
    7
 10
1511.3171591031503
 20
363.64171966980206
 11
1509.7464953763565
 21
363.14186485051323
  0
LINE
  8
_1-1_
  6
CONTINUOUS
 62
    7
 10
1509.7464953763565
 20
363.14186485051323
 11
1508.3906701911264
 21
362.52564230382615
  0
LINE
  8
_1-1_
  6
CONTINUOUS
 62
    7
 10
1508.3906701911264
 20
362.52564230382615
 11
1507.2908796096328
 21
361.81177563999836
  0
LINE
  8
_1-1_
  6
CONTINUOUS
 62
    7
 10
1507.2908796096328
 20
361.81177563999836
 11
1506.4805402121735
 21
361.02195533637627
  0
LINE
  8
_1-1_
  6
CONTINUOUS
 62
    7
 10
1506.4805402121735
 20
361.02195533637627
 11
1505.9842737512886
 21
360.18017968321703
  0
LINE
  8
_1-1_
  6
CONTINUOUS
 62
    7
 10
1505.9842737512886
 20
360.18017968321703
 11
1505.817159032269
 21
359.31202560778286
  0
LINE
  8
_1-1_
  6
CONTINUOUS
 62
    7
 10
1505.817159032269
 20
359.31202560778286
 11
1505.9842737512886
 21
358.44387153234874
  0
LINE
  8
_1-1_
  6
CONTINUOUS
 62
    7
 10
1505.9842737512886
 20
358.44387153234874
 11
1506.4805402121735
 21
357.60209587918951
  0
LINE
  8
_1-1_
  6
CONTINUOUS
 62
    7
 10
1506.4805402121735
 20
357.60209587918951
 11
1507.2908796096328
 21
356.81227557556736
  0
LINE
  8
_1-1_
  6
CONTINUOUS
 62
    7
 10
1507.2908796096328
 20
356.81227557556736
 11
1508.3906701911264
 21
356.09840891173957
  0
LINE
  8
_1-1_
  6
CONTINUOUS
 62
    7
 10
1508.3906701911264
 20
356.09840891173957
 11
1509.7464953763565
 21
355.48218636505254
  0
LINE
  8
_1-1_
  6
CONTINUOUS
 62
    7
 10
1509.7464953763565
 20
355.48218636505254
 11
1511.3171591031503
 21
354.98233154576366
  0
LINE
  8
_1-1_
  6
CONTINUOUS
 62
    7
 10
1511.3171591031503
 20
354.98233154576366
 11
1513.0549375489636
 21
354.61403228961836
  0
LINE
  8
_1-1_
  6
CONTINUOUS
 62
    7
 10
1513.0549375489636
 20
354.61403228961836
 11
1514.9070291950784
 21
354.38847918314616
  0
LINE
  8
_1-1_
  6
CONTINUOUS
 62
    7
 10
1514.9070291950784
 20
354.38847918314616
 11
1516.8171591740315
 21
354.31252554335185
  0
LINE
  8
_1-1_
  6
CONTINUOUS
 62
    7
 10
1516.8171591740315
 20
354.31252554335185
 11
1518.7272891529844
 21
354.38847918314616
  0
LINE
  8
_1-1_
  6
CONTINUOUS
 62
    7
 10
1518.7272891529844
 20
354.38847918314616
 11
1520.5793807990995
 21
354.61403228961836
  0
LINE
  8
_1-1_
  6
CONTINUOUS
 62
    7
 10
1520.5793807990995
 20
354.61403228961836
 11
1522.3171592449128
 21
354.98233154576366
  0
LINE
  8
_1-1_
  6
CONTINUOUS
 62
    7
 10
1522.3171592449128
 20
354.98233154576366
 11
1523.8878229717066
 21
355.48218636505248
  0
LINE
  8
_1-1_
  6
CONTINUOUS
 62
    7
 10
1523.8878229717066
 20
355.48218636505248
 11
1525.2436481569366
 21
356.09840891173951
  0
LINE
  8
_1-1_
  6
CONTINUOUS
 62
    7
 10
1525.2436481569366
 20
356.09840891173951
 11
1526.3434387384302
 21
356.81227557556736
  0
LINE
  8
_1-1_
  6
CONTINUOUS
 62
    7
 10
1526.3434387384302
 20
356.81227557556736
 11
1527.1537781358895
 21
357.60209587918945
  0
LINE
  8
_1-1_
  6
CONTINUOUS
 62
    7
 10
1527.1537781358895
 20
357.60209587918945
 11
1527.6500445967745
 21
358.44387153234868
  0
LINE
  8
_1-1_
  6
CONTINUOUS
 62
    7
 10
1527.6500445967745
 20
358.44387153234868
 11
1527.817159315794
 21
359.31202560778286
  0
LINE
  8
_1-1_
  6
CONTINUOUS
 62
    7
 10
1527.817159315794
 20
359.31202560778286
 11
1527.817159315794
 21
359.31202560778286
  0
LINE
  8
_1-1_
  6
CONTINUOUS
 62
    7
 10
1508.511609193441
 20
359.11202883628334
 11
1508.511609193441
 21
359.11202883628334
  0
LINE
  8
_1-1_
  6
CONTINUOUS
 62
    7
 10
1508.511609193441
 20
359.11202883628334
 11
1508.3444944744215
 21
359.98018291171746
  0
LINE
  8
_1-1_
  6
CONTINUOUS
 62
    7
 10
1508.3444944744215
 20
359.98018291171746
 11
1507.8482280135365
 21
360.82195856487675
  0
LINE
  8
_1-1_
  6
CONTINUOUS
 62
    7
 10
1507.8482280135365
 20
360.82195856487675
 11
1507.0378886160772
 21
361.61177886849885
  0
LINE
  8
_1-1_
  6
CONTINUOUS
 62
    7
 10
1507.0378886160772
 20
361.61177886849885
 11
1505.9380980345836
 21
362.32564553232663
  0
LINE
  8
_1-1_
  6
CONTINUOUS
 62
    7
 10
1505.9380980345836
 20
362.32564553232663
 11
1504.5822728493536
 21
362.94186807901372
  0
LINE
  8
_1-1_
  6
CONTINUOUS
 62
    7
 10
1504.5822728493536
 20
362.94186807901372
 11
1503.0116091225598
 21
363.44172289830254
  0
LINE
  8
_1-1_
  6
CONTINUOUS
 62
    7
 10
1503.0116091225598
 20
363.44172289830254
 11
1501.2738306767465
 21
363.81002215444784
  0
LINE
  8
_1-1_
  6
CONTINUOUS
 62
    7
 10
1501.2738306767465
 20
363.81002215444784
 11
1499.4217390306314
 21
364.03557526092004
  0
LINE
  8
_1-1_
  6
CONTINUOUS
 62
    7
 10
1499.4217390306314
 20
364.03557526092004
 11
1497.5116090516785
 21
364.11152890071435
  0
LINE
  8
_1-1_
  6
CONTINUOUS
 62
    7
 10
1497.5116090516785
 20
364.11152890071435
 11
1495.6014790727256
 21
364.03557526092004
  0
LINE
  8
_1-1_
  6
CONTINUOUS
 62
    7
 10
1495.6014790727256
 20
364.03557526092004
 11
1493.7493874266106
 21
363.81002215444784
  0
LINE
  8
_1-1_
  6
CONTINUOUS
 62
    7
 10
1493.7493874266106
 20
363.81002215444784
 11
1492.0116089807973
 21
363.44172289830254
  0
LINE
  8
_1-1_
  6
CONTINUOUS
 62
    7
 10
1492.0116089807973
 20
363.44172289830254
 11
1490.4409452540035
 21
362.94186807901372
  0
LINE
  8
_1-1_
  6
CONTINUOUS
 62
    7
 10
1490.4409452540035
 20
362.94186807901372
 11
1489.0851200687734
 21
362.32564553232663
  0
LINE
  8
_1-1_
  6
CONTINUOUS
 62
    7
 10
1489.0851200687734
 20
362.32564553232663
 11
1487.9853294872798
 21
361.61177886849885
  0
LINE
  8
_1-1_
  6
CONTINUOUS
 62
    7
 10
1487.9853294872798
 20
361.61177886849885
 11
1487.1749900898205
 21
360.82195856487675
  0
LINE
  8
_1-1_
  6
CONTINUOUS
 62
    7
 10
1487.1749900898205
 20
360.82195856487675
 11
1486.6787236289356
 21
359.98018291171752
  0
LINE
  8
_1-1_
  6
CONTINUOUS
 62
    7
 10
1486.6787236289356
 20
359.98018291171752
 11
1486.511608909916
 21
359.11202883628334
  0
LINE
  8
_1-1_
  6
CONTINUOUS
 62
    7
 10
1486.511608909916
 20
359.11202883628334
 11
1486.6787236289356
 21
358.24387476084922
  0
LINE
  8
_1-1_
  6
CONTINUOUS
 62
    7
 10
1486.6787236289356
 20
358.24387476084922
 11
1487.1749900898205
 21
357.40209910768999
  0
LINE
  8
_1-1_
  6
CONTINUOUS
 62
    7
 10
1487.1749900898205
 20
357.40209910768999
 11
1487.9853294872798
 21
356.61227880406784
  0
LINE
  8
_1-1_
  6
CONTINUOUS
 62
    7
 10
1487.9853294872798
 20
356.61227880406784
 11
1489.0851200687734
 21
355.89841214024005
  0
LINE
  8
_1-1_
  6
CONTINUOUS
 62
    7
 10
1489.0851200687734
 20
355.89841214024005
 11
1490.4409452540035
 21
355.28218959355303
  0
LINE
  8
_1-1_
  6
CONTINUOUS
 62
    7
 10
1490.4409452540035
 20
355.28218959355303
 11
1492.0116089807973
 21
354.78233477426414
  0
LINE
  8
_1-1_
  6
CONTINUOUS
 62
    7
 10
1492.0116089807973
 20
354.78233477426414
 11
1493.7493874266106
 21
354.41403551811885
  0
LINE
  8
_1-1_
  6
CONTINUOUS
 62
    7
 10
1493.7493874266106
 20
354.41403551811885
 11
1495.6014790727254
 21
354.18848241164665
  0
LINE
  8
_1-1_
  6
CONTINUOUS
 62
    7
 10
1495.6014790727254
 20
354.18848241164665
 11
1497.5116090516785
 21
354.11252877185234
  0
LINE
  8
_1-1_
  6
CONTINUOUS
 62
    7
 10
1497.5116090516785
 20
354.11252877185234
 11
1499.4217390306314
 21
354.18848241164665
  0
LINE
  8
_1-1_
  6
CONTINUOUS
 62
    7
 10
1499.4217390306314
 20
354.18848241164665
 11
1501.2738306767465
 21
354.41403551811885
  0
LINE
  8
_1-1_
  6
CONTINUOUS
 62
    7
 10
1501.2738306767465
 20
354.41403551811885
 11
1503.0116091225598
 21
354.78233477426414
  0
LINE
  8
_1-1_
  6
CONTINUOUS
 62
    7
 10
1503.0116091225598
 20
354.78233477426414
 11
1504.5822728493536
 21
355.28218959355297
  0
LINE
  8
_1-1_
  6
CONTINUOUS
 62
    7
 10
1504.5822728493536
 20
355.28218959355297
 11
1505.9380980345836
 21
355.89841214024
  0
LINE
  8
_1-1_
  6
CONTINUOUS
 62
    7
 10
1505.9380980345836
 20
355.89841214024
 11
1507.0378886160772
 21
356.61227880406784
  0
LINE
  8
_1-1_
  6
CONTINUOUS
 62
    7
 10
1507.0378886160772
 20
356.61227880406784
 11
1507.8482280135365
 21
357.40209910768993
  0
LINE
  8
_1-1_
  6
CONTINUOUS
 62
    7
 10
1507.8482280135365
 20
357.40209910768993
 11
1508.3444944744215
 21
358.24387476084917
  0
LINE
  8
_1-1_
  6
CONTINUOUS
 62
    7
 10
1508.3444944744215
 20
358.24387476084917
 11
1508.511609193441
 21
359.11202883628334
  0
LINE
  8
_1-1_
  6
CONTINUOUS
 62
    7
 10
1508.511609193441
 20
359.11202883628334
 11
1508.511609193441
 21
359.11202883628334
  0
LINE
  8
_1-1_
  6
CONTINUOUS
 62
    7
 10
1486.7226345934923
 20
359.11202883628334
 11
1486.7226345934923
 21
359.11202883628334
  0
LINE
  8
_1-1_
  6
CONTINUOUS
 62
    7
 10
1486.7226345934923
 20
359.11202883628334
 11
1486.5555198744728
 21
359.98018291171746
  0
LINE
  8
_1-1_
  6
CONTINUOUS
 62
    7
 10
1486.5555198744728
 20
359.98018291171746
 11
1486.0592534135878
 21
360.82195856487675
  0
LINE
  8
_1-1_
  6
CONTINUOUS
 62
    7
 10
1486.0592534135878
 20
360.82195856487675
 11
1485.2489140161285
 21
361.61177886849885
  0
LINE
  8
_1-1_
  6
CONTINUOUS
 62
    7
 10
1485.2489140161285
 20
361.61177886849885
 11
1484.1491234346349
 21
362.32564553232663
  0
LINE
  8
_1-1_
  6
CONTINUOUS
 62
    7
 10
1484.1491234346349
 20
362.32564553232663
 11
1482.7932982494049
 21
362.94186807901372
  0
LINE
  8
_1-1_
  6
CONTINUOUS
 62
    7
 10
1482.7932982494049
 20
362.94186807901372
 11
1481.2226345226111
 21
363.44172289830254
  0
LINE
  8
_1-1_
  6
CONTINUOUS
 62
    7
 10
1481.2226345226111
 20
363.44172289830254
 11
1479.4848560767978
 21
363.81002215444784
  0
LINE
  8
_1-1_
  6
CONTINUOUS
 62
    7
 10
1479.4848560767978
 20
363.81002215444784
 11
1477.6327644306828
 21
364.03557526092004
  0
LINE
  8
_1-1_
  6
CONTINUOUS
 62
    7
 10
1477.6327644306828
 20
364.03557526092004
 11
1475.7226344517298
 21
364.11152890071435
  0
LINE
  8
_1-1_
  6
CONTINUOUS
 62
    7
 10
1475.7226344517298
 20
364.11152890071435
 11
1473.8125044727769
 21
364.03557526092004
  0
LINE
  8
_1-1_
  6
CONTINUOUS
 62
    7
 10
1473.8125044727769
 20
364.03557526092004
 11
1471.9604128266619
 21
363.81002215444784
  0
LINE
  8
_1-1_
  6
CONTINUOUS
 62
    7
 10
1471.9604128266619
 20
363.81002215444784
 11
1470.2226343808486
 21
363.44172289830254
  0
LINE
  8
_1-1_
  6
CONTINUOUS
 62
    7
 10
1470.2226343808486
 20
363.44172289830254
 11
1468.6519706540548
 21
362.94186807901372
  0
LINE
  8
_1-1_
  6
CONTINUOUS
 62
    7
 10
1468.6519706540548
 20
362.94186807901372
 11
1467.2961454688248
 21
362.32564553232663
  0
LINE
  8
_1-1_
  6
CONTINUOUS
 62
    7
 10
1467.2961454688248
 20
362.32564553232663
 11
1466.1963548873312
 21
361.61177886849885
  0
LINE
  8
_1-1_
  6
CONTINUOUS
 62
    7
 10
1466.1963548873312
 20
361.61177886849885
 11
1465.3860154898719
 21
360.82195856487675
  0
LINE
  8
_1-1_
  6
CONTINUOUS
 62
    7
 10
1465.3860154898719
 20
360.82195856487675
 11
1464.8897490289869
 21
359.98018291171752
  0
LINE
  8
_1-1_
  6
CONTINUOUS
 62
    7
 10
1464.8897490289869
 20
359.98018291171752
 11
1464.7226343099674
 21
359.11202883628334
  0
LINE
  8
_1-1_
  6
CONTINUOUS
 62
    7
 10
1464.7226343099674
 20
359.11202883628334
 11
1464.8897490289869
 21
358.24387476084922
  0
LINE
  8
_1-1_
  6
CONTINUOUS
 62
    7
 10
1464.8897490289869
 20
358.24387476084922
 11
1465.3860154898719
 21
357.40209910768999
  0
LINE
  8
_1-1_
  6
CONTINUOUS
 62
    7
 10
1465.3860154898719
 20
357.40209910768999
 11
1466.1963548873312
 21
356.61227880406784
  0
LINE
  8
_1-1_
  6
CONTINUOUS
 62
    7
 10
1466.1963548873312
 20
356.61227880406784
 11
1467.2961454688248
 21
355.89841214024005
  0
LINE
  8
_1-1_
  6
CONTINUOUS
 62
    7
 10
1467.2961454688248
 20
355.89841214024005
 11
1468.6519706540548
 21
355.28218959355303
  0
LINE
  8
_1-1_
  6
CONTINUOUS
 62
    7
 10
1468.6519706540548
 20
355.28218959355303
 11
1470.2226343808486
 21
354.78233477426414
  0
LINE
  8
_1-1_
  6
CONTINUOUS
 62
    7
 10
1470.2226343808486
 20
354.78233477426414
 11
1471.9604128266619
 21
354.41403551811885
  0
LINE
  8
_1-1_
  6
CONTINUOUS
 62
    7
 10
1471.9604128266619
 20
354.41403551811885
 11
1473.8125044727767
 21
354.18848241164665
  0
LINE
  8
_1-1_
  6
CONTINUOUS
 62
    7
 10
1473.8125044727767
 20
354.18848241164665
 11
1475.7226344517298
 21
354.11252877185234
  0
LINE
  8
_1-1_
  6
CONTINUOUS
 62
    7
 10
1475.7226344517298
 20
354.11252877185234
 11
1477.6327644306828
 21
354.18848241164665
  0
LINE
  8
_1-1_
  6
CONTINUOUS
 62
    7
 10
1477.6327644306828
 20
354.18848241164665
 11
1479.4848560767978
 21
354.41403551811885
  0
LINE
  8
_1-1_
  6
CONTINUOUS
 62
    7
 10
1479.4848560767978
 20
354.41403551811885
 11
1481.2226345226111
 21
354.78233477426414
  0
LINE
  8
_1-1_
  6
CONTINUOUS
 62
    7
 10
1481.2226345226111
 20
354.78233477426414
 11
1482.7932982494049
 21
355.28218959355297
  0
LINE
  8
_1-1_
  6
CONTINUOUS
 62
    7
 10
1482.7932982494049
 20
355.28218959355297
 11
1484.1491234346349
 21
355.89841214024
  0
LINE
  8
_1-1_
  6
CONTINUOUS
 62
    7
 10
1484.1491234346349
 20
355.89841214024
 11
1485.2489140161285
 21
356.61227880406784
  0
LINE
  8
_1-1_
  6
CONTINUOUS
 62
    7
 10
1485.2489140161285
 20
356.61227880406784
 11
1486.0592534135878
 21
357.40209910768993
  0
LINE
  8
_1-1_
  6
CONTINUOUS
 62
    7
 10
1486.0592534135878
 20
357.40209910768993
 11
1486.5555198744728
 21
358.24387476084917
  0
LINE
  8
_1-1_
  6
CONTINUOUS
 62
    7
 10
1486.5555198744728
 20
358.24387476084917
 11
1486.7226345934923
 21
359.11202883628334
  0
LINE
  8
_1-1_
  6
CONTINUOUS
 62
    7
 10
1486.7226345934923
 20
359.11202883628334
 11
1486.7226345934923
 21
359.11202883628334
  0
LINE
  8
_1-1_
  6
CONTINUOUS
 62
    7
 10
1467.4171719587907
 20
358.91203206478394
 11
1467.4171719587907
 21
358.91203206478394
  0
LINE
  8
_1-1_
  6
CONTINUOUS
 62
    7
 10
1467.4171719587907
 20
358.91203206478394
 11
1467.2500572397712
 21
359.78018614021806
  0
LINE
  8
_1-1_
  6
CONTINUOUS
 62
    7
 10
1467.2500572397712
 20
359.78018614021806
 11
1466.7537907788862
 21
360.62196179337735
  0
LINE
  8
_1-1_
  6
CONTINUOUS
 62
    7
 10
1466.7537907788862
 20
360.62196179337735
 11
1465.9434513814269
 21
361.41178209699945
  0
LINE
  8
_1-1_
  6
CONTINUOUS
 62
    7
 10
1465.9434513814269
 20
361.41178209699945
 11
1464.8436607999333
 21
362.12564876082723
  0
LINE
  8
_1-1_
  6
CONTINUOUS
 62
    7
 10
1464.8436607999333
 20
362.12564876082723
 11
1463.4878356147033
 21
362.74187130751432
  0
LINE
  8
_1-1_
  6
CONTINUOUS
 62
    7
 10
1463.4878356147033
 20
362.74187130751432
 11
1461.9171718879095
 21
363.24172612680314
  0
LINE
  8
_1-1_
  6
CONTINUOUS
 62
    7
 10
1461.9171718879095
 20
363.24172612680314
 11
1460.1793934420962
 21
363.61002538294844
  0
LINE
  8
_1-1_
  6
CONTINUOUS
 62
    7
 10
1460.1793934420962
 20
363.61002538294844
 11
1458.3273017959812
 21
363.83557848942064
  0
LINE
  8
_1-1_
  6
CONTINUOUS
 62
    7
 10
1458.3273017959812
 20
363.83557848942064
 11
1456.4171718170282
 21
363.91153212921495
  0
LINE
  8
_1-1_
  6
CONTINUOUS
 62
    7
 10
1456.4171718170282
 20
363.91153212921495
 11
1454.5070418380753
 21
363.83557848942064
  0
LINE
  8
_1-1_
  6
CONTINUOUS
 62
    7
 10
1454.5070418380753
 20
363.83557848942064
 11
1452.6549501919603
 21
363.61002538294844
  0
LINE
  8
_1-1_
  6
CONTINUOUS
 62
    7
 10
1452.6549501919603
 20
363.61002538294844
 11
1450.917171746147
 21
363.24172612680314
  0
LINE
  8
_1-1_
  6
CONTINUOUS
 62
    7
 10
1450.917171746147
 20
363.24172612680314
 11
1449.3465080193532
 21
362.74187130751432
  0
LINE
  8
_1-1_
  6
CONTINUOUS
 62
    7
 10
1449.3465080193532
 20
362.74187130751432
 11
1447.9906828341232
 21
362.12564876082723
  0
LINE
  8
_1-1_
  6
CONTINUOUS
 62
    7
 10
1447.9906828341232
 20
362.12564876082723
 11
1446.8908922526296
 21
361.41178209699945
  0
LINE
  8
_1-1_
  6
CONTINUOUS
 62
    7
 10
1446.8908922526296
 20
361.41178209699945
 11
1446.0805528551703
 21
360.62196179337735
  0
LINE
  8
_1-1_
  6
CONTINUOUS
 62
    7
 10
1446.0805528551703
 20
360.62196179337735
 11
1445.5842863942853
 21
359.78018614021812
  0
LINE
  8
_1-1_
  6
CONTINUOUS
 62
    7
 10
1445.5842863942853
 20
359.78018614021812
 11
1445.4171716752658
 21
358.91203206478394
  0
LINE
  8
_1-1_
  6
CONTINUOUS
 62
    7
 10
1445.4171716752658
 20
358.91203206478394
 11
1445.5842863942853
 21
358.04387798934982
  0
LINE
  8
_1-1_
  6
CONTINUOUS
 62
    7
 10
1445.5842863942853
 20
358.04387798934982
 11
1446.0805528551703
 21
357.20210233619059
  0
LINE
  8
_1-1_
  6
CONTINUOUS
 62
    7
 10
1446.0805528551703
 20
357.20210233619059
 11
1446.8908922526296
 21
356.41228203256844
  0
LINE
  8
_1-1_
  6
CONTINUOUS
 62
    7
 10
1446.8908922526296
 20
356.41228203256844
 11
1447.9906828341232
 21
355.69841536874065
  0
LINE
  8
_1-1_
  6
CONTINUOUS
 62
    7
 10
1447.9906828341232
 20
355.69841536874065
 11
1449.3465080193532
 21
355.08219282205363
  0
LINE
  8
_1-1_
  6
CONTINUOUS
 62
    7
 10
1449.3465080193532
 20
355.08219282205363
 11
1450.917171746147
 21
354.58233800276474
  0
LINE
  8
_1-1_
  6
CONTINUOUS
 62
    7
 10
1450.917171746147
 20
354.58233800276474
 11
1452.6549501919603
 21
354.21403874661945
  0
LINE
  8
_1-1_
  6
CONTINUOUS
 62
    7
 10
1452.6549501919603
 20
354.21403874661945
 11
1454.5070418380751
 21
353.98848564014725
  0
LINE
  8
_1-1_
  6
CONTINUOUS
 62
    7
 10
1454.5070418380751
 20
353.98848564014725
 11
1456.4171718170282
 21
353.91253200035294
  0
LINE
  8
_1-1_
  6
CONTINUOUS
 62
    7
 10
1456.4171718170282
 20
353.91253200035294
 11
1458.3273017959812
 21
353.98848564014725
  0
LINE
  8
_1-1_
  6
CONTINUOUS
 62
    7
 10
1458.3273017959812
 20
353.98848564014725
 11
1460.1793934420962
 21
354.21403874661945
  0
LINE
  8
_1-1_
  6
CONTINUOUS
 62
    7
 10
1460.1793934420962
 20
354.21403874661945
 11
1461.9171718879095
 21
354.58233800276474
  0
LINE
  8
_1-1_
  6
CONTINUOUS
 62
    7
 10
1461.9171718879095
 20
354.58233800276474
 11
1463.4878356147033
 21
355.08219282205357
  0
LINE
  8
_1-1_
  6
CONTINUOUS
 62
    7
 10
1463.4878356147033
 20
355.08219282205357
 11
1464.8436607999333
 21
355.6984153687406
  0
LINE
  8
_1-1_
  6
CONTINUOUS
 62
    7
 10
1464.8436607999333
 20
355.6984153687406
 11
1465.9434513814269
 21
356.41228203256844
  0
LINE
  8
_1-1_
  6
CONTINUOUS
 62
    7
 10
1465.9434513814269
 20
356.41228203256844
 11
1466.7537907788862
 21
357.20210233619053
  0
LINE
  8
_1-1_
  6
CONTINUOUS
 62
    7
 10
1466.7537907788862
 20
357.20210233619053
 11
1467.2500572397712
 21
358.04387798934977
  0
LINE
  8
_1-1_
  6
CONTINUOUS
 62
    7
 10
1467.2500572397712
 20
358.04387798934977
 11
1467.4171719587907
 21
358.91203206478394
  0
LINE
  8
_1-1_
  6
CONTINUOUS
 62
    7
 10
1467.4171719587907
 20
358.91203206478394
 11
1467.4171719587907
 21
358.91203206478394
  0
ARC
  8
_1-1_
  6
CONTINUOUS
 62
    7
 10
672.39811326546089
 20
1427.5520209824256
 40
92.000002179826993
 50
270
 51
90
  0
ARC
  8
_1-1_
  6
CONTINUOUS
 62
    7
 10
456.15825314319267
 20
1427.5520209824256
 40
92.000002179826993
 50
90
 51
270
  0
ARC
  8
_1-1_
  6
CONTINUOUS
 62
    7
 10
997.47672386611282
 20
709.82703661826577
 40
2.4000000464640068
 50
0
 51
90
  0
ARC
  8
_1-1_
  6
CONTINUOUS
 62
    7
 10
995.07667512046783
 20
707.42703161644658
 40
2.4000000464640068
 50
0
 51
90
  0
ARC
  8
_1-1_
  6
CONTINUOUS
 62
    7
 10
963.29092401335129
 20
707.42703161644658
 40
2.4000000464640068
 50
90
 51
162.64604187011716
  0
ARC
  8
_1-1_
  6
CONTINUOUS
 62
    7
 10
454.58592506909469
 20
625.23968818104868
 40
2.4000000464640068
 50
195.55741882324219
 51
213.69006347656253
  0
ARC
  8
_1-1_
  6
CONTINUOUS
 62
    7
 10
490.09646294199825
 20
563.32052149827871
 40
2.4000000464640068
 50
9.6735382080078125
 51
33.6900634765625
  0
ARC
  8
_1-1_
  6
CONTINUOUS
 62
    7
 10
487.80481139665397
 20
562.60684098055913
 40
2.4000000464640068
 50
9.6735382080078125
 51
33.766616821289063
  0
ARC
  8
_1-1_
  6
CONTINUOUS
 62
    7
 10
452.53075264595651
 20
624.00103801005594
 40
2.4000000464640068
 50
195.55741882324219
 51
213.76661682128909
  0
ARC
  8
_1-1_
  6
CONTINUOUS
 62
    7
 10
885.17284997181537
 20
540.22706226952744
 40
19.999999760660884
 50
270
 51
342.64604187011719
  0
ARC
  8
_1-1_
  6
CONTINUOUS
 62
    7
 10
886.82286708051163
 20
537.82705726770814
 40
19.999999760660884
 50
270
 51
342.64604187011719
  0
ARC
  8
_1-1_
  6
CONTINUOUS
 62
    7
 10
516.75605008040611
 20
540.22706226952744
 40
19.999999760660884
 50
189.67353820800781
 51
270
  0
ARC
  8
_1-1_
  6
CONTINUOUS
 62
    7
 10
514.75179547048447
 20
537.82705726770814
 40
19.999999760660884
 50
189.67353820800781
 51
270
  0
ARC
  8
_1-1_
  6
CONTINUOUS
 62
    7
 10
1412.537127756244
 20
540.22706226952744
 40
19.999999760660884
 50
188.26142883300781
 51
270
  0
ARC
  8
_1-1_
  6
CONTINUOUS
 62
    7
 10
1561.9256173505746
 20
540.22706226952744
 40
19.999999760660884
 50
270
 51
351.73855590820312
  0
CIRCLE
  8
_1-1_
  6
CONTINUOUS
 62
    7
 10
718.4448327613153
 20
1427.1287557241078
 40
9.9999998803304422
  0
CIRCLE
  8
_1-1_
  6
CONTINUOUS
 62
    7
 10
718.4448327613153
 20
1427.1287557241078
 40
16.00000008192762
  0
ARC
  8
_1-1_
  6
CONTINUOUS
 62
    7
 10
1410.4856298144718
 20
537.82705726770814
 40
19.999999760660884
 50
188.26142883300781
 51
270
  0
ARC
  8
_1-1_
  6
CONTINUOUS
 62
    7
 10
1563.9772027799982
 20
537.82705726770814
 40
19.999999760660884
 50
270
 51
351.73855590820312
  0
ARC
  8
_1-1_
  6
CONTINUOUS
 62
    7
 10
1339.6313930202175
 20
709.82703661826577
 40
2.4000000464640068
 50
90
 51
180
  0
ARC
  8
_1-1_
  6
CONTINUOUS
 62
    7
 10
1342.0313542782108
 20
707.42703161644658
 40
2.4000000464640068
 50
90
 51
180
  0
ARC
  8
_1-1_
  6
CONTINUOUS
 62
    7
 10
1363.2254128474526
 20
707.42703161644658
 40
2.4000000464640068
 50
8.2614288330078143
 51
89.999984741210923
  0
ARC
  8
_1-1_
  6
CONTINUOUS
 62
    7
 10
1365.2769107892245
 20
709.82703661826577
 40
2.4000000464640068
 50
8.2614288330078143
 51
89.999984741210923
  0
ARC
  8
_1-1_
  6
CONTINUOUS
 62
    7
 10
1609.1859218052455
 20
709.82703661826577
 40
2.4000000464640068
 50
90
 51
171.73855590820313
  0
ARC
  8
_1-1_
  6
CONTINUOUS
 62
    7
 10
1611.2373322593658
 20
707.42703161644658
 40
2.4000000464640068
 50
90
 51
171.73855590820313
  0
ARC
  8
_1-1_
  6
CONTINUOUS
 62
    7
 10
1632.4422392974029
 20
707.42703161644658
 40
2.4000000464640068
 50
0
 51
90
  0
ARC
  8
_1-1_
  6
CONTINUOUS
 62
    7
 10
1634.8313520866009
 20
709.82703661826577
 40
2.4000000464640068
 50
0
 51
90
  0
ARC
  8
_1-1_
  6
CONTINUOUS
 62
    7
 10
404.67671324387481
 20
707.42703161644658
 40
2.4000000464640068
 50
90
 51
180
  0
ARC
  8
_1-1_
  6
CONTINUOUS
 62
    7
 10
424.32206540494349
 20
707.42703161644658
 40
2.4000000464640068
 50
15.557418823242188
 51
90
  0
ARC
  8
_1-1_
  6
CONTINUOUS
 62
    7
 10
426.05388346786197
 20
709.82703661826577
 40
2.4000000464640068
 50
15.557418823242188
 51
90
  0
ARC
  8
_1-1_
  6
CONTINUOUS
 62
    7
 10
402.27670824205546
 20
709.82703661826577
 40
2.4000000464640068
 50
90
 51
180
  0
ARC
  8
_1-1_
  6
CONTINUOUS
 62
    7
 10
961.64090690465503
 20
709.82703661826577
 40
2.4000000464640068
 50
90
 51
162.64604187011716
  0
ARC
  8
_1-1_
  6
CONTINUOUS
 62
    7
 10
448.65714938484103
 20
1427.5520209824256
 40
92.000002179826993
 50
90
 51
270
  0
ARC
  8
_1-1_
  6
CONTINUOUS
 62
    7
 10
408.65713892756276
 20
1427.5520209824256
 40
92.000002179826993
 50
90
 51
270
  0
CIRCLE
  8
_1-1_
  6
CONTINUOUS
 62
    7
 10
672.19216733365442
 20
1320.5821817169776
 40
9.9999998803304422
  0
CIRCLE
  8
_1-1_
  6
CONTINUOUS
 62
    7
 10
672.19216733365442
 20
1533.6595819539546
 40
9.9999998803304422
  0
CIRCLE
  8
_1-1_
  6
CONTINUOUS
 62
    7
 10
456.352300754385
 20
1320.5821817169776
 40
9.9999998803304422
  0
CIRCLE
  8
_1-1_
  6
CONTINUOUS
 62
    7
 10
456.352300754385
 20
1533.6595819539546
 40
9.9999998803304422
  0
ARC
  8
_1-1_
  6
CONTINUOUS
 62
    7
 10
412.1594883392217
 20
1427.6751161081911
 40
120.0788030661211
 50
90.000442504882812
 51
269.99954223632812
  0
ARC
  8
_1-1_
  6
CONTINUOUS
 62
    7
 10
703.95779628090872
 20
1427.6752035958427
 40
120.07889055377268
 50
270.00048828125
 51
89.904479980468736
  0
CIRCLE
  8
_1-1_
  6
CONTINUOUS
 62
    7
 10
276.50277620116708
 20
1389.2667247521831
 40
7.5999996629921167
  0
CIRCLE
  8
_1-1_
  6
CONTINUOUS
 62
    7
 10
276.64885870738374
 20
1470.0730318636508
 40
7.5999996629921167
  0
CIRCLE
  8
_1-1_
  6
CONTINUOUS
 62
    7
 10
276.64249398073167
 20
1389.082913196225
 40
9.0000003023957653
  0
CIRCLE
  8
_1-1_
  6
CONTINUOUS
 62
    7
 10
276.52497619275425
 20
1470.1589447374968
 40
9.0000003023957653
  0
ARC
  8
_1-1_
  6
CONTINUOUS
 62
    7
 10
303.48558646831736
 20
1362.1063582961622
 40
2.0000000102409525
 50
318.6826171875
 51
33.792556762695334
  0
LINE
  8
_1-1_
  6
CONTINUOUS
 62
    7
 10
432.61392630205194
 20
754.81972675986265
 11
432.61392630205194
 21
754.81972675986265
  0
LINE
  8
_1-1_
  6
CONTINUOUS
 62
    7
 10
432.61392630205194
 20
754.81972675986265
 11
430.94700385618785
 21
754.60946606639368
  0
LINE
  8
_1-1_
  6
CONTINUOUS
 62
    7
 10
430.94700385618785
 20
754.60946606639368
 11
429.3307300053379
 21
753.98507265076114
  0
LINE
  8
_1-1_
  6
CONTINUOUS
 62
    7
 10
429.3307300053379
 20
753.98507265076114
 11
427.81421441258613
 21
752.96551839094047
  0
LINE
  8
_1-1_
  6
CONTINUOUS
 62
    7
 10
427.81421441258613
 20
752.96551839094047
 11
426.44353563682438
 21
751.58178192719697
  0
LINE
  8
_1-1_
  6
CONTINUOUS
 62
    7
 10
426.44353563682438
 20
751.58178192719697
 11
425.26034105905723
 21
749.87590739177722
  0
LINE
  8
_1-1_
  6
CONTINUOUS
 62
    7
 10
425.26034105905723
 20
749.87590739177722
 11
424.30058144780475
 21
747.8997269192256
  0
LINE
  8
_1-1_
  6
CONTINUOUS
 62
    7
 10
424.30058144780475
 20
747.8997269192256
 11
423.59341861319314
 21
745.71328575320524
  0
LINE
  8
_1-1_
  6
CONTINUOUS
 62
    7
 10
423.59341861319314
 20
745.71328575320524
 11
423.16033934011034
 21
743.38301780215284
  0
LINE
  8
_1-1_
  6
CONTINUOUS
 62
    7
 10
423.16033934011034
 20
743.38301780215284
 11
423.01450252312031
 21
740.97972707858867
  0
LINE
  8
_1-1_
  6
CONTINUOUS
 62
    7
 10
423.01450252312031
 20
740.97972707858867
 11
423.16033934011034
 21
738.5764363550245
  0
LINE
  8
_1-1_
  6
CONTINUOUS
 62
    7
 10
423.16033934011034
 20
738.5764363550245
 11
423.59341861319314
 21
736.24616840397209
  0
LINE
  8
_1-1_
  6
CONTINUOUS
 62
    7
 10
423.59341861319314
 20
736.24616840397209
 11
424.30058144780475
 21
734.05972723795173
  0
LINE
  8
_1-1_
  6
CONTINUOUS
 62
    7
 10
424.30058144780475
 20
734.05972723795173
 11
425.26034105905717
 21
732.08354676540011
  0
LINE
  8
_1-1_
  6
CONTINUOUS
 62
    7
 10
425.26034105905717
 20
732.08354676540011
 11
426.44353563682438
 21
730.37767222998036
  0
LINE
  8
_1-1_
  6
CONTINUOUS
 62
    7
 10
426.44353563682438
 20
730.37767222998036
 11
427.81421441258613
 21
728.99393576623686
  0
LINE
  8
_1-1_
  6
CONTINUOUS
 62
    7
 10
427.81421441258613
 20
728.99393576623686
 11
429.3307300053379
 21
727.97438150641619
  0
LINE
  8
_1-1_
  6
CONTINUOUS
 62
    7
 10
429.3307300053379
 20
727.97438150641619
 11
430.94700385618785
 21
727.34998809078365
  0
LINE
  8
_1-1_
  6
CONTINUOUS
 62
    7
 10
430.94700385618785
 20
727.34998809078365
 11
432.61392630205194
 21
727.13972739731469
  0
LINE
  8
_1-1_
  6
CONTINUOUS
 62
    7
 10
432.61392630205194
 20
727.13972739731469
 11
434.28084874791597
 21
727.34998809078354
  0
LINE
  8
_1-1_
  6
CONTINUOUS
 62
    7
 10
434.28084874791597
 20
727.34998809078354
 11
435.89712259876592
 21
727.97438150641619
  0
LINE
  8
_1-1_
  6
CONTINUOUS
 62
    7
 10
435.89712259876592
 20
727.97438150641619
 11
437.41363819151775
 21
728.99393576623686
  0
LINE
  8
_1-1_
  6
CONTINUOUS
 62
    7
 10
437.41363819151775
 20
728.99393576623686
 11
438.78431696727949
 21
730.37767222998036
  0
LINE
  8
_1-1_
  6
CONTINUOUS
 62
    7
 10
438.78431696727949
 20
730.37767222998036
 11
439.96751154504665
 21
732.08354676540011
  0
LINE
  8
_1-1_
  6
CONTINUOUS
 62
    7
 10
439.96751154504665
 20
732.08354676540011
 11
440.92727115629913
 21
734.05972723795162
  0
LINE
  8
_1-1_
  6
CONTINUOUS
 62
    7
 10
440.92727115629913
 20
734.05972723795162
 11
441.63443399091074
 21
736.24616840397209
  0
LINE
  8
_1-1_
  6
CONTINUOUS
 62
    7
 10
441.63443399091074
 20
736.24616840397209
 11
442.06751326399353
 21
738.5764363550245
  0
LINE
  8
_1-1_
  6
CONTINUOUS
 62
    7
 10
442.06751326399353
 20
738.5764363550245
 11
442.21335008098356
 21
740.97972707858867
  0
LINE
  8
_1-1_
  6
CONTINUOUS
 62
    7
 10
442.21335008098356
 20
740.97972707858867
 11
442.06751326399353
 21
743.38301780215272
  0
LINE
  8
_1-1_
  6
CONTINUOUS
 62
    7
 10
442.06751326399353
 20
743.38301780215272
 11
441.63443399091074
 21
745.71328575320513
  0
LINE
  8
_1-1_
  6
CONTINUOUS
 62
    7
 10
441.63443399091074
 20
745.71328575320513
 11
440.92727115629913
 21
747.8997269192256
  0
LINE
  8
_1-1_
  6
CONTINUOUS
 62
    7
 10
440.92727115629913
 20
747.8997269192256
 11
439.9675115450467
 21
749.87590739177722
  0
LINE
  8
_1-1_
  6
CONTINUOUS
 62
    7
 10
439.9675115450467
 20
749.87590739177722
 11
438.78431696727955
 21
751.58178192719697
  0
LINE
  8
_1-1_
  6
CONTINUOUS
 62
    7
 10
438.78431696727955
 20
751.58178192719697
 11
437.41363819151775
 21
752.96551839094036
  0
LINE
  8
_1-1_
  6
CONTINUOUS
 62
    7
 10
437.41363819151775
 20
752.96551839094036
 11
435.89712259876597
 21
753.98507265076114
  0
LINE
  8
_1-1_
  6
CONTINUOUS
 62
    7
 10
435.89712259876597
 20
753.98507265076114
 11
434.28084874791602
 21
754.60946606639368
  0
LINE
  8
_1-1_
  6
CONTINUOUS
 62
    7
 10
434.28084874791602
 20
754.60946606639368
 11
432.61392630205199
 21
754.81972675986265
  0
LINE
  8
_1-1_
  6
CONTINUOUS
 62
    7
 10
432.61392630205199
 20
754.81972675986265
 11
432.61392630205194
 21
754.81972675986265
  0
LINE
  8
_1-1_
  6
CONTINUOUS
 62
    7
 10
434.27592921901396
 20
754.33195849643243
 11
434.27592921901396
 21
754.33195849643243
  0
LINE
  8
_1-1_
  6
CONTINUOUS
 62
    7
 10
434.27592921901396
 20
754.33195849643243
 11
432.67852230650925
 21
754.12838239172436
  0
LINE
  8
_1-1_
  6
CONTINUOUS
 62
    7
 10
432.67852230650925
 20
754.12838239172436
 11
431.12965179471411
 21
753.52383963452712
  0
LINE
  8
_1-1_
  6
CONTINUOUS
 62
    7
 10
431.12965179471411
 20
753.52383963452712
 11
429.67637933036309
 21
752.53669895060477
  0
LINE
  8
_1-1_
  6
CONTINUOUS
 62
    7
 10
429.67637933036309
 20
752.53669895060477
 11
428.3628618618942
 21
751.19695411012106
  0
LINE
  8
_1-1_
  6
CONTINUOUS
 62
    7
 10
428.3628618618942
 20
751.19695411012106
 11
427.22900995291491
 21
749.54531258211057
  0
LINE
  8
_1-1_
  6
CONTINUOUS
 62
    7
 10
427.22900995291491
 20
749.54531258211057
 11
426.30927511992286
 21
747.63195865863065
  0
LINE
  8
_1-1_
  6
CONTINUOUS
 62
    7
 10
426.30927511992286
 20
747.63195865863065
 11
425.6316030404102
 21
745.51502863044277
  0
LINE
  8
_1-1_
  6
CONTINUOUS
 62
    7
 10
425.6316030404102
 20
745.51502863044277
 11
425.21658443759429
 21
743.25884434523493
  0
LINE
  8
_1-1_
  6
CONTINUOUS
 62
    7
 10
425.21658443759429
 20
743.25884434523493
 11
425.07682944171222
 21
740.93195882082898
  0
LINE
  8
_1-1_
  6
CONTINUOUS
 62
    7
 10
425.07682944171222
 20
740.93195882082898
 11
425.21658443759429
 21
738.60507329642303
  0
LINE
  8
_1-1_
  6
CONTINUOUS
 62
    7
 10
425.21658443759429
 20
738.60507329642303
 11
425.6316030404102
 21
736.34888901121519
  0
LINE
  8
_1-1_
  6
CONTINUOUS
 62
    7
 10
425.6316030404102
 20
736.34888901121519
 11
426.30927511992286
 21
734.23195898302731
  0
LINE
  8
_1-1_
  6
CONTINUOUS
 62
    7
 10
426.30927511992286
 20
734.23195898302731
 11
427.22900995291491
 21
732.31860505954739
  0
LINE
  8
_1-1_
  6
CONTINUOUS
 62
    7
 10
427.22900995291491
 20
732.31860505954739
 11
428.3628618618942
 21
730.66696353153691
  0
LINE
  8
_1-1_
  6
CONTINUOUS
 62
    7
 10
428.3628618618942
 20
730.66696353153691
 11
429.67637933036309
 21
729.32721869105319
  0
LINE
  8
_1-1_
  6
CONTINUOUS
 62
    7
 10
429.67637933036309
 20
729.32721869105319
 11
431.12965179471405
 21
728.34007800713084
  0
LINE
  8
_1-1_
  6
CONTINUOUS
 62
    7
 10
431.12965179471405
 20
728.34007800713084
 11
432.67852230650925
 21
727.7355352499336
  0
LINE
  8
_1-1_
  6
CONTINUOUS
 62
    7
 10
432.67852230650925
 20
727.7355352499336
 11
434.27592921901396
 21
727.53195914522553
  0
LINE
  8
_1-1_
  6
CONTINUOUS
 62
    7
 10
434.27592921901396
 20
727.53195914522553
 11
435.87333613151867
 21
727.7355352499336
  0
LINE
  8
_1-1_
  6
CONTINUOUS
 62
    7
 10
435.87333613151867
 20
727.7355352499336
 11
437.42220664331381
 21
728.34007800713084
  0
LINE
  8
_1-1_
  6
CONTINUOUS
 62
    7
 10
437.42220664331381
 20
728.34007800713084
 11
438.87547910766483
 21
729.32721869105319
  0
LINE
  8
_1-1_
  6
CONTINUOUS
 62
    7
 10
438.87547910766483
 20
729.32721869105319
 11
440.18899657613372
 21
730.66696353153679
  0
LINE
  8
_1-1_
  6
CONTINUOUS
 62
    7
 10
440.18899657613372
 20
730.66696353153679
 11
441.32284848511301
 21
732.31860505954739
  0
LINE
  8
_1-1_
  6
CONTINUOUS
 62
    7
 10
441.32284848511301
 20
732.31860505954739
 11
442.24258331810506
 21
734.2319589830272
  0
LINE
  8
_1-1_
  6
CONTINUOUS
 62
    7
 10
442.24258331810506
 20
734.2319589830272
 11
442.92025539761772
 21
736.34888901121519
  0
LINE
  8
_1-1_
  6
CONTINUOUS
 62
    7
 10
442.92025539761772
 20
736.34888901121519
 11
443.33527400043363
 21
738.60507329642292
  0
LINE
  8
_1-1_
  6
CONTINUOUS
 62
    7
 10
443.33527400043363
 20
738.60507329642292
 11
443.4750289963157
 21
740.93195882082898
  0
LINE
  8
_1-1_
  6
CONTINUOUS
 62
    7
 10
443.4750289963157
 20
740.93195882082898
 11
443.33527400043363
 21
743.25884434523493
  0
LINE
  8
_1-1_
  6
CONTINUOUS
 62
    7
 10
443.33527400043363
 20
743.25884434523493
 11
442.92025539761772
 21
745.51502863044277
  0
LINE
  8
_1-1_
  6
CONTINUOUS
 62
    7
 10
442.92025539761772
 20
745.51502863044277
 11
442.24258331810506
 21
747.63195865863065
  0
LINE
  8
_1-1_
  6
CONTINUOUS
 62
    7
 10
442.24258331810506
 20
747.63195865863065
 11
441.32284848511301
 21
749.54531258211045
  0
LINE
  8
_1-1_
  6
CONTINUOUS
 62
    7
 10
441.32284848511301
 20
749.54531258211045
 11
440.18899657613377
 21
751.19695411012106
  0
LINE
  8
_1-1_
  6
CONTINUOUS
 62
    7
 10
440.18899657613377
 20
751.19695411012106
 11
438.87547910766489
 21
752.53669895060477
  0
LINE
  8
_1-1_
  6
CONTINUOUS
 62
    7
 10
438.87547910766489
 20
752.53669895060477
 11
437.42220664331387
 21
753.52383963452712
  0
LINE
  8
_1-1_
  6
CONTINUOUS
 62
    7
 10
437.42220664331387
 20
753.52383963452712
 11
435.87333613151873
 21
754.12838239172436
  0
LINE
  8
_1-1_
  6
CONTINUOUS
 62
    7
 10
435.87333613151873
 20
754.12838239172436
 11
434.27592921901402
 21
754.33195849643243
  0
LINE
  8
_1-1_
  6
CONTINUOUS
 62
    7
 10
434.27592921901402
 20
754.33195849643243
 11
434.27592921901396
 21
754.33195849643243
  0
LINE
  8
_1-1_
  6
CONTINUOUS
 62
    7
 10
1407.4032648741968
 20
757.53980533496758
 11
1407.4032648741968
 21
757.53980533496758
  0
LINE
  8
_1-1_
  6
CONTINUOUS
 62
    7
 10
1407.4032648741968
 20
757.53980533496758
 11
1405.7363424283328
 21
757.32954464149861
  0
LINE
  8
_1-1_
  6
CONTINUOUS
 62
    7
 10
1405.7363424283328
 20
757.32954464149861
 11
1404.1200685774827
 21
756.70515122586608
  0
LINE
  8
_1-1_
  6
CONTINUOUS
 62
    7
 10
1404.1200685774827
 20
756.70515122586608
 11
1402.6035529847311
 21
755.68559696604541
  0
LINE
  8
_1-1_
  6
CONTINUOUS
 62
    7
 10
1402.6035529847311
 20
755.68559696604541
 11
1401.2328742089692
 21
754.30186050230191
  0
LINE
  8
_1-1_
  6
CONTINUOUS
 62
    7
 10
1401.2328742089692
 20
754.30186050230191
 11
1400.049679631202
 21
752.59598596688215
  0
LINE
  8
_1-1_
  6
CONTINUOUS
 62
    7
 10
1400.049679631202
 20
752.59598596688215
 11
1399.0899200199497
 21
750.61980549433054
  0
LINE
  8
_1-1_
  6
CONTINUOUS
 62
    7
 10
1399.0899200199497
 20
750.61980549433054
 11
1398.3827571853381
 21
748.43336432831018
  0
LINE
  8
_1-1_
  6
CONTINUOUS
 62
    7
 10
1398.3827571853381
 20
748.43336432831018
 11
1397.9496779122553
 21
746.10309637725777
  0
LINE
  8
_1-1_
  6
CONTINUOUS
 62
    7
 10
1397.9496779122553
 20
746.10309637725777
 11
1397.8038410952652
 21
743.6998056536936
  0
LINE
  8
_1-1_
  6
CONTINUOUS
 62
    7
 10
1397.8038410952652
 20
743.6998056536936
 11
1397.9496779122553
 21
741.29651493012943
  0
LINE
  8
_1-1_
  6
CONTINUOUS
 62
    7
 10
1397.9496779122553
 20
741.29651493012943
 11
1398.3827571853381
 21
738.96624697907703
  0
LINE
  8
_1-1_
  6
CONTINUOUS
 62
    7
 10
1398.3827571853381
 20
738.96624697907703
 11
1399.0899200199497
 21
736.77980581305667
  0
LINE
  8
_1-1_
  6
CONTINUOUS
 62
    7
 10
1399.0899200199497
 20
736.77980581305667
 11
1400.049679631202
 21
734.80362534050505
  0
LINE
  8
_1-1_
  6
CONTINUOUS
 62
    7
 10
1400.049679631202
 20
734.80362534050505
 11
1401.2328742089692
 21
733.0977508050853
  0
LINE
  8
_1-1_
  6
CONTINUOUS
 62
    7
 10
1401.2328742089692
 20
733.0977508050853
 11
1402.6035529847309
 21
731.71401434134179
  0
LINE
  8
_1-1_
  6
CONTINUOUS
 62
    7
 10
1402.6035529847309
 20
731.71401434134179
 11
1404.1200685774827
 21
730.69446008152113
  0
LINE
  8
_1-1_
  6
CONTINUOUS
 62
    7
 10
1404.1200685774827
 20
730.69446008152113
 11
1405.7363424283328
 21
730.07006666588859
  0
LINE
  8
_1-1_
  6
CONTINUOUS
 62
    7
 10
1405.7363424283328
 20
730.07006666588859
 11
1407.4032648741968
 21
729.85980597241962
  0
LINE
  8
_1-1_
  6
CONTINUOUS
 62
    7
 10
1407.4032648741968
 20
729.85980597241962
 11
1409.0701873200608
 21
730.07006666588848
  0
LINE
  8
_1-1_
  6
CONTINUOUS
 62
    7
 10
1409.0701873200608
 20
730.07006666588848
 11
1410.6864611709109
 21
730.69446008152113
  0
LINE
  8
_1-1_
  6
CONTINUOUS
 62
    7
 10
1410.6864611709109
 20
730.69446008152113
 11
1412.2029767636625
 21
731.71401434134179
  0
LINE
  8
_1-1_
  6
CONTINUOUS
 62
    7
 10
1412.2029767636625
 20
731.71401434134179
 11
1413.5736555394244
 21
733.0977508050853
  0
LINE
  8
_1-1_
  6
CONTINUOUS
 62
    7
 10
1413.5736555394244
 20
733.0977508050853
 11
1414.7568501171916
 21
734.80362534050505
  0
LINE
  8
_1-1_
  6
CONTINUOUS
 62
    7
 10
1414.7568501171916
 20
734.80362534050505
 11
1415.7166097284439
 21
736.77980581305656
  0
LINE
  8
_1-1_
  6
CONTINUOUS
 62
    7
 10
1415.7166097284439
 20
736.77980581305656
 11
1416.4237725630555
 21
738.96624697907703
  0
LINE
  8
_1-1_
  6
CONTINUOUS
 62
    7
 10
1416.4237725630555
 20
738.96624697907703
 11
1416.8568518361383
 21
741.29651493012943
  0
LINE
  8
_1-1_
  6
CONTINUOUS
 62
    7
 10
1416.8568518361383
 20
741.29651493012943
 11
1417.0026886531284
 21
743.6998056536936
  0
LINE
  8
_1-1_
  6
CONTINUOUS
 62
    7
 10
1417.0026886531284
 20
743.6998056536936
 11
1416.8568518361385
 21
746.10309637725766
  0
LINE
  8
_1-1_
  6
CONTINUOUS
 62
    7
 10
1416.8568518361385
 20
746.10309637725766
 11
1416.4237725630555
 21
748.43336432831006
  0
LINE
  8
_1-1_
  6
CONTINUOUS
 62
    7
 10
1416.4237725630555
 20
748.43336432831006
 11
1415.7166097284439
 21
750.61980549433054
  0
LINE
  8
_1-1_
  6
CONTINUOUS
 62
    7
 10
1415.7166097284439
 20
750.61980549433054
 11
1414.7568501171916
 21
752.59598596688215
  0
LINE
  8
_1-1_
  6
CONTINUOUS
 62
    7
 10
1414.7568501171916
 20
752.59598596688215
 11
1413.5736555394244
 21
754.30186050230191
  0
LINE
  8
_1-1_
  6
CONTINUOUS
 62
    7
 10
1413.5736555394244
 20
754.30186050230191
 11
1412.2029767636627
 21
755.6855969660453
  0
LINE
  8
_1-1_
  6
CONTINUOUS
 62
    7
 10
1412.2029767636627
 20
755.6855969660453
 11
1410.6864611709109
 21
756.70515122586608
  0
LINE
  8
_1-1_
  6
CONTINUOUS
 62
    7
 10
1410.6864611709109
 20
756.70515122586608
 11
1409.070187320061
 21
757.32954464149861
  0
LINE
  8
_1-1_
  6
CONTINUOUS
 62
    7
 10
1409.070187320061
 20
757.32954464149861
 11
1407.4032648741968
 21
757.53980533496758
  0
LINE
  8
_1-1_
  6
CONTINUOUS
 62
    7
 10
1407.4032648741968
 20
757.53980533496758
 11
1407.4032648741968
 21
757.53980533496758
  0
LINE
  8
_1-1_
  6
CONTINUOUS
 62
    7
 10
1563.4743237587475
 20
757.61443230176076
 11
1563.4743237587475
 21
757.61443230176076
  0
LINE
  8
_1-1_
  6
CONTINUOUS
 62
    7
 10
1563.4743237587475
 20
757.61443230176076
 11
1561.8074013128835
 21
757.40417160829179
  0
LINE
  8
_1-1_
  6
CONTINUOUS
 62
    7
 10
1561.8074013128835
 20
757.40417160829179
 11
1560.1911274620334
 21
756.77977819265925
  0
LINE
  8
_1-1_
  6
CONTINUOUS
 62
    7
 10
1560.1911274620334
 20
756.77977819265925
 11
1558.6746118692818
 21
755.76022393283858
  0
LINE
  8
_1-1_
  6
CONTINUOUS
 62
    7
 10
1558.6746118692818
 20
755.76022393283858
 11
1557.3039330935198
 21
754.37648746909508
  0
LINE
  8
_1-1_
  6
CONTINUOUS
 62
    7
 10
1557.3039330935198
 20
754.37648746909508
 11
1556.1207385157527
 21
752.67061293367533
  0
LINE
  8
_1-1_
  6
CONTINUOUS
 62
    7
 10
1556.1207385157527
 20
752.67061293367533
 11
1555.1609789045003
 21
750.69443246112371
  0
LINE
  8
_1-1_
  6
CONTINUOUS
 62
    7
 10
1555.1609789045003
 20
750.69443246112371
 11
1554.4538160698887
 21
748.50799129510335
  0
LINE
  8
_1-1_
  6
CONTINUOUS
 62
    7
 10
1554.4538160698887
 20
748.50799129510335
 11
1554.020736796806
 21
746.17772334405095
  0
LINE
  8
_1-1_
  6
CONTINUOUS
 62
    7
 10
1554.020736796806
 20
746.17772334405095
 11
1553.8748999798158
 21
743.77443262048678
  0
LINE
  8
_1-1_
  6
CONTINUOUS
 62
    7
 10
1553.8748999798158
 20
743.77443262048678
 11
1554.020736796806
 21
741.37114189692261
  0
LINE
  8
_1-1_
  6
CONTINUOUS
 62
    7
 10
1554.020736796806
 20
741.37114189692261
 11
1554.4538160698887
 21
739.0408739458702
  0
LINE
  8
_1-1_
  6
CONTINUOUS
 62
    7
 10
1554.4538160698887
 20
739.0408739458702
 11
1555.1609789045003
 21
736.85443277984984
  0
LINE
  8
_1-1_
  6
CONTINUOUS
 62
    7
 10
1555.1609789045003
 20
736.85443277984984
 11
1556.1207385157527
 21
734.87825230729823
  0
LINE
  8
_1-1_
  6
CONTINUOUS
 62
    7
 10
1556.1207385157527
 20
734.87825230729823
 11
1557.3039330935198
 21
733.17237777187847
  0
LINE
  8
_1-1_
  6
CONTINUOUS
 62
    7
 10
1557.3039330935198
 20
733.17237777187847
 11
1558.6746118692818
 21
731.78864130813497
  0
LINE
  8
_1-1_
  6
CONTINUOUS
 62
    7
 10
1558.6746118692818
 20
731.78864130813497
 11
1560.1911274620334
 21
730.7690870483143
  0
LINE
  8
_1-1_
  6
CONTINUOUS
 62
    7
 10
1560.1911274620334
 20
730.7690870483143
 11
1561.8074013128835
 21
730.14469363268176
  0
LINE
  8
_1-1_
  6
CONTINUOUS
 62
    7
 10
1561.8074013128835
 20
730.14469363268176
 11
1563.4743237587475
 21
729.9344329392128
  0
LINE
  8
_1-1_
  6
CONTINUOUS
 62
    7
 10
1563.4743237587475
 20
729.9344329392128
 11
1565.1412462046114
 21
730.14469363268165
  0
LINE
  8
_1-1_
  6
CONTINUOUS
 62
    7
 10
1565.1412462046114
 20
730.14469363268165
 11
1566.7575200554616
 21
730.7690870483143
  0
LINE
  8
_1-1_
  6
CONTINUOUS
 62
    7
 10
1566.7575200554616
 20
730.7690870483143
 11
1568.2740356482132
 21
731.78864130813497
  0
LINE
  8
_1-1_
  6
CONTINUOUS
 62
    7
 10
1568.2740356482132
 20
731.78864130813497
 11
1569.6447144239751
 21
733.17237777187847
  0
LINE
  8
_1-1_
  6
CONTINUOUS
 62
    7
 10
1569.6447144239751
 20
733.17237777187847
 11
1570.8279090017422
 21
734.87825230729823
  0
LINE
  8
_1-1_
  6
CONTINUOUS
 62
    7
 10
1570.8279090017422
 20
734.87825230729823
 11
1571.7876686129946
 21
736.85443277984973
  0
LINE
  8
_1-1_
  6
CONTINUOUS
 62
    7
 10
1571.7876686129946
 20
736.85443277984973
 11
1572.4948314476062
 21
739.0408739458702
  0
LINE
  8
_1-1_
  6
CONTINUOUS
 62
    7
 10
1572.4948314476062
 20
739.0408739458702
 11
1572.9279107206889
 21
741.37114189692261
  0
LINE
  8
_1-1_
  6
CONTINUOUS
 62
    7
 10
1572.9279107206889
 20
741.37114189692261
 11
1573.0737475376791
 21
743.77443262048678
  0
LINE
  8
_1-1_
  6
CONTINUOUS
 62
    7
 10
1573.0737475376791
 20
743.77443262048678
 11
1572.9279107206892
 21
746.17772334405083
  0
LINE
  8
_1-1_
  6
CONTINUOUS
 62
    7
 10
1572.9279107206892
 20
746.17772334405083
 11
1572.4948314476062
 21
748.50799129510324
  0
LINE
  8
_1-1_
  6
CONTINUOUS
 62
    7
 10
1572.4948314476062
 20
748.50799129510324
 11
1571.7876686129946
 21
750.69443246112371
  0
LINE
  8
_1-1_
  6
CONTINUOUS
 62
    7
 10
1571.7876686129946
 20
750.69443246112371
 11
1570.8279090017422
 21
752.67061293367533
  0
LINE
  8
_1-1_
  6
CONTINUOUS
 62
    7
 10
1570.8279090017422
 20
752.67061293367533
 11
1569.6447144239751
 21
754.37648746909508
  0
LINE
  8
_1-1_
  6
CONTINUOUS
 62
    7
 10
1569.6447144239751
 20
754.37648746909508
 11
1568.2740356482134
 21
755.76022393283847
  0
LINE
  8
_1-1_
  6
CONTINUOUS
 62
    7
 10
1568.2740356482134
 20
755.76022393283847
 11
1566.7575200554616
 21
756.77977819265925
  0
LINE
  8
_1-1_
  6
CONTINUOUS
 62
    7
 10
1566.7575200554616
 20
756.77977819265925
 11
1565.1412462046117
 21
757.40417160829179
  0
LINE
  8
_1-1_
  6
CONTINUOUS
 62
    7
 10
1565.1412462046117
 20
757.40417160829179
 11
1563.4743237587475
 21
757.61443230176076
  0
LINE
  8
_1-1_
  6
CONTINUOUS
 62
    7
 10
1563.4743237587475
 20
757.61443230176076
 11
1563.4743237587475
 21
757.61443230176076
  0
LINE
  8
_1-1_
  6
CONTINUOUS
 62
    7
 10
1564.2366911545682
 20
757.12666403833043
 11
1564.2366911545682
 21
757.12666403833043
  0
LINE
  8
_1-1_
  6
CONTINUOUS
 62
    7
 10
1564.2366911545682
 20
757.12666403833043
 11
1562.6392842420635
 21
756.92308793362236
  0
LINE
  8
_1-1_
  6
CONTINUOUS
 62
    7
 10
1562.6392842420635
 20
756.92308793362236
 11
1561.0904137302684
 21
756.31854517642512
  0
LINE
  8
_1-1_
  6
CONTINUOUS
 62
    7
 10
1561.0904137302684
 20
756.31854517642512
 11
1559.6371412659173
 21
755.33140449250277
  0
LINE
  8
_1-1_
  6
CONTINUOUS
 62
    7
 10
1559.6371412659173
 20
755.33140449250277
 11
1558.3236237974484
 21
753.99165965201905
  0
LINE
  8
_1-1_
  6
CONTINUOUS
 62
    7
 10
1558.3236237974484
 20
753.99165965201905
 11
1557.1897718884693
 21
752.34001812400857
  0
LINE
  8
_1-1_
  6
CONTINUOUS
 62
    7
 10
1557.1897718884693
 20
752.34001812400857
 11
1556.2700370554771
 21
750.42666420052865
  0
LINE
  8
_1-1_
  6
CONTINUOUS
 62
    7
 10
1556.2700370554771
 20
750.42666420052865
 11
1555.5923649759645
 21
748.30973417234077
  0
LINE
  8
_1-1_
  6
CONTINUOUS
 62
    7
 10
1555.5923649759645
 20
748.30973417234077
 11
1555.1773463731486
 21
746.05354988713293
  0
LINE
  8
_1-1_
  6
CONTINUOUS
 62
    7
 10
1555.1773463731486
 20
746.05354988713293
 11
1555.0375913772664
 21
743.72666436272698
  0
LINE
  8
_1-1_
  6
CONTINUOUS
 62
    7
 10
1555.0375913772664
 20
743.72666436272698
 11
1555.1773463731486
 21
741.39977883832103
  0
LINE
  8
_1-1_
  6
CONTINUOUS
 62
    7
 10
1555.1773463731486
 20
741.39977883832103
 11
1555.5923649759645
 21
739.14359455311319
  0
LINE
  8
_1-1_
  6
CONTINUOUS
 62
    7
 10
1555.5923649759645
 20
739.14359455311319
 11
1556.2700370554771
 21
737.02666452492531
  0
LINE
  8
_1-1_
  6
CONTINUOUS
 62
    7
 10
1556.2700370554771
 20
737.02666452492531
 11
1557.1897718884693
 21
735.11331060144539
  0
LINE
  8
_1-1_
  6
CONTINUOUS
 62
    7
 10
1557.1897718884693
 20
735.11331060144539
 11
1558.3236237974484
 21
733.4616690734349
  0
LINE
  8
_1-1_
  6
CONTINUOUS
 62
    7
 10
1558.3236237974484
 20
733.4616690734349
 11
1559.6371412659173
 21
732.12192423295119
  0
LINE
  8
_1-1_
  6
CONTINUOUS
 62
    7
 10
1559.6371412659173
 20
732.12192423295119
 11
1561.0904137302684
 21
731.13478354902884
  0
LINE
  8
_1-1_
  6
CONTINUOUS
 62
    7
 10
1561.0904137302684
 20
731.13478354902884
 11
1562.6392842420635
 21
730.5302407918316
  0
LINE
  8
_1-1_
  6
CONTINUOUS
 62
    7
 10
1562.6392842420635
 20
730.5302407918316
 11
1564.2366911545682
 21
730.32666468712353
  0
LINE
  8
_1-1_
  6
CONTINUOUS
 62
    7
 10
1564.2366911545682
 20
730.32666468712353
 11
1565.834098067073
 21
730.5302407918316
  0
LINE
  8
_1-1_
  6
CONTINUOUS
 62
    7
 10
1565.834098067073
 20
730.5302407918316
 11
1567.382968578868
 21
731.13478354902884
  0
LINE
  8
_1-1_
  6
CONTINUOUS
 62
    7
 10
1567.382968578868
 20
731.13478354902884
 11
1568.8362410432192
 21
732.12192423295119
  0
LINE
  8
_1-1_
  6
CONTINUOUS
 62
    7
 10
1568.8362410432192
 20
732.12192423295119
 11
1570.1497585116881
 21
733.46166907343479
  0
LINE
  8
_1-1_
  6
CONTINUOUS
 62
    7
 10
1570.1497585116881
 20
733.46166907343479
 11
1571.2836104206672
 21
735.11331060144539
  0
LINE
  8
_1-1_
  6
CONTINUOUS
 62
    7
 10
1571.2836104206672
 20
735.11331060144539
 11
1572.2033452536593
 21
737.0266645249252
  0
LINE
  8
_1-1_
  6
CONTINUOUS
 62
    7
 10
1572.2033452536593
 20
737.0266645249252
 11
1572.8810173331719
 21
739.14359455311319
  0
LINE
  8
_1-1_
  6
CONTINUOUS
 62
    7
 10
1572.8810173331719
 20
739.14359455311319
 11
1573.2960359359879
 21
741.39977883832091
  0
LINE
  8
_1-1_
  6
CONTINUOUS
 62
    7
 10
1573.2960359359879
 20
741.39977883832091
 11
1573.4357909318701
 21
743.72666436272698
  0
LINE
  8
_1-1_
  6
CONTINUOUS
 62
    7
 10
1573.4357909318701
 20
743.72666436272698
 11
1573.2960359359879
 21
746.05354988713293
  0
LINE
  8
_1-1_
  6
CONTINUOUS
 62
    7
 10
1573.2960359359879
 20
746.05354988713293
 11
1572.8810173331719
 21
748.30973417234077
  0
LINE
  8
_1-1_
  6
CONTINUOUS
 62
    7
 10
1572.8810173331719
 20
748.30973417234077
 11
1572.2033452536593
 21
750.42666420052865
  0
LINE
  8
_1-1_
  6
CONTINUOUS
 62
    7
 10
1572.2033452536593
 20
750.42666420052865
 11
1571.2836104206674
 21
752.34001812400845
  0
LINE
  8
_1-1_
  6
CONTINUOUS
 62
    7
 10
1571.2836104206674
 20
752.34001812400845
 11
1570.1497585116881
 21
753.99165965201905
  0
LINE
  8
_1-1_
  6
CONTINUOUS
 62
    7
 10
1570.1497585116881
 20
753.99165965201905
 11
1568.8362410432192
 21
755.33140449250277
  0
LINE
  8
_1-1_
  6
CONTINUOUS
 62
    7
 10
1568.8362410432192
 20
755.33140449250277
 11
1567.3829685788683
 21
756.31854517642512
  0
LINE
  8
_1-1_
  6
CONTINUOUS
 62
    7
 10
1567.3829685788683
 20
756.31854517642512
 11
1565.834098067073
 21
756.92308793362236
  0
LINE
  8
_1-1_
  6
CONTINUOUS
 62
    7
 10
1565.834098067073
 20
756.92308793362236
 11
1564.2366911545682
 21
757.12666403833043
  0
LINE
  8
_1-1_
  6
CONTINUOUS
 62
    7
 10
1564.2366911545682
 20
757.12666403833043
 11
1564.2366911545682
 21
757.12666403833043
  0
LINE
  8
_1-1_
  6
CONTINUOUS
 62
    7
 10
1406.5373995865634
 20
757.13637516765516
 11
1406.5373995865634
 21
757.13637516765516
  0
LINE
  8
_1-1_
  6
CONTINUOUS
 62
    7
 10
1406.5373995865634
 20
757.13637516765516
 11
1404.9399926740587
 21
756.93279906294708
  0
LINE
  8
_1-1_
  6
CONTINUOUS
 62
    7
 10
1404.9399926740587
 20
756.93279906294708
 11
1403.3911221622636
 21
756.32825630574985
  0
LINE
  8
_1-1_
  6
CONTINUOUS
 62
    7
 10
1403.3911221622636
 20
756.32825630574985
 11
1401.9378496979125
 21
755.3411156218275
  0
LINE
  8
_1-1_
  6
CONTINUOUS
 62
    7
 10
1401.9378496979125
 20
755.3411156218275
 11
1400.6243322294436
 21
754.00137078134378
  0
LINE
  8
_1-1_
  6
CONTINUOUS
 62
    7
 10
1400.6243322294436
 20
754.00137078134378
 11
1399.4904803204645
 21
752.34972925333329
  0
LINE
  8
_1-1_
  6
CONTINUOUS
 62
    7
 10
1399.4904803204645
 20
752.34972925333329
 11
1398.5707454874723
 21
750.43637532985338
  0
LINE
  8
_1-1_
  6
CONTINUOUS
 62
    7
 10
1398.5707454874723
 20
750.43637532985338
 11
1397.8930734079597
 21
748.3194453016655
  0
LINE
  8
_1-1_
  6
CONTINUOUS
 62
    7
 10
1397.8930734079597
 20
748.3194453016655
 11
1397.4780548051438
 21
746.06326101645766
  0
LINE
  8
_1-1_
  6
CONTINUOUS
 62
    7
 10
1397.4780548051438
 20
746.06326101645766
 11
1397.3382998092616
 21
743.73637549205171
  0
LINE
  8
_1-1_
  6
CONTINUOUS
 62
    7
 10
1397.3382998092616
 20
743.73637549205171
 11
1397.4780548051438
 21
741.40948996764575
  0
LINE
  8
_1-1_
  6
CONTINUOUS
 62
    7
 10
1397.4780548051438
 20
741.40948996764575
 11
1397.8930734079597
 21
739.15330568243792
  0
LINE
  8
_1-1_
  6
CONTINUOUS
 62
    7
 10
1397.8930734079597
 20
739.15330568243792
 11
1398.5707454874723
 21
737.03637565425004
  0
LINE
  8
_1-1_
  6
CONTINUOUS
 62
    7
 10
1398.5707454874723
 20
737.03637565425004
 11
1399.4904803204645
 21
735.12302173077012
  0
LINE
  8
_1-1_
  6
CONTINUOUS
 62
    7
 10
1399.4904803204645
 20
735.12302173077012
 11
1400.6243322294436
 21
733.47138020275963
  0
LINE
  8
_1-1_
  6
CONTINUOUS
 62
    7
 10
1400.6243322294436
 20
733.47138020275963
 11
1401.9378496979125
 21
732.13163536227592
  0
LINE
  8
_1-1_
  6
CONTINUOUS
 62
    7
 10
1401.9378496979125
 20
732.13163536227592
 11
1403.3911221622636
 21
731.14449467835357
  0
LINE
  8
_1-1_
  6
CONTINUOUS
 62
    7
 10
1403.3911221622636
 20
731.14449467835357
 11
1404.9399926740587
 21
730.53995192115633
  0
LINE
  8
_1-1_
  6
CONTINUOUS
 62
    7
 10
1404.9399926740587
 20
730.53995192115633
 11
1406.5373995865634
 21
730.33637581644825
  0
LINE
  8
_1-1_
  6
CONTINUOUS
 62
    7
 10
1406.5373995865634
 20
730.33637581644825
 11
1408.1348064990682
 21
730.53995192115633
  0
LINE
  8
_1-1_
  6
CONTINUOUS
 62
    7
 10
1408.1348064990682
 20
730.53995192115633
 11
1409.6836770108632
 21
731.14449467835357
  0
LINE
  8
_1-1_
  6
CONTINUOUS
 62
    7
 10
1409.6836770108632
 20
731.14449467835357
 11
1411.1369494752144
 21
732.13163536227592
  0
LINE
  8
_1-1_
  6
CONTINUOUS
 62
    7
 10
1411.1369494752144
 20
732.13163536227592
 11
1412.4504669436833
 21
733.47138020275952
  0
LINE
  8
_1-1_
  6
CONTINUOUS
 62
    7
 10
1412.4504669436833
 20
733.47138020275952
 11
1413.5843188526624
 21
735.12302173077012
  0
LINE
  8
_1-1_
  6
CONTINUOUS
 62
    7
 10
1413.5843188526624
 20
735.12302173077012
 11
1414.5040536856545
 21
737.03637565424992
  0
LINE
  8
_1-1_
  6
CONTINUOUS
 62
    7
 10
1414.5040536856545
 20
737.03637565424992
 11
1415.1817257651671
 21
739.15330568243792
  0
LINE
  8
_1-1_
  6
CONTINUOUS
 62
    7
 10
1415.1817257651671
 20
739.15330568243792
 11
1415.5967443679831
 21
741.40948996764564
  0
LINE
  8
_1-1_
  6
CONTINUOUS
 62
    7
 10
1415.5967443679831
 20
741.40948996764564
 11
1415.7364993638653
 21
743.73637549205171
  0
LINE
  8
_1-1_
  6
CONTINUOUS
 62
    7
 10
1415.7364993638653
 20
743.73637549205171
 11
1415.5967443679831
 21
746.06326101645766
  0
LINE
  8
_1-1_
  6
CONTINUOUS
 62
    7
 10
1415.5967443679831
 20
746.06326101645766
 11
1415.1817257651671
 21
748.3194453016655
  0
LINE
  8
_1-1_
  6
CONTINUOUS
 62
    7
 10
1415.1817257651671
 20
748.3194453016655
 11
1414.5040536856545
 21
750.43637532985338
  0
LINE
  8
_1-1_
  6
CONTINUOUS
 62
    7
 10
1414.5040536856545
 20
750.43637532985338
 11
1413.5843188526626
 21
752.34972925333318
  0
LINE
  8
_1-1_
  6
CONTINUOUS
 62
    7
 10
1413.5843188526626
 20
752.34972925333318
 11
1412.4504669436833
 21
754.00137078134378
  0
LINE
  8
_1-1_
  6
CONTINUOUS
 62
    7
 10
1412.4504669436833
 20
754.00137078134378
 11
1411.1369494752144
 21
755.3411156218275
  0
LINE
  8
_1-1_
  6
CONTINUOUS
 62
    7
 10
1411.1369494752144
 20
755.3411156218275
 11
1409.6836770108634
 21
756.32825630574985
  0
LINE
  8
_1-1_
  6
CONTINUOUS
 62
    7
 10
1409.6836770108634
 20
756.32825630574985
 11
1408.1348064990682
 21
756.93279906294708
  0
LINE
  8
_1-1_
  6
CONTINUOUS
 62
    7
 10
1408.1348064990682
 20
756.93279906294708
 11
1406.5373995865634
 21
757.13637516765516
  0
LINE
  8
_1-1_
  6
CONTINUOUS
 62
    7
 10
1406.5373995865634
 20
757.13637516765516
 11
1406.5373995865634
 21
757.13637516765516
  0
CIRCLE
  8
_1-1_
  6
CONTINUOUS
 62
    7
 10
308.35228393436864
 20
1318.8836089616575
 40
9.9999998803304422
  0
CIRCLE
  8
_1-1_
  6
CONTINUOUS
 62
    7
 10
308.35228393436864
 20
1318.8836089616575
 40
6.0000002015971763
  0
CIRCLE
  8
_3-1_
  6
CONTINUOUS
 62
    7
 10
537.26993590248128
 20
1363.5675770527607
 40
6.0000002015971763
  0
CIRCLE
  8
_5-0_
  6
CONTINUOUS
 62
    7
 10
435.87201019051452
 20
541.23128927812604
 40
32.00000016385524
  0
CIRCLE
  8
_5-0_
  6
CONTINUOUS
 62
    7
 10
435.87817806995048
 20
541.20438682526685
 40
27.999999118127413
  0
CIRCLE
  8
_5-0_
  6
CONTINUOUS
 62
    7
 10
435.87201019051452
 20
541.23128927812604
 40
1.5000000503992941
  0
CIRCLE
  8
_5-0_
  6
CONTINUOUS
 62
    7
 10
435.87201019051452
 20
541.22923331831407
 40
1.2000000232320034
  0
CIRCLE
  8
_5-0_
  6
CONTINUOUS
 62
    7
 10
409.84430261560391
 20
526.33174852054549
 40
0.7000000206717653
  0
CIRCLE
  8
_5-0_
  6
CONTINUOUS
 62
    7
 10
420.8874751794292
 20
515.24242622051463
 40
0.7000000206717653
  0
CIRCLE
  8
_5-0_
  6
CONTINUOUS
 62
    7
 10
435.818030309493
 20
511.19096056374804
 40
0.7000000206717653
  0
CIRCLE
  8
_5-0_
  6
CONTINUOUS
 62
    7
 10
450.89928291939401
 20
515.24925025733739
 40
0.7000000206717653
  0
CIRCLE
  8
_5-0_
  6
CONTINUOUS
 62
    7
 10
405.88745485401517
 20
541.22319667035549
 40
0.7000000206717653
  0
CIRCLE
  8
_5-0_
  6
CONTINUOUS
 62
    7
 10
409.84430261560391
 20
556.22719768391607
 40
0.7000000206717653
  0
CIRCLE
  8
_5-0_
  6
CONTINUOUS
 62
    7
 10
420.89928601239166
 20
567.2107474131933
 40
0.7000000206717653
  0
CIRCLE
  8
_5-0_
  6
CONTINUOUS
 62
    7
 10
435.87201019051452
 20
571.22319357735773
 40
0.7000000206717653
  0
CIRCLE
  8
_5-0_
  6
CONTINUOUS
 62
    7
 10
450.89928291939401
 20
567.19714308337348
 40
0.7000000206717653
  0
CIRCLE
  8
_5-0_
  6
CONTINUOUS
 62
    7
 10
461.80540607702767
 20
556.33148296459296
 40
0.7000000206717653
  0
CIRCLE
  8
_5-0_
  6
CONTINUOUS
 62
    7
 10
465.8874486680196
 20
541.22319667035549
 40
0.7000000206717653
  0
CIRCLE
  8
_5-0_
  6
CONTINUOUS
 62
    7
 10
461.80540607702767
 20
526.2274632398686
 40
0.7000000206717653
  0
CIRCLE
  8
_5-1_
  6
CONTINUOUS
 62
    7
 10
437.04150137293755
 20
1468.5297496898752
 40
4.9999999401652211
  0
CIRCLE
  8
_5-1_
  6
CONTINUOUS
 62
    7
 10
437.04150137293755
 20
1384.5297058576782
 40
4.9999999401652211
  0
CIRCLE
  8
_5-1_
  6
CONTINUOUS
 62
    7
 10
479.04147954521022
 20
1426.5297277737768
 40
4.9999999401652211
  0
CIRCLE
  8
_5-1_
  6
CONTINUOUS
 62
    7
 10
521.04150146130883
 20
1468.5297496898752
 40
4.9999999401652211
  0
CIRCLE
  8
_5-1_
  6
CONTINUOUS
 62
    7
 10
521.04150146130883
 20
1384.5297058576782
 40
4.9999999401652211
  0
CIRCLE
  8
_5-1_
  6
CONTINUOUS
 62
    7
 10
594.68436340567678
 20
1384.5297058576782
 40
4.9999999401652211
  0
CIRCLE
  8
_5-1_
  6
CONTINUOUS
 62
    7
 10
678.68436349404817
 20
1468.5297496898752
 40
4.9999999401652211
  0
CIRCLE
  8
_5-1_
  6
CONTINUOUS
 62
    7
 10
636.68434157794968
 20
1426.5297277737768
 40
4.9999999401652211
  0
CIRCLE
  8
_5-1_
  6
CONTINUOUS
 62
    7
 10
678.68436349404817
 20
1384.5297058576782
 40
4.9999999401652211
  0
CIRCLE
  8
_5-1_
  6
CONTINUOUS
 62
    7
 10
594.68436340567678
 20
1468.5297496898752
 40
4.9999999401652211
  0
CIRCLE
  8
_7-0_
  6
CONTINUOUS
 62
    7
 10
1567.0695413125527
 20
1348.9747242577746
 40
336.00594951379253
  0
CIRCLE
  8
_7-1_
  6
CONTINUOUS
 62
    7
 10
981.0150473458425
 20
697.27579566042391
 40
40.227481085361198
  0
TEXT
  8
_0-0_
 62
    6
 10
2001.574738255799
 20
1789.0034914937257
 40
100
 41
1
 50
0
  1
M508-150-B10
  0
ENDSEC
  0
EOF
