  0
SECTION
  2
HEADER
  9
$ACADVER
  1
AC1015
  9
$ACADMAINTVER
 70
               6
  9
$DWGCODEPAGE
  3
ANSI_932
  9
$INSBASE
 10
0.0
 20
0.0
 30
0.0
  9
$EXTMIN
 10
1127.4307806183469
 20
742.92893218813447
 30
-7.4083333333333323
  9
$EXTMAX
 10
1883.6083292961121
 20
1356.013310805248
 30
7.4083333333333323
  9
$LIMMIN
 10
0.0
 20
0.0
  9
$LIMMAX
 10
0.0
 20
0.0
  9
$ORTHOMODE
 70
               0
  9
$REGENMODE
 70
               1
  9
$FILLMODE
 70
               1
  9
$QTEXTMODE
 70
               0
  9
$MIRRTEXT
 70
               1
  9
$LTSCALE
 40
25.399999999999999
  9
$ATTMODE
 70
               1
  9
$TEXTSIZE
 40
0.2
  9
$TRACEWID
 40
1.0
  9
$TEXTSTYLE
  7
Standard
  9
$CLAYER
  8
一般
  9
$CELTYPE
  6
Continuous
  9
$CECOLOR
 62
             256
  9
$CELTSCALE
 40
1.0
  9
$DISPSILH
 70
               0
  9
$DIMSCALE
 40
1.0
  9
$DIMASZ
 40
0.18
  9
$DIMEXO
 40
0.0625
  9
$DIMDLI
 40
0.38
  9
$DIMRND
 40
0.0
  9
$DIMDLE
 40
0.0
  9
$DIMEXE
 40
0.18
  9
$DIMTP
 40
0.0
  9
$DIMTM
 40
0.0
  9
$DIMTXT
 40
0.18
  9
$DIMCEN
 40
0.09
  9
$DIMTSZ
 40
0.0
  9
$DIMTOL
 70
               0
  9
$DIMLIM
 70
               0
  9
$DIMTIH
 70
               1
  9
$DIMTOH
 70
               1
  9
$DIMSE1
 70
               0
  9
$DIMSE2
 70
               0
  9
$DIMTAD
 70
               0
  9
$DIMZIN
 70
               0
  9
$DIMBLK
  1

  9
$DIMASO
 70
               1
  9
$DIMSHO
 70
               1
  9
$DIMPOST
  1

  9
$DIMAPOST
  1

  9
$DIMALT
 70
               0
  9
$DIMALTD
 70
               2
  9
$DIMALTF
 40
25.399999999999999
  9
$DIMLFAC
 40
1.0
  9
$DIMTOFL
 70
               0
  9
$DIMTVP
 40
0.0
  9
$DIMTIX
 70
               0
  9
$DIMSOXD
 70
               0
  9
$DIMSAH
 70
               0
  9
$DIMBLK1
  1

  9
$DIMBLK2
  1

  9
$DIMSTYLE
  2
Standard
  9
$DIMCLRD
 70
               0
  9
$DIMCLRE
 70
               0
  9
$DIMCLRT
 70
               0
  9
$DIMTFAC
 40
1.0
  9
$DIMGAP
 40
0.09
  9
$DIMJUST
 70
               0
  9
$DIMSD1
 70
               0
  9
$DIMSD2
 70
               0
  9
$DIMTOLJ
 70
               1
  9
$DIMTZIN
 70
               0
  9
$DIMALTZ
 70
               0
  9
$DIMALTTZ
 70
               0
  9
$DIMUPT
 70
               0
  9
$DIMDEC
 70
               4
  9
$DIMTDEC
 70
               4
  9
$DIMALTU
 70
               2
  9
$DIMALTTD
 70
               2
  9
$DIMTXSTY
  7
Standard
  9
$DIMAUNIT
 70
               0
  9
$DIMADEC
 70
               0
  9
$DIMALTRND
 40
0.0
  9
$DIMAZIN
 70
               0
  9
$DIMDSEP
 70
               0
  9
$DIMATFIT
 70
               3
  9
$DIMFRAC
 70
               0
  9
$DIMLDRBLK
  1

  9
$DIMLUNIT
 70
               2
  9
$DIMLWD
 70
               0
  9
$DIMLWE
 70
               0
  9
$DIMTMOVE
 70
               0
  9
$LUNITS
 70
               2
  9
$LUPREC
 70
               4
  9
$SKETCHINC
 40
0.1
  9
$FILLETRAD
 40
0.0
  9
$AUNITS
 70
               0
  9
$AUPREC
 70
               0
  9
$MENU
  1
acad
  9
$ELEVATION
 40
0.0
  9
$PELEVATION
 40
0.0
  9
$THICKNESS
 40
0.0
  9
$LIMCHECK
 70
               0
  9
$CHAMFERA
 40
0.0
  9
$CHAMFERB
 40
0.0
  9
$CHAMFERC
 40
0.0
  9
$CHAMFERD
 40
0.0
  9
$SKPOLY
 70
               0
  9
$TDCREATE
 40
2455601.570625000
  9
$TDUCREATE
 40
0.000000000
  9
$TDUPDATE
 40
2455601.570625000
  9
$TDUUPDATE
 40
0.000000000
  9
$TDINDWG
 40
0.0000000000
  9
$TDUSRTIMER
 40
0.0000000000
  9
$USRTIMER
 70
               1
  9
$ANGBASE
 50
0.0
  9
$ANGDIR
 70
               0
  9
$PDMODE
 70
               1
  9
$PDSIZE
 40
-2.0
  9
$PLINEWID
 40
0.0
  9
$SPLFRAME
 70
               0
  9
$SPLINETYPE
 70
               6
  9
$SPLINESEGS
 70
               8
  9
$HANDSEED
  5
EC
  9
$SURFTAB1
 70
               6
  9
$SURFTAB2
 70
               6
  9
$SURFTYPE
 70
               6
  9
$SURFU
 70
               6
  9
$SURFV
 70
               6
  9
$UCSBASE
  2

  9
$UCSNAME
  2

  9
$UCSORG
 10
0.0
 20
0.0
 30
0.0
  9
$UCSXDIR
 10
1.0
 20
0.0
 30
0.0
  9
$UCSYDIR
 10
0.0
 20
1.0
 30
0.0
  9
$UCSORTHOREF
  2

  9
$UCSORTHOVIEW
 70
               0
  9
$UCSORGTOP
 10
0.0
 20
0.0
 30
0.0
  9
$UCSORGBOTTOM
 10
0.0
 20
0.0
 30
0.0
  9
$UCSORGLEFT
 10
0.0
 20
0.0
 30
0.0
  9
$UCSORGRIGHT
 10
0.0
 20
0.0
 30
0.0
  9
$UCSORGFRONT
 10
0.0
 20
0.0
 30
0.0
  9
$UCSORGBACK
 10
0.0
 20
0.0
 30
0.0
  9
$PUCSBASE
  2

  9
$PUCSNAME
  2

  9
$PUCSORG
 10
0.0
 20
0.0
 30
0.0
  9
$PUCSXDIR
 10
1.0
 20
0.0
 30
0.0
  9
$PUCSYDIR
 10
0.0
 20
1.0
 30
0.0
  9
$PUCSORTHOREF
  2

  9
$PUCSORTHOVIEW
 70
               0
  9
$PUCSORGTOP
 10
0.0
 20
0.0
 30
0.0
  9
$PUCSORGBOTTOM
 10
0.0
 20
0.0
 30
0.0
  9
$PUCSORGLEFT
 10
0.0
 20
0.0
 30
0.0
  9
$PUCSORGRIGHT
 10
0.0
 20
0.0
 30
0.0
  9
$PUCSORGFRONT
 10
0.0
 20
0.0
 30
0.0
  9
$PUCSORGBACK
 10
0.0
 20
0.0
 30
0.0
  9
$USERI1
 70
               0
  9
$USERI2
 70
               0
  9
$USERI3
 70
               0
  9
$USERI4
 70
               0
  9
$USERI5
 70
               0
  9
$USERR1
 40
0.0
  9
$USERR2
 40
0.0
  9
$USERR3
 40
0.0
  9
$USERR4
 40
0.0
  9
$USERR5
 40
0.0
  9
$WORLDVIEW
 70
               1
  9
$SHADEDGE
 70
               3
  9
$SHADEDIF
 70
              70
  9
$TILEMODE
 70
               1
  9
$MAXACTVP
 70
              64
  9
$PINSBASE
 10
0.0
 20
0.0
 30
0.0
  9
$PLIMCHECK
 70
               0
  9
$PEXTMIN
 10
1.0000000000000000E+20
 20
1.0000000000000000E+20
 30
1.0000000000000000E+20
  9
$PEXTMAX
 10
-1.0000000000000000E+20
 20
-1.0000000000000000E+20
 30
-1.0000000000000000E+20
  9
$PLIMMIN
 10
0.0
 20
0.0
  9
$PLIMMAX
 10
12.0
 20
9.0
  9
$UNITMODE
 70
               0
  9
$VISRETAIN
 70
               0
  9
$PLINEGEN
 70
               1
  9
$PSLTSCALE
 70
               0
  9
$TREEDEPTH
 70
            3020
  9
$CMLSTYLE
  2
Standard
  9
$CMLJUST
 70
               0
  9
$CMLSCALE
 40
1.0
  9
$PROXYGRAPHICS
 70
               0
  9
$MEASUREMENT
 70
               1
  9
$CELWEIGHT
370
               0
  9
$ENDCAPS
280
               0
  9
$JOINSTYLE
280
               0
  9
$LWDISPLAY
290
               1
  9
$INSUNITS
 70
               4
  9
$HYPERLINKBASE
  1

  9
$STYLESHEET
  1

  9
$XEDIT
290
               1
  9
$CEPSNTYPE
380
               0
  9
$PSTYLEMODE
290
               1
  9
$FINGERPRINTGUID
  2

  9
$VERSIONGUID
  2

  9
$EXTNAMES
290
               1
  9
$PSVPSCALE
 40
0.0
  0
ENDSEC
  0
SECTION
  2
CLASSES
  0
CLASS
  1
LWPOLYLINE
  2
AcDbPolyline
  3
AutoCAD 2000
 90
    32768
280
               0
281
               1
  0
CLASS
  1
IMAGE
  2
AcDbRasterImage
  3
ISM
 90
    32895
280
               0
281
               1
  0
CLASS
  1
OLE2FRAME
  2
AcDbOle2Frame
  3
AutoCAD 2000
 90
    32768
280
               0
281
               1
  0
CLASS
  1
HATCH
  2
AcDbHatch
  3
AutoCAD 2000
 90
    32768
280
               0
281
               1
  0
CLASS
  1
DICTIONARYVAR
  2
AcDbDictionaryVar
  3
AutoCAD 2000
 90
    32768
280
               0
281
               0
  0
CLASS
  1
RASTERVARIABLES
  2
AcDbRasterVariables
  3
ISM
 90
    32768
280
               0
281
               0
  0
CLASS
  1
IMAGEDEF
  2
AcDbRasterImageDef
  3
ISM
 90
    32768
280
               0
281
               0
  0
CLASS
  1
IMAGEDEF_REACTOR
  2
AcDbRasterImageDefReactor
  3
ISM
 90
    32769
280
               0
281
               0
  0
CLASS
  1
IDBUFFER
  2
AcDbIdBuffer
  3
AutoCAD 2000
 90
    32768
280
               0
281
               0
  0
CLASS
  1
SPATIAL_FILTER
  2
AcDbSpatialFilter
  3
AutoCAD 2000
 90
    32768
280
               0
281
               0
  0
CLASS
  1
XRECORD
  2
AcDbXrecord
  3
AutoCAD 2000
 90
    32768
280
               0
281
               0
  0
CLASS
  1
SORTENTSTABLE
  2
AcDbSortentsTable
  3
AutoCAD 2000
 90
    32768
280
               0
281
               0
  0
CLASS
  1
LAYER_INDEX
  2
AcDbLayerIndex
  3
AutoCAD 2000
 90
    32768
280
               0
281
               0
  0
CLASS
  1
SPATIAL_INDEX
  2
AcDbSpatialIndex
  3
AutoCAD 2000
 90
    32768
280
               0
281
               0
  0
CLASS
  1
OBJECT_PTR
  2
CAseDLPNTableRecord
  3
"ASE-LPNTableRecord"
 90
    32769
280
               0
281
               0
  0
CLASS
  1
LAYOUT
  2
AcDbLayout
  3
AutoCAD 2000
 90
        0
280
               0
281
               0
  0
CLASS
  1
PLOTSETTINGS
  2
AcDbPlotSettings
  3
AutoCAD 2000
 90
    32768
280
               0
281
               0
  0
CLASS
  1
ACDBDICTIONARYWDFLT
  2
AcDbDictionaryWithDefault
  3
AutoCAD 2000
 90
        0
280
               0
281
               0
  0
CLASS
  1
ACDBPLACEHOLDER
  2
AcDbPlaceHolder
  3
AutoCAD 2000
 90
        0
280
               0
281
               0
  0
CLASS
  1
VBA_PROJECT
  2
AcDbVbaProject
  3
acadvba
 90
    32768
280
               0
281
               0
  0
CLASS
  1
WIPEOUT
  2
AcDbWipeout
  3
WipeOut|AutoCAD Express Tool|expresstools@autodesk.com
 90
    32895
280
               0
281
               1
  0
CLASS
  1
WIPEOUTVARIABLES
  2
AcDbWipeoutVariables
  3
WipeOut|AutoCAD Express Tool|expresstools@autodesk.com
 90
        0
280
               0
281
               0
  0
CLASS
  1
RTEXT
  2
RText
  3
RText|AutoCAD Express Tool|expresstools@autodesk.com
 90
    32768
280
               0
281
               1
  0
CLASS
  1
ARCALIGNEDTEXT
  2
AcDbArcAlignedText
  3
ATEXT|AutoCAD Express Tool|expresstools@autodesk.com
 90
    32768
280
               0
281
               1
  0
ENDSEC
  0
SECTION
  2
TABLES
  0
TABLE
  2
VPORT
  5
7
100
AcDbSymbolTable
 70
               1
  0
VPORT
  5
15
100
AcDbSymbolTableRecord
100
AcDbViewportTableRecord
  2
*ACTIVE
 70
               0
 10
0.0
 20
0.0
 11
1.0
 21
1.0
 12
1505.5195549572295
 22
1049.4711214966912
 13
0.0
 23
0.0
 14
1.0
 24
1.0
 15
0.0
 25
0.0
 16
0.0
 26
0.0
 36
1.0
 17
0.0
 27
0.0
 37
0.0
 40
613.08437861711354
 41
0.688564
 42
50.0
 43
0.0
 44
0.0
 50
0.0
 51
0.0
 71
               0
 72
            2000
 73
               1
 74
               1
 75
               0
 76
               0
 77
               0
 78
               0
281
               0
 65
               0
110
0.0
120
0.0
130
0.0
111
1.0
121
0.0
131
0.0
112
0.0
122
1.0
132
0.0
345
0
346
0
 79
               0
146
0.0
  0
ENDTAB
  0
TABLE
  2
LTYPE
  5
4
100
AcDbSymbolTable
 70
              14
  0
LTYPE
  5
11
100
AcDbSymbolTableRecord
100
AcDbLinetypeTableRecord
  2
ByBlock
 70
              64
  3

 72
              65
 73
               0
 40
0.0
  0
LTYPE
  5
12
100
AcDbSymbolTableRecord
100
AcDbLinetypeTableRecord
  2
ByLayer
 70
              64
  3

 72
              65
 73
               0
 40
0.0
  0
LTYPE
  5
13
100
AcDbSymbolTableRecord
100
AcDbLinetypeTableRecord
  2
Continuous
 70
              64
  3
Solid line
 72
              65
 73
               0
 40
0.0
  0
LTYPE
  5
2D
100
AcDbSymbolTableRecord
100
AcDbLinetypeTableRecord
  2
STYLE_01
 70
               0
  3

 72
              65
 73
               2
 40
0.41664
 49
0.20828
 74
               0
 49
-0.20836
 74
               0
  0
LTYPE
  5
2E
100
AcDbSymbolTableRecord
100
AcDbLinetypeTableRecord
  2
STYLE_02
 70
               0
  3

 72
              65
 73
               2
 40
0.6944250000000001
 49
0.48607
 74
               0
 49
-0.2083550000000001
 74
               0
  0
LTYPE
  5
2F
100
AcDbSymbolTableRecord
100
AcDbLinetypeTableRecord
  2
STYLE_03
 70
               0
  3

 72
              65
 73
               2
 40
1.25
 49
1.0416400000000001
 74
               0
 49
-0.2083599999999999
 74
               0
  0
LTYPE
  5
30
100
AcDbSymbolTableRecord
100
AcDbLinetypeTableRecord
  2
STYLE_04
 70
               0
  3

 72
              65
 73
               2
 40
1.5277099999999999
 49
1.3194249999999998
 74
               0
 49
-0.208285
 74
               0
  0
LTYPE
  5
31
100
AcDbSymbolTableRecord
100
AcDbLinetypeTableRecord
  2
STYLE_05
 70
               0
  3

 72
              65
 73
               2
 40
0.20828
 49
0.069425
 74
               0
 49
-0.138855
 74
               0
  0
LTYPE
  5
32
100
AcDbSymbolTableRecord
100
AcDbLinetypeTableRecord
  2
STYLE_06
 70
               0
  3

 72
              65
 73
               4
 40
1.0416400000000001
 49
0.625
 74
               0
 49
-0.20828
 74
               0
 49
0.06943
 74
               0
 49
-0.13893
 74
               0
  0
LTYPE
  5
33
100
AcDbSymbolTableRecord
100
AcDbLinetypeTableRecord
  2
STYLE_07
 70
               0
  3

 72
              65
 73
               6
 40
1.875
 49
0.625
 74
               0
 49
-0.20828
 74
               0
 49
0.6250000000000001
 74
               0
 49
-0.2083599999999999
 74
               0
 49
0.06943
 74
               0
 49
-0.1389299999999999
 74
               0
  0
LTYPE
  5
34
100
AcDbSymbolTableRecord
100
AcDbLinetypeTableRecord
  2
STYLE_08
 70
               0
  3

 72
              65
 73
               6
 40
1.25
 49
0.625
 74
               0
 49
-0.20828
 74
               0
 49
0.06943
 74
               0
 49
-0.13893
 74
               0
 49
0.0694299999999999
 74
               0
 49
-0.13893
 74
               0
  0
LTYPE
  5
35
100
AcDbSymbolTableRecord
100
AcDbLinetypeTableRecord
  2
STYLE_09
 70
               0
  3

 72
              65
 73
               4
 40
5.0
 49
3.75
 74
               0
 49
-0.2777849999999998
 74
               0
 49
0.6944300000000003
 74
               0
 49
-0.2777849999999998
 74
               0
  0
LTYPE
  5
36
100
AcDbSymbolTableRecord
100
AcDbLinetypeTableRecord
  2
STYLE_10
 70
               0
  3

 72
              65
 73
               6
 40
5.9375
 49
3.75
 74
               0
 49
-0.2777849999999998
 74
               0
 49
0.6944300000000003
 74
               0
 49
-0.2777849999999998
 74
               0
 49
0.625
 74
               0
 49
-0.3125
 74
               0
  0
LTYPE
  5
37
100
AcDbSymbolTableRecord
100
AcDbLinetypeTableRecord
  2
STYLE_11
 70
               0
  3

 72
              65
 73
               4
 40
0.9646653543307084
 49
0.6029158464566929
 74
               0
 49
-0.1205831692913385
 74
               0
 49
0.1205831692913385
 74
               0
 49
-0.1205831692913385
 74
               0
  0
ENDTAB
  0
TABLE
  2
LAYER
  5
2
100
AcDbSymbolTable
 70
               7
  0
LAYER
  5
14
100
AcDbSymbolTableRecord
100
AcDbLayerTableRecord
  2
0
 70
               0
 62
               7
  6
Continuous
290
               1
370
              15
390
1D
  0
LAYER
  5
38
100
AcDbSymbolTableRecord
100
AcDbLayerTableRecord
  2
一般
 70
               0
 62
               7
  6
Continuous
290
               1
370
               5
390
1D
  0
LAYER
  5
39
100
AcDbSymbolTableRecord
100
AcDbLayerTableRecord
  2
寸法
 70
               0
 62
               7
  6
Continuous
290
               1
370
               5
390
1D
  0
LAYER
  5
3A
100
AcDbSymbolTableRecord
100
AcDbLayerTableRecord
  2
dim
 70
               0
 62
               7
  6
Continuous
290
               1
370
              15
390
1D
  0
LAYER
  5
3B
100
AcDbSymbolTableRecord
100
AcDbLayerTableRecord
  2
HATCH
 70
               0
 62
               7
  6
Continuous
290
               1
370
              15
390
1D
  0
LAYER
  5
3C
100
AcDbSymbolTableRecord
100
AcDbLayerTableRecord
  2
DEFAULT_1
 70
               0
 62
               7
  6
STYLE_11
290
               1
370
              15
390
1D
  0
LAYER
  5
3D
100
AcDbSymbolTableRecord
100
AcDbLayerTableRecord
  2
排水
 70
               0
 62
               7
  6
Continuous
290
               1
370
              15
390
1D
  0
ENDTAB
  0
TABLE
  2
STYLE
  5
3
100
AcDbSymbolTable
 70
               3
  0
STYLE
  5
17
100
AcDbSymbolTableRecord
100
AcDbTextStyleTableRecord
  2
Standard
 70
               0
 40
0.0
 41
1.0
 50
0.0
 71
               0
 42
0.0
  3
txt
  4
BIGFONT.SHX
  0
STYLE
  5
2B
100
AcDbSymbolTableRecord
100
AcDbTextStyleTableRecord
  2
Arial
 70
               0
 40
0.0
 41
1.0
 50
0.0
 71
               0
 42
0.0
  3

  4
Arial
1001
ACAD
1000
Arial
1071
        0
  0
STYLE
  5
2C
100
AcDbSymbolTableRecord
100
AcDbTextStyleTableRecord
  2
ＭＳ ゴシック
 70
               0
 40
0.0
 41
1.0
 50
0.0
 71
               0
 42
0.0
  3

  4
ＭＳ ゴシック
1001
ACAD
1000
ＭＳ ゴシック
1071
        0
  0
ENDTAB
  0
TABLE
  2
VIEW
  5
5
100
AcDbSymbolTable
 70
               0
  0
ENDTAB
  0
TABLE
  2
UCS
  5
6
100
AcDbSymbolTable
 70
               0
  0
ENDTAB
  0
TABLE
  2
APPID
  5
8
100
AcDbSymbolTable
 70
               1
  0
APPID
  5
16
100
AcDbSymbolTableRecord
100
AcDbRegAppTableRecord
  2
ACAD
 70
               0
  0
ENDTAB
  0
TABLE
  2
DIMSTYLE
  5
9
100
AcDbSymbolTable
 70
               1
100
AcDbDimStyleTable
 71
               0
  0
DIMSTYLE
105
18
100
AcDbSymbolTableRecord
100
AcDbDimStyleTableRecord
  2
Standard
 70
               0
  3

  4

 40
1.0
 41
0.18
 42
0.0625
 43
0.38
 44
0.18
 45
0.0
 46
0.0
 47
0.0
 48
0.0
 71
               0
 72
               0
 73
               1
 74
               1
 75
               0
 76
               0
 77
               0
 78
               0
 79
               0
140
0.18
141
0.09
142
0.0
143
25.399999999999999
144
1.0
145
0.0
146
1.0
147
0.09
148
0.0
170
               0
171
               2
172
               0
173
               0
174
               0
175
               0
176
               0
177
               0
178
               0
179
               0
271
               4
272
               4
273
               2
274
               2
275
               0
276
               0
277
               2
278
              46
279
               0
280
               0
281
               0
282
               0
283
               1
284
               0
285
               0
286
               0
288
               0
340
17
341
0
342
0
343
0
344
0
371
              -2
372
              -2
  0
ENDTAB
  0
TABLE
  2
BLOCK_RECORD
  5
1
100
AcDbSymbolTable
 70
               7
  0
BLOCK_RECORD
  5
A
100
AcDbSymbolTableRecord
100
AcDbBlockTableRecord
  2
*MODEL_SPACE
340
20
  0
BLOCK_RECORD
  5
B
100
AcDbSymbolTableRecord
100
AcDbBlockTableRecord
  2
*PAPER_SPACE
340
21
  0
BLOCK_RECORD
  5
24
100
AcDbSymbolTableRecord
100
AcDbBlockTableRecord
  2
グループ
340
0
102
{BLKREFS
331
70
102
}
  0
BLOCK_RECORD
  5
25
100
AcDbSymbolTableRecord
100
AcDbBlockTableRecord
  2
グループ-1
340
0
102
{BLKREFS
331
4F
102
}
  0
BLOCK_RECORD
  5
26
100
AcDbSymbolTableRecord
100
AcDbBlockTableRecord
  2
スケール1：5
340
0
102
{BLKREFS
331
71
102
}
  0
BLOCK_RECORD
  5
27
100
AcDbSymbolTableRecord
100
AcDbBlockTableRecord
  2
グループ-2
340
0
102
{BLKREFS
331
65
102
}
  0
BLOCK_RECORD
  5
28
100
AcDbSymbolTableRecord
100
AcDbBlockTableRecord
  2
グループ-3
340
0
102
{BLKREFS
331
72
102
}
  0
BLOCK_RECORD
  5
29
100
AcDbSymbolTableRecord
100
AcDbBlockTableRecord
  2
グループ-4
340
0
102
{BLKREFS
331
EA
102
}
  0
BLOCK_RECORD
  5
2A
100
AcDbSymbolTableRecord
100
AcDbBlockTableRecord
  2
グループ-5
340
0
102
{BLKREFS
331
EB
102
}
  0
ENDTAB
  0
ENDSEC
  0
SECTION
  2
BLOCKS
  0
BLOCK
  5
D
100
AcDbEntity
  8
0
100
AcDbBlockBegin
  2
*MODEL_SPACE
 70
               0
 10
0.0
 20
0.0
 30
0.0
  3
*MODEL_SPACE
  1

  0
ENDBLK
  5
E
100
AcDbEntity
  8
0
100
AcDbBlockEnd
  0
BLOCK
  5
F
100
AcDbEntity
 67
               1
  8
0
100
AcDbBlockBegin
  2
*PAPER_SPACE
 70
               0
 10
0.0
 20
0.0
 30
0.0
  3
*PAPER_SPACE
  1

  0
ENDBLK
  5
10
100
AcDbEntity
 67
               1
  8
0
100
AcDbBlockEnd
  0
BLOCK
  5
3E
100
AcDbEntity
  8
一般
100
AcDbBlockBegin
  2
グループ
 70
               0
 10
0.0
 20
0.0
 30
0.0
  3
グループ
  1

  0
LINE
  5
3F
100
AcDbEntity
  8
一般
370
               5
  6
Continuous
 62
               7
100
AcDbLine
 10
-290.49815156978758
 20
-262.92893218813452
 30
0.0
 11
-304.64028719351853
 21
-277.07106781186548
 31
0.0
  0
LINE
  5
40
100
AcDbEntity
  8
一般
370
               5
  6
Continuous
 62
               7
100
AcDbLine
 10
-290.49815156978758
 20
-277.07106781186548
 30
0.0
 11
-304.64028719351853
 21
-262.92893218813452
 31
0.0
  0
ENDBLK
  5
41
100
AcDbEntity
  8
一般
100
AcDbBlockEnd
  0
BLOCK
  5
42
100
AcDbEntity
  8
一般
100
AcDbBlockBegin
  2
グループ-1
 70
               0
 10
0.0
 20
0.0
 30
0.0
  3
グループ-1
  1

  0
MTEXT
  5
43
100
AcDbEntity
  8
一般
 62
               8
100
AcDbMText
 10
-61.590303983041849
 20
8.3342057291666851
 30
0.0
 40
8.1442057291666661
 41
7.3612159321675676
 71
               1
 72
               1
  1
0
  7
ＭＳ ゴシック
 73
               1
 44
0.7828267384257843
  0
MTEXT
  5
44
100
AcDbEntity
  8
一般
 62
               8
100
AcDbMText
 10
-12.909696016958151
 20
8.3342057291666851
 30
0.0
 40
8.1442057291666661
 41
12.75
 71
               1
 72
               1
  1
50
  7
ＭＳ ゴシック
 73
               1
 44
0.7828267384257843
  0
MTEXT
  5
45
100
AcDbEntity
  8
一般
 62
               8
100
AcDbMText
 10
33.590303983041849
 20
8.3342057291666851
 30
0.0
 40
8.1442057291666661
 41
27.999999999999972
 71
               1
 72
               1
  1
100mm
  7
ＭＳ ゴシック
 73
               1
 44
0.7828267384257843
  0
LINE
  5
46
100
AcDbEntity
  8
寸法
370
              15
 62
               8
100
AcDbLine
 10
-7.9096960169581507
 20
-1.2916666666666288
 30
0.0
 11
-7.9096960169581507
 21
-9.2916666666666288
 31
0.0
  0
POLYLINE
  5
47
100
AcDbEntity
  8
一般
370
              15
  6
Continuous
 62
               8
100
AcDb2dPolyline
 66
               1
 10
0.0
 20
0.0
 30
0.0
 75
               5
  0
VERTEX
  5
48
100
AcDbEntity
  8
一般
370
              15
  6
Continuous
 62
               8
100
AcDbVertex
100
AcDb2dVertex
 10
-57.909696016958151
 20
-1.2916666666666288
 30
0.0
  0
VERTEX
  5
49
100
AcDbEntity
  8
一般
370
              15
  6
Continuous
 62
               8
100
AcDbVertex
100
AcDb2dVertex
 10
-57.909696016958151
 20
-9.2916666666666288
 30
0.0
  0
VERTEX
  5
4A
100
AcDbEntity
  8
一般
370
              15
  6
Continuous
 62
               8
100
AcDbVertex
100
AcDb2dVertex
 10
42.090303983041849
 20
-9.2916666666666288
 30
0.0
  0
VERTEX
  5
4B
100
AcDbEntity
  8
一般
370
              15
  6
Continuous
 62
               8
100
AcDbVertex
100
AcDb2dVertex
 10
42.090303983041849
 20
-1.2916666666666288
 30
0.0
  0
SEQEND
  5
4C
100
AcDbEntity
  8
一般
370
              15
  6
Continuous
 62
               8
  0
ENDBLK
  5
4D
100
AcDbEntity
  8
一般
100
AcDbBlockEnd
  0
BLOCK
  5
4E
100
AcDbEntity
  8
一般
100
AcDbBlockBegin
  2
スケール1：5
 70
               0
 10
0.0
 20
0.0
 30
0.0
  3
スケール1：5
  1

  0
INSERT
  5
4F
100
AcDbEntity
  8
一般
 62
               7
100
AcDbBlockReference
  2
グループ-1
 10
0.0
 20
0.0
 30
0.0
  0
ENDBLK
  5
50
100
AcDbEntity
  8
一般
100
AcDbBlockEnd
  0
BLOCK
  5
51
100
AcDbEntity
  8
寸法
100
AcDbBlockBegin
  2
グループ-2
 70
               0
 10
0.0
 20
0.0
 30
0.0
  3
グループ-2
  1

  0
LINE
  5
52
100
AcDbEntity
  8
寸法
370
              15
  6
Continuous
 62
               7
100
AcDbLine
 10
-283.33107238726961
 20
9.9999999999990052
 30
0.0
 11
-283.33107238726961
 21
2.9999999999989768
 31
0.0
  0
LINE
  5
53
100
AcDbEntity
  8
寸法
370
              15
  6
Continuous
 62
               7
100
AcDbLine
 10
-311.83107238726961
 20
9.9999999999990052
 30
0.0
 11
-311.83107238726961
 21
2.9999999999989768
 31
0.0
  0
LINE
  5
54
100
AcDbEntity
  8
寸法
370
              15
  6
Continuous
 62
               7
100
AcDbLine
 10
-307.58107238726961
 20
1.9999999999989768
 30
0.0
 11
-287.58107238726961
 21
1.9999999999989768
 31
0.0
  0
LINE
  5
55
100
AcDbEntity
  8
寸法
370
              15
  6
Continuous
 62
               7
100
AcDbLine
 10
-307.58107238726961
 20
1.9999999999989768
 30
0.0
 11
-311.83107238726961
 21
2.9999999999989768
 31
0.0
  0
LINE
  5
56
100
AcDbEntity
  8
寸法
370
              15
  6
Continuous
 62
               7
100
AcDbLine
 10
-287.58107238726961
 20
1.9999999999989768
 30
0.0
 11
-283.33107238726961
 21
2.9999999999989768
 31
0.0
  0
ENDBLK
  5
57
100
AcDbEntity
  8
寸法
100
AcDbBlockEnd
  0
BLOCK
  5
58
100
AcDbEntity
  8
一般
100
AcDbBlockBegin
  2
グループ-3
 70
               0
 10
0.0
 20
0.0
 30
0.0
  3
グループ-3
  1

  0
POLYLINE
  5
59
100
AcDbEntity
  8
寸法
370
              15
  6
Continuous
 62
               7
100
AcDb2dPolyline
 66
               1
 10
0.0
 20
0.0
 30
0.0
 70
               1
 75
               5
  0
VERTEX
  5
5A
100
AcDbEntity
  8
寸法
370
              15
  6
Continuous
 62
               7
100
AcDbVertex
100
AcDb2dVertex
 10
-312.58107238726961
 20
19.999999999998977
 30
0.0
  0
VERTEX
  5
5B
100
AcDbEntity
  8
寸法
370
              15
  6
Continuous
 62
               7
100
AcDbVertex
100
AcDb2dVertex
 10
-282.58107238726961
 20
19.999999999998977
 30
0.0
  0
VERTEX
  5
5C
100
AcDbEntity
  8
寸法
370
              15
  6
Continuous
 62
               7
100
AcDbVertex
100
AcDb2dVertex
 10
-282.58107238726961
 20
-146.00000000000102
 30
0.0
  0
VERTEX
  5
5D
100
AcDbEntity
  8
寸法
370
              15
  6
Continuous
 62
               7
100
AcDbVertex
100
AcDb2dVertex
 10
-312.58107238726961
 20
-146.00000000000102
 30
0.0
  0
SEQEND
  5
5E
100
AcDbEntity
  8
寸法
370
              15
  6
Continuous
 62
               7
  0
POLYLINE
  5
5F
100
AcDbEntity
  8
寸法
370
              15
  6
Continuous
 62
               7
100
AcDb2dPolyline
 66
               1
 10
0.0
 20
0.0
 30
0.0
 70
               1
 75
               5
  0
VERTEX
  5
60
100
AcDbEntity
  8
寸法
370
              15
  6
Continuous
 62
               7
100
AcDbVertex
100
AcDb2dVertex
 10
-312.58107238726961
 20
19.999999999998977
 30
0.0
  0
VERTEX
  5
61
100
AcDbEntity
  8
寸法
370
              15
  6
Continuous
 62
               7
100
AcDbVertex
100
AcDb2dVertex
 10
-282.58107238726961
 20
19.999999999998977
 30
0.0
  0
VERTEX
  5
62
100
AcDbEntity
  8
寸法
370
              15
  6
Continuous
 62
               7
100
AcDbVertex
100
AcDb2dVertex
 10
-282.58107238726961
 20
9.9999999999990052
 30
0.0
  0
VERTEX
  5
63
100
AcDbEntity
  8
寸法
370
              15
  6
Continuous
 62
               7
100
AcDbVertex
100
AcDb2dVertex
 10
-312.58107238726961
 20
9.9999999999990052
 30
0.0
  0
SEQEND
  5
64
100
AcDbEntity
  8
寸法
370
              15
  6
Continuous
 62
               7
  0
INSERT
  5
65
100
AcDbEntity
  8
寸法
 62
               7
100
AcDbBlockReference
  2
グループ-2
 10
0.0
 20
0.0
 30
0.0
  0
ENDBLK
  5
66
100
AcDbEntity
  8
一般
100
AcDbBlockEnd
  0
BLOCK
  5
67
100
AcDbEntity
  8
一般
100
AcDbBlockBegin
  2
グループ-4
 70
               0
 10
0.0
 20
0.0
 30
0.0
  3
グループ-4
  1

  0
LINE
  5
68
100
AcDbEntity
  8
一般
370
               5
  6
Continuous
 62
               7
100
AcDbLine
 10
226.48847632737358
 20
-262.92893218813452
 30
0.0
 11
212.34634070364262
 21
-277.07106781186548
 31
0.0
  0
LINE
  5
69
100
AcDbEntity
  8
一般
370
               5
  6
Continuous
 62
               7
100
AcDbLine
 10
226.48847632737358
 20
-277.07106781186548
 30
0.0
 11
212.34634070364262
 21
-262.92893218813452
 31
0.0
  0
ENDBLK
  5
6A
100
AcDbEntity
  8
一般
100
AcDbBlockEnd
  0
BLOCK
  5
6B
100
AcDbEntity
  8
一般
100
AcDbBlockBegin
  2
グループ-5
 70
               0
 10
0.0
 20
0.0
 30
0.0
  3
グループ-5
  1

  0
LINE
  5
6C
100
AcDbEntity
  8
一般
370
               5
  6
Continuous
 62
               7
100
AcDbLine
 10
-290.51000457540414
 20
313.08437861711343
 30
0.0
 11
-304.65214019913509
 21
298.94224299338248
 31
0.0
  0
LINE
  5
6D
100
AcDbEntity
  8
一般
370
               5
  6
Continuous
 62
               7
100
AcDbLine
 10
-290.51000457540414
 20
298.94224299338248
 30
0.0
 11
-304.65214019913509
 21
313.08437861711343
 31
0.0
  0
ENDBLK
  5
6E
100
AcDbEntity
  8
一般
100
AcDbBlockEnd
  0
ENDSEC
  0
SECTION
  2
ENTITIES
  0
MTEXT
  5
6F
100
AcDbEntity
  8
一般
 62
               7
100
AcDbMText
 10
1716.3916707038879
 20
1296.5585069444444
 30
0.0
 40
30.316840277777771
 41
0.0
 71
               1
 72
               1
  1
CX-5426
  7
Arial
 73
               1
 44
0.9673603504928806
  0
INSERT
  5
70
100
AcDbEntity
  8
一般
 62
               7
100
AcDbBlockReference
  2
グループ
 10
1450.0
 20
1020.0
 30
0.0
  0
INSERT
  5
71
100
AcDbEntity
  8
一般
 62
               7
100
AcDbBlockReference
  2
スケール1：5
 10
1467.9096960169582
 20
1219.2916666666665
 30
0.0
  0
INSERT
  5
72
100
AcDbEntity
  8
一般
 62
               7
100
AcDbBlockReference
  2
グループ-3
 10
1450.0
 20
1020.0
 30
0.0
  0
POLYLINE
  5
73
100
AcDbEntity
  8
寸法
370
              15
  6
Continuous
 62
               7
100
AcDb2dPolyline
 66
               1
 10
0.0
 20
0.0
 30
0.0
 75
               5
  0
VERTEX
  5
74
100
AcDbEntity
  8
寸法
370
              15
  6
Continuous
 62
               7
100
AcDbVertex
100
AcDb2dVertex
 10
1137.4189276127304
 20
1306.0133108052482
 30
0.0
  0
VERTEX
  5
75
100
AcDbEntity
  8
寸法
370
              15
  6
Continuous
 62
               7
100
AcDbVertex
100
AcDb2dVertex
 10
1127.4307806183469
 20
1306.0133108052482
 30
0.0
  0
VERTEX
  5
76
100
AcDbEntity
  8
寸法
370
              15
  6
Continuous
 62
               7
100
AcDbVertex
100
AcDb2dVertex
 10
1127.4307806183469
 20
1356.013310805248
 30
0.0
  0
VERTEX
  5
77
100
AcDbEntity
  8
寸法
370
              15
  6
Continuous
 62
               7
100
AcDbVertex
100
AcDb2dVertex
 10
1177.4307806183476
 20
1356.013310805248
 30
0.0
  0
VERTEX
  5
78
100
AcDbEntity
  8
寸法
370
              15
  6
Continuous
 62
               7
100
AcDbVertex
100
AcDb2dVertex
 10
1177.4307806183476
 20
1306.0133108052482
 30
0.0
  0
VERTEX
  5
79
100
AcDbEntity
  8
寸法
370
              15
  6
Continuous
 62
               7
100
AcDbVertex
100
AcDb2dVertex
 10
1167.4189276127304
 20
1306.0133108052482
 30
0.0
  0
SEQEND
  5
7A
100
AcDbEntity
  8
寸法
370
              15
  6
Continuous
 62
               7
  0
POLYLINE
  5
7B
100
AcDbEntity
  8
寸法
370
              15
  6
Continuous
 62
               7
100
AcDb2dPolyline
 66
               1
 10
0.0
 20
0.0
 30
0.0
 75
               5
  0
VERTEX
  5
7C
100
AcDbEntity
  8
寸法
370
              15
  6
Continuous
 62
               7
100
AcDbVertex
100
AcDb2dVertex
 10
1172.9307806183465
 20
850.64215146389813
 30
0.0
  0
VERTEX
  5
7D
100
AcDbEntity
  8
寸法
370
              15
  6
Continuous
 62
               7
100
AcDbVertex
100
AcDb2dVertex
 10
1218.6047777389276
 20
867.26612689574972
 30
0.0
  0
VERTEX
  5
7E
100
AcDbEntity
  8
寸法
370
              15
  6
Continuous
 62
               7
100
AcDbVertex
100
AcDb2dVertex
 10
1232.6276036152799
 20
828.73872944352752
 30
0.0
  0
VERTEX
  5
7F
100
AcDbEntity
  8
寸法
370
              15
  6
Continuous
 62
               7
100
AcDbVertex
100
AcDb2dVertex
 10
1172.9571221953743
 20
807.020450342348
 30
0.0
  0
VERTEX
  5
80
100
AcDbEntity
  8
寸法
370
              15
  6
Continuous
 62
               7
100
AcDbVertex
100
AcDb2dVertex
 10
1172.9307806183465
 20
807.09282323042487
 30
0.0
  0
SEQEND
  5
81
100
AcDbEntity
  8
寸法
370
              15
  6
Continuous
 62
               7
  0
POLYLINE
  5
82
100
AcDbEntity
  8
寸法
370
              15
  6
Continuous
 62
               7
100
AcDb2dPolyline
 66
               1
 10
0.0
 20
0.0
 30
0.0
 70
               1
 75
               5
  0
VERTEX
  5
83
100
AcDbEntity
  8
寸法
370
              15
  6
Continuous
 62
               7
100
AcDbVertex
100
AcDb2dVertex
 10
1131.9307806183469
 20
873.99999999999898
 30
0.0
  0
VERTEX
  5
84
100
AcDbEntity
  8
寸法
370
              15
  6
Continuous
 62
               7
100
AcDbVertex
100
AcDb2dVertex
 10
1172.9307806183465
 20
873.99999999999898
 30
0.0
  0
VERTEX
  5
85
100
AcDbEntity
  8
寸法
370
              15
  6
Continuous
 62
               7
100
AcDbVertex
100
AcDb2dVertex
 10
1172.9307806183465
 20
755.0
 30
0.0
  0
VERTEX
  5
86
100
AcDbEntity
  8
寸法
370
              15
  6
Continuous
 62
               7
100
AcDbVertex
100
AcDb2dVertex
 10
1131.9307806183469
 20
755.0
 30
0.0
  0
SEQEND
  5
87
100
AcDbEntity
  8
寸法
370
              15
  6
Continuous
 62
               7
  0
ARC
  5
88
100
AcDbEntity
  8
寸法
370
              15
  6
Continuous
 62
               7
100
AcDbCircle
 10
1059.2012128771535
 20
789.93043148075128
 30
0.0
 40
193.59364661957341
100
AcDbArc
 50
13.371294558919478
 51
41.404680764758098
  0
LINE
  5
89
100
AcDbEntity
  8
寸法
370
              15
  6
Continuous
 62
               7
100
AcDbLine
 10
1231.7860306160214
 20
843.33091073649814
 30
0.0
 11
1243.9556632257127
 21
847.76029476838119
 31
0.0
  0
LINE
  5
8A
100
AcDbEntity
  8
寸法
370
              15
  6
Continuous
 62
               7
100
AcDbLine
 10
1225.7160358453502
 20
857.08427990496102
 30
0.0
 11
1238.8253610758277
 21
861.85568408016979
 31
0.0
  0
ARC
  5
8B
100
AcDbEntity
  8
寸法
370
              15
  6
Continuous
 62
               7
100
AcDbCircle
 10
1212.0018462805167
 20
842.81540828966786
 30
0.0
 40
19.790899236616557
100
AcDbArc
 50
1.4925777293761542
 51
46.135571939204787
  0
ARC
  5
8C
100
AcDbEntity
  8
寸法
370
              15
  6
Continuous
 62
               7
100
AcDbCircle
 10
1215.2012641300564
 20
844.21170491444559
 30
0.0
 40
17.083333333336618
100
AcDbArc
 50
330.44971886234117
 51
357.63609831662416
  0
ARC
  5
8D
100
AcDbEntity
  8
寸法
370
              15
  6
Continuous
 62
               7
100
AcDbCircle
 10
1215.2012641300564
 20
844.21170491444559
 30
0.0
 40
17.083333333336565
100
AcDbArc
 50
49.83876621050053
 51
69.550281137658715
  0
LINE
  5
8E
100
AcDbEntity
  8
寸法
370
              15
  6
Continuous
 62
               7
100
AcDbLine
 10
1247.5468963731391
 20
834.70099680992962
 30
0.0
 11
1251.4384601719335
 21
835.62603797919166
 31
0.0
  0
ARC
  5
8F
100
AcDbEntity
  8
寸法
370
              15
  6
Continuous
 62
               7
100
AcDbCircle
 10
1059.2012128771535
 20
789.93043148075128
 30
0.0
 40
197.59364661957329
100
AcDbArc
 50
13.371294558919486
 51
41.404680764758119
  0
LINE
  5
90
100
AcDbEntity
  8
寸法
370
              15
  6
Continuous
 62
               7
100
AcDbLine
 10
1204.4074906974784
 20
917.96807006031429
 30
0.0
 11
1207.4077188631404
 21
920.61356263334619
 31
0.0
  0
POLYLINE
  5
91
100
AcDbEntity
  8
寸法
370
              15
  6
Continuous
 62
               7
100
AcDb2dPolyline
 66
               1
 10
0.0
 20
0.0
 30
0.0
 75
               5
  0
VERTEX
  5
92
100
AcDbEntity
  8
寸法
370
              15
  6
Continuous
 62
               7
100
AcDbVertex
100
AcDb2dVertex
 10
1137.4189276127304
 20
1310.5133108052478
 30
0.0
  0
VERTEX
  5
93
100
AcDbEntity
  8
寸法
370
              15
  6
Continuous
 62
               7
100
AcDbVertex
100
AcDb2dVertex
 10
1131.9307806183469
 20
1310.5133108052478
 30
0.0
  0
VERTEX
  5
94
100
AcDbEntity
  8
寸法
370
              15
  6
Continuous
 62
               7
100
AcDbVertex
100
AcDb2dVertex
 10
1131.9307806183469
 20
1351.513310805248
 30
0.0
  0
VERTEX
  5
95
100
AcDbEntity
  8
寸法
370
              15
  6
Continuous
 62
               7
100
AcDbVertex
100
AcDb2dVertex
 10
1172.9307806183474
 20
1351.513310805248
 30
0.0
  0
VERTEX
  5
96
100
AcDbEntity
  8
寸法
370
              15
  6
Continuous
 62
               7
100
AcDbVertex
100
AcDb2dVertex
 10
1172.9307806183474
 20
1310.5133108052478
 30
0.0
  0
VERTEX
  5
97
100
AcDbEntity
  8
寸法
370
              15
  6
Continuous
 62
               7
100
AcDbVertex
100
AcDb2dVertex
 10
1167.4189276127304
 20
1310.5133108052478
 30
0.0
  0
SEQEND
  5
98
100
AcDbEntity
  8
寸法
370
              15
  6
Continuous
 62
               7
  0
POLYLINE
  5
99
100
AcDbEntity
  8
寸法
370
              15
  6
Continuous
 62
               7
100
AcDb2dPolyline
 66
               1
 10
0.0
 20
0.0
 30
0.0
 75
               5
  0
VERTEX
  5
9A
100
AcDbEntity
  8
寸法
370
              15
  6
Continuous
 62
               7
100
AcDbVertex
100
AcDb2dVertex
 10
1679.4174085155082
 20
873.99999999999898
 30
0.0
  0
VERTEX
  5
9B
100
AcDbEntity
  8
寸法
370
              15
  6
Continuous
 62
               7
100
AcDbVertex
100
AcDb2dVertex
 10
1689.9174085155082
 20
873.99999999999898
 30
0.0
  0
VERTEX
  5
9C
100
AcDbEntity
  8
寸法
370
              15
  6
Continuous
 62
               7
100
AcDbVertex
100
AcDb2dVertex
 10
1689.9174085155082
 20
755.0
 30
0.0
  0
VERTEX
  5
9D
100
AcDbEntity
  8
寸法
370
              15
  6
Continuous
 62
               7
100
AcDbVertex
100
AcDb2dVertex
 10
1648.9174085155082
 20
755.0
 30
0.0
  0
VERTEX
  5
9E
100
AcDbEntity
  8
寸法
370
              15
  6
Continuous
 62
               7
100
AcDbVertex
100
AcDb2dVertex
 10
1648.9174085155082
 20
873.99999999999898
 30
0.0
  0
VERTEX
  5
9F
100
AcDbEntity
  8
寸法
370
              15
  6
Continuous
 62
               7
100
AcDbVertex
100
AcDb2dVertex
 10
1659.4174085155082
 20
873.99999999999898
 30
0.0
  0
SEQEND
  5
A0
100
AcDbEntity
  8
寸法
370
              15
  6
Continuous
 62
               7
  0
LINE
  5
A1
100
AcDbEntity
  8
一般
370
              15
  6
Continuous
 62
               7
100
AcDbLine
 10
1689.9174085155082
 20
867.26612689574972
 30
0.0
 11
1679.4174085155082
 21
867.26612689574972
 31
0.0
  0
LINE
  5
A2
100
AcDbEntity
  8
一般
370
              15
  6
Continuous
 62
               7
100
AcDbLine
 10
1659.4174085155082
 20
867.26612689574972
 30
0.0
 11
1648.9174085155082
 21
867.26612689574972
 31
0.0
  0
LINE
  5
A3
100
AcDbEntity
  8
一般
370
              15
  6
Continuous
 62
               7
100
AcDbLine
 10
1689.9174085155082
 20
828.73872944352752
 30
0.0
 11
1648.9174085155082
 21
828.73872944352752
 31
0.0
  0
LINE
  5
A4
100
AcDbEntity
  8
一般
370
              15
  6
Continuous
 62
               7
100
AcDbLine
 10
1689.9174085155082
 20
807.020450342348
 30
0.0
 11
1648.9174085155082
 21
807.020450342348
 31
0.0
  0
SPLINE
  5
A5
100
AcDbEntity
  8
一般
370
              15
  6
Continuous
 62
               7
100
AcDbSpline
210
0.0
220
0.0
230
1.0
 70
               8
 71
               2
 72
              17
 73
              14
 74
               0
 42
0.000001
 43
0.000001
 40
0.0
 40
0.0
 40
0.0
 40
1.0
 40
1.0
 40
2.0
 40
3.0
 40
4.0
 40
5.0
 40
6.0
 40
7.0
 40
8.0
 40
9.0
 40
9.0
 40
10.0
 40
10.0
 40
10.0
 10
1659.4174072134958
 20
863.73366044764362
 30
0.0
 10
1655.0698223112713
 20
861.29837560835222
 30
0.0
 10
1652.5299131417116
 20
857.16443122230135
 30
0.0
 10
1649.9174085155082
 20
852.91233080766347
 30
0.0
 10
1649.9174085155082
 20
843.09252553161377
 30
0.0
 10
1655.142417767915
 20
834.58832470233835
 30
0.0
 10
1664.1923992631014
 20
829.67842206431351
 30
0.0
 10
1674.642417767915
 20
829.67842206431351
 30
0.0
 10
1683.6923992631014
 20
834.58832470233824
 30
0.0
 10
1688.9174085155082
 20
843.09252553161377
 30
0.0
 10
1688.9174085155082
 20
852.91233080766347
 30
0.0
 10
1686.3049038893048
 20
857.16443122230123
 30
0.0
 10
1683.7649947197453
 20
861.29837560835222
 30
0.0
 10
1679.4174098175206
 20
863.73366044764362
 30
0.0
  0
SPLINE
  5
A6
100
AcDbEntity
  8
一般
370
              15
  6
Continuous
 62
               7
100
AcDbSpline
210
0.0
220
0.0
230
1.0
 70
               8
 71
               2
 72
              11
 73
               8
 74
               0
 42
0.000001
 43
0.000001
 40
0.0
 40
0.0
 40
0.0
 40
1.0
 40
1.0
 40
2.0
 40
3.0
 40
3.0
 40
4.0
 40
4.0
 40
4.0
 10
1659.4174082910324
 20
840.18796553185541
 30
0.0
 10
1658.721715582421
 20
840.97868024794775
 30
0.0
 10
1658.1590782663106
 20
841.89442613453036
 30
0.0
 10
1656.4174085155082
 20
844.72915974428929
 30
0.0
 10
1656.4174085155082
 20
851.27569659498977
 30
0.0
 10
1658.1590782663106
 20
854.11043020474858
 30
0.0
 10
1658.7217164129136
 20
855.02617744303711
 30
0.0
 10
1659.417410344817
 20
855.81689314172604
 30
0.0
  0
SPLINE
  5
A7
100
AcDbEntity
  8
一般
370
              15
  6
Continuous
 62
               7
100
AcDbSpline
210
0.0
220
0.0
230
1.0
 70
               8
 71
               2
 72
              11
 73
               8
 74
               0
 42
0.000001
 43
0.000001
 40
0.0
 40
0.0
 40
0.0
 40
1.0
 40
1.0
 40
2.0
 40
3.0
 40
3.0
 40
4.0
 40
4.0
 40
4.0
 10
1679.417408739984
 20
840.18796553185541
 30
0.0
 10
1680.1131014485954
 20
840.97868024794786
 30
0.0
 10
1680.6757387647058
 20
841.89442613453036
 30
0.0
 10
1682.4174085155082
 20
844.72915974428918
 30
0.0
 10
1682.4174085155082
 20
851.27569659498977
 30
0.0
 10
1680.6757387647058
 20
854.11043020474858
 30
0.0
 10
1680.1131006181026
 20
855.02617744303734
 30
0.0
 10
1679.4174066861995
 20
855.81689314172604
 30
0.0
  0
POLYLINE
  5
A8
100
AcDbEntity
  8
一般
370
              15
  6
Continuous
 62
               7
100
AcDb2dPolyline
 66
               1
 10
0.0
 20
0.0
 30
0.0
 70
               1
 75
               5
  0
VERTEX
  5
A9
100
AcDbEntity
  8
一般
370
              15
  6
Continuous
 62
               7
100
AcDbVertex
100
AcDb2dVertex
 10
1659.4174085155082
 20
920.61356263334619
 30
0.0
  0
VERTEX
  5
AA
100
AcDbEntity
  8
一般
370
              15
  6
Continuous
 62
               7
100
AcDbVertex
100
AcDb2dVertex
 10
1679.4174085155082
 20
920.61356263334619
 30
0.0
  0
VERTEX
  5
AB
100
AcDbEntity
  8
一般
370
              15
  6
Continuous
 62
               7
100
AcDbVertex
100
AcDb2dVertex
 10
1679.4174085155082
 20
834.70099680992962
 30
0.0
  0
VERTEX
  5
AC
100
AcDbEntity
  8
一般
370
              15
  6
Continuous
 62
               7
100
AcDbVertex
100
AcDb2dVertex
 10
1659.4174085155082
 20
834.70099680992962
 30
0.0
  0
SEQEND
  5
AD
100
AcDbEntity
  8
一般
370
              15
  6
Continuous
 62
               7
  0
POLYLINE
  5
AE
100
AcDbEntity
  8
一般
370
              15
  6
Continuous
 62
               7
100
AcDb2dPolyline
 66
               1
 10
0.0
 20
0.0
 30
0.0
 75
               5
  0
VERTEX
  5
AF
100
AcDbEntity
  8
一般
370
              15
  6
Continuous
 62
               7
100
AcDbVertex
100
AcDb2dVertex
 10
1228.1276036152799
 20
1321.013310805248
 30
0.0
  0
VERTEX
  5
B0
100
AcDbEntity
  8
一般
370
              15
  6
Continuous
 62
               7
100
AcDbVertex
100
AcDb2dVertex
 10
1228.1276036152799
 20
1310.5133108052478
 30
0.0
  0
VERTEX
  5
B1
100
AcDbEntity
  8
一般
370
              15
  6
Continuous
 62
               7
100
AcDbVertex
100
AcDb2dVertex
 10
1172.9307806183474
 20
1310.5133108052478
 30
0.0
  0
VERTEX
  5
B2
100
AcDbEntity
  8
一般
370
              15
  6
Continuous
 62
               7
100
AcDbVertex
100
AcDb2dVertex
 10
1172.9307806183474
 20
1351.513310805248
 30
0.0
  0
VERTEX
  5
B3
100
AcDbEntity
  8
一般
370
              15
  6
Continuous
 62
               7
100
AcDbVertex
100
AcDb2dVertex
 10
1228.1276036152799
 20
1351.513310805248
 30
0.0
  0
VERTEX
  5
B4
100
AcDbEntity
  8
一般
370
              15
  6
Continuous
 62
               7
100
AcDbVertex
100
AcDb2dVertex
 10
1228.1276036152799
 20
1341.013310805248
 30
0.0
  0
SEQEND
  5
B5
100
AcDbEntity
  8
一般
370
              15
  6
Continuous
 62
               7
  0
ARC
  5
B6
100
AcDbEntity
  8
一般
370
              15
  6
Continuous
 62
               7
100
AcDbCircle
 10
1152.4189276127304
 20
1326.013310805248
 30
0.0
 40
15.75
100
AcDbArc
 50
342.24720983805332
 51
197.75279016194665
  0
POLYLINE
  5
B7
100
AcDbEntity
  8
寸法
370
              15
  6
Continuous
 62
               7
100
AcDb2dPolyline
 66
               1
 10
0.0
 20
0.0
 30
0.0
 70
               1
 75
               5
  0
VERTEX
  5
B8
100
AcDbEntity
  8
寸法
370
              15
  6
Continuous
 62
               7
100
AcDbVertex
100
AcDb2dVertex
 10
1137.4189276127304
 20
1331.013310805248
 30
0.0
  0
VERTEX
  5
B9
100
AcDbEntity
  8
寸法
370
              15
  6
Continuous
 62
               7
100
AcDbVertex
100
AcDb2dVertex
 10
1167.4189276127304
 20
1331.013310805248
 30
0.0
  0
VERTEX
  5
BA
100
AcDbEntity
  8
寸法
370
              15
  6
Continuous
 62
               7
100
AcDbVertex
100
AcDb2dVertex
 10
1167.4189276127304
 20
1086.0133108052471
 30
0.0
  0
VERTEX
  5
BB
100
AcDbEntity
  8
寸法
370
              15
  6
Continuous
 62
               7
100
AcDbVertex
100
AcDb2dVertex
 10
1137.4189276127304
 20
1086.0133108052471
 30
0.0
  0
SEQEND
  5
BC
100
AcDbEntity
  8
寸法
370
              15
  6
Continuous
 62
               7
  0
POLYLINE
  5
BD
100
AcDbEntity
  8
寸法
370
              15
  6
Continuous
 62
               7
100
AcDb2dPolyline
 66
               1
 10
0.0
 20
0.0
 30
0.0
 70
               1
 75
               5
  0
VERTEX
  5
BE
100
AcDbEntity
  8
寸法
370
              15
  6
Continuous
 62
               7
100
AcDbVertex
100
AcDb2dVertex
 10
1644.4174085155082
 20
755.0
 30
0.0
  0
VERTEX
  5
BF
100
AcDbEntity
  8
寸法
370
              15
  6
Continuous
 62
               7
100
AcDbVertex
100
AcDb2dVertex
 10
1694.417408515508
 20
755.0
 30
0.0
  0
VERTEX
  5
C0
100
AcDbEntity
  8
寸法
370
              15
  6
Continuous
 62
               7
100
AcDbVertex
100
AcDb2dVertex
 10
1694.417408515508
 20
750.0
 30
0.0
  0
VERTEX
  5
C1
100
AcDbEntity
  8
寸法
370
              15
  6
Continuous
 62
               7
100
AcDbVertex
100
AcDb2dVertex
 10
1644.4174085155082
 20
750.0
 30
0.0
  0
SEQEND
  5
C2
100
AcDbEntity
  8
寸法
370
              15
  6
Continuous
 62
               7
  0
POLYLINE
  5
C3
100
AcDbEntity
  8
寸法
370
              15
  6
Continuous
 62
               7
100
AcDb2dPolyline
 66
               1
 10
0.0
 20
0.0
 30
0.0
 70
               1
 75
               5
  0
VERTEX
  5
C4
100
AcDbEntity
  8
寸法
370
              15
  6
Continuous
 62
               7
100
AcDbVertex
100
AcDb2dVertex
 10
1127.4307806183469
 20
755.0
 30
0.0
  0
VERTEX
  5
C5
100
AcDbEntity
  8
寸法
370
              15
  6
Continuous
 62
               7
100
AcDbVertex
100
AcDb2dVertex
 10
1177.4307806183469
 20
755.0
 30
0.0
  0
VERTEX
  5
C6
100
AcDbEntity
  8
寸法
370
              15
  6
Continuous
 62
               7
100
AcDbVertex
100
AcDb2dVertex
 10
1177.4307806183469
 20
750.0
 30
0.0
  0
VERTEX
  5
C7
100
AcDbEntity
  8
寸法
370
              15
  6
Continuous
 62
               7
100
AcDbVertex
100
AcDb2dVertex
 10
1127.4307806183469
 20
750.0
 30
0.0
  0
SEQEND
  5
C8
100
AcDbEntity
  8
寸法
370
              15
  6
Continuous
 62
               7
  0
LINE
  5
C9
100
AcDbEntity
  8
寸法
370
              15
  6
Continuous
 62
               7
100
AcDbLine
 10
1674.417408515508
 20
1004.999999999999
 30
0.0
 11
1674.417408515508
 21
920.61356263334619
 31
0.0
  0
LINE
  5
CA
100
AcDbEntity
  8
寸法
370
              15
  6
Continuous
 62
               7
100
AcDbLine
 10
1664.4174085155082
 20
920.61356263334619
 30
0.0
 11
1664.4174085155082
 21
1004.999999999999
 31
0.0
  0
LINE
  5
CB
100
AcDbEntity
  8
寸法
370
              15
  6
Continuous
 62
               7
100
AcDbLine
 10
1429.4174085155082
 20
1039.9999999999991
 30
0.0
 11
1639.4174085155078
 21
1039.9999999999991
 31
0.0
  0
LINE
  5
CC
100
AcDbEntity
  8
寸法
370
              15
  6
Continuous
 62
               7
100
AcDbLine
 10
1429.4174085155082
 20
1039.9999999999991
 30
0.0
 11
1429.4174085155082
 21
1029.9999999999991
 31
0.0
  0
LINE
  5
CD
100
AcDbEntity
  8
寸法
370
              15
  6
Continuous
 62
               7
100
AcDbLine
 10
1429.4174085155082
 20
1029.9999999999991
 30
0.0
 11
1639.4174085155078
 21
1029.9999999999991
 31
0.0
  0
ARC
  5
CE
100
AcDbEntity
  8
寸法
370
              15
  6
Continuous
 62
               7
100
AcDbCircle
 10
1639.4174085155078
 20
1004.999999999999
 30
0.0
 40
35.000000000000227
100
AcDbArc
 50
0.0
 51
90.0
  0
ARC
  5
CF
100
AcDbEntity
  8
寸法
370
              15
  6
Continuous
 62
               7
100
AcDbCircle
 10
1639.4174085155078
 20
1004.999999999999
 30
0.0
 40
25.000000000000455
100
AcDbArc
 50
0.0
 51
90.0
  0
LINE
  5
D0
100
AcDbEntity
  8
寸法
370
              15
  6
Continuous
 62
               7
100
AcDbLine
 10
1437.9174085155082
 20
1029.9999999999991
 30
0.0
 11
1437.9174085155082
 21
1022.999999999999
 31
0.0
  0
LINE
  5
D1
100
AcDbEntity
  8
寸法
370
              15
  6
Continuous
 62
               7
100
AcDbLine
 10
1466.4174085155082
 20
1029.9999999999991
 30
0.0
 11
1466.4174085155082
 21
1022.999999999999
 31
0.0
  0
LINE
  5
D2
100
AcDbEntity
  8
寸法
370
              15
  6
Continuous
 62
               7
100
AcDbLine
 10
1462.1674085155082
 20
1021.999999999999
 30
0.0
 11
1442.1674085155082
 21
1021.999999999999
 31
0.0
  0
LINE
  5
D3
100
AcDbEntity
  8
寸法
370
              15
  6
Continuous
 62
               7
100
AcDbLine
 10
1462.1674085155082
 20
1021.999999999999
 30
0.0
 11
1466.4174085155082
 21
1022.999999999999
 31
0.0
  0
LINE
  5
D4
100
AcDbEntity
  8
寸法
370
              15
  6
Continuous
 62
               7
100
AcDbLine
 10
1442.1674085155082
 20
1021.999999999999
 30
0.0
 11
1437.9174085155082
 21
1022.999999999999
 31
0.0
  0
LINE
  5
D5
100
AcDbEntity
  8
一般
370
              15
  6
Continuous
 62
               7
100
AcDbLine
 10
1246.9384638245458
 20
1341.013310805248
 30
0.0
 11
1199.9074906974784
 21
1341.013310805248
 31
0.0
  0
LINE
  5
D6
100
AcDbEntity
  8
一般
370
              15
  6
Continuous
 62
               7
100
AcDbLine
 10
1199.9074906974784
 20
1321.013310805248
 30
0.0
 11
1199.9074906974784
 21
1341.0133108052482
 31
0.0
  0
LINE
  5
D7
100
AcDbEntity
  8
一般
370
              15
  6
Continuous
 62
               7
100
AcDbLine
 10
1202.9077188631404
 20
1321.013310805248
 30
0.0
 11
1202.9077188631404
 21
1341.0133108052482
 31
0.0
  0
LINE
  5
D8
100
AcDbEntity
  8
一般
370
              15
  6
Continuous
 62
               7
100
AcDbLine
 10
1246.9384638245458
 20
1321.013310805248
 30
0.0
 11
1199.9074906974784
 21
1321.013310805248
 31
0.0
  0
LINE
  5
D9
100
AcDbEntity
  8
一般
370
              15
  6
Continuous
 62
               7
100
AcDbLine
 10
1246.9384638245458
 20
1321.013310805248
 30
0.0
 11
1246.9384638245458
 21
1341.0133108052482
 31
0.0
  0
POLYLINE
  5
DA
100
AcDbEntity
  8
一般
370
              15
  6
Continuous
 62
               7
100
AcDb2dPolyline
 66
               1
 10
0.0
 20
0.0
 30
0.0
 75
               5
  0
VERTEX
  5
DB
100
AcDbEntity
  8
一般
370
              15
  6
Continuous
 62
               7
100
AcDbVertex
100
AcDb2dVertex
 10
1228.1276036152799
 20
1341.013310805248
 30
0.0
  0
VERTEX
  5
DC
100
AcDbEntity
  8
一般
370
              15
  6
Continuous
 62
               7
100
AcDbVertex
100
AcDb2dVertex
 10
1228.1276036152799
 20
1351.513310805248
 30
0.0
  0
VERTEX
  5
DD
100
AcDbEntity
  8
一般
370
              15
  6
Continuous
 62
               7
100
AcDbVertex
100
AcDb2dVertex
 10
1214.1047777389276
 20
1351.513310805248
 30
0.0
  0
VERTEX
  5
DE
100
AcDbEntity
  8
一般
370
              15
  6
Continuous
 62
               7
100
AcDbVertex
100
AcDb2dVertex
 10
1214.1047777389276
 20
1341.013310805248
 30
0.0
  0
SEQEND
  5
DF
100
AcDbEntity
  8
一般
370
              15
  6
Continuous
 62
               7
  0
POLYLINE
  5
E0
100
AcDbEntity
  8
一般
370
              15
  6
Continuous
 62
               7
100
AcDb2dPolyline
 66
               1
 10
0.0
 20
0.0
 30
0.0
 75
               5
  0
VERTEX
  5
E1
100
AcDbEntity
  8
一般
370
              15
  6
Continuous
 62
               7
100
AcDbVertex
100
AcDb2dVertex
 10
1228.1276036152799
 20
1321.013310805248
 30
0.0
  0
VERTEX
  5
E2
100
AcDbEntity
  8
一般
370
              15
  6
Continuous
 62
               7
100
AcDbVertex
100
AcDb2dVertex
 10
1228.1276036152799
 20
1310.5133108052478
 30
0.0
  0
VERTEX
  5
E3
100
AcDbEntity
  8
一般
370
              15
  6
Continuous
 62
               7
100
AcDbVertex
100
AcDb2dVertex
 10
1214.1047777389276
 20
1310.5133108052478
 30
0.0
  0
VERTEX
  5
E4
100
AcDbEntity
  8
一般
370
              15
  6
Continuous
 62
               7
100
AcDbVertex
100
AcDb2dVertex
 10
1214.1047777389276
 20
1321.013310805248
 30
0.0
  0
SEQEND
  5
E5
100
AcDbEntity
  8
一般
370
              15
  6
Continuous
 62
               7
  0
SPLINE
  5
E6
100
AcDbEntity
  8
一般
370
              15
  6
Continuous
 62
               7
100
AcDbSpline
210
0.0
220
0.0
230
1.0
 70
               8
 71
               2
 72
              11
 73
               8
 74
               0
 42
0.000001
 43
0.000001
 40
0.0
 40
0.0
 40
0.0
 40
1.0
 40
1.0
 40
2.0
 40
3.0
 40
3.0
 40
4.0
 40
4.0
 40
4.0
 10
1223.9604343686567
 20
1321.0133393338083
 30
0.0
 10
1223.6726327413198
 20
1320.3176294990599
 30
0.0
 10
1223.3393216087204
 20
1319.7549805560502
 30
0.0
 10
1222.3075629526943
 20
1318.013310805248
 30
0.0
 10
1219.9248184015123
 20
1318.013310805248
 30
0.0
 10
1218.8930597454862
 20
1319.7549805560502
 30
0.0
 10
1218.5597486128863
 20
1320.3176294990606
 30
0.0
 10
1218.2719469855497
 20
1321.0133393338083
 30
0.0
  0
SPLINE
  5
E7
100
AcDbEntity
  8
一般
370
              15
  6
Continuous
 62
               7
100
AcDbSpline
210
0.0
220
0.0
230
1.0
 70
               8
 71
               2
 72
              11
 73
               8
 74
               0
 42
0.000001
 43
0.000001
 40
0.0
 40
0.0
 40
0.0
 40
1.0
 40
1.0
 40
2.0
 40
3.0
 40
3.0
 40
4.0
 40
4.0
 40
4.0
 10
1223.9604343686569
 20
1341.0132822766877
 30
0.0
 10
1223.6726327413203
 20
1341.7089921114355
 30
0.0
 10
1223.3393216087204
 20
1342.2716410544456
 30
0.0
 10
1222.3075629526943
 20
1344.013310805248
 30
0.0
 10
1219.9248184015123
 20
1344.013310805248
 30
0.0
 10
1218.8930597454862
 20
1342.2716410544458
 30
0.0
 10
1218.5597486128863
 20
1341.7089921114352
 30
0.0
 10
1218.2719469855499
 20
1341.0132822766877
 30
0.0
  0
SPLINE
  5
E8
100
AcDbEntity
  8
一般
370
              15
  6
Continuous
 62
               7
100
AcDbSpline
210
0.0
220
0.0
230
1.0
 70
               8
 71
               2
 72
              11
 73
               8
 74
               0
 42
0.000001
 43
0.000001
 40
0.0
 40
0.0
 40
0.0
 40
1.0
 40
1.0
 40
2.0
 40
3.0
 40
3.0
 40
4.0
 40
4.0
 40
4.0
 10
1226.84187967149
 20
1321.0132540623936
 30
0.0
 10
1225.9555101875364
 20
1316.6657084064
 30
0.0
 10
1224.450887074529
 20
1314.1258154314512
 30
0.0
 10
1222.9032490904897
 20
1311.5133108052478
 30
0.0
 10
1219.3291322637174
 20
1311.5133108052478
 30
0.0
 10
1217.7814942796786
 20
1314.1258154314512
 30
0.0
 10
1216.2768711666711
 20
1316.6657084063997
 30
0.0
 10
1215.3905016827173
 20
1321.0132540623936
 30
0.0
  0
SPLINE
  5
E9
100
AcDbEntity
  8
一般
370
              15
  6
Continuous
 62
               7
100
AcDbSpline
210
0.0
220
0.0
230
1.0
 70
               8
 71
               2
 72
              11
 73
               8
 74
               0
 42
0.000001
 43
0.000001
 40
0.0
 40
0.0
 40
0.0
 40
1.0
 40
1.0
 40
2.0
 40
3.0
 40
3.0
 40
4.0
 40
4.0
 40
4.0
 10
1226.84187967149
 20
1341.0133675481022
 30
0.0
 10
1225.9555101875364
 20
1345.3609132040956
 30
0.0
 10
1224.450887074529
 20
1347.9008061790446
 30
0.0
 10
1222.9032490904897
 20
1350.513310805248
 30
0.0
 10
1219.3291322637174
 20
1350.513310805248
 30
0.0
 10
1217.7814942796786
 20
1347.9008061790446
 30
0.0
 10
1216.2768711666711
 20
1345.3609132040961
 30
0.0
 10
1215.3905016827173
 20
1341.0133675481022
 30
0.0
  0
INSERT
  5
EA
100
AcDbEntity
  8
一般
 62
               7
100
AcDbBlockReference
  2
グループ-4
 10
1450.0
 20
1020.0
 30
0.0
  0
INSERT
  5
EB
100
AcDbEntity
  8
一般
 62
               7
100
AcDbBlockReference
  2
グループ-5
 10
1450.0
 20
1020.0
 30
0.0
  0
ENDSEC
  0
SECTION
  2
OBJECTS
  0
DICTIONARY
  5
19
100
AcDbDictionary
280
               0
281
               1
  3
ACAD_GROUP
350
1A
  3
ACAD_MLINESTYLE
350
1B
  3
ACAD_LAYOUT
350
1E
  3
ACAD_PLOTSETTINGS
350
22
  3
ACAD_PLOTSTYLENAME
350
1F
  3
ACAD_WIPEOUT_VARS
350
23
  0
DICTIONARY
  5
1A
102
{ACAD_REACTORS
330
19
102
}
100
AcDbDictionary
280
               0
281
               1
  0
DICTIONARY
  5
1B
102
{ACAD_REACTORS
330
19
102
}
100
AcDbDictionary
280
               0
281
               1
  3
Standard
350
1C
  0
MLINESTYLE
  5
1C
102
{ACAD_REACTORS
330
1B
102
}
100
AcDbMlineStyle
  2
Standard
 70
               0
  3

 62
               0
 51
90.0
 52
90.0
 71
               2
 49
0.5
 62
             256
  6
ByLayer
 49
-0.5
 62
             256
  6
ByLayer
  0
ACDBDICTIONARYWDFLT
  5
1F
102
{ACAD_REACTORS
330
19
102
}
100
AcDbDictionary
281
               1
  3
Normal
350
1D
100
AcDbDictionaryWithDefault
340
1D
  0
ACDBPLACEHOLDER
  5
1D
102
{ACAD_REACTORS
330
1F
102
}
  0
LAYOUT
  5
20
102
{ACAD_REACTORS
330
1E
102
}
100
AcDbPlotSettings
  1

  2

  4

  6

 40
0.0
 41
0.0
 42
0.0
 43
0.0
 44
0.0
 45
0.0
 46
0.0
 47
0.0
 48
0.0
 49
0.0
140
0.0
141
0.0
142
1.0
143
1.0
 70
            1024
 72
               0
 73
               0
 74
               0
  7

 75
               0
147
1.0
148
0.0
149
0.0
100
AcDbLayout
  1
Model
 70
               0
 71
               0
 10
0.0
 20
0.0
 11
0.0
 21
0.0
 12
0.0
 22
0.0
 32
0.0
 14
0.0
 24
0.0
 34
0.0
 15
0.0
 25
0.0
 35
0.0
146
0.0
 13
0.0
 23
0.0
 33
0.0
 16
0.0
 26
0.0
 36
0.0
 17
0.0
 27
0.0
 37
0.0
 76
               0
330
A
331
0
345
0
346
0
  0
LAYOUT
  5
21
102
{ACAD_REACTORS
330
1E
102
}
100
AcDbPlotSettings
  1

  2

  4

  6

 40
0.0
 41
0.0
 42
0.0
 43
0.0
 44
0.0
 45
0.0
 46
0.0
 47
0.0
 48
0.0
 49
0.0
140
0.0
141
0.0
142
1.0
143
1.0
 70
               0
 72
               0
 73
               0
 74
               0
  7

 75
               0
147
1.0
148
0.0
149
0.0
100
AcDbLayout
  1
Layout1
 70
               0
 71
               0
 10
0.0
 20
0.0
 11
0.0
 21
0.0
 12
0.0
 22
0.0
 32
0.0
 14
0.0
 24
0.0
 34
0.0
 15
0.0
 25
0.0
 35
0.0
146
0.0
 13
0.0
 23
0.0
 33
0.0
 16
0.0
 26
0.0
 36
0.0
 17
0.0
 27
0.0
 37
0.0
 76
               0
330
B
331
0
345
0
346
0
  0
DICTIONARY
  5
1E
102
{ACAD_REACTORS
330
19
102
}
100
AcDbDictionary
280
               0
281
               1
  3
Layout1
350
21
  3
Model
350
20
  0
DICTIONARY
  5
22
102
{ACAD_REACTORS
330
19
102
}
100
AcDbDictionary
280
               0
281
               1
  0
WIPEOUTVARIABLES
  5
23
100
AcDbWipeoutVariables
 70
               0
  0
ENDSEC
  0
EOF
