  0
SECTION
  2
HEADER
  9
$ACADVER
  1
AC1015
  9
$ACADMAINTVER
 70
               6
  9
$DWGCODEPAGE
  3
ANSI_932
  9
$INSBASE
 10
0.0
 20
0.0
 30
0.0
  9
$EXTMIN
 10
734.82649564084352
 20
492.41191911687713
 30
-1.4834305555555556
  9
$EXTMAX
 10
892.35921006931756
 20
669.23747640410909
 30
1.4834305555555556
  9
$LIMMIN
 10
0.0
 20
0.0
  9
$LIMMAX
 10
0.0
 20
0.0
  9
$ORTHOMODE
 70
               0
  9
$REGENMODE
 70
               1
  9
$FILLMODE
 70
               1
  9
$QTEXTMODE
 70
               0
  9
$MIRRTEXT
 70
               1
  9
$LTSCALE
 40
5.0800000000000001
  9
$ATTMODE
 70
               1
  9
$TEXTSIZE
 40
0.2
  9
$TRACEWID
 40
1.0
  9
$TEXTSTYLE
  7
Standard
  9
$CLAYER
  8
0
  9
$CELTYPE
  6
Continuous
  9
$CECOLOR
 62
             256
  9
$CELTSCALE
 40
1.0
  9
$DISPSILH
 70
               0
  9
$DIMSCALE
 40
1.0
  9
$DIMASZ
 40
0.18
  9
$DIMEXO
 40
0.0625
  9
$DIMDLI
 40
0.38
  9
$DIMRND
 40
0.0
  9
$DIMDLE
 40
0.0
  9
$DIMEXE
 40
0.18
  9
$DIMTP
 40
0.0
  9
$DIMTM
 40
0.0
  9
$DIMTXT
 40
0.18
  9
$DIMCEN
 40
0.09
  9
$DIMTSZ
 40
0.0
  9
$DIMTOL
 70
               0
  9
$DIMLIM
 70
               0
  9
$DIMTIH
 70
               1
  9
$DIMTOH
 70
               1
  9
$DIMSE1
 70
               0
  9
$DIMSE2
 70
               0
  9
$DIMTAD
 70
               0
  9
$DIMZIN
 70
               0
  9
$DIMBLK
  1

  9
$DIMASO
 70
               1
  9
$DIMSHO
 70
               1
  9
$DIMPOST
  1

  9
$DIMAPOST
  1

  9
$DIMALT
 70
               0
  9
$DIMALTD
 70
               2
  9
$DIMALTF
 40
25.399999999999999
  9
$DIMLFAC
 40
1.0
  9
$DIMTOFL
 70
               0
  9
$DIMTVP
 40
0.0
  9
$DIMTIX
 70
               0
  9
$DIMSOXD
 70
               0
  9
$DIMSAH
 70
               0
  9
$DIMBLK1
  1

  9
$DIMBLK2
  1

  9
$DIMSTYLE
  2
Standard
  9
$DIMCLRD
 70
               0
  9
$DIMCLRE
 70
               0
  9
$DIMCLRT
 70
               0
  9
$DIMTFAC
 40
1.0
  9
$DIMGAP
 40
0.09
  9
$DIMJUST
 70
               0
  9
$DIMSD1
 70
               0
  9
$DIMSD2
 70
               0
  9
$DIMTOLJ
 70
               1
  9
$DIMTZIN
 70
               0
  9
$DIMALTZ
 70
               0
  9
$DIMALTTZ
 70
               0
  9
$DIMUPT
 70
               0
  9
$DIMDEC
 70
               4
  9
$DIMTDEC
 70
               4
  9
$DIMALTU
 70
               2
  9
$DIMALTTD
 70
               2
  9
$DIMTXSTY
  7
Standard
  9
$DIMAUNIT
 70
               0
  9
$DIMADEC
 70
               0
  9
$DIMALTRND
 40
0.0
  9
$DIMAZIN
 70
               0
  9
$DIMDSEP
 70
               0
  9
$DIMATFIT
 70
               3
  9
$DIMFRAC
 70
               0
  9
$DIMLDRBLK
  1

  9
$DIMLUNIT
 70
               2
  9
$DIMLWD
 70
               0
  9
$DIMLWE
 70
               0
  9
$DIMTMOVE
 70
               0
  9
$LUNITS
 70
               2
  9
$LUPREC
 70
               4
  9
$SKETCHINC
 40
0.1
  9
$FILLETRAD
 40
0.0
  9
$AUNITS
 70
               0
  9
$AUPREC
 70
               0
  9
$MENU
  1
acad
  9
$ELEVATION
 40
0.0
  9
$PELEVATION
 40
0.0
  9
$THICKNESS
 40
0.0
  9
$LIMCHECK
 70
               0
  9
$CHAMFERA
 40
0.0
  9
$CHAMFERB
 40
0.0
  9
$CHAMFERC
 40
0.0
  9
$CHAMFERD
 40
0.0
  9
$SKPOLY
 70
               0
  9
$TDCREATE
 40
2458256.688113426
  9
$TDUCREATE
 40
0.000000000
  9
$TDUPDATE
 40
2458256.688113426
  9
$TDUUPDATE
 40
0.000000000
  9
$TDINDWG
 40
0.0000000000
  9
$TDUSRTIMER
 40
0.0000000000
  9
$USRTIMER
 70
               1
  9
$ANGBASE
 50
0.0
  9
$ANGDIR
 70
               0
  9
$PDMODE
 70
               1
  9
$PDSIZE
 40
-2.0
  9
$PLINEWID
 40
0.0
  9
$SPLFRAME
 70
               0
  9
$SPLINETYPE
 70
               6
  9
$SPLINESEGS
 70
               8
  9
$HANDSEED
  5
2BF
  9
$SURFTAB1
 70
               6
  9
$SURFTAB2
 70
               6
  9
$SURFTYPE
 70
               6
  9
$SURFU
 70
               6
  9
$SURFV
 70
               6
  9
$UCSBASE
  2

  9
$UCSNAME
  2

  9
$UCSORG
 10
0.0
 20
0.0
 30
0.0
  9
$UCSXDIR
 10
1.0
 20
0.0
 30
0.0
  9
$UCSYDIR
 10
0.0
 20
1.0
 30
0.0
  9
$UCSORTHOREF
  2

  9
$UCSORTHOVIEW
 70
               0
  9
$UCSORGTOP
 10
0.0
 20
0.0
 30
0.0
  9
$UCSORGBOTTOM
 10
0.0
 20
0.0
 30
0.0
  9
$UCSORGLEFT
 10
0.0
 20
0.0
 30
0.0
  9
$UCSORGRIGHT
 10
0.0
 20
0.0
 30
0.0
  9
$UCSORGFRONT
 10
0.0
 20
0.0
 30
0.0
  9
$UCSORGBACK
 10
0.0
 20
0.0
 30
0.0
  9
$PUCSBASE
  2

  9
$PUCSNAME
  2

  9
$PUCSORG
 10
0.0
 20
0.0
 30
0.0
  9
$PUCSXDIR
 10
1.0
 20
0.0
 30
0.0
  9
$PUCSYDIR
 10
0.0
 20
1.0
 30
0.0
  9
$PUCSORTHOREF
  2

  9
$PUCSORTHOVIEW
 70
               0
  9
$PUCSORGTOP
 10
0.0
 20
0.0
 30
0.0
  9
$PUCSORGBOTTOM
 10
0.0
 20
0.0
 30
0.0
  9
$PUCSORGLEFT
 10
0.0
 20
0.0
 30
0.0
  9
$PUCSORGRIGHT
 10
0.0
 20
0.0
 30
0.0
  9
$PUCSORGFRONT
 10
0.0
 20
0.0
 30
0.0
  9
$PUCSORGBACK
 10
0.0
 20
0.0
 30
0.0
  9
$USERI1
 70
               0
  9
$USERI2
 70
               0
  9
$USERI3
 70
               0
  9
$USERI4
 70
               0
  9
$USERI5
 70
               0
  9
$USERR1
 40
0.0
  9
$USERR2
 40
0.0
  9
$USERR3
 40
0.0
  9
$USERR4
 40
0.0
  9
$USERR5
 40
0.0
  9
$WORLDVIEW
 70
               1
  9
$SHADEDGE
 70
               3
  9
$SHADEDIF
 70
              70
  9
$TILEMODE
 70
               1
  9
$MAXACTVP
 70
              64
  9
$PINSBASE
 10
0.0
 20
0.0
 30
0.0
  9
$PLIMCHECK
 70
               0
  9
$PEXTMIN
 10
1.0000000000000000E+20
 20
1.0000000000000000E+20
 30
1.0000000000000000E+20
  9
$PEXTMAX
 10
-1.0000000000000000E+20
 20
-1.0000000000000000E+20
 30
-1.0000000000000000E+20
  9
$PLIMMIN
 10
0.0
 20
0.0
  9
$PLIMMAX
 10
12.0
 20
9.0
  9
$UNITMODE
 70
               0
  9
$VISRETAIN
 70
               0
  9
$PLINEGEN
 70
               1
  9
$PSLTSCALE
 70
               0
  9
$TREEDEPTH
 70
            3020
  9
$CMLSTYLE
  2
Standard
  9
$CMLJUST
 70
               0
  9
$CMLSCALE
 40
1.0
  9
$PROXYGRAPHICS
 70
               0
  9
$MEASUREMENT
 70
               1
  9
$CELWEIGHT
370
               0
  9
$ENDCAPS
280
               0
  9
$JOINSTYLE
280
               0
  9
$LWDISPLAY
290
               1
  9
$INSUNITS
 70
               4
  9
$HYPERLINKBASE
  1

  9
$STYLESHEET
  1

  9
$XEDIT
290
               1
  9
$CEPSNTYPE
380
               0
  9
$PSTYLEMODE
290
               1
  9
$FINGERPRINTGUID
  2

  9
$VERSIONGUID
  2

  9
$EXTNAMES
290
               1
  9
$PSVPSCALE
 40
0.0
  0
ENDSEC
  0
SECTION
  2
CLASSES
  0
CLASS
  1
LWPOLYLINE
  2
AcDbPolyline
  3
AutoCAD 2000
 90
    32768
280
               0
281
               1
  0
CLASS
  1
IMAGE
  2
AcDbRasterImage
  3
ISM
 90
    32895
280
               0
281
               1
  0
CLASS
  1
OLE2FRAME
  2
AcDbOle2Frame
  3
AutoCAD 2000
 90
    32768
280
               0
281
               1
  0
CLASS
  1
HATCH
  2
AcDbHatch
  3
AutoCAD 2000
 90
    32768
280
               0
281
               1
  0
CLASS
  1
DICTIONARYVAR
  2
AcDbDictionaryVar
  3
AutoCAD 2000
 90
    32768
280
               0
281
               0
  0
CLASS
  1
RASTERVARIABLES
  2
AcDbRasterVariables
  3
ISM
 90
    32768
280
               0
281
               0
  0
CLASS
  1
IMAGEDEF
  2
AcDbRasterImageDef
  3
ISM
 90
    32768
280
               0
281
               0
  0
CLASS
  1
IMAGEDEF_REACTOR
  2
AcDbRasterImageDefReactor
  3
ISM
 90
    32769
280
               0
281
               0
  0
CLASS
  1
IDBUFFER
  2
AcDbIdBuffer
  3
AutoCAD 2000
 90
    32768
280
               0
281
               0
  0
CLASS
  1
SPATIAL_FILTER
  2
AcDbSpatialFilter
  3
AutoCAD 2000
 90
    32768
280
               0
281
               0
  0
CLASS
  1
XRECORD
  2
AcDbXrecord
  3
AutoCAD 2000
 90
    32768
280
               0
281
               0
  0
CLASS
  1
SORTENTSTABLE
  2
AcDbSortentsTable
  3
AutoCAD 2000
 90
    32768
280
               0
281
               0
  0
CLASS
  1
LAYER_INDEX
  2
AcDbLayerIndex
  3
AutoCAD 2000
 90
    32768
280
               0
281
               0
  0
CLASS
  1
SPATIAL_INDEX
  2
AcDbSpatialIndex
  3
AutoCAD 2000
 90
    32768
280
               0
281
               0
  0
CLASS
  1
OBJECT_PTR
  2
CAseDLPNTableRecord
  3
"ASE-LPNTableRecord"
 90
    32769
280
               0
281
               0
  0
CLASS
  1
LAYOUT
  2
AcDbLayout
  3
AutoCAD 2000
 90
        0
280
               0
281
               0
  0
CLASS
  1
PLOTSETTINGS
  2
AcDbPlotSettings
  3
AutoCAD 2000
 90
    32768
280
               0
281
               0
  0
CLASS
  1
ACDBDICTIONARYWDFLT
  2
AcDbDictionaryWithDefault
  3
AutoCAD 2000
 90
        0
280
               0
281
               0
  0
CLASS
  1
ACDBPLACEHOLDER
  2
AcDbPlaceHolder
  3
AutoCAD 2000
 90
        0
280
               0
281
               0
  0
CLASS
  1
VBA_PROJECT
  2
AcDbVbaProject
  3
acadvba
 90
    32768
280
               0
281
               0
  0
CLASS
  1
WIPEOUT
  2
AcDbWipeout
  3
WipeOut|AutoCAD Express Tool|expresstools@autodesk.com
 90
    32895
280
               0
281
               1
  0
CLASS
  1
WIPEOUTVARIABLES
  2
AcDbWipeoutVariables
  3
WipeOut|AutoCAD Express Tool|expresstools@autodesk.com
 90
        0
280
               0
281
               0
  0
CLASS
  1
RTEXT
  2
RText
  3
RText|AutoCAD Express Tool|expresstools@autodesk.com
 90
    32768
280
               0
281
               1
  0
CLASS
  1
ARCALIGNEDTEXT
  2
AcDbArcAlignedText
  3
ATEXT|AutoCAD Express Tool|expresstools@autodesk.com
 90
    32768
280
               0
281
               1
  0
ENDSEC
  0
SECTION
  2
TABLES
  0
TABLE
  2
VPORT
  5
7
100
AcDbSymbolTable
 70
               1
  0
VPORT
  5
15
100
AcDbSymbolTableRecord
100
AcDbViewportTableRecord
  2
*ACTIVE
 70
               0
 10
0.0
 20
0.0
 11
1.0
 21
1.0
 12
813.59285285508054
 22
580.82469776049311
 13
0.0
 23
0.0
 14
1.0
 24
1.0
 15
0.0
 25
0.0
 16
0.0
 26
0.0
 36
1.0
 17
0.0
 27
0.0
 37
0.0
 40
176.82555728723196
 41
0.688564
 42
50.0
 43
0.0
 44
0.0
 50
0.0
 51
0.0
 71
               0
 72
            2000
 73
               1
 74
               1
 75
               0
 76
               0
 77
               0
 78
               0
281
               0
 65
               0
110
0.0
120
0.0
130
0.0
111
1.0
121
0.0
131
0.0
112
0.0
122
1.0
132
0.0
345
0
346
0
 79
               0
146
0.0
  0
ENDTAB
  0
TABLE
  2
LTYPE
  5
4
100
AcDbSymbolTable
 70
              13
  0
LTYPE
  5
11
100
AcDbSymbolTableRecord
100
AcDbLinetypeTableRecord
  2
ByBlock
 70
              64
  3

 72
              65
 73
               0
 40
0.0
  0
LTYPE
  5
12
100
AcDbSymbolTableRecord
100
AcDbLinetypeTableRecord
  2
ByLayer
 70
              64
  3

 72
              65
 73
               0
 40
0.0
  0
LTYPE
  5
13
100
AcDbSymbolTableRecord
100
AcDbLinetypeTableRecord
  2
Continuous
 70
              64
  3
Solid line
 72
              65
 73
               0
 40
0.0
  0
LTYPE
  5
25
100
AcDbSymbolTableRecord
100
AcDbLinetypeTableRecord
  2
STYLE_01
 70
               0
  3

 72
              65
 73
               2
 40
0.41664
 49
0.20828
 74
               0
 49
-0.20836
 74
               0
  0
LTYPE
  5
26
100
AcDbSymbolTableRecord
100
AcDbLinetypeTableRecord
  2
STYLE_02
 70
               0
  3

 72
              65
 73
               2
 40
0.6944250000000001
 49
0.48607
 74
               0
 49
-0.2083550000000001
 74
               0
  0
LTYPE
  5
27
100
AcDbSymbolTableRecord
100
AcDbLinetypeTableRecord
  2
STYLE_03
 70
               0
  3

 72
              65
 73
               2
 40
1.25
 49
1.0416400000000001
 74
               0
 49
-0.2083599999999999
 74
               0
  0
LTYPE
  5
28
100
AcDbSymbolTableRecord
100
AcDbLinetypeTableRecord
  2
STYLE_04
 70
               0
  3

 72
              65
 73
               2
 40
1.5277099999999999
 49
1.3194249999999998
 74
               0
 49
-0.208285
 74
               0
  0
LTYPE
  5
29
100
AcDbSymbolTableRecord
100
AcDbLinetypeTableRecord
  2
STYLE_05
 70
               0
  3

 72
              65
 73
               2
 40
0.20828
 49
0.069425
 74
               0
 49
-0.138855
 74
               0
  0
LTYPE
  5
2A
100
AcDbSymbolTableRecord
100
AcDbLinetypeTableRecord
  2
STYLE_06
 70
               0
  3

 72
              65
 73
               4
 40
1.0416400000000001
 49
0.625
 74
               0
 49
-0.20828
 74
               0
 49
0.06943
 74
               0
 49
-0.13893
 74
               0
  0
LTYPE
  5
2B
100
AcDbSymbolTableRecord
100
AcDbLinetypeTableRecord
  2
STYLE_07
 70
               0
  3

 72
              65
 73
               6
 40
1.875
 49
0.625
 74
               0
 49
-0.20828
 74
               0
 49
0.6250000000000001
 74
               0
 49
-0.2083599999999999
 74
               0
 49
0.06943
 74
               0
 49
-0.1389299999999999
 74
               0
  0
LTYPE
  5
2C
100
AcDbSymbolTableRecord
100
AcDbLinetypeTableRecord
  2
STYLE_08
 70
               0
  3

 72
              65
 73
               6
 40
1.25
 49
0.625
 74
               0
 49
-0.20828
 74
               0
 49
0.06943
 74
               0
 49
-0.13893
 74
               0
 49
0.0694299999999999
 74
               0
 49
-0.13893
 74
               0
  0
LTYPE
  5
2D
100
AcDbSymbolTableRecord
100
AcDbLinetypeTableRecord
  2
STYLE_09
 70
               0
  3

 72
              65
 73
               4
 40
5.0
 49
3.75
 74
               0
 49
-0.2777849999999998
 74
               0
 49
0.6944300000000003
 74
               0
 49
-0.2777849999999998
 74
               0
  0
LTYPE
  5
2E
100
AcDbSymbolTableRecord
100
AcDbLinetypeTableRecord
  2
STYLE_10
 70
               0
  3

 72
              65
 73
               6
 40
5.9375
 49
3.75
 74
               0
 49
-0.2777849999999998
 74
               0
 49
0.6944300000000003
 74
               0
 49
-0.2777849999999998
 74
               0
 49
0.625
 74
               0
 49
-0.3125
 74
               0
  0
ENDTAB
  0
TABLE
  2
LAYER
  5
2
100
AcDbSymbolTable
 70
               6
  0
LAYER
  5
14
100
AcDbSymbolTableRecord
100
AcDbLayerTableRecord
  2
0
 70
               0
 62
               7
  6
Continuous
290
               1
370
              15
390
1D
  0
LAYER
  5
2F
100
AcDbSymbolTableRecord
100
AcDbLayerTableRecord
  2
一般
 70
               0
 62
               7
  6
Continuous
290
               1
370
               5
390
1D
  0
LAYER
  5
30
100
AcDbSymbolTableRecord
100
AcDbLayerTableRecord
  2
寸法
 70
               0
 62
               7
  6
Continuous
290
               1
370
               5
390
1D
  0
LAYER
  5
31
100
AcDbSymbolTableRecord
100
AcDbLayerTableRecord
  2
_0-0_
 70
               0
 62
               7
  6
Continuous
290
               1
370
              15
390
1D
  0
LAYER
  5
32
100
AcDbSymbolTableRecord
100
AcDbLayerTableRecord
  2
_0-1_
 70
               0
 62
               7
  6
Continuous
290
               1
370
              15
390
1D
  0
LAYER
  5
33
100
AcDbSymbolTableRecord
100
AcDbLayerTableRecord
  2
ADD_LINE
 70
               0
 62
               7
  6
Continuous
290
               1
370
              15
390
1D
  0
ENDTAB
  0
TABLE
  2
STYLE
  5
3
100
AcDbSymbolTable
 70
               1
  0
STYLE
  5
17
100
AcDbSymbolTableRecord
100
AcDbTextStyleTableRecord
  2
Standard
 70
               0
 40
0.0
 41
1.0
 50
0.0
 71
               0
 42
0.0
  3
txt
  4
BIGFONT.SHX
  0
ENDTAB
  0
TABLE
  2
VIEW
  5
5
100
AcDbSymbolTable
 70
               0
  0
ENDTAB
  0
TABLE
  2
UCS
  5
6
100
AcDbSymbolTable
 70
               0
  0
ENDTAB
  0
TABLE
  2
APPID
  5
8
100
AcDbSymbolTable
 70
               1
  0
APPID
  5
16
100
AcDbSymbolTableRecord
100
AcDbRegAppTableRecord
  2
ACAD
 70
               0
  0
ENDTAB
  0
TABLE
  2
DIMSTYLE
  5
9
100
AcDbSymbolTable
 70
               1
100
AcDbDimStyleTable
 71
               0
  0
DIMSTYLE
105
18
100
AcDbSymbolTableRecord
100
AcDbDimStyleTableRecord
  2
Standard
 70
               0
  3

  4

 40
1.0
 41
0.18
 42
0.0625
 43
0.38
 44
0.18
 45
0.0
 46
0.0
 47
0.0
 48
0.0
 71
               0
 72
               0
 73
               1
 74
               1
 75
               0
 76
               0
 77
               0
 78
               0
 79
               0
140
0.18
141
0.09
142
0.0
143
25.399999999999999
144
1.0
145
0.0
146
1.0
147
0.09
148
0.0
170
               0
171
               2
172
               0
173
               0
174
               0
175
               0
176
               0
177
               0
178
               0
179
               0
271
               4
272
               4
273
               2
274
               2
275
               0
276
               0
277
               2
278
              46
279
               0
280
               0
281
               0
282
               0
283
               1
284
               0
285
               0
286
               0
288
               0
340
17
341
0
342
0
343
0
344
0
371
              -2
372
              -2
  0
ENDTAB
  0
TABLE
  2
BLOCK_RECORD
  5
1
100
AcDbSymbolTable
 70
               1
  0
BLOCK_RECORD
  5
A
100
AcDbSymbolTableRecord
100
AcDbBlockTableRecord
  2
*MODEL_SPACE
340
20
  0
BLOCK_RECORD
  5
B
100
AcDbSymbolTableRecord
100
AcDbBlockTableRecord
  2
*PAPER_SPACE
340
21
  0
BLOCK_RECORD
  5
24
100
AcDbSymbolTableRecord
100
AcDbBlockTableRecord
  2
グループ
340
0
102
{BLKREFS
331
2BE
102
}
  0
ENDTAB
  0
ENDSEC
  0
SECTION
  2
BLOCKS
  0
BLOCK
  5
D
100
AcDbEntity
  8
0
100
AcDbBlockBegin
  2
*MODEL_SPACE
 70
               0
 10
0.0
 20
0.0
 30
0.0
  3
*MODEL_SPACE
  1

  0
ENDBLK
  5
E
100
AcDbEntity
  8
0
100
AcDbBlockEnd
  0
BLOCK
  5
F
100
AcDbEntity
 67
               1
  8
0
100
AcDbBlockBegin
  2
*PAPER_SPACE
 70
               0
 10
0.0
 20
0.0
 30
0.0
  3
*PAPER_SPACE
  1

  0
ENDBLK
  5
10
100
AcDbEntity
 67
               1
  8
0
100
AcDbBlockEnd
  0
BLOCK
  5
34
100
AcDbEntity
  8
0
100
AcDbBlockBegin
  2
グループ
 70
               0
 10
0.0
 20
0.0
 30
0.0
  3
グループ
  1

  0
LINE
  5
35
100
AcDbEntity
  8
_0-1_
370
              15
  6
Continuous
 62
               7
100
AcDbLine
 10
315.43161178989385
 20
-527.11261515500087
 30
0.0
 11
315.43161178989385
 21
-535.11261724645647
 31
0.0
  0
LINE
  5
36
100
AcDbEntity
  8
_0-0_
370
              15
  6
Continuous
 62
               7
100
AcDbLine
 10
265.43158778233965
 20
-527.11261515500087
 30
0.0
 11
265.43158778233965
 21
-535.11261724645647
 31
0.0
  0
LINE
  5
37
100
AcDbEntity
  8
_0-0_
370
              15
  6
Continuous
 62
               7
100
AcDbLine
 10
265.43158778233965
 20
-535.11261724645647
 30
0.0
 11
365.43159205362235
 21
-535.11261724645647
 31
0.0
  0
LINE
  5
38
100
AcDbEntity
  8
_0-0_
370
              15
  6
Continuous
 62
               7
100
AcDbLine
 10
365.43159205362235
 20
-535.11261724645647
 30
0.0
 11
365.43159205362235
 21
-527.11261515500087
 31
0.0
  0
MTEXT
  5
39
100
AcDbEntity
  8
_0-0_
 62
               4
100
AcDbMText
 10
262.93158778233965
 20
-517.11261515500087
 30
0.0
 40
11.370558375634518
 41
0.0
 71
               1
 72
               1
  1
{\H0.8795x;\l0}
 73
               1
 44
0.7828267384257843
  0
MTEXT
  5
3A
100
AcDbEntity
  8
_0-0_
 62
               4
100
AcDbMText
 10
311.80661146586544
 20
-517.11261515500087
 30
0.0
 40
11.370558375634518
 41
0.0
 71
               1
 72
               1
  1
{\H0.8795x;\l50}
 73
               1
 44
0.7828267384257843
  0
MTEXT
  5
3B
100
AcDbEntity
  8
_0-0_
 62
               4
100
AcDbMText
 10
358.43163450133466
 20
-517.11261515500087
 30
0.0
 40
11.370558375634518
 41
0.0
 71
               1
 72
               1
  1
{\H0.8795x;\l100mm}
 73
               1
 44
0.7828267384257843
  0
ENDBLK
  5
3C
100
AcDbEntity
  8
0
100
AcDbBlockEnd
  0
ENDSEC
  0
SECTION
  2
ENTITIES
  0
LINE
  5
3D
100
AcDbEntity
  8
_0-0_
370
              15
  6
Continuous
 62
               7
100
AcDbLine
 10
741.74070598613753
 20
532.45983638542498
 30
0.0
 11
738.91228270332272
 21
529.63140872822771
 31
0.0
  0
LINE
  5
3E
100
AcDbEntity
  8
_0-0_
370
              15
  6
Continuous
 62
               7
100
AcDbLine
 10
741.74070598613753
 20
529.63140872822771
 30
0.0
 11
738.91228270332272
 21
532.45983638542498
 31
0.0
  0
LINE
  5
3F
100
AcDbEntity
  8
_0-0_
370
              15
  6
Continuous
 62
               7
100
AcDbLine
 10
742.73649043635919
 20
554.14562367472411
 30
0.0
 11
742.73649043635919
 21
606.63782092503141
 31
0.0
  0
LINE
  5
40
100
AcDbEntity
  8
_0-0_
370
              15
  6
Continuous
 62
               7
100
AcDbLine
 10
737.93648918148585
 20
554.14562367472411
 30
0.0
 11
737.93648918148585
 21
606.63782092503141
 31
0.0
  0
LINE
  5
41
100
AcDbEntity
  8
_0-0_
370
              15
  6
Continuous
 62
               7
100
AcDbLine
 10
844.87024853942432
 20
554.14562367472411
 30
0.0
 11
848.6702396905049
 21
554.14562367472411
 31
0.0
  0
LINE
  5
42
100
AcDbEntity
  8
_0-0_
370
              15
  6
Continuous
 62
               7
100
AcDbLine
 10
848.6702396905049
 20
554.14562367472411
 30
0.0
 11
848.6702396905049
 21
532.34562563067698
 31
0.0
  0
LINE
  5
43
100
AcDbEntity
  8
_0-0_
370
              15
  6
Continuous
 62
               7
100
AcDbLine
 10
848.6702396905049
 20
532.34562563067698
 30
0.0
 11
839.07023718075811
 21
532.34562563067698
 31
0.0
  0
LINE
  5
44
100
AcDbEntity
  8
_0-0_
370
              15
  6
Continuous
 62
               7
100
AcDbLine
 10
839.07023718075811
 20
532.34562563067698
 30
0.0
 11
839.07023718075811
 21
554.14562367472411
 31
0.0
  0
LINE
  5
45
100
AcDbEntity
  8
_0-0_
370
              15
  6
Continuous
 62
               7
100
AcDbLine
 10
839.07023718075811
 20
554.14562367472411
 30
0.0
 11
842.87024582936908
 21
554.14562367472411
 31
0.0
  0
LINE
  5
46
100
AcDbEntity
  8
_0-0_
370
              15
  6
Continuous
 62
               7
100
AcDbLine
 10
838.37024848050999
 20
532.34562563067698
 30
0.0
 11
849.37024588828331
 21
532.34562563067698
 31
0.0
  0
LINE
  5
47
100
AcDbEntity
  8
_0-0_
370
              15
  6
Continuous
 62
               7
100
AcDbLine
 10
849.37024588828331
 20
532.34562563067698
 30
0.0
 11
849.37024588828331
 21
531.04562474401769
 31
0.0
  0
LINE
  5
48
100
AcDbEntity
  8
_0-0_
370
              15
  6
Continuous
 62
               7
100
AcDbLine
 10
849.37024588828331
 20
531.04562474401769
 30
0.0
 11
838.37024848050999
 21
531.04562474401769
 31
0.0
  0
LINE
  5
49
100
AcDbEntity
  8
_0-0_
370
              15
  6
Continuous
 62
               7
100
AcDbLine
 10
838.37024848050999
 20
531.04562474401769
 30
0.0
 11
838.37024848050999
 21
532.34562563067698
 31
0.0
  0
LINE
  5
4A
100
AcDbEntity
  8
_0-0_
370
              15
  6
Continuous
 62
               7
100
AcDbLine
 10
842.87024582936908
 20
549.34030317063502
 30
0.0
 11
842.87024582936908
 21
565.24561946824713
 31
0.0
  0
LINE
  5
4B
100
AcDbEntity
  8
_0-0_
370
              15
  6
Continuous
 62
               7
100
AcDbLine
 10
842.87024582936908
 20
565.24561946824713
 30
0.0
 11
844.87024853942432
 21
565.24561946824713
 31
0.0
  0
LINE
  5
4C
100
AcDbEntity
  8
_0-0_
370
              15
  6
Continuous
 62
               7
100
AcDbLine
 10
844.87024853942432
 20
565.24561946824713
 30
0.0
 11
844.87024853942432
 21
549.34030317063502
 31
0.0
  0
LINE
  5
4D
100
AcDbEntity
  8
_0-0_
370
              15
  6
Continuous
 62
               7
100
AcDbLine
 10
742.73649043635919
 20
588.01020386596451
 30
0.0
 11
742.59456796797497
 21
588.05139305232581
 31
0.0
  0
LINE
  5
4E
100
AcDbEntity
  8
_0-0_
370
              15
  6
Continuous
 62
               7
100
AcDbLine
 10
742.59456796797497
 20
588.05139305232581
 30
0.0
 11
742.45156940147638
 21
588.08992261407923
 31
0.0
  0
LINE
  5
4F
100
AcDbEntity
  8
_0-0_
370
              15
  6
Continuous
 62
               7
100
AcDbLine
 10
742.45156940147638
 20
588.08992261407923
 30
0.0
 11
742.3074947368633
 21
588.12579255122478
 31
0.0
  0
LINE
  5
50
100
AcDbEntity
  8
_0-0_
370
              15
  6
Continuous
 62
               7
100
AcDbLine
 10
742.3074947368633
 20
588.12579255122478
 30
0.0
 11
742.16233522537084
 21
588.15901161252771
 31
0.0
  0
LINE
  5
51
100
AcDbEntity
  8
_0-0_
370
              15
  6
Continuous
 62
               7
100
AcDbLine
 10
742.16233522537084
 20
588.15901161252771
 30
0.0
 11
742.01610836452915
 21
588.18957104922265
 31
0.0
  0
LINE
  5
52
100
AcDbEntity
  8
_0-0_
370
              15
  6
Continuous
 62
               7
100
AcDbLine
 10
742.01610836452915
 20
588.18957104922265
 30
0.0
 11
741.86879665680783
 21
588.21747086130972
 31
0.0
  0
LINE
  5
53
100
AcDbEntity
  8
_0-0_
370
              15
  6
Continuous
 62
               7
100
AcDbLine
 10
741.86879665680783
 20
588.21747086130972
 30
0.0
 11
741.7204175997374
 21
588.24271979755417
 31
0.0
  0
LINE
  5
54
100
AcDbEntity
  8
_0-0_
370
              15
  6
Continuous
 62
               7
100
AcDbLine
 10
741.7204175997374
 20
588.24271979755417
 30
0.0
 11
741.57095369578735
 21
588.26530036042561
 31
0.0
  0
LINE
  5
55
100
AcDbEntity
  8
_0-0_
370
              15
  6
Continuous
 62
               7
100
AcDbLine
 10
741.57095369578735
 20
588.26530036042561
 30
0.0
 11
741.42041369372305
 21
588.28523004745432
 31
0.0
  0
LINE
  5
56
100
AcDbEntity
  8
_0-0_
370
              15
  6
Continuous
 62
               7
100
AcDbLine
 10
741.42041369372305
 20
588.28523004745432
 30
0.0
 11
741.26879759354426
 21
588.30250885864029
 31
0.0
  0
LINE
  5
57
100
AcDbEntity
  8
_0-0_
370
              15
  6
Continuous
 62
               7
100
AcDbLine
 10
741.26879759354426
 20
588.30250885864029
 30
0.0
 11
741.11610539525122
 21
588.31711929645326
 31
0.0
  0
LINE
  5
58
100
AcDbEntity
  8
_0-0_
370
              15
  6
Continuous
 62
               7
100
AcDbLine
 10
741.11610539525122
 20
588.31711929645326
 30
0.0
 11
740.96233709884382
 21
588.32907885842349
 31
0.0
  0
LINE
  5
59
100
AcDbEntity
  8
_0-0_
370
              15
  6
Continuous
 62
               7
100
AcDbLine
 10
740.96233709884382
 20
588.32907885842349
 30
0.0
 11
740.80749270432193
 21
588.33837879578584
 31
0.0
  0
LINE
  5
5A
100
AcDbEntity
  8
_0-0_
370
              15
  6
Continuous
 62
               7
100
AcDbLine
 10
740.80749270432193
 20
588.33837879578584
 30
0.0
 11
740.65156346292065
 21
588.34501910854033
 31
0.0
  0
LINE
  5
5B
100
AcDbEntity
  8
_0-0_
370
              15
  6
Continuous
 62
               7
100
AcDbLine
 10
740.65156346292065
 20
588.34501910854033
 30
0.0
 11
740.49456687217003
 21
588.34900854545208
 31
0.0
  0
LINE
  5
5C
100
AcDbEntity
  8
_0-0_
370
              15
  6
Continuous
 62
               7
100
AcDbLine
 10
740.49456687217003
 20
588.34900854545208
 30
0.0
 11
740.3364854345399
 21
588.35033835775607
 31
0.0
  0
LINE
  5
5D
100
AcDbEntity
  8
_0-0_
370
              15
  6
Continuous
 62
               7
100
AcDbLine
 10
740.3364854345399
 20
588.35033835775607
 30
0.0
 11
740.17841274567502
 21
588.34900854545208
 31
0.0
  0
LINE
  5
5E
100
AcDbEntity
  8
_0-0_
370
              15
  6
Continuous
 62
               7
100
AcDbLine
 10
740.17841274567502
 20
588.34900854545208
 30
0.0
 11
740.02140740615926
 21
588.34501910854033
 31
0.0
  0
LINE
  5
5F
100
AcDbEntity
  8
_0-0_
370
              15
  6
Continuous
 62
               7
100
AcDbLine
 10
740.02140740615926
 20
588.34501910854033
 30
0.0
 11
739.86548691352311
 21
588.33837879578584
 31
0.0
  0
LINE
  5
60
100
AcDbEntity
  8
_0-0_
370
              15
  6
Continuous
 62
               7
100
AcDbLine
 10
739.86548691352311
 20
588.33837879578584
 30
0.0
 11
739.71064251900134
 21
588.32907885842349
 31
0.0
  0
LINE
  5
61
100
AcDbEntity
  8
_0-0_
370
              15
  6
Continuous
 62
               7
100
AcDbLine
 10
739.71064251900134
 20
588.32907885842349
 30
0.0
 11
739.55687422259382
 21
588.31711929645326
 31
0.0
  0
LINE
  5
62
100
AcDbEntity
  8
_0-0_
370
              15
  6
Continuous
 62
               7
100
AcDbLine
 10
739.55687422259382
 20
588.31711929645326
 30
0.0
 11
739.40418202430078
 21
588.30250885864029
 31
0.0
  0
LINE
  5
63
100
AcDbEntity
  8
_0-0_
370
              15
  6
Continuous
 62
               7
100
AcDbLine
 10
739.40418202430078
 20
588.30250885864029
 30
0.0
 11
739.252565924122
 21
588.28523004745432
 31
0.0
  0
LINE
  5
64
100
AcDbEntity
  8
_0-0_
370
              15
  6
Continuous
 62
               7
100
AcDbLine
 10
739.252565924122
 20
588.28523004745432
 30
0.0
 11
739.10202592205769
 21
588.26530036042561
 31
0.0
  0
LINE
  5
65
100
AcDbEntity
  8
_0-0_
370
              15
  6
Continuous
 62
               7
100
AcDbLine
 10
739.10202592205769
 20
588.26530036042561
 30
0.0
 11
738.95256201810764
 21
588.24271979755417
 31
0.0
  0
LINE
  5
66
100
AcDbEntity
  8
_0-0_
370
              15
  6
Continuous
 62
               7
100
AcDbLine
 10
738.95256201810764
 20
588.24271979755417
 30
0.0
 11
738.80418296103721
 21
588.21747086130972
 31
0.0
  0
LINE
  5
67
100
AcDbEntity
  8
_0-0_
370
              15
  6
Continuous
 62
               7
100
AcDbLine
 10
738.80418296103721
 20
588.21747086130972
 30
0.0
 11
738.65687125331601
 21
588.18957104922265
 31
0.0
  0
LINE
  5
68
100
AcDbEntity
  8
_0-0_
370
              15
  6
Continuous
 62
               7
100
AcDbLine
 10
738.65687125331601
 20
588.18957104922265
 30
0.0
 11
738.51064439247421
 21
588.15901161252771
 31
0.0
  0
LINE
  5
69
100
AcDbEntity
  8
_0-0_
370
              15
  6
Continuous
 62
               7
100
AcDbLine
 10
738.51064439247421
 20
588.15901161252771
 30
0.0
 11
738.36548488098174
 21
588.12579255122478
 31
0.0
  0
LINE
  5
6A
100
AcDbEntity
  8
_0-0_
370
              15
  6
Continuous
 62
               7
100
AcDbLine
 10
738.36548488098174
 20
588.12579255122478
 30
0.0
 11
738.22141021636878
 21
588.08992261407923
 31
0.0
  0
LINE
  5
6B
100
AcDbEntity
  8
_0-0_
370
              15
  6
Continuous
 62
               7
100
AcDbLine
 10
738.22141021636878
 20
588.08992261407923
 30
0.0
 11
738.07841164987008
 21
588.05139305232581
 31
0.0
  0
LINE
  5
6C
100
AcDbEntity
  8
_0-0_
370
              15
  6
Continuous
 62
               7
100
AcDbLine
 10
738.07841164987008
 20
588.05139305232581
 30
0.0
 11
737.93648918148585
 21
588.01020386596451
 31
0.0
  0
LINE
  5
6D
100
AcDbEntity
  8
_0-1_
370
              15
  6
Continuous
 62
               7
100
AcDbLine
 10
751.7264940442675
 20
544.6456239251097
 30
0.0
 11
753.72649675432274
 21
539.84562267023625
 31
0.0
  0
LINE
  5
6E
100
AcDbEntity
  8
_0-0_
370
              15
  6
Continuous
 62
               7
100
AcDbLine
 10
754.12649029732165
 20
565.24561946824713
 30
0.0
 11
756.12649300737678
 21
565.24561946824713
 31
0.0
  0
LINE
  5
6F
100
AcDbEntity
  8
_0-0_
370
              15
  6
Continuous
 62
               7
100
AcDbLine
 10
756.12649300737678
 20
565.24561946824713
 30
0.0
 11
756.12649300737678
 21
549.44562517998304
 31
0.0
  0
LINE
  5
70
100
AcDbEntity
  8
_0-0_
370
              15
  6
Continuous
 62
               7
100
AcDbLine
 10
756.12649300737678
 20
549.44562517998304
 30
0.0
 11
757.72649342566797
 21
549.44562517998304
 31
0.0
  0
LINE
  5
71
100
AcDbEntity
  8
_0-0_
370
              15
  6
Continuous
 62
               7
100
AcDbLine
 10
757.72649342566797
 20
549.44562517998304
 30
0.0
 11
757.72649342566797
 21
539.84562267023625
 31
0.0
  0
LINE
  5
72
100
AcDbEntity
  8
_0-0_
370
              15
  6
Continuous
 62
               7
100
AcDbLine
 10
757.72649342566797
 20
539.84562267023625
 30
0.0
 11
753.72649675432274
 21
539.84562267023625
 31
0.0
  0
LINE
  5
73
100
AcDbEntity
  8
_0-0_
370
              15
  6
Continuous
 62
               7
100
AcDbLine
 10
753.72649675432274
 20
539.84562267023625
 30
0.0
 11
751.7264940442675
 21
544.6456239251097
 31
0.0
  0
LINE
  5
74
100
AcDbEntity
  8
_0-0_
370
              15
  6
Continuous
 62
               7
100
AcDbLine
 10
751.7264940442675
 20
544.6456239251097
 30
0.0
 11
751.7264940442675
 21
549.44562517998304
 31
0.0
  0
LINE
  5
75
100
AcDbEntity
  8
_0-0_
370
              15
  6
Continuous
 62
               7
100
AcDbLine
 10
751.7264940442675
 20
549.44562517998304
 30
0.0
 11
754.12649029732165
 21
549.44562517998304
 31
0.0
  0
LINE
  5
76
100
AcDbEntity
  8
_0-0_
370
              15
  6
Continuous
 62
               7
100
AcDbLine
 10
754.12649029732165
 20
549.44562517998304
 30
0.0
 11
754.12649029732165
 21
565.24561946824713
 31
0.0
  0
LINE
  5
77
100
AcDbEntity
  8
_0-0_
370
              15
  6
Continuous
 62
               7
100
AcDbLine
 10
841.47025093134255
 20
554.14562367472411
 30
0.0
 11
841.45467812936226
 21
583.94641994785616
 31
0.0
  0
LINE
  5
78
100
AcDbEntity
  8
_0-0_
370
              15
  6
Continuous
 62
               7
100
AcDbLine
 10
846.27024343745074
 20
554.14562367472411
 30
0.0
 11
846.27395291387757
 21
586.08724278188583
 31
0.0
  0
LINE
  5
79
100
AcDbEntity
  8
_0-0_
370
              15
  6
Continuous
 62
               7
100
AcDbLine
 10
797.56040857643188
 20
585.10730234536425
 30
0.0
 11
798.37619593230409
 21
589.73386807975623
 31
0.0
  0
LINE
  5
7A
100
AcDbEntity
  8
_0-1_
370
              15
  6
Continuous
 62
               7
100
AcDbLine
 10
802.33432976237088
 20
584.26552240820934
 30
0.0
 11
802.82419062106715
 21
587.01337831268904
 31
0.0
  0
LINE
  5
7B
100
AcDbEntity
  8
_0-0_
370
              15
  6
Continuous
 62
               7
100
AcDbLine
 10
802.82419062106715
 20
587.01337831268904
 30
0.0
 11
803.14131586049461
 21
588.84336626943934
 31
0.0
  0
LINE
  5
7C
100
AcDbEntity
  8
_0-0_
370
              15
  6
Continuous
 62
               7
100
AcDbLine
 10
803.14131586049461
 20
588.84336626943934
 30
0.0
 11
803.63198160558545
 21
590.63464094036794
 31
0.0
  0
LINE
  5
7D
100
AcDbEntity
  8
_0-0_
370
              15
  6
Continuous
 62
               7
100
AcDbLine
 10
803.63198160558545
 20
590.63464094036794
 30
0.0
 11
804.29170848857893
 21
592.37078964203943
 31
0.0
  0
LINE
  5
7E
100
AcDbEntity
  8
_0-0_
370
              15
  6
Continuous
 62
               7
100
AcDbLine
 10
804.29170848857893
 20
592.37078964203943
 30
0.0
 11
805.11442486645581
 21
594.03589837063237
 31
0.0
  0
LINE
  5
7F
100
AcDbEntity
  8
_0-0_
370
              15
  6
Continuous
 62
               7
100
AcDbLine
 10
805.11442486645581
 20
594.03589837063237
 30
0.0
 11
806.09258930365047
 21
595.61470053094695
 31
0.0
  0
LINE
  5
80
100
AcDbEntity
  8
_0-0_
370
              15
  6
Continuous
 62
               7
100
AcDbLine
 10
806.09258930365047
 20
595.61470053094695
 30
0.0
 11
807.21726056217176
 21
597.09273441417804
 31
0.0
  0
LINE
  5
81
100
AcDbEntity
  8
_0-0_
370
              15
  6
Continuous
 62
               7
100
AcDbLine
 10
807.21726056217176
 20
597.09273441417804
 30
0.0
 11
808.47809760160374
 21
598.4564394343314
 31
0.0
  0
LINE
  5
82
100
AcDbEntity
  8
_0-0_
370
              15
  6
Continuous
 62
               7
100
AcDbLine
 10
808.47809760160374
 20
598.4564394343314
 30
0.0
 11
809.86356954946893
 21
599.69333110352738
 31
0.0
  0
LINE
  5
83
100
AcDbEntity
  8
_0-0_
370
              15
  6
Continuous
 62
               7
100
AcDbLine
 10
809.86356954946893
 20
599.69333110352738
 30
0.0
 11
811.36097319875853
 21
600.79207102212206
 31
0.0
  0
LINE
  5
84
100
AcDbEntity
  8
_0-0_
370
              15
  6
Continuous
 62
               7
100
AcDbLine
 10
811.36097319875853
 20
600.79207102212206
 30
0.0
 11
812.95657298817548
 21
601.74258061265391
 31
0.0
  0
LINE
  5
85
100
AcDbEntity
  8
_0-0_
370
              15
  6
Continuous
 62
               7
100
AcDbLine
 10
812.95657298817548
 20
601.74258061265391
 30
0.0
 11
814.63577597743711
 21
602.53615485379134
 31
0.0
  0
LINE
  5
86
100
AcDbEntity
  8
_0-0_
370
              15
  6
Continuous
 62
               7
100
AcDbLine
 10
814.63577597743711
 20
602.53615485379134
 30
0.0
 11
816.38314934480559
 21
603.16552352168844
 31
0.0
  0
LINE
  5
87
100
AcDbEntity
  8
_0-0_
370
              15
  6
Continuous
 62
               7
100
AcDbLine
 10
816.38314934480559
 20
603.16552352168844
 30
0.0
 11
818.18270034757313
 21
603.62490368257625
 31
0.0
  0
LINE
  5
88
100
AcDbEntity
  8
_0-0_
370
              15
  6
Continuous
 62
               7
100
AcDbLine
 10
818.18270034757313
 20
603.62490368257625
 30
0.0
 11
820.01794631218308
 21
603.9101046779441
 31
0.0
  0
LINE
  5
89
100
AcDbEntity
  8
_0-0_
370
              15
  6
Continuous
 62
               7
100
AcDbLine
 10
820.01794631218308
 20
603.9101046779441
 30
0.0
 11
821.87203711694224
 21
604.01850187824505
 31
0.0
  0
LINE
  5
8A
100
AcDbEntity
  8
_0-0_
370
              15
  6
Continuous
 62
               7
100
AcDbLine
 10
821.87203711694224
 20
604.01850187824505
 30
0.0
 11
823.72801765497536
 21
603.94909792425096
 31
0.0
  0
LINE
  5
8B
100
AcDbEntity
  8
_0-0_
370
              15
  6
Continuous
 62
               7
100
AcDbLine
 10
823.72801765497536
 20
603.94909792425096
 30
0.0
 11
825.56882783422554
 21
603.70254022458346
 31
0.0
  0
LINE
  5
8C
100
AcDbEntity
  8
_0-0_
370
              15
  6
Continuous
 62
               7
100
AcDbLine
 10
825.56882783422554
 20
603.70254022458346
 30
0.0
 11
827.37765252805991
 21
603.28107721188815
 31
0.0
  0
LINE
  5
8D
100
AcDbEntity
  8
_0-0_
370
              15
  6
Continuous
 62
               7
100
AcDbLine
 10
827.37765252805991
 20
603.28107721188815
 30
0.0
 11
829.13786908267957
 21
602.68857584036459
 31
0.0
  0
LINE
  5
8E
100
AcDbEntity
  8
_0-0_
370
              15
  6
Continuous
 62
               7
100
AcDbLine
 10
829.13786908267957
 20
602.68857584036459
 30
0.0
 11
830.83336227266432
 21
601.93046909317547
 31
0.0
  0
LINE
  5
8F
100
AcDbEntity
  8
_0-0_
370
              15
  6
Continuous
 62
               7
100
AcDbLine
 10
830.83336227266432
 20
601.93046909317547
 30
0.0
 11
832.44859429109465
 21
601.01370348985597
 31
0.0
  0
LINE
  5
90
100
AcDbEntity
  8
_0-0_
370
              15
  6
Continuous
 62
               7
100
AcDbLine
 10
832.44859429109465
 20
601.01370348985597
 30
0.0
 11
833.96876222732396
 21
599.94668659372223
 31
0.0
  0
LINE
  5
91
100
AcDbEntity
  8
_0-0_
370
              15
  6
Continuous
 62
               7
100
AcDbLine
 10
833.96876222732396
 20
599.94668659372223
 30
0.0
 11
835.37993804722169
 21
598.7391907754552
 31
0.0
  0
LINE
  5
92
100
AcDbEntity
  8
_0-0_
370
              15
  6
Continuous
 62
               7
100
AcDbLine
 10
835.37993804722169
 20
598.7391907754552
 30
0.0
 11
836.66915608082445
 21
597.40227447421398
 31
0.0
  0
LINE
  5
93
100
AcDbEntity
  8
_0-0_
370
              15
  6
Continuous
 62
               7
100
AcDbLine
 10
836.66915608082445
 20
597.40227447421398
 30
0.0
 11
837.82464049023042
 21
595.94821220751442
 31
0.0
  0
LINE
  5
94
100
AcDbEntity
  8
_0-0_
370
              15
  6
Continuous
 62
               7
100
AcDbLine
 10
837.82464049023042
 20
595.94821220751442
 30
0.0
 11
838.83577027453828
 21
594.39031959592614
 31
0.0
  0
LINE
  5
95
100
AcDbEntity
  8
_0-0_
370
              15
  6
Continuous
 62
               7
100
AcDbLine
 10
838.83577027453828
 20
594.39031959592614
 30
0.0
 11
839.69330673774186
 21
592.74287462418602
 31
0.0
  0
LINE
  5
96
100
AcDbEntity
  8
_0-0_
370
              15
  6
Continuous
 62
               7
100
AcDbLine
 10
839.69330673774186
 20
592.74287462418602
 30
0.0
 11
840.38937599119947
 21
591.02097766095608
 31
0.0
  0
LINE
  5
97
100
AcDbEntity
  8
_0-0_
370
              15
  6
Continuous
 62
               7
100
AcDbLine
 10
840.38937599119947
 20
591.02097766095608
 30
0.0
 11
840.91757393881574
 21
589.24040272981506
 31
0.0
  0
LINE
  5
98
100
AcDbEntity
  8
_0-0_
370
              15
  6
Continuous
 62
               7
100
AcDbLine
 10
840.91757393881574
 20
589.24040272981506
 30
0.0
 11
841.27310625728444
 21
587.41748377531189
 31
0.0
  0
LINE
  5
99
100
AcDbEntity
  8
_0-0_
370
              15
  6
Continuous
 62
               7
100
AcDbLine
 10
841.27310625728444
 20
587.41748377531189
 30
0.0
 11
841.45268341090639
 21
585.5689221901323
 31
0.0
  0
LINE
  5
9A
100
AcDbEntity
  8
_0-0_
370
              15
  6
Continuous
 62
               7
100
AcDbLine
 10
841.45268341090639
 20
585.5689221901323
 30
0.0
 11
841.45467812936226
 21
583.711655583621
 31
0.0
  0
LINE
  5
9B
100
AcDbEntity
  8
_0-0_
370
              15
  6
Continuous
 62
               7
100
AcDbLine
 10
801.90579774742832
 20
584.1387178060171
 30
0.0
 11
797.91959787873634
 21
584.84087620002424
 31
0.0
  0
LINE
  5
9C
100
AcDbEntity
  8
_0-0_
370
              15
  6
Continuous
 62
               7
100
AcDbLine
 10
802.90737388018431
 20
587.51539120618907
 30
0.0
 11
798.13345269424531
 21
588.35716239457884
 31
0.0
  0
LINE
  5
9D
100
AcDbEntity
  8
_0-0_
370
              15
  6
Continuous
 62
               7
100
AcDbLine
 10
745.12649559960357
 20
532.34562563067698
 30
0.0
 11
745.12649559960357
 21
539.84562267023625
 31
0.0
  0
LINE
  5
9E
100
AcDbEntity
  8
_0-0_
370
              15
  6
Continuous
 62
               7
100
AcDbLine
 10
745.12649559960357
 20
539.84562267023625
 30
0.0
 11
751.32649175250344
 21
539.84562267023625
 31
0.0
  0
LINE
  5
9F
100
AcDbEntity
  8
_0-0_
370
              15
  6
Continuous
 62
               7
100
AcDbLine
 10
751.32649175250344
 20
539.84562267023625
 30
0.0
 11
751.32649175250344
 21
549.44562517998304
 31
0.0
  0
LINE
  5
A0
100
AcDbEntity
  8
_0-0_
370
              15
  6
Continuous
 62
               7
100
AcDbLine
 10
751.32649175250344
 20
549.44562517998304
 30
0.0
 11
745.12649559960357
 21
549.44562517998304
 31
0.0
  0
LINE
  5
A1
100
AcDbEntity
  8
_0-0_
370
              15
  6
Continuous
 62
               7
100
AcDbLine
 10
745.12649559960357
 20
549.44562517998304
 30
0.0
 11
745.12649559960357
 21
554.14562367472411
 31
0.0
  0
LINE
  5
A2
100
AcDbEntity
  8
_0-0_
370
              15
  6
Continuous
 62
               7
100
AcDbLine
 10
745.12649559960357
 20
554.14562367472411
 30
0.0
 11
735.52649308985679
 21
554.14562367472411
 31
0.0
  0
LINE
  5
A3
100
AcDbEntity
  8
_0-0_
370
              15
  6
Continuous
 62
               7
100
AcDbLine
 10
735.52649308985679
 20
554.14562367472411
 30
0.0
 11
735.52649308985679
 21
532.34562563067698
 31
0.0
  0
LINE
  5
A4
100
AcDbEntity
  8
_0-0_
370
              15
  6
Continuous
 62
               7
100
AcDbLine
 10
734.82649564084352
 20
532.34562563067698
 30
0.0
 11
745.82649304861673
 21
532.34562563067698
 31
0.0
  0
LINE
  5
A5
100
AcDbEntity
  8
_0-0_
370
              15
  6
Continuous
 62
               7
100
AcDbLine
 10
745.82649304861673
 20
532.34562563067698
 30
0.0
 11
745.82649304861673
 21
531.04562474401769
 31
0.0
  0
LINE
  5
A6
100
AcDbEntity
  8
_0-0_
370
              15
  6
Continuous
 62
               7
100
AcDbLine
 10
745.82649304861673
 20
531.04562474401769
 30
0.0
 11
734.82649564084352
 21
531.04562474401769
 31
0.0
  0
LINE
  5
A7
100
AcDbEntity
  8
_0-0_
370
              15
  6
Continuous
 62
               7
100
AcDbLine
 10
734.82649564084352
 20
531.04562474401769
 30
0.0
 11
734.82649564084352
 21
532.34562563067698
 31
0.0
  0
LINE
  5
A8
100
AcDbEntity
  8
_0-0_
370
              15
  6
Continuous
 62
               7
100
AcDbLine
 10
745.24256546694755
 20
549.56169504732702
 30
0.0
 11
745.17038815439844
 21
549.47700262622027
 31
0.0
  0
LINE
  5
A9
100
AcDbEntity
  8
_0-0_
370
              15
  6
Continuous
 62
               7
100
AcDbLine
 10
745.17038815439844
 20
549.47700262622027
 30
0.0
 11
745.0967235517727
 21
549.39039859992658
 31
0.0
  0
LINE
  5
AA
100
AcDbEntity
  8
_0-0_
370
              15
  6
Continuous
 62
               7
100
AcDbLine
 10
745.0967235517727
 20
549.39039859992658
 30
0.0
 11
745.02155416153983
 21
549.30187421968083
 31
0.0
  0
LINE
  5
AB
100
AcDbEntity
  8
_0-0_
370
              15
  6
Continuous
 62
               7
100
AcDbLine
 10
745.02155416153983
 20
549.30187421968083
 30
0.0
 11
744.94488873246507
 21
549.21143385986568
 31
0.0
  0
LINE
  5
AC
100
AcDbEntity
  8
_0-0_
370
              15
  6
Continuous
 62
               7
100
AcDbLine
 10
744.94488873246507
 20
549.21143385986568
 30
0.0
 11
744.86673601331347
 21
549.1190818948636
 31
0.0
  0
LINE
  5
AD
100
AcDbEntity
  8
_0-0_
370
              15
  6
Continuous
 62
               7
100
AcDbLine
 10
744.86673601331347
 20
549.1190818948636
 30
0.0
 11
744.78707850655485
 21
549.02480957590933
 31
0.0
  0
LINE
  5
AE
100
AcDbEntity
  8
_0-0_
370
              15
  6
Continuous
 62
               7
100
AcDbLine
 10
744.78707850655485
 20
549.02480957590933
 30
0.0
 11
744.70592496095423
 21
548.92862565176836
 31
0.0
  0
LINE
  5
AF
100
AcDbEntity
  8
_0-0_
370
              15
  6
Continuous
 62
               7
100
AcDbLine
 10
744.70592496095423
 20
548.92862565176836
 30
0.0
 11
744.62327537651174
 21
548.83052574805777
 31
0.0
  0
LINE
  5
B0
100
AcDbEntity
  8
_0-0_
370
              15
  6
Continuous
 62
               7
100
AcDbLine
 10
744.62327537651174
 20
548.83052574805777
 30
0.0
 11
744.53912975322737
 21
548.73050986477767
 31
0.0
  0
LINE
  5
B1
100
AcDbEntity
  8
_0-0_
370
              15
  6
Continuous
 62
               7
100
AcDbLine
 10
744.53912975322737
 20
548.73050986477767
 30
0.0
 11
744.45348809110101
 21
548.62857800192819
 31
0.0
  0
LINE
  5
B2
100
AcDbEntity
  8
_0-0_
370
              15
  6
Continuous
 62
               7
100
AcDbLine
 10
744.45348809110101
 20
548.62857800192819
 30
0.0
 11
744.36635039013277
 21
548.5247301595092
 31
0.0
  0
LINE
  5
B3
100
AcDbEntity
  8
_0-0_
370
              15
  6
Continuous
 62
               7
100
AcDbLine
 10
744.36635039013277
 20
548.5247301595092
 30
0.0
 11
744.27771665032253
 21
548.41896633752071
 31
0.0
  0
LINE
  5
B4
100
AcDbEntity
  8
_0-0_
370
              15
  6
Continuous
 62
               7
100
AcDbLine
 10
744.27771665032253
 20
548.41896633752071
 30
0.0
 11
744.18757812290528
 21
548.31128653596272
 31
0.0
  0
LINE
  5
B5
100
AcDbEntity
  8
_0-0_
370
              15
  6
Continuous
 62
               7
100
AcDbLine
 10
744.18757812290528
 20
548.31128653596272
 30
0.0
 11
744.09595230541129
 21
548.2016951292178
 31
0.0
  0
LINE
  5
B6
100
AcDbEntity
  8
_0-0_
370
              15
  6
Continuous
 62
               7
100
AcDbLine
 10
744.09595230541129
 20
548.2016951292178
 30
0.0
 11
744.0028304490753
 21
548.09018336852091
 31
0.0
  0
LINE
  5
B7
100
AcDbEntity
  8
_0-0_
370
              15
  6
Continuous
 62
               7
100
AcDbLine
 10
744.0028304490753
 20
548.09018336852091
 30
0.0
 11
743.90821255389733
 21
547.97676000263698
 31
0.0
  0
LINE
  5
B8
100
AcDbEntity
  8
_0-0_
370
              15
  6
Continuous
 62
               7
100
AcDbLine
 10
743.90821255389733
 20
547.97676000263698
 30
0.0
 11
743.81297349639328
 21
547.86106633219481
 31
0.0
  0
LINE
  5
B9
100
AcDbEntity
  8
_0-0_
370
              15
  6
Continuous
 62
               7
100
AcDbLine
 10
743.81297349639328
 20
547.86106633219481
 30
0.0
 11
743.717996901844
 21
547.74276115535315
 31
0.0
  0
LINE
  5
BA
100
AcDbEntity
  8
_0-0_
370
              15
  6
Continuous
 62
               7
100
AcDbLine
 10
743.717996901844
 20
547.74276115535315
 30
0.0
 11
743.62327402148412
 21
547.62183572334675
 31
0.0
  0
LINE
  5
BB
100
AcDbEntity
  8
_0-0_
370
              15
  6
Continuous
 62
               7
100
AcDbLine
 10
743.62327402148412
 20
547.62183572334675
 30
0.0
 11
743.52882235284426
 21
547.49829441055829
 31
0.0
  0
LINE
  5
BC
100
AcDbEntity
  8
_0-0_
370
              15
  6
Continuous
 62
               7
100
AcDbLine
 10
743.52882235284426
 20
547.49829441055829
 30
0.0
 11
743.43462439839391
 21
547.37213721698777
 31
0.0
  0
LINE
  5
BD
100
AcDbEntity
  8
_0-0_
370
              15
  6
Continuous
 62
               7
100
AcDbLine
 10
743.43462439839391
 20
547.37213721698777
 30
0.0
 11
743.34068890689832
 21
547.24335976825262
 31
0.0
  0
LINE
  5
BE
100
AcDbEntity
  8
_0-0_
370
              15
  6
Continuous
 62
               7
100
AcDbLine
 10
743.34068890689832
 20
547.24335976825262
 30
0.0
 11
743.24701587835739
 21
547.11197081311798
 31
0.0
  0
LINE
  5
BF
100
AcDbEntity
  8
_0-0_
370
              15
  6
Continuous
 62
               7
100
AcDbLine
 10
743.24701587835739
 20
547.11197081311798
 30
0.0
 11
743.15360531277133
 21
546.9779616028186
 31
0.0
  0
LINE
  5
C0
100
AcDbEntity
  8
_0-0_
370
              15
  6
Continuous
 62
               7
100
AcDbLine
 10
743.15360531277133
 20
546.9779616028186
 30
0.0
 11
743.06045721013982
 21
546.84133651173715
 31
0.0
  0
LINE
  5
C1
100
AcDbEntity
  8
_0-0_
370
              15
  6
Continuous
 62
               7
100
AcDbLine
 10
743.06045721013982
 20
546.84133651173715
 30
0.0
 11
742.96756282169792
 21
546.70209553987365
 31
0.0
  0
LINE
  5
C2
100
AcDbEntity
  8
_0-0_
370
              15
  6
Continuous
 62
               7
100
AcDbLine
 10
742.96756282169792
 20
546.70209553987365
 30
0.0
 11
742.87493964497594
 21
546.56023868722809
 31
0.0
  0
LINE
  5
C3
100
AcDbEntity
  8
_0-0_
370
              15
  6
Continuous
 62
               7
100
AcDbLine
 10
742.87493964497594
 20
546.56023868722809
 30
0.0
 11
742.78257018244358
 21
546.4157615794179
 31
0.0
  0
LINE
  5
C4
100
AcDbEntity
  8
_0-0_
370
              15
  6
Continuous
 62
               7
100
AcDbLine
 10
742.78257018244358
 20
546.4157615794179
 30
0.0
 11
742.69046318286587
 21
546.26866859082554
 31
0.0
  0
LINE
  5
C5
100
AcDbEntity
  8
_0-0_
370
              15
  6
Continuous
 62
               7
100
AcDbLine
 10
742.69046318286587
 20
546.26866859082554
 30
0.0
 11
742.59860989747767
 21
546.11896409583369
 31
0.0
  0
LINE
  5
C6
100
AcDbEntity
  8
_0-0_
370
              15
  6
Continuous
 62
               7
100
AcDbLine
 10
742.59860989747767
 20
546.11896409583369
 30
0.0
 11
742.50702782380949
 21
545.96663934567721
 31
0.0
  0
LINE
  5
C7
100
AcDbEntity
  8
_0-0_
370
              15
  6
Continuous
 62
               7
100
AcDbLine
 10
742.50702782380949
 20
545.96663934567721
 30
0.0
 11
742.41569946433071
 21
545.8116943403561
 31
0.0
  0
LINE
  5
C8
100
AcDbEntity
  8
_0-0_
370
              15
  6
Continuous
 62
               7
100
AcDbLine
 10
742.41569946433071
 20
545.8116943403561
 30
0.0
 11
742.33020653121207
 21
545.65544576902653
 31
0.0
  0
LINE
  5
C9
100
AcDbEntity
  8
_0-0_
370
              15
  6
Continuous
 62
               7
100
AcDbLine
 10
742.33020653121207
 20
545.65544576902653
 30
0.0
 11
742.25611323909357
 21
545.49919719769696
 31
0.0
  0
LINE
  5
CA
100
AcDbEntity
  8
_0-0_
370
              15
  6
Continuous
 62
               7
100
AcDbLine
 10
742.25611323909357
 20
545.49919719769696
 30
0.0
 11
742.19341958797531
 21
545.3429442519847
 31
0.0
  0
LINE
  5
CB
100
AcDbEntity
  8
_0-0_
370
              15
  6
Continuous
 62
               7
100
AcDbLine
 10
742.19341958797531
 20
545.3429442519847
 30
0.0
 11
742.14211682909195
 21
545.18669568065513
 31
0.0
  0
LINE
  5
CC
100
AcDbEntity
  8
_0-0_
370
              15
  6
Continuous
 62
               7
100
AcDbLine
 10
742.14211682909195
 20
545.18669568065513
 30
0.0
 11
742.10222245997397
 21
545.03044710932556
 31
0.0
  0
LINE
  5
CD
100
AcDbEntity
  8
_0-0_
370
              15
  6
Continuous
 62
               7
100
AcDbLine
 10
742.10222245997397
 20
545.03044710932556
 30
0.0
 11
742.07372773185614
 21
544.87419416361342
 31
0.0
  0
LINE
  5
CE
100
AcDbEntity
  8
_0-0_
370
              15
  6
Continuous
 62
               7
100
AcDbLine
 10
742.07372773185614
 20
544.87419416361342
 30
0.0
 11
742.0566238959733
 21
544.71794559228374
 31
0.0
  0
LINE
  5
CF
100
AcDbEntity
  8
_0-0_
370
              15
  6
Continuous
 62
               7
100
AcDbLine
 10
742.0566238959733
 20
544.71794559228374
 30
0.0
 11
742.05092844985575
 21
544.56169702095417
 31
0.0
  0
LINE
  5
D0
100
AcDbEntity
  8
_0-0_
370
              15
  6
Continuous
 62
               7
100
AcDbLine
 10
742.05092844985575
 20
544.56169702095417
 30
0.0
 11
742.0566238959733
 21
544.40544407524203
 31
0.0
  0
LINE
  5
D1
100
AcDbEntity
  8
_0-0_
370
              15
  6
Continuous
 62
               7
100
AcDbLine
 10
742.0566238959733
 20
544.40544407524203
 30
0.0
 11
742.07372773185614
 21
544.24919550391246
 31
0.0
  0
LINE
  5
D2
100
AcDbEntity
  8
_0-0_
370
              15
  6
Continuous
 62
               7
100
AcDbLine
 10
742.07372773185614
 20
544.24919550391246
 30
0.0
 11
742.10222245997397
 21
544.09294693258278
 31
0.0
  0
LINE
  5
D3
100
AcDbEntity
  8
_0-0_
370
              15
  6
Continuous
 62
               7
100
AcDbLine
 10
742.10222245997397
 20
544.09294693258278
 30
0.0
 11
742.14211682909195
 21
543.93669398687064
 31
0.0
  0
LINE
  5
D4
100
AcDbEntity
  8
_0-0_
370
              15
  6
Continuous
 62
               7
100
AcDbLine
 10
742.14211682909195
 20
543.93669398687064
 30
0.0
 11
742.19341958797531
 21
543.78044541554107
 31
0.0
  0
LINE
  5
D5
100
AcDbEntity
  8
_0-0_
370
              15
  6
Continuous
 62
               7
100
AcDbLine
 10
742.19341958797531
 20
543.78044541554107
 30
0.0
 11
742.25611323909357
 21
543.6241968442115
 31
0.0
  0
LINE
  5
D6
100
AcDbEntity
  8
_0-0_
370
              15
  6
Continuous
 62
               7
100
AcDbLine
 10
742.25611323909357
 20
543.6241968442115
 30
0.0
 11
742.33020653121207
 21
543.46794389849924
 31
0.0
  0
LINE
  5
D7
100
AcDbEntity
  8
_0-0_
370
              15
  6
Continuous
 62
               7
100
AcDbLine
 10
742.33020653121207
 20
543.46794389849924
 30
0.0
 11
742.41569946433071
 21
543.31169532716967
 31
0.0
  0
LINE
  5
D8
100
AcDbEntity
  8
_0-0_
370
              15
  6
Continuous
 62
               7
100
AcDbLine
 10
742.41569946433071
 20
543.31169532716967
 30
0.0
 11
742.5073427793551
 21
543.15655347463246
 31
0.0
  0
LINE
  5
D9
100
AcDbEntity
  8
_0-0_
370
              15
  6
Continuous
 62
               7
100
AcDbLine
 10
742.5073427793551
 20
543.15655347463246
 30
0.0
 11
742.59988721719071
 21
543.00362943406276
 31
0.0
  0
LINE
  5
DA
100
AcDbEntity
  8
_0-0_
370
              15
  6
Continuous
 62
               7
100
AcDbLine
 10
742.59988721719071
 20
543.00362943406276
 30
0.0
 11
742.6933240290723
 21
542.85291883107777
 31
0.0
  0
LINE
  5
DB
100
AcDbEntity
  8
_0-0_
370
              15
  6
Continuous
 62
               7
100
AcDbLine
 10
742.6933240290723
 20
542.85291883107777
 30
0.0
 11
742.78766196376523
 21
542.70442166567773
 31
0.0
  0
LINE
  5
DC
100
AcDbEntity
  8
_0-0_
370
              15
  6
Continuous
 62
               7
100
AcDbLine
 10
742.78766196376523
 20
542.70442166567773
 30
0.0
 11
742.88290102126928
 21
542.55814231224508
 31
0.0
  0
LINE
  5
DD
100
AcDbEntity
  8
_0-0_
370
              15
  6
Continuous
 62
               7
100
AcDbLine
 10
742.88290102126928
 20
542.55814231224508
 30
0.0
 11
742.97904120158455
 21
542.41408077077983
 31
0.0
  0
LINE
  5
DE
100
AcDbEntity
  8
_0-0_
370
              15
  6
Continuous
 62
               7
100
AcDbLine
 10
742.97904120158455
 20
542.41408077077983
 30
0.0
 11
743.07607375594591
 21
542.27223266689941
 31
0.0
  0
LINE
  5
DF
100
AcDbEntity
  8
_0-0_
370
              15
  6
Continuous
 62
               7
100
AcDbLine
 10
743.07607375594591
 20
542.27223266689941
 30
0.0
 11
743.17399868435336
 21
542.13260237498639
 31
0.0
  0
LINE
  5
E0
100
AcDbEntity
  8
_0-0_
370
              15
  6
Continuous
 62
               7
100
AcDbLine
 10
743.17399868435336
 20
542.13260237498639
 30
0.0
 11
743.27283348433707
 21
541.9951855206582
 31
0.0
  0
LINE
  5
E1
100
AcDbEntity
  8
_0-0_
370
              15
  6
Continuous
 62
               7
100
AcDbLine
 10
743.27283348433707
 20
541.9951855206582
 30
0.0
 11
743.37256065836698
 21
541.8599864782974
 31
0.0
  0
LINE
  5
E2
100
AcDbEntity
  8
_0-0_
370
              15
  6
Continuous
 62
               7
100
AcDbLine
 10
743.37256065836698
 20
541.8599864782974
 30
0.0
 11
743.473188955208
 21
541.72700524790412
 31
0.0
  0
LINE
  5
E3
100
AcDbEntity
  8
_0-0_
370
              15
  6
Continuous
 62
               7
100
AcDbLine
 10
743.473188955208
 20
541.72700524790412
 30
0.0
 11
743.57470962609511
 21
541.59623745509555
 31
0.0
  0
LINE
  5
E4
100
AcDbEntity
  8
_0-0_
370
              15
  6
Continuous
 62
               7
100
AcDbLine
 10
743.57470962609511
 20
541.59623745509555
 30
0.0
 11
743.67713141979345
 21
541.46768309987192
 31
0.0
  0
LINE
  5
E5
100
AcDbEntity
  8
_0-0_
370
              15
  6
Continuous
 62
               7
100
AcDbLine
 10
743.67713141979345
 20
541.46768309987192
 30
0.0
 11
743.78045433630302
 21
541.34134655661569
 31
0.0
  0
LINE
  5
E6
100
AcDbEntity
  8
_0-0_
370
              15
  6
Continuous
 62
               7
100
AcDbLine
 10
743.78045433630302
 20
541.34134655661569
 30
0.0
 11
743.88466962685868
 21
541.21722782532686
 31
0.0
  0
LINE
  5
E7
100
AcDbEntity
  8
_0-0_
370
              15
  6
Continuous
 62
               7
100
AcDbLine
 10
743.88466962685868
 20
541.21722782532686
 30
0.0
 11
743.98979478899071
 21
541.09532253162286
 31
0.0
  0
LINE
  5
E8
100
AcDbEntity
  8
_0-0_
370
              15
  6
Continuous
 62
               7
100
AcDbLine
 10
743.98979478899071
 20
541.09532253162286
 30
0.0
 11
744.09365138017483
 21
540.97608561129186
 31
0.0
  0
LINE
  5
E9
100
AcDbEntity
  8
_0-0_
370
              15
  6
Continuous
 62
               7
100
AcDbLine
 10
744.09365138017483
 20
540.97608561129186
 30
0.0
 11
744.19410470171272
 21
540.8599676257395
 31
0.0
  0
LINE
  5
EA
100
AcDbEntity
  8
_0-0_
370
              15
  6
Continuous
 62
               7
100
AcDbLine
 10
744.19410470171272
 20
540.8599676257395
 30
0.0
 11
744.29115475360436
 21
540.74696420058319
 31
0.0
  0
LINE
  5
EB
100
AcDbEntity
  8
_0-0_
370
              15
  6
Continuous
 62
               7
100
AcDbLine
 10
744.29115475360436
 20
540.74696420058319
 30
0.0
 11
744.38479278708462
 21
540.63707971020563
 31
0.0
  0
LINE
  5
EC
100
AcDbEntity
  8
_0-0_
370
              15
  6
Continuous
 62
               7
100
AcDbLine
 10
744.38479278708462
 20
540.63707971020563
 30
0.0
 11
744.4750188021535
 21
540.53031852898914
 31
0.0
  0
LINE
  5
ED
100
AcDbEntity
  8
_0-0_
370
              15
  6
Continuous
 62
               7
100
AcDbLine
 10
744.4750188021535
 20
540.53031852898914
 30
0.0
 11
744.56184154757614
 21
540.42666753378614
 31
0.0
  0
LINE
  5
EE
100
AcDbEntity
  8
_0-0_
370
              15
  6
Continuous
 62
               7
100
AcDbLine
 10
744.56184154757614
 20
540.42666753378614
 30
0.0
 11
744.64525227458728
 21
540.32613984774446
 31
0.0
  0
LINE
  5
EF
100
AcDbEntity
  8
_0-0_
370
              15
  6
Continuous
 62
               7
100
AcDbLine
 10
744.64525227458728
 20
540.32613984774446
 30
0.0
 11
744.72525098318704
 21
540.22873109648128
 31
0.0
  0
LINE
  5
F0
100
AcDbEntity
  8
_0-0_
370
              15
  6
Continuous
 62
               7
100
AcDbLine
 10
744.72525098318704
 20
540.22873109648128
 30
0.0
 11
744.80184642214067
 21
540.13443690561428
 31
0.0
  0
LINE
  5
F1
100
AcDbEntity
  8
_0-0_
370
              15
  6
Continuous
 62
               7
100
AcDbLine
 10
744.80184642214067
 20
540.13443690561428
 30
0.0
 11
744.87502984268269
 21
540.04326164952579
 31
0.0
  0
LINE
  5
F2
100
AcDbEntity
  8
_0-0_
370
              15
  6
Continuous
 62
               7
100
AcDbLine
 10
744.87502984268269
 20
540.04326164952579
 30
0.0
 11
744.94480999357859
 21
539.95520532821604
 31
0.0
  0
LINE
  5
F3
100
AcDbEntity
  8
_0-0_
370
              15
  6
Continuous
 62
               7
100
AcDbLine
 10
744.94480999357859
 20
539.95520532821604
 30
0.0
 11
745.0111781260631
 21
539.8702679416848
 31
0.0
  0
LINE
  5
F4
100
AcDbEntity
  8
_0-0_
370
              15
  6
Continuous
 62
               7
100
AcDbLine
 10
745.0111781260631
 20
539.8702679416848
 30
0.0
 11
745.07413424013612
 21
539.7884494899323
 31
0.0
  0
LINE
  5
F5
100
AcDbEntity
  8
_0-0_
370
              15
  6
Continuous
 62
               7
100
AcDbLine
 10
745.07413424013612
 20
539.7884494899323
 30
0.0
 11
745.13368708456301
 21
539.70974559857586
 31
0.0
  0
LINE
  5
F6
100
AcDbEntity
  8
_0-0_
370
              15
  6
Continuous
 62
               7
100
AcDbLine
 10
745.13368708456301
 20
539.70974559857586
 30
0.0
 11
745.1898279105784
 21
539.63416064199794
 31
0.0
  0
LINE
  5
F7
100
AcDbEntity
  8
_0-0_
370
              15
  6
Continuous
 62
               7
100
AcDbLine
 10
745.1898279105784
 20
539.63416064199794
 30
0.0
 11
745.24256546694755
 21
539.56169462019875
 31
0.0
  0
LINE
  5
F8
100
AcDbEntity
  8
_0-0_
370
              15
  6
Continuous
 62
               7
100
AcDbLine
 10
802.33432976237088
 20
584.26552240820934
 30
0.0
 11
797.56040857643188
 21
585.10730234536425
 31
0.0
  0
LINE
  5
F9
100
AcDbEntity
  8
_0-0_
370
              15
  6
Continuous
 62
               7
100
AcDbLine
 10
802.33432976237088
 20
584.26552240820934
 30
0.0
 11
801.90579774742832
 21
584.1387178060171
 31
0.0
  0
LINE
  5
FA
100
AcDbEntity
  8
_0-0_
370
              15
  6
Continuous
 62
               7
100
AcDbLine
 10
742.32446734126881
 20
584.45051504746368
 30
0.0
 11
742.33037275775007
 21
584.45206357889663
 31
0.0
  0
LINE
  5
FB
100
AcDbEntity
  8
_0-0_
370
              15
  6
Continuous
 62
               7
100
AcDbLine
 10
742.33037275775007
 20
584.45206357889663
 30
0.0
 11
742.33624317917076
 21
584.45361211032946
 31
0.0
  0
LINE
  5
FC
100
AcDbEntity
  8
_0-0_
370
              15
  6
Continuous
 62
               7
100
AcDbLine
 10
742.33624317917076
 20
584.45361211032946
 30
0.0
 11
742.34207860553079
 21
584.45517813929257
 31
0.0
  0
LINE
  5
FD
100
AcDbEntity
  8
_0-0_
370
              15
  6
Continuous
 62
               7
100
AcDbLine
 10
742.34207860553079
 20
584.45517813929257
 30
0.0
 11
742.34788778559528
 21
584.45673541949066
 31
0.0
  0
LINE
  5
FE
100
AcDbEntity
  8
_0-0_
370
              15
  6
Continuous
 62
               7
100
AcDbLine
 10
742.34788778559528
 20
584.45673541949066
 30
0.0
 11
742.35365322183407
 21
584.45831019721902
 31
0.0
  0
LINE
  5
FF
100
AcDbEntity
  8
_0-0_
370
              15
  6
Continuous
 62
               7
100
AcDbLine
 10
742.35365322183407
 20
584.45831019721902
 30
0.0
 11
742.35939241177732
 21
584.45988497494739
 31
0.0
  0
LINE
  5
100
100
AcDbEntity
  8
_0-0_
370
              15
  6
Continuous
 62
               7
100
AcDbLine
 10
742.35939241177732
 20
584.45988497494739
 30
0.0
 11
742.36509660666002
 21
584.46146850144089
 31
0.0
  0
LINE
  5
101
100
AcDbEntity
  8
_0-0_
370
              15
  6
Continuous
 62
               7
100
AcDbLine
 10
742.36509660666002
 20
584.46146850144089
 30
0.0
 11
742.37076580648204
 21
584.46306077669954
 31
0.0
  0
LINE
  5
102
100
AcDbEntity
  8
_0-0_
370
              15
  6
Continuous
 62
               7
100
AcDbLine
 10
742.37076580648204
 20
584.46306077669954
 30
0.0
 11
742.37640876000864
 21
584.46465305195818
 31
0.0
  0
LINE
  5
103
100
AcDbEntity
  8
_0-0_
370
              15
  6
Continuous
 62
               7
100
AcDbLine
 10
742.37640876000864
 20
584.46465305195818
 30
0.0
 11
742.38201671847457
 21
584.46625407598196
 31
0.0
  0
LINE
  5
104
100
AcDbEntity
  8
_0-0_
370
              15
  6
Continuous
 62
               7
100
AcDbLine
 10
742.38201671847457
 20
584.46625407598196
 30
0.0
 11
742.38758093311469
 21
584.46785510000575
 31
0.0
  0
LINE
  5
105
100
AcDbEntity
  8
_0-0_
370
              15
  6
Continuous
 62
               7
100
AcDbLine
 10
742.38758093311469
 20
584.46785510000575
 30
0.0
 11
742.39312765022453
 21
584.46946487279479
 31
0.0
  0
LINE
  5
106
100
AcDbEntity
  8
_0-0_
370
              15
  6
Continuous
 62
               7
100
AcDbLine
 10
742.39312765022453
 20
584.46946487279479
 30
0.0
 11
742.39863062350855
 21
584.47108339434885
 31
0.0
  0
LINE
  5
107
100
AcDbEntity
  8
_0-0_
370
              15
  6
Continuous
 62
               7
100
AcDbLine
 10
742.39863062350855
 20
584.47108339434885
 30
0.0
 11
742.40410735049716
 21
584.47271066466817
 31
0.0
  0
LINE
  5
108
100
AcDbEntity
  8
_0-0_
370
              15
  6
Continuous
 62
               7
100
AcDbLine
 10
742.40410735049716
 20
584.47271066466817
 30
0.0
 11
742.40954033365995
 21
584.47433793498749
 31
0.0
  0
LINE
  5
109
100
AcDbEntity
  8
_0-0_
370
              15
  6
Continuous
 62
               7
100
AcDbLine
 10
742.40954033365995
 20
584.47433793498749
 30
0.0
 11
742.41494707052721
 21
584.47597395407195
 31
0.0
  0
LINE
  5
10A
100
AcDbEntity
  8
_0-0_
370
              15
  6
Continuous
 62
               7
100
AcDbLine
 10
742.41494707052721
 20
584.47597395407195
 30
0.0
 11
742.45388782424311
 21
584.48823972282264
 31
0.0
  0
LINE
  5
10B
100
AcDbEntity
  8
_0-0_
370
              15
  6
Continuous
 62
               7
100
AcDbLine
 10
742.45388782424311
 20
584.48823972282264
 30
0.0
 11
742.49030893359361
 21
584.5006192255205
 31
0.0
  0
LINE
  5
10C
100
AcDbEntity
  8
_0-0_
370
              15
  6
Continuous
 62
               7
100
AcDbLine
 10
742.49030893359361
 20
584.5006192255205
 30
0.0
 11
742.52421914734384
 21
584.51312995969568
 31
0.0
  0
LINE
  5
10D
100
AcDbEntity
  8
_0-0_
370
              15
  6
Continuous
 62
               7
100
AcDbLine
 10
742.52421914734384
 20
584.51312995969568
 30
0.0
 11
742.55562721425918
 21
584.52574567905265
 31
0.0
  0
LINE
  5
10E
100
AcDbEntity
  8
_0-0_
370
              15
  6
Continuous
 62
               7
100
AcDbLine
 10
742.55562721425918
 20
584.52574567905265
 30
0.0
 11
742.5845156368091
 21
584.53848388112192
 31
0.0
  0
LINE
  5
10F
100
AcDbEntity
  8
_0-0_
370
              15
  6
Continuous
 62
               7
100
AcDbLine
 10
742.5845156368091
 20
584.53848388112192
 30
0.0
 11
742.61088441499362
 21
584.55134456590338
 31
0.0
  0
LINE
  5
110
100
AcDbEntity
  8
_0-0_
370
              15
  6
Continuous
 62
               7
100
AcDbLine
 10
742.61088441499362
 20
584.55134456590338
 30
0.0
 11
742.63475104634313
 21
584.56431898463188
 31
0.0
  0
LINE
  5
111
100
AcDbEntity
  8
_0-0_
370
              15
  6
Continuous
 62
               7
100
AcDbLine
 10
742.63475104634313
 20
584.56431898463188
 30
0.0
 11
742.65610678209248
 21
584.57741588607257
 31
0.0
  0
LINE
  5
112
100
AcDbEntity
  8
_0-0_
370
              15
  6
Continuous
 62
               7
100
AcDbLine
 10
742.65610678209248
 20
584.57741588607257
 30
0.0
 11
742.67494287347654
 21
584.59062652146042
 31
0.0
  0
LINE
  5
113
100
AcDbEntity
  8
_0-0_
370
              15
  6
Continuous
 62
               7
100
AcDbLine
 10
742.67494287347654
 20
584.59062652146042
 30
0.0
 11
742.69127681802547
 21
584.60395963956034
 31
0.0
  0
LINE
  5
114
100
AcDbEntity
  8
_0-0_
370
              15
  6
Continuous
 62
               7
100
AcDbLine
 10
742.69127681802547
 20
584.60395963956034
 30
0.0
 11
742.70509111820911
 21
584.61740649160731
 31
0.0
  0
LINE
  5
115
100
AcDbEntity
  8
_0-0_
370
              15
  6
Continuous
 62
               7
100
AcDbLine
 10
742.70509111820911
 20
584.61740649160731
 30
0.0
 11
742.7163945227926
 21
584.63096707760144
 31
0.0
  0
LINE
  5
116
100
AcDbEntity
  8
_0-0_
370
              15
  6
Continuous
 62
               7
100
AcDbLine
 10
742.7163945227926
 20
584.63096707760144
 30
0.0
 11
742.72518703177582
 21
584.64465014630764
 31
0.0
  0
LINE
  5
117
100
AcDbEntity
  8
_0-0_
370
              15
  6
Continuous
 62
               7
100
AcDbLine
 10
742.72518703177582
 20
584.64465014630764
 30
0.0
 11
742.73146864515888
 21
584.65845569772614
 31
0.0
  0
LINE
  5
118
100
AcDbEntity
  8
_0-0_
370
              15
  6
Continuous
 62
               7
100
AcDbLine
 10
742.73146864515888
 20
584.65845569772614
 30
0.0
 11
742.73523061417654
 21
584.67237498309169
 31
0.0
  0
LINE
  5
119
100
AcDbEntity
  8
_0-0_
370
              15
  6
Continuous
 62
               7
100
AcDbLine
 10
742.73523061417654
 20
584.67237498309169
 30
0.0
 11
742.73649043635919
 21
584.68641675116942
 31
0.0
  0
LINE
  5
11A
100
AcDbEntity
  8
_0-0_
370
              15
  6
Continuous
 62
               7
100
AcDbLine
 10
742.73649043635919
 20
584.68641675116942
 30
0.0
 11
742.73523061417654
 21
584.7004497704819
 31
0.0
  0
LINE
  5
11B
100
AcDbEntity
  8
_0-0_
370
              15
  6
Continuous
 62
               7
100
AcDbLine
 10
742.73523061417654
 20
584.7004497704819
 30
0.0
 11
742.73146864515888
 21
584.71436905584744
 31
0.0
  0
LINE
  5
11C
100
AcDbEntity
  8
_0-0_
370
              15
  6
Continuous
 62
               7
100
AcDbLine
 10
742.73146864515888
 20
584.71436905584744
 30
0.0
 11
742.72518703177582
 21
584.72817460726594
 31
0.0
  0
LINE
  5
11D
100
AcDbEntity
  8
_0-0_
370
              15
  6
Continuous
 62
               7
100
AcDbLine
 10
742.72518703177582
 20
584.72817460726594
 30
0.0
 11
742.7163945227926
 21
584.74185767597214
 31
0.0
  0
LINE
  5
11E
100
AcDbEntity
  8
_0-0_
370
              15
  6
Continuous
 62
               7
100
AcDbLine
 10
742.7163945227926
 20
584.74185767597214
 30
0.0
 11
742.70509111820911
 21
584.75541826196627
 31
0.0
  0
LINE
  5
11F
100
AcDbEntity
  8
_0-0_
370
              15
  6
Continuous
 62
               7
100
AcDbLine
 10
742.70509111820911
 20
584.75541826196627
 30
0.0
 11
742.69127681802547
 21
584.76887386277838
 31
0.0
  0
LINE
  5
120
100
AcDbEntity
  8
_0-0_
370
              15
  6
Continuous
 62
               7
100
AcDbLine
 10
742.69127681802547
 20
584.76887386277838
 30
0.0
 11
742.67494287347654
 21
584.78219823211316
 31
0.0
  0
LINE
  5
121
100
AcDbEntity
  8
_0-0_
370
              15
  6
Continuous
 62
               7
100
AcDbLine
 10
742.67494287347654
 20
584.78219823211316
 30
0.0
 11
742.65610678209248
 21
584.79540886750101
 31
0.0
  0
LINE
  5
122
100
AcDbEntity
  8
_0-0_
370
              15
  6
Continuous
 62
               7
100
AcDbLine
 10
742.65610678209248
 20
584.79540886750101
 30
0.0
 11
742.63475104634313
 21
584.8085057689417
 31
0.0
  0
LINE
  5
123
100
AcDbEntity
  8
_0-0_
370
              15
  6
Continuous
 62
               7
100
AcDbLine
 10
742.63475104634313
 20
584.8085057689417
 30
0.0
 11
742.61088441499362
 21
584.8214801876702
 31
0.0
  0
LINE
  5
124
100
AcDbEntity
  8
_0-0_
370
              15
  6
Continuous
 62
               7
100
AcDbLine
 10
742.61088441499362
 20
584.8214801876702
 30
0.0
 11
742.5845156368091
 21
584.83434087245166
 31
0.0
  0
LINE
  5
125
100
AcDbEntity
  8
_0-0_
370
              15
  6
Continuous
 62
               7
100
AcDbLine
 10
742.5845156368091
 20
584.83434087245166
 30
0.0
 11
742.55562721425918
 21
584.84707907452093
 31
0.0
  0
LINE
  5
126
100
AcDbEntity
  8
_0-0_
370
              15
  6
Continuous
 62
               7
100
AcDbLine
 10
742.55562721425918
 20
584.84707907452093
 30
0.0
 11
742.52421914734384
 21
584.85970354264316
 31
0.0
  0
LINE
  5
127
100
AcDbEntity
  8
_0-0_
370
              15
  6
Continuous
 62
               7
100
AcDbLine
 10
742.52421914734384
 20
584.85970354264316
 30
0.0
 11
742.49030893359361
 21
584.87220552805309
 31
0.0
  0
LINE
  5
128
100
AcDbEntity
  8
_0-0_
370
              15
  6
Continuous
 62
               7
100
AcDbLine
 10
742.49030893359361
 20
584.87220552805309
 30
0.0
 11
742.45388782424311
 21
584.88458503075094
 31
0.0
  0
LINE
  5
129
100
AcDbEntity
  8
_0-0_
370
              15
  6
Continuous
 62
               7
100
AcDbLine
 10
742.45388782424311
 20
584.88458503075094
 30
0.0
 11
742.41494707052721
 21
584.89685954826678
 31
0.0
  0
LINE
  5
12A
100
AcDbEntity
  8
_0-0_
370
              15
  6
Continuous
 62
               7
100
AcDbLine
 10
742.41494707052721
 20
584.89685954826678
 30
0.0
 11
742.37383662305228
 21
584.90890659788863
 31
0.0
  0
LINE
  5
12B
100
AcDbEntity
  8
_0-0_
370
              15
  6
Continuous
 62
               7
100
AcDbLine
 10
742.37383662305228
 20
584.90890659788863
 30
0.0
 11
742.33088893489435
 21
584.92062994319963
 31
0.0
  0
LINE
  5
12C
100
AcDbEntity
  8
_0-0_
370
              15
  6
Continuous
 62
               7
100
AcDbLine
 10
742.33088893489435
 20
584.92062994319963
 30
0.0
 11
742.28609525728825
 21
584.93202958419977
 31
0.0
  0
LINE
  5
12D
100
AcDbEntity
  8
_0-0_
370
              15
  6
Continuous
 62
               7
100
AcDbLine
 10
742.28609525728825
 20
584.93202958419977
 30
0.0
 11
742.23947308776417
 21
584.94310552088916
 31
0.0
  0
LINE
  5
12E
100
AcDbEntity
  8
_0-0_
370
              15
  6
Continuous
 62
               7
100
AcDbLine
 10
742.23947308776417
 20
584.94310552088916
 30
0.0
 11
742.19100492879181
 21
584.95386650203284
 31
0.0
  0
LINE
  5
12F
100
AcDbEntity
  8
_0-0_
370
              15
  6
Continuous
 62
               7
100
AcDbLine
 10
742.19100492879181
 20
584.95386650203284
 30
0.0
 11
742.14069952913644
 21
584.96430377886566
 31
0.0
  0
LINE
  5
130
100
AcDbEntity
  8
_0-0_
370
              15
  6
Continuous
 62
               7
100
AcDbLine
 10
742.14069952913644
 20
584.96430377886566
 30
0.0
 11
742.0885481400328
 21
584.97441735138773
 31
0.0
  0
LINE
  5
131
100
AcDbEntity
  8
_0-0_
370
              15
  6
Continuous
 62
               7
100
AcDbLine
 10
742.0885481400328
 20
584.97441735138773
 30
0.0
 11
742.03456825901128
 21
584.98419847083369
 31
0.0
  0
LINE
  5
132
100
AcDbEntity
  8
_0-0_
370
              15
  6
Continuous
 62
               7
100
AcDbLine
 10
742.03456825901128
 20
584.98419847083369
 30
0.0
 11
741.9787423885416
 21
584.99367338349919
 31
0.0
  0
LINE
  5
133
100
AcDbEntity
  8
_0-0_
370
              15
  6
Continuous
 62
               7
100
AcDbLine
 10
741.9787423885416
 20
584.99367338349919
 30
0.0
 11
741.9210792773888
 21
585.0028158430888
 31
0.0
  0
LINE
  5
134
100
AcDbEntity
  8
_0-0_
370
              15
  6
Continuous
 62
               7
100
AcDbLine
 10
741.9210792773888
 20
585.0028158430888
 30
0.0
 11
741.86157892555298
 21
585.01163459836755
 31
0.0
  0
LINE
  5
135
100
AcDbEntity
  8
_0-0_
370
              15
  6
Continuous
 62
               7
100
AcDbLine
 10
741.86157892555298
 20
585.01163459836755
 30
0.0
 11
741.80024133303402
 21
585.02013839810058
 31
0.0
  0
LINE
  5
136
100
AcDbEntity
  8
_0-0_
370
              15
  6
Continuous
 62
               7
100
AcDbLine
 10
741.80024133303402
 20
585.02013839810058
 30
0.0
 11
741.73705775106691
 21
585.02830974475762
 31
0.0
  0
LINE
  5
137
100
AcDbEntity
  8
_0-0_
370
              15
  6
Continuous
 62
               7
100
AcDbLine
 10
741.73705775106691
 20
585.02830974475762
 30
0.0
 11
741.67204567718181
 21
585.03616613586905
 31
0.0
  0
LINE
  5
138
100
AcDbEntity
  8
_0-0_
370
              15
  6
Continuous
 62
               7
100
AcDbLine
 10
741.67204567718181
 20
585.03616613586905
 30
0.0
 11
741.60518761384856
 21
585.04369882266963
 31
0.0
  0
LINE
  5
139
100
AcDbEntity
  8
_0-0_
370
              15
  6
Continuous
 62
               7
100
AcDbLine
 10
741.60518761384856
 20
585.04369882266963
 30
0.0
 11
741.53649230983217
 21
585.05090780515934
 31
0.0
  0
LINE
  5
13A
100
AcDbEntity
  8
_0-0_
370
              15
  6
Continuous
 62
               7
100
AcDbLine
 10
741.53649230983217
 20
585.05090780515934
 30
0.0
 11
741.46653718363314
 21
585.05774059074724
 31
0.0
  0
LINE
  5
13B
100
AcDbEntity
  8
_0-0_
370
              15
  6
Continuous
 62
               7
100
AcDbLine
 10
741.46653718363314
 20
585.05774059074724
 30
0.0
 11
741.39590840251697
 21
585.06412718931222
 31
0.0
  0
LINE
  5
13C
100
AcDbEntity
  8
_0-0_
370
              15
  6
Continuous
 62
               7
100
AcDbLine
 10
741.39590840251697
 20
585.06412718931222
 30
0.0
 11
741.32461471524891
 21
585.07007634961928
 31
0.0
  0
LINE
  5
13D
100
AcDbEntity
  8
_0-0_
370
              15
  6
Continuous
 62
               7
100
AcDbLine
 10
741.32461471524891
 20
585.07007634961928
 30
0.0
 11
741.25264737306361
 21
585.07557932290331
 31
0.0
  0
LINE
  5
13E
100
AcDbEntity
  8
_0-0_
370
              15
  6
Continuous
 62
               7
100
AcDbLine
 10
741.25264737306361
 20
585.07557932290331
 30
0.0
 11
741.17999762719614
 21
585.08064485792954
 31
0.0
  0
LINE
  5
13F
100
AcDbEntity
  8
_0-0_
370
              15
  6
Continuous
 62
               7
100
AcDbLine
 10
741.17999762719614
 20
585.08064485792954
 30
0.0
 11
741.10668297517668
 21
585.08527295469776
 31
0.0
  0
LINE
  5
140
100
AcDbEntity
  8
_0-0_
370
              15
  6
Continuous
 62
               7
100
AcDbLine
 10
741.10668297517668
 20
585.08527295469776
 30
0.0
 11
741.03269466824008
 21
585.08945486444304
 31
0.0
  0
LINE
  5
141
100
AcDbEntity
  8
_0-0_
370
              15
  6
Continuous
 62
               7
100
AcDbLine
 10
741.03269466824008
 20
585.08945486444304
 30
0.0
 11
740.95802395762109
 21
585.09319933593042
 31
0.0
  0
LINE
  5
142
100
AcDbEntity
  8
_0-0_
370
              15
  6
Continuous
 62
               7
100
AcDbLine
 10
740.95802395762109
 20
585.09319933593042
 30
0.0
 11
740.88268834085034
 21
585.09650636916001
 31
0.0
  0
LINE
  5
143
100
AcDbEntity
  8
_0-0_
370
              15
  6
Continuous
 62
               7
100
AcDbLine
 10
740.88268834085034
 20
585.09650636916001
 30
0.0
 11
740.80667906916233
 21
585.09936721536644
 31
0.0
  0
LINE
  5
144
100
AcDbEntity
  8
_0-0_
370
              15
  6
Continuous
 62
               7
100
AcDbLine
 10
740.80667906916233
 20
585.09936721536644
 30
0.0
 11
740.72999614255718
 21
585.10179062331508
 31
0.0
  0
LINE
  5
145
100
AcDbEntity
  8
_0-0_
370
              15
  6
Continuous
 62
               7
100
AcDbLine
 10
740.72999614255718
 20
585.10179062331508
 30
0.0
 11
740.65263956103502
 21
585.10377659300582
 31
0.0
  0
LINE
  5
146
100
AcDbEntity
  8
_0-0_
370
              15
  6
Continuous
 62
               7
100
AcDbLine
 10
740.65263956103502
 20
585.10377659300582
 30
0.0
 11
740.57461807336074
 21
585.10531637567351
 31
0.0
  0
LINE
  5
147
100
AcDbEntity
  8
_0-0_
370
              15
  6
Continuous
 62
               7
100
AcDbLine
 10
740.57461807336074
 20
585.10531637567351
 30
0.0
 11
740.4959141820043
 21
585.10641872008341
 31
0.0
  0
LINE
  5
148
100
AcDbEntity
  8
_0-0_
370
              15
  6
Continuous
 62
               7
100
AcDbLine
 10
740.4959141820043
 20
585.10641872008341
 30
0.0
 11
740.41653663573072
 21
585.10707487747015
 31
0.0
  0
LINE
  5
149
100
AcDbEntity
  8
_0-0_
370
              15
  6
Continuous
 62
               7
100
AcDbLine
 10
740.41653663573072
 20
585.10707487747015
 30
0.0
 11
740.3364854345399
 21
585.10730234536425
 31
0.0
  0
LINE
  5
14A
100
AcDbEntity
  8
_0-0_
370
              15
  6
Continuous
 62
               7
100
AcDbLine
 10
740.3364854345399
 20
585.10730234536425
 30
0.0
 11
740.25644298211444
 21
585.10707487747015
 31
0.0
  0
LINE
  5
14B
100
AcDbEntity
  8
_0-0_
370
              15
  6
Continuous
 62
               7
100
AcDbLine
 10
740.25644298211444
 20
585.10707487747015
 30
0.0
 11
740.17706543584075
 21
585.10641872008341
 31
0.0
  0
LINE
  5
14C
100
AcDbEntity
  8
_0-0_
370
              15
  6
Continuous
 62
               7
100
AcDbLine
 10
740.17706543584075
 20
585.10641872008341
 30
0.0
 11
740.09836154448431
 21
585.10531637567351
 31
0.0
  0
LINE
  5
14D
100
AcDbEntity
  8
_0-0_
370
              15
  6
Continuous
 62
               7
100
AcDbLine
 10
740.09836154448431
 20
585.10531637567351
 30
0.0
 11
740.02033130804489
 21
585.10377659300582
 31
0.0
  0
LINE
  5
14E
100
AcDbEntity
  8
_0-0_
370
              15
  6
Continuous
 62
               7
100
AcDbLine
 10
740.02033130804489
 20
585.10377659300582
 30
0.0
 11
739.94298347528786
 21
585.10179062331508
 31
0.0
  0
LINE
  5
14F
100
AcDbEntity
  8
_0-0_
370
              15
  6
Continuous
 62
               7
100
AcDbLine
 10
739.94298347528786
 20
585.10179062331508
 30
0.0
 11
739.86630054868272
 21
585.09936721536644
 31
0.0
  0
LINE
  5
150
100
AcDbEntity
  8
_0-0_
370
              15
  6
Continuous
 62
               7
100
AcDbLine
 10
739.86630054868272
 20
585.09936721536644
 30
0.0
 11
739.79028252822957
 21
585.09650636916001
 31
0.0
  0
LINE
  5
151
100
AcDbEntity
  8
_0-0_
370
              15
  6
Continuous
 62
               7
100
AcDbLine
 10
739.79028252822957
 20
585.09650636916001
 30
0.0
 11
739.71494691145881
 21
585.09319933593042
 31
0.0
  0
LINE
  5
152
100
AcDbEntity
  8
_0-0_
370
              15
  6
Continuous
 62
               7
100
AcDbLine
 10
739.71494691145881
 20
585.09319933593042
 30
0.0
 11
739.64028494960507
 21
585.08945486444304
 31
0.0
  0
LINE
  5
153
100
AcDbEntity
  8
_0-0_
370
              15
  6
Continuous
 62
               7
100
AcDbLine
 10
739.64028494960507
 20
585.08945486444304
 30
0.0
 11
739.56629664266848
 21
585.08527295469776
 31
0.0
  0
LINE
  5
154
100
AcDbEntity
  8
_0-0_
370
              15
  6
Continuous
 62
               7
100
AcDbLine
 10
739.56629664266848
 20
585.08527295469776
 30
0.0
 11
739.4929819906489
 21
585.08064485792954
 31
0.0
  0
LINE
  5
155
100
AcDbEntity
  8
_0-0_
370
              15
  6
Continuous
 62
               7
100
AcDbLine
 10
739.4929819906489
 20
585.08064485792954
 30
0.0
 11
739.42033224478143
 21
585.07557932290331
 31
0.0
  0
LINE
  5
156
100
AcDbEntity
  8
_0-0_
370
              15
  6
Continuous
 62
               7
100
AcDbLine
 10
739.42033224478143
 20
585.07557932290331
 30
0.0
 11
739.34836490259613
 21
585.07007634961928
 31
0.0
  0
LINE
  5
157
100
AcDbEntity
  8
_0-0_
370
              15
  6
Continuous
 62
               7
100
AcDbLine
 10
739.34836490259613
 20
585.07007634961928
 30
0.0
 11
739.27706246656294
 21
585.06412718931222
 31
0.0
  0
LINE
  5
158
100
AcDbEntity
  8
_0-0_
370
              15
  6
Continuous
 62
               7
100
AcDbLine
 10
739.27706246656294
 20
585.06412718931222
 30
0.0
 11
739.20644243421191
 21
585.05774059074724
 31
0.0
  0
LINE
  5
159
100
AcDbEntity
  8
_0-0_
370
              15
  6
Continuous
 62
               7
100
AcDbLine
 10
739.20644243421191
 20
585.05774059074724
 30
0.0
 11
739.13648730801287
 21
585.05090780515934
 31
0.0
  0
LINE
  5
15A
100
AcDbEntity
  8
_0-0_
370
              15
  6
Continuous
 62
               7
100
AcDbLine
 10
739.13648730801287
 20
585.05090780515934
 30
0.0
 11
739.0677920039966
 21
585.04369882266963
 31
0.0
  0
LINE
  5
15B
100
AcDbEntity
  8
_0-0_
370
              15
  6
Continuous
 62
               7
100
AcDbLine
 10
739.0677920039966
 20
585.04369882266963
 30
0.0
 11
739.00093394066323
 21
585.03616613586905
 31
0.0
  0
LINE
  5
15C
100
AcDbEntity
  8
_0-0_
370
              15
  6
Continuous
 62
               7
100
AcDbLine
 10
739.00093394066323
 20
585.03616613586905
 30
0.0
 11
738.93592186677824
 21
585.02830974475762
 31
0.0
  0
LINE
  5
15D
100
AcDbEntity
  8
_0-0_
370
              15
  6
Continuous
 62
               7
100
AcDbLine
 10
738.93592186677824
 20
585.02830974475762
 30
0.0
 11
738.87273828481102
 21
585.02013839810058
 31
0.0
  0
LINE
  5
15E
100
AcDbEntity
  8
_0-0_
370
              15
  6
Continuous
 62
               7
100
AcDbLine
 10
738.87273828481102
 20
585.02013839810058
 30
0.0
 11
738.81140069229207
 21
585.01163459836755
 31
0.0
  0
LINE
  5
15F
100
AcDbEntity
  8
_0-0_
370
              15
  6
Continuous
 62
               7
100
AcDbLine
 10
738.81140069229207
 20
585.01163459836755
 30
0.0
 11
738.75190034045625
 21
585.0028158430888
 31
0.0
  0
LINE
  5
160
100
AcDbEntity
  8
_0-0_
370
              15
  6
Continuous
 62
               7
100
AcDbLine
 10
738.75190034045625
 20
585.0028158430888
 30
0.0
 11
738.69423722930344
 21
584.99367338349919
 31
0.0
  0
LINE
  5
161
100
AcDbEntity
  8
_0-0_
370
              15
  6
Continuous
 62
               7
100
AcDbLine
 10
738.69423722930344
 20
584.99367338349919
 30
0.0
 11
738.63841135883376
 21
584.98419847083369
 31
0.0
  0
LINE
  5
162
100
AcDbEntity
  8
_0-0_
370
              15
  6
Continuous
 62
               7
100
AcDbLine
 10
738.63841135883376
 20
584.98419847083369
 30
0.0
 11
738.58443147781225
 21
584.97441735138773
 31
0.0
  0
LINE
  5
163
100
AcDbEntity
  8
_0-0_
370
              15
  6
Continuous
 62
               7
100
AcDbLine
 10
738.58443147781225
 20
584.97441735138773
 30
0.0
 11
738.5322800887086
 21
584.96430377886566
 31
0.0
  0
LINE
  5
164
100
AcDbEntity
  8
_0-0_
370
              15
  6
Continuous
 62
               7
100
AcDbLine
 10
738.5322800887086
 20
584.96430377886566
 30
0.0
 11
738.48197468905323
 21
584.95386650203284
 31
0.0
  0
LINE
  5
165
100
AcDbEntity
  8
_0-0_
370
              15
  6
Continuous
 62
               7
100
AcDbLine
 10
738.48197468905323
 20
584.95386650203284
 30
0.0
 11
738.43350653008099
 21
584.94310552088916
 31
0.0
  0
LINE
  5
166
100
AcDbEntity
  8
_0-0_
370
              15
  6
Continuous
 62
               7
100
AcDbLine
 10
738.43350653008099
 20
584.94310552088916
 30
0.0
 11
738.38688436055691
 21
584.93202958419977
 31
0.0
  0
LINE
  5
167
100
AcDbEntity
  8
_0-0_
370
              15
  6
Continuous
 62
               7
100
AcDbLine
 10
738.38688436055691
 20
584.93202958419977
 30
0.0
 11
738.3420906829507
 21
584.92062994319963
 31
0.0
  0
LINE
  5
168
100
AcDbEntity
  8
_0-0_
370
              15
  6
Continuous
 62
               7
100
AcDbLine
 10
738.3420906829507
 20
584.92062994319963
 30
0.0
 11
738.29914299479276
 21
584.90890659788863
 31
0.0
  0
LINE
  5
169
100
AcDbEntity
  8
_0-0_
370
              15
  6
Continuous
 62
               7
100
AcDbLine
 10
738.29914299479276
 20
584.90890659788863
 30
0.0
 11
738.25803254731784
 21
584.89685954826678
 31
0.0
  0
LINE
  5
16A
100
AcDbEntity
  8
_0-0_
370
              15
  6
Continuous
 62
               7
100
AcDbLine
 10
738.25803254731784
 20
584.89685954826678
 30
0.0
 11
738.21909179360205
 21
584.88458503075094
 31
0.0
  0
LINE
  5
16B
100
AcDbEntity
  8
_0-0_
370
              15
  6
Continuous
 62
               7
100
AcDbLine
 10
738.21909179360205
 20
584.88458503075094
 30
0.0
 11
738.18267068425155
 21
584.87220552805309
 31
0.0
  0
LINE
  5
16C
100
AcDbEntity
  8
_0-0_
370
              15
  6
Continuous
 62
               7
100
AcDbLine
 10
738.18267068425155
 20
584.87220552805309
 30
0.0
 11
738.14875172173606
 21
584.85970354264316
 31
0.0
  0
LINE
  5
16D
100
AcDbEntity
  8
_0-0_
370
              15
  6
Continuous
 62
               7
100
AcDbLine
 10
738.14875172173606
 20
584.85970354264316
 30
0.0
 11
738.11735240358598
 21
584.84707907452093
 31
0.0
  0
LINE
  5
16E
100
AcDbEntity
  8
_0-0_
370
              15
  6
Continuous
 62
               7
100
AcDbLine
 10
738.11735240358598
 20
584.84707907452093
 30
0.0
 11
738.08846398103606
 21
584.83434087245166
 31
0.0
  0
LINE
  5
16F
100
AcDbEntity
  8
_0-0_
370
              15
  6
Continuous
 62
               7
100
AcDbLine
 10
738.08846398103606
 20
584.83434087245166
 30
0.0
 11
738.06208645408628
 21
584.8214801876702
 31
0.0
  0
LINE
  5
170
100
AcDbEntity
  8
_0-0_
370
              15
  6
Continuous
 62
               7
100
AcDbLine
 10
738.06208645408628
 20
584.8214801876702
 30
0.0
 11
738.03822857150192
 21
584.8085057689417
 31
0.0
  0
LINE
  5
171
100
AcDbEntity
  8
_0-0_
370
              15
  6
Continuous
 62
               7
100
AcDbLine
 10
738.03822857150192
 20
584.8085057689417
 30
0.0
 11
738.01687283575257
 21
584.79540886750101
 31
0.0
  0
LINE
  5
172
100
AcDbEntity
  8
_0-0_
370
              15
  6
Continuous
 62
               7
100
AcDbLine
 10
738.01687283575257
 20
584.79540886750101
 30
0.0
 11
737.99803674436851
 21
584.78219823211316
 31
0.0
  0
LINE
  5
173
100
AcDbEntity
  8
_0-0_
370
              15
  6
Continuous
 62
               7
100
AcDbLine
 10
737.99803674436851
 20
584.78219823211316
 30
0.0
 11
737.98170279981957
 21
584.76887386277838
 31
0.0
  0
LINE
  5
174
100
AcDbEntity
  8
_0-0_
370
              15
  6
Continuous
 62
               7
100
AcDbLine
 10
737.98170279981957
 20
584.76887386277838
 30
0.0
 11
737.96788849963593
 21
584.75541826196627
 31
0.0
  0
LINE
  5
175
100
AcDbEntity
  8
_0-0_
370
              15
  6
Continuous
 62
               7
100
AcDbLine
 10
737.96788849963593
 20
584.75541826196627
 30
0.0
 11
737.95658509505256
 21
584.74185767597214
 31
0.0
  0
LINE
  5
176
100
AcDbEntity
  8
_0-0_
370
              15
  6
Continuous
 62
               7
100
AcDbLine
 10
737.95658509505256
 20
584.74185767597214
 30
0.0
 11
737.94779258606923
 21
584.72817460726594
 31
0.0
  0
LINE
  5
177
100
AcDbEntity
  8
_0-0_
370
              15
  6
Continuous
 62
               7
100
AcDbLine
 10
737.94779258606923
 20
584.72817460726594
 30
0.0
 11
737.94151097268627
 21
584.71436905584744
 31
0.0
  0
LINE
  5
178
100
AcDbEntity
  8
_0-0_
370
              15
  6
Continuous
 62
               7
100
AcDbLine
 10
737.94151097268627
 20
584.71436905584744
 30
0.0
 11
737.9377490036685
 21
584.7004497704819
 31
0.0
  0
LINE
  5
179
100
AcDbEntity
  8
_0-0_
370
              15
  6
Continuous
 62
               7
100
AcDbLine
 10
737.9377490036685
 20
584.7004497704819
 30
0.0
 11
737.93648918148585
 21
584.68641675116942
 31
0.0
  0
LINE
  5
17A
100
AcDbEntity
  8
_0-0_
370
              15
  6
Continuous
 62
               7
100
AcDbLine
 10
737.93648918148585
 20
584.68641675116942
 30
0.0
 11
737.9377490036685
 21
584.67237498309169
 31
0.0
  0
LINE
  5
17B
100
AcDbEntity
  8
_0-0_
370
              15
  6
Continuous
 62
               7
100
AcDbLine
 10
737.9377490036685
 20
584.67237498309169
 30
0.0
 11
737.94151097268627
 21
584.65845569772614
 31
0.0
  0
LINE
  5
17C
100
AcDbEntity
  8
_0-0_
370
              15
  6
Continuous
 62
               7
100
AcDbLine
 10
737.94151097268627
 20
584.65845569772614
 30
0.0
 11
737.94779258606923
 21
584.64465014630764
 31
0.0
  0
LINE
  5
17D
100
AcDbEntity
  8
_0-0_
370
              15
  6
Continuous
 62
               7
100
AcDbLine
 10
737.94779258606923
 20
584.64465014630764
 30
0.0
 11
737.95658509505256
 21
584.63096707760144
 31
0.0
  0
LINE
  5
17E
100
AcDbEntity
  8
_0-0_
370
              15
  6
Continuous
 62
               7
100
AcDbLine
 10
737.95658509505256
 20
584.63096707760144
 30
0.0
 11
737.96788849963593
 21
584.61740649160731
 31
0.0
  0
LINE
  5
17F
100
AcDbEntity
  8
_0-0_
370
              15
  6
Continuous
 62
               7
100
AcDbLine
 10
737.96788849963593
 20
584.61740649160731
 30
0.0
 11
737.98170279981957
 21
584.60395963956034
 31
0.0
  0
LINE
  5
180
100
AcDbEntity
  8
_0-0_
370
              15
  6
Continuous
 62
               7
100
AcDbLine
 10
737.98170279981957
 20
584.60395963956034
 30
0.0
 11
737.99803674436851
 21
584.59062652146042
 31
0.0
  0
LINE
  5
181
100
AcDbEntity
  8
_0-0_
370
              15
  6
Continuous
 62
               7
100
AcDbLine
 10
737.99803674436851
 20
584.59062652146042
 30
0.0
 11
738.01687283575257
 21
584.57741588607257
 31
0.0
  0
LINE
  5
182
100
AcDbEntity
  8
_0-0_
370
              15
  6
Continuous
 62
               7
100
AcDbLine
 10
738.01687283575257
 20
584.57741588607257
 30
0.0
 11
738.03822857150192
 21
584.56431898463188
 31
0.0
  0
LINE
  5
183
100
AcDbEntity
  8
_0-0_
370
              15
  6
Continuous
 62
               7
100
AcDbLine
 10
738.03822857150192
 20
584.56431898463188
 30
0.0
 11
738.06208645408628
 21
584.55134456590338
 31
0.0
  0
LINE
  5
184
100
AcDbEntity
  8
_0-0_
370
              15
  6
Continuous
 62
               7
100
AcDbLine
 10
738.06208645408628
 20
584.55134456590338
 30
0.0
 11
738.08846398103606
 21
584.53848388112192
 31
0.0
  0
LINE
  5
185
100
AcDbEntity
  8
_0-0_
370
              15
  6
Continuous
 62
               7
100
AcDbLine
 10
738.08846398103606
 20
584.53848388112192
 30
0.0
 11
738.11735240358598
 21
584.52574567905265
 31
0.0
  0
LINE
  5
186
100
AcDbEntity
  8
_0-0_
370
              15
  6
Continuous
 62
               7
100
AcDbLine
 10
738.11735240358598
 20
584.52574567905265
 30
0.0
 11
738.14875172173606
 21
584.51312995969568
 31
0.0
  0
LINE
  5
187
100
AcDbEntity
  8
_0-0_
370
              15
  6
Continuous
 62
               7
100
AcDbLine
 10
738.14875172173606
 20
584.51312995969568
 30
0.0
 11
738.18267068425155
 21
584.5006192255205
 31
0.0
  0
LINE
  5
188
100
AcDbEntity
  8
_0-0_
370
              15
  6
Continuous
 62
               7
100
AcDbLine
 10
738.18267068425155
 20
584.5006192255205
 30
0.0
 11
738.21909179360205
 21
584.48823972282264
 31
0.0
  0
LINE
  5
189
100
AcDbEntity
  8
_0-0_
370
              15
  6
Continuous
 62
               7
100
AcDbLine
 10
738.21909179360205
 20
584.48823972282264
 30
0.0
 11
738.25803254731784
 21
584.47597395407195
 31
0.0
  0
LINE
  5
18A
100
AcDbEntity
  8
_0-0_
370
              15
  6
Continuous
 62
               7
100
AcDbLine
 10
738.25803254731784
 20
584.47597395407195
 30
0.0
 11
738.2634392841851
 21
584.47433793498749
 31
0.0
  0
LINE
  5
18B
100
AcDbEntity
  8
_0-0_
370
              15
  6
Continuous
 62
               7
100
AcDbLine
 10
738.2634392841851
 20
584.47433793498749
 30
0.0
 11
738.26887226734789
 21
584.47271066466817
 31
0.0
  0
LINE
  5
18C
100
AcDbEntity
  8
_0-0_
370
              15
  6
Continuous
 62
               7
100
AcDbLine
 10
738.26887226734789
 20
584.47271066466817
 30
0.0
 11
738.27434899433649
 21
584.47108339434885
 31
0.0
  0
LINE
  5
18D
100
AcDbEntity
  8
_0-0_
370
              15
  6
Continuous
 62
               7
100
AcDbLine
 10
738.27434899433649
 20
584.47108339434885
 30
0.0
 11
738.27985196762052
 21
584.46946487279479
 31
0.0
  0
LINE
  5
18E
100
AcDbEntity
  8
_0-0_
370
              15
  6
Continuous
 62
               7
100
AcDbLine
 10
738.27985196762052
 20
584.46946487279479
 30
0.0
 11
738.28538993596521
 21
584.46785510000575
 31
0.0
  0
LINE
  5
18F
100
AcDbEntity
  8
_0-0_
370
              15
  6
Continuous
 62
               7
100
AcDbLine
 10
738.28538993596521
 20
584.46785510000575
 30
0.0
 11
738.29096289937047
 21
584.46625407598196
 31
0.0
  0
LINE
  5
190
100
AcDbEntity
  8
_0-0_
370
              15
  6
Continuous
 62
               7
100
AcDbLine
 10
738.29096289937047
 20
584.46625407598196
 30
0.0
 11
738.2965708578364
 21
584.46465305195818
 31
0.0
  0
LINE
  5
191
100
AcDbEntity
  8
_0-0_
370
              15
  6
Continuous
 62
               7
100
AcDbLine
 10
738.2965708578364
 20
584.46465305195818
 30
0.0
 11
738.302213811363
 21
584.46306077669954
 31
0.0
  0
LINE
  5
192
100
AcDbEntity
  8
_0-0_
370
              15
  6
Continuous
 62
               7
100
AcDbLine
 10
738.302213811363
 20
584.46306077669954
 30
0.0
 11
738.30788301118503
 21
584.46146850144089
 31
0.0
  0
LINE
  5
193
100
AcDbEntity
  8
_0-0_
370
              15
  6
Continuous
 62
               7
100
AcDbLine
 10
738.30788301118503
 20
584.46146850144089
 30
0.0
 11
738.31358720606772
 21
584.45988497494739
 31
0.0
  0
LINE
  5
194
100
AcDbEntity
  8
_0-0_
370
              15
  6
Continuous
 62
               7
100
AcDbLine
 10
738.31358720606772
 20
584.45988497494739
 30
0.0
 11
738.31932639601098
 21
584.45831019721902
 31
0.0
  0
LINE
  5
195
100
AcDbEntity
  8
_0-0_
370
              15
  6
Continuous
 62
               7
100
AcDbLine
 10
738.31932639601098
 20
584.45831019721902
 30
0.0
 11
738.32509183224977
 21
584.45673541949066
 31
0.0
  0
LINE
  5
196
100
AcDbEntity
  8
_0-0_
370
              15
  6
Continuous
 62
               7
100
AcDbLine
 10
738.32509183224977
 20
584.45673541949066
 30
0.0
 11
738.33090101231426
 21
584.45517813929257
 31
0.0
  0
LINE
  5
197
100
AcDbEntity
  8
_0-0_
370
              15
  6
Continuous
 62
               7
100
AcDbLine
 10
738.33090101231426
 20
584.45517813929257
 30
0.0
 11
738.33673643867428
 21
584.45361211032946
 31
0.0
  0
LINE
  5
198
100
AcDbEntity
  8
_0-0_
370
              15
  6
Continuous
 62
               7
100
AcDbLine
 10
738.33673643867428
 20
584.45361211032946
 30
0.0
 11
738.34260686009497
 21
584.45206357889663
 31
0.0
  0
LINE
  5
199
100
AcDbEntity
  8
_0-0_
370
              15
  6
Continuous
 62
               7
100
AcDbLine
 10
738.34260686009497
 20
584.45206357889663
 30
0.0
 11
738.34851227657623
 21
584.45051504746368
 31
0.0
  0
LINE
  5
19A
100
AcDbEntity
  8
_0-0_
370
              15
  6
Continuous
 62
               7
100
AcDbLine
 10
737.98164155846348
 20
663.73747660662684
 30
0.0
 11
737.98164155846348
 21
619.83517568728178
 31
0.0
  0
LINE
  5
19B
100
AcDbEntity
  8
_0-0_
370
              15
  6
Continuous
 62
               7
100
AcDbLine
 10
742.78164281333682
 20
663.73747660662684
 30
0.0
 11
742.78164281333682
 21
619.83517568728178
 31
0.0
  0
LINE
  5
19C
100
AcDbEntity
  8
_0-0_
370
              15
  6
Continuous
 62
               7
100
AcDbLine
 10
742.76237803246011
 20
620.14470699855258
 30
0.0
 11
742.76470520399198
 21
620.12567843433521
 31
0.0
  0
LINE
  5
19D
100
AcDbEntity
  8
_0-0_
370
              15
  6
Continuous
 62
               7
100
AcDbLine
 10
742.76470520399198
 20
620.12567843433521
 30
0.0
 11
742.76689239528139
 21
620.10661487505706
 31
0.0
  0
LINE
  5
19E
100
AcDbEntity
  8
_0-0_
370
              15
  6
Continuous
 62
               7
100
AcDbLine
 10
742.76689239528139
 20
620.10661487505706
 30
0.0
 11
742.76892210879794
 21
620.08750757195321
 31
0.0
  0
LINE
  5
19F
100
AcDbEntity
  8
_0-0_
370
              15
  6
Continuous
 62
               7
100
AcDbLine
 10
742.76892210879794
 20
620.08750757195321
 30
0.0
 11
742.77080309330677
 21
620.06836527378869
 31
0.0
  0
LINE
  5
1A0
100
AcDbEntity
  8
_0-0_
370
              15
  6
Continuous
 62
               7
100
AcDbLine
 10
742.77080309330677
 20
620.06836527378869
 30
0.0
 11
742.77253534880799
 21
620.04917923179835
 31
0.0
  0
LINE
  5
1A1
100
AcDbEntity
  8
_0-0_
370
              15
  6
Continuous
 62
               7
100
AcDbLine
 10
742.77253534880799
 20
620.04917923179835
 30
0.0
 11
742.7741188753015
 21
620.02994944598231
 31
0.0
  0
LINE
  5
1A2
100
AcDbEntity
  8
_0-0_
370
              15
  6
Continuous
 62
               7
100
AcDbLine
 10
742.7741188753015
 20
620.02994944598231
 30
0.0
 11
742.77554492402214
 21
620.0106846651056
 31
0.0
  0
LINE
  5
1A3
100
AcDbEntity
  8
_0-0_
370
              15
  6
Continuous
 62
               7
100
AcDbLine
 10
742.77554492402214
 20
620.0106846651056
 30
0.0
 11
742.77683099250021
 21
619.99137614040308
 31
0.0
  0
LINE
  5
1A4
100
AcDbEntity
  8
_0-0_
370
              15
  6
Continuous
 62
               7
100
AcDbLine
 10
742.77683099250021
 20
619.99137614040308
 30
0.0
 11
742.77795958320553
 21
619.97202387187474
 31
0.0
  0
LINE
  5
1A5
100
AcDbEntity
  8
_0-0_
370
              15
  6
Continuous
 62
               7
100
AcDbLine
 10
742.77795958320553
 20
619.97202387187474
 30
0.0
 11
742.77893069613799
 21
619.95263660828584
 31
0.0
  0
LINE
  5
1A6
100
AcDbEntity
  8
_0-0_
370
              15
  6
Continuous
 62
               7
100
AcDbLine
 10
742.77893069613799
 20
619.95263660828584
 30
0.0
 11
742.77976182882799
 21
619.93320560087113
 31
0.0
  0
LINE
  5
1A7
100
AcDbEntity
  8
_0-0_
370
              15
  6
Continuous
 62
               7
100
AcDbLine
 10
742.77976182882799
 20
619.93320560087113
 30
0.0
 11
742.78044423251026
 21
619.91373959839575
 31
0.0
  0
LINE
  5
1A8
100
AcDbEntity
  8
_0-0_
370
              15
  6
Continuous
 62
               7
100
AcDbLine
 10
742.78044423251026
 20
619.91373959839575
 30
0.0
 11
742.78096915841968
 21
619.89422985209467
 31
0.0
  0
LINE
  5
1A9
100
AcDbEntity
  8
_0-0_
370
              15
  6
Continuous
 62
               7
100
AcDbLine
 10
742.78096915841968
 20
619.89422985209467
 30
0.0
 11
742.78134535532149
 21
619.87468511073291
 31
0.0
  0
LINE
  5
1AA
100
AcDbEntity
  8
_0-0_
370
              15
  6
Continuous
 62
               7
100
AcDbLine
 10
742.78134535532149
 20
619.87468511073291
 30
0.0
 11
742.78157282321558
 21
619.85509662554534
 31
0.0
  0
LINE
  5
1AB
100
AcDbEntity
  8
_0-0_
370
              15
  6
Continuous
 62
               7
100
AcDbLine
 10
742.78157282321558
 20
619.85509662554534
 30
0.0
 11
742.78164281333682
 21
619.83546439653196
 31
0.0
  0
LINE
  5
1AC
100
AcDbEntity
  8
_0-0_
370
              15
  6
Continuous
 62
               7
100
AcDbLine
 10
742.78164281333682
 20
619.83546439653196
 30
0.0
 11
742.78039173991931
 21
619.75553567805355
 31
0.0
  0
LINE
  5
1AD
100
AcDbEntity
  8
_0-0_
370
              15
  6
Continuous
 62
               7
100
AcDbLine
 10
742.78039173991931
 20
619.75553567805355
 30
0.0
 11
742.77662102213651
 21
619.6762718657269
 31
0.0
  0
LINE
  5
1AE
100
AcDbEntity
  8
_0-0_
370
              15
  6
Continuous
 62
               7
100
AcDbLine
 10
742.77662102213651
 20
619.6762718657269
 30
0.0
 11
742.77033940875344
 21
619.59769045708265
 31
0.0
  0
LINE
  5
1AF
100
AcDbEntity
  8
_0-0_
370
              15
  6
Continuous
 62
               7
100
AcDbLine
 10
742.77033940875344
 20
619.59769045708265
 30
0.0
 11
742.76154689977022
 21
619.51977395459039
 31
0.0
  0
LINE
  5
1B0
100
AcDbEntity
  8
_0-0_
370
              15
  6
Continuous
 62
               7
100
AcDbLine
 10
742.76154689977022
 20
619.51977395459039
 30
0.0
 11
742.75024349518674
 21
619.44253110701516
 31
0.0
  0
LINE
  5
1B1
100
AcDbEntity
  8
_0-0_
370
              15
  6
Continuous
 62
               7
100
AcDbLine
 10
742.75024349518674
 20
619.44253110701516
 30
0.0
 11
742.7364291950031
 21
619.36596191435706
 31
0.0
  0
LINE
  5
1B2
100
AcDbEntity
  8
_0-0_
370
              15
  6
Continuous
 62
               7
100
AcDbLine
 10
742.7364291950031
 20
619.36596191435706
 30
0.0
 11
742.7201039992193
 21
619.29006637661621
 31
0.0
  0
LINE
  5
1B3
100
AcDbEntity
  8
_0-0_
370
              15
  6
Continuous
 62
               7
100
AcDbLine
 10
742.7201039992193
 20
619.29006637661621
 30
0.0
 11
742.7012591590701
 21
619.21484449379238
 31
0.0
  0
LINE
  5
1B4
100
AcDbEntity
  8
_0-0_
370
              15
  6
Continuous
 62
               7
100
AcDbLine
 10
742.7012591590701
 20
619.21484449379238
 30
0.0
 11
742.67990342332075
 21
619.14028751712056
 31
0.0
  0
LINE
  5
1B5
100
AcDbEntity
  8
_0-0_
370
              15
  6
Continuous
 62
               7
100
AcDbLine
 10
742.67990342332075
 20
619.14028751712056
 30
0.0
 11
742.65604554073639
 21
619.066412944131
 31
0.0
  0
LINE
  5
1B6
100
AcDbEntity
  8
_0-0_
370
              15
  6
Continuous
 62
               7
100
AcDbLine
 10
742.65604554073639
 20
619.066412944131
 30
0.0
 11
742.62966801378673
 21
618.99320327729333
 31
0.0
  0
LINE
  5
1B7
100
AcDbEntity
  8
_0-0_
370
              15
  6
Continuous
 62
               7
100
AcDbLine
 10
742.62966801378673
 20
618.99320327729333
 30
0.0
 11
742.6007795912368
 21
618.92066726537291
 31
0.0
  0
LINE
  5
1B8
100
AcDbEntity
  8
_0-0_
370
              15
  6
Continuous
 62
               7
100
AcDbLine
 10
742.6007795912368
 20
618.92066726537291
 30
0.0
 11
742.56938027308661
 21
618.84879615960438
 31
0.0
  0
LINE
  5
1B9
100
AcDbEntity
  8
_0-0_
370
              15
  6
Continuous
 62
               7
100
AcDbLine
 10
742.56938027308661
 20
618.84879615960438
 30
0.0
 11
742.53547005933638
 21
618.77760745751812
 31
0.0
  0
LINE
  5
1BA
100
AcDbEntity
  8
_0-0_
370
              15
  6
Continuous
 62
               7
100
AcDbLine
 10
742.53547005933638
 20
618.77760745751812
 30
0.0
 11
742.49904020122074
 21
618.70708366158385
 31
0.0
  0
LINE
  5
1BB
100
AcDbEntity
  8
_0-0_
370
              15
  6
Continuous
 62
               7
100
AcDbLine
 10
742.49904020122074
 20
618.70708366158385
 30
0.0
 11
742.46010819626997
 21
618.63724226933186
 31
0.0
  0
LINE
  5
1BC
100
AcDbEntity
  8
_0-0_
370
              15
  6
Continuous
 62
               7
100
AcDbLine
 10
742.46010819626997
 20
618.63724226933186
 30
0.0
 11
742.41899774879516
 21
618.56864320173236
 31
0.0
  0
LINE
  5
1BD
100
AcDbEntity
  8
_0-0_
370
              15
  6
Continuous
 62
               7
100
AcDbLine
 10
742.41899774879516
 20
618.56864320173236
 30
0.0
 11
742.37604131187197
 21
618.50189012358089
 31
0.0
  0
LINE
  5
1BE
100
AcDbEntity
  8
_0-0_
370
              15
  6
Continuous
 62
               7
100
AcDbLine
 10
742.37604131187197
 20
618.50189012358089
 30
0.0
 11
742.33125638303102
 21
618.43696553734742
 31
0.0
  0
LINE
  5
1BF
100
AcDbEntity
  8
_0-0_
370
              15
  6
Continuous
 62
               7
100
AcDbLine
 10
742.33125638303102
 20
618.43696553734742
 30
0.0
 11
742.28462546474179
 21
618.37387819179696
 31
0.0
  0
LINE
  5
1C0
100
AcDbEntity
  8
_0-0_
370
              15
  6
Continuous
 62
               7
100
AcDbLine
 10
742.28462546474179
 20
618.37387819179696
 30
0.0
 11
742.23615730576944
 21
618.31262808692964
 31
0.0
  0
LINE
  5
1C1
100
AcDbEntity
  8
_0-0_
370
              15
  6
Continuous
 62
               7
100
AcDbLine
 10
742.23615730576944
 20
618.31262808692964
 30
0.0
 11
742.18585190611407
 21
618.25321522274533
 31
0.0
  0
LINE
  5
1C2
100
AcDbEntity
  8
_0-0_
370
              15
  6
Continuous
 62
               7
100
AcDbLine
 10
742.18585190611407
 20
618.25321522274533
 30
0.0
 11
742.13370926577568
 21
618.19563959924415
 31
0.0
  0
LINE
  5
1C3
100
AcDbEntity
  8
_0-0_
370
              15
  6
Continuous
 62
               7
100
AcDbLine
 10
742.13370926577568
 20
618.19563959924415
 30
0.0
 11
742.07972063598891
 21
618.13990121642598
 31
0.0
  0
LINE
  5
1C4
100
AcDbEntity
  8
_0-0_
370
              15
  6
Continuous
 62
               7
100
AcDbLine
 10
742.07972063598891
 20
618.13990121642598
 30
0.0
 11
742.02389476551923
 21
618.0859913255257
 31
0.0
  0
LINE
  5
1C5
100
AcDbEntity
  8
_0-0_
370
              15
  6
Continuous
 62
               7
100
AcDbLine
 10
742.02389476551923
 20
618.0859913255257
 30
0.0
 11
741.96623165436642
 21
618.03392742407368
 31
0.0
  0
LINE
  5
1C6
100
AcDbEntity
  8
_0-0_
370
              15
  6
Continuous
 62
               7
100
AcDbLine
 10
741.96623165436642
 20
618.03392742407368
 30
0.0
 11
741.9067313025306
 21
617.98369201453966
 31
0.0
  0
LINE
  5
1C7
100
AcDbEntity
  8
_0-0_
370
              15
  6
Continuous
 62
               7
100
AcDbLine
 10
741.9067313025306
 20
617.98369201453966
 30
0.0
 11
741.84539371001165
 21
617.93529384568853
 31
0.0
  0
LINE
  5
1C8
100
AcDbEntity
  8
_0-0_
370
              15
  6
Continuous
 62
               7
100
AcDbLine
 10
741.84539371001165
 20
617.93529384568853
 30
0.0
 11
741.78221887680968
 21
617.88874166628568
 31
0.0
  0
LINE
  5
1C9
100
AcDbEntity
  8
_0-0_
370
              15
  6
Continuous
 62
               7
100
AcDbLine
 10
741.78221887680968
 20
617.88874166628568
 30
0.0
 11
741.71719805415944
 21
617.84401797880082
 31
0.0
  0
LINE
  5
1CA
100
AcDbEntity
  8
_0-0_
370
              15
  6
Continuous
 62
               7
100
AcDbLine
 10
741.71719805415944
 20
617.84401797880082
 30
0.0
 11
741.65033999082618
 21
617.80113153199898
 31
0.0
  0
LINE
  5
1CB
100
AcDbEntity
  8
_0-0_
370
              15
  6
Continuous
 62
               7
100
AcDbLine
 10
741.65033999082618
 20
617.80113153199898
 30
0.0
 11
741.5816446868098
 21
617.76007357711501
 31
0.0
  0
LINE
  5
1CC
100
AcDbEntity
  8
_0-0_
370
              15
  6
Continuous
 62
               7
100
AcDbLine
 10
741.5816446868098
 20
617.76007357711501
 30
0.0
 11
741.51168956061076
 21
617.72119406475531
 31
0.0
  0
LINE
  5
1CD
100
AcDbEntity
  8
_0-0_
370
              15
  6
Continuous
 62
               7
100
AcDbLine
 10
741.51168956061076
 20
617.72119406475531
 30
0.0
 11
741.44106952825973
 21
617.68482544799576
 31
0.0
  0
LINE
  5
1CE
100
AcDbEntity
  8
_0-0_
370
              15
  6
Continuous
 62
               7
100
AcDbLine
 10
741.44106952825973
 20
617.68482544799576
 30
0.0
 11
741.36976709222654
 21
617.65096772683637
 31
0.0
  0
LINE
  5
1CF
100
AcDbEntity
  8
_0-0_
370
              15
  6
Continuous
 62
               7
100
AcDbLine
 10
741.36976709222654
 20
617.65096772683637
 30
0.0
 11
741.29779975004124
 21
617.61961215251199
 31
0.0
  0
LINE
  5
1D0
100
AcDbEntity
  8
_0-0_
370
              15
  6
Continuous
 62
               7
100
AcDbLine
 10
741.29779975004124
 20
617.61961215251199
 30
0.0
 11
741.22515875293891
 21
617.59076747378788
 31
0.0
  0
LINE
  5
1D1
100
AcDbEntity
  8
_0-0_
370
              15
  6
Continuous
 62
               7
100
AcDbLine
 10
741.22515875293891
 20
617.59076747378788
 30
0.0
 11
741.15183535215431
 21
617.56442494189878
 31
0.0
  0
LINE
  5
1D2
100
AcDbEntity
  8
_0-0_
370
              15
  6
Continuous
 62
               7
100
AcDbLine
 10
741.15183535215431
 20
617.56442494189878
 30
0.0
 11
741.07784704521771
 21
617.54060205437509
 31
0.0
  0
LINE
  5
1D3
100
AcDbEntity
  8
_0-0_
370
              15
  6
Continuous
 62
               7
100
AcDbLine
 10
741.07784704521771
 20
617.54060205437509
 30
0.0
 11
741.00318508336397
 21
617.51928131368629
 31
0.0
  0
LINE
  5
1D4
100
AcDbEntity
  8
_0-0_
370
              15
  6
Continuous
 62
               7
100
AcDbLine
 10
741.00318508336397
 20
617.51928131368629
 30
0.0
 11
740.9278494665931
 21
617.50046271983263
 31
0.0
  0
LINE
  5
1D5
100
AcDbEntity
  8
_0-0_
370
              15
  6
Continuous
 62
               7
100
AcDbLine
 10
740.9278494665931
 20
617.50046271983263
 30
0.0
 11
740.85184019490509
 21
617.48416377034425
 31
0.0
  0
LINE
  5
1D6
100
AcDbEntity
  8
_0-0_
370
              15
  6
Continuous
 62
               7
100
AcDbLine
 10
740.85184019490509
 20
617.48416377034425
 30
0.0
 11
740.77515726829995
 21
617.47036696769101
 31
0.0
  0
LINE
  5
1D7
100
AcDbEntity
  8
_0-0_
370
              15
  6
Continuous
 62
               7
100
AcDbLine
 10
740.77515726829995
 20
617.47036696769101
 30
0.0
 11
740.69780068677778
 21
617.45908106063791
 31
0.0
  0
LINE
  5
1D8
100
AcDbEntity
  8
_0-0_
370
              15
  6
Continuous
 62
               7
100
AcDbLine
 10
740.69780068677778
 20
617.45908106063791
 30
0.0
 11
740.61977045033836
 21
617.45029730041983
 31
0.0
  0
LINE
  5
1D9
100
AcDbEntity
  8
_0-0_
370
              15
  6
Continuous
 62
               7
100
AcDbLine
 10
740.61977045033836
 20
617.45029730041983
 30
0.0
 11
740.54106655898192
 21
617.44403318456705
 31
0.0
  0
LINE
  5
1DA
100
AcDbEntity
  8
_0-0_
370
              15
  6
Continuous
 62
               7
100
AcDbLine
 10
740.54106655898192
 20
617.44403318456705
 30
0.0
 11
740.46168901270835
 21
617.44027121554939
 31
0.0
  0
LINE
  5
1DB
100
AcDbEntity
  8
_0-0_
370
              15
  6
Continuous
 62
               7
100
AcDbLine
 10
740.46168901270835
 20
617.44027121554939
 30
0.0
 11
740.38164656028277
 21
617.43901139336663
 31
0.0
  0
LINE
  5
1DC
100
AcDbEntity
  8
_0-0_
370
              15
  6
Continuous
 62
               7
100
AcDbLine
 10
740.38164656028277
 20
617.43901139336663
 30
0.0
 11
740.30159535909206
 21
617.44027121554939
 31
0.0
  0
LINE
  5
1DD
100
AcDbEntity
  8
_0-0_
370
              15
  6
Continuous
 62
               7
100
AcDbLine
 10
740.30159535909206
 20
617.44027121554939
 30
0.0
 11
740.22221781281837
 21
617.44403318456705
 31
0.0
  0
LINE
  5
1DE
100
AcDbEntity
  8
_0-0_
370
              15
  6
Continuous
 62
               7
100
AcDbLine
 10
740.22221781281837
 20
617.44403318456705
 30
0.0
 11
740.14352267022707
 21
617.45029730041983
 31
0.0
  0
LINE
  5
1DF
100
AcDbEntity
  8
_0-0_
370
              15
  6
Continuous
 62
               7
100
AcDbLine
 10
740.14352267022707
 20
617.45029730041983
 30
0.0
 11
740.06549243378777
 21
617.45908106063791
 31
0.0
  0
LINE
  5
1E0
100
AcDbEntity
  8
_0-0_
370
              15
  6
Continuous
 62
               7
100
AcDbLine
 10
740.06549243378777
 20
617.45908106063791
 30
0.0
 11
739.98813585226549
 21
617.47036696769101
 31
0.0
  0
LINE
  5
1E1
100
AcDbEntity
  8
_0-0_
370
              15
  6
Continuous
 62
               7
100
AcDbLine
 10
739.98813585226549
 20
617.47036696769101
 30
0.0
 11
739.91145292566034
 21
617.48416377034425
 31
0.0
  0
LINE
  5
1E2
100
AcDbEntity
  8
_0-0_
370
              15
  6
Continuous
 62
               7
100
AcDbLine
 10
739.91145292566034
 20
617.48416377034425
 30
0.0
 11
739.83544365397245
 21
617.50046271983263
 31
0.0
  0
LINE
  5
1E3
100
AcDbEntity
  8
_0-0_
370
              15
  6
Continuous
 62
               7
100
AcDbLine
 10
739.83544365397245
 20
617.50046271983263
 30
0.0
 11
739.76010803720158
 21
617.51928131368629
 31
0.0
  0
LINE
  5
1E4
100
AcDbEntity
  8
_0-0_
370
              15
  6
Continuous
 62
               7
100
AcDbLine
 10
739.76010803720158
 20
617.51928131368629
 30
0.0
 11
739.68544607534784
 21
617.54060205437509
 31
0.0
  0
LINE
  5
1E5
100
AcDbEntity
  8
_0-0_
370
              15
  6
Continuous
 62
               7
100
AcDbLine
 10
739.68544607534784
 20
617.54060205437509
 30
0.0
 11
739.6114490196461
 21
617.56442494189878
 31
0.0
  0
LINE
  5
1E6
100
AcDbEntity
  8
_0-0_
370
              15
  6
Continuous
 62
               7
100
AcDbLine
 10
739.6114490196461
 20
617.56442494189878
 30
0.0
 11
739.53813436762653
 21
617.59076747378788
 31
0.0
  0
LINE
  5
1E7
100
AcDbEntity
  8
_0-0_
370
              15
  6
Continuous
 62
               7
100
AcDbLine
 10
739.53813436762653
 20
617.59076747378788
 30
0.0
 11
739.4654933705242
 21
617.61961215251199
 31
0.0
  0
LINE
  5
1E8
100
AcDbEntity
  8
_0-0_
370
              15
  6
Continuous
 62
               7
100
AcDbLine
 10
739.4654933705242
 20
617.61961215251199
 30
0.0
 11
739.39351727957376
 21
617.65096772683637
 31
0.0
  0
LINE
  5
1E9
100
AcDbEntity
  8
_0-0_
370
              15
  6
Continuous
 62
               7
100
AcDbLine
 10
739.39351727957376
 20
617.65096772683637
 30
0.0
 11
739.3222235923057
 21
617.68482544799576
 31
0.0
  0
LINE
  5
1EA
100
AcDbEntity
  8
_0-0_
370
              15
  6
Continuous
 62
               7
100
AcDbLine
 10
739.3222235923057
 20
617.68482544799576
 30
0.0
 11
739.25159481118953
 21
617.72119406475531
 31
0.0
  0
LINE
  5
1EB
100
AcDbEntity
  8
_0-0_
370
              15
  6
Continuous
 62
               7
100
AcDbLine
 10
739.25159481118953
 20
617.72119406475531
 30
0.0
 11
739.18164843375564
 21
617.76007357711501
 31
0.0
  0
LINE
  5
1EC
100
AcDbEntity
  8
_0-0_
370
              15
  6
Continuous
 62
               7
100
AcDbLine
 10
739.18164843375564
 20
617.76007357711501
 30
0.0
 11
739.11295312973937
 21
617.80113153199898
 31
0.0
  0
LINE
  5
1ED
100
AcDbEntity
  8
_0-0_
370
              15
  6
Continuous
 62
               7
100
AcDbLine
 10
739.11295312973937
 20
617.80113153199898
 30
0.0
 11
739.04609506640611
 21
617.84401797880082
 31
0.0
  0
LINE
  5
1EE
100
AcDbEntity
  8
_0-0_
370
              15
  6
Continuous
 62
               7
100
AcDbLine
 10
739.04609506640611
 20
617.84401797880082
 30
0.0
 11
738.98107424375587
 21
617.88874166628568
 31
0.0
  0
LINE
  5
1EF
100
AcDbEntity
  8
_0-0_
370
              15
  6
Continuous
 62
               7
100
AcDbLine
 10
738.98107424375587
 20
617.88874166628568
 30
0.0
 11
738.91789941055379
 21
617.93529384568853
 31
0.0
  0
LINE
  5
1F0
100
AcDbEntity
  8
_0-0_
370
              15
  6
Continuous
 62
               7
100
AcDbLine
 10
738.91789941055379
 20
617.93529384568853
 30
0.0
 11
738.85655306926981
 21
617.98369201453966
 31
0.0
  0
LINE
  5
1F1
100
AcDbEntity
  8
_0-0_
370
              15
  6
Continuous
 62
               7
100
AcDbLine
 10
738.85655306926981
 20
617.98369201453966
 30
0.0
 11
738.79705271743387
 21
618.03392742407368
 31
0.0
  0
LINE
  5
1F2
100
AcDbEntity
  8
_0-0_
370
              15
  6
Continuous
 62
               7
100
AcDbLine
 10
738.79705271743387
 20
618.03392742407368
 30
0.0
 11
738.73938960628107
 21
618.0859913255257
 31
0.0
  0
LINE
  5
1F3
100
AcDbEntity
  8
_0-0_
370
              15
  6
Continuous
 62
               7
100
AcDbLine
 10
738.73938960628107
 20
618.0859913255257
 30
0.0
 11
738.68357248457653
 21
618.13990121642598
 31
0.0
  0
LINE
  5
1F4
100
AcDbEntity
  8
_0-0_
370
              15
  6
Continuous
 62
               7
100
AcDbLine
 10
738.68357248457653
 20
618.13990121642598
 30
0.0
 11
738.62958385478987
 21
618.19563959924415
 31
0.0
  0
LINE
  5
1F5
100
AcDbEntity
  8
_0-0_
370
              15
  6
Continuous
 62
               7
100
AcDbLine
 10
738.62958385478987
 20
618.19563959924415
 30
0.0
 11
738.57744121445137
 21
618.25321522274533
 31
0.0
  0
LINE
  5
1F6
100
AcDbEntity
  8
_0-0_
370
              15
  6
Continuous
 62
               7
100
AcDbLine
 10
738.57744121445137
 20
618.25321522274533
 30
0.0
 11
738.527135814796
 21
618.31262808692964
 31
0.0
  0
LINE
  5
1F7
100
AcDbEntity
  8
_0-0_
370
              15
  6
Continuous
 62
               7
100
AcDbLine
 10
738.527135814796
 20
618.31262808692964
 30
0.0
 11
738.47866765582376
 21
618.37387819179696
 31
0.0
  0
LINE
  5
1F8
100
AcDbEntity
  8
_0-0_
370
              15
  6
Continuous
 62
               7
100
AcDbLine
 10
738.47866765582376
 20
618.37387819179696
 30
0.0
 11
738.43203673753453
 21
618.43696553734742
 31
0.0
  0
LINE
  5
1F9
100
AcDbEntity
  8
_0-0_
370
              15
  6
Continuous
 62
               7
100
AcDbLine
 10
738.43203673753453
 20
618.43696553734742
 30
0.0
 11
738.38724305992832
 21
618.50189012358089
 31
0.0
  0
LINE
  5
1FA
100
AcDbEntity
  8
_0-0_
370
              15
  6
Continuous
 62
               7
100
AcDbLine
 10
738.38724305992832
 20
618.50189012358089
 30
0.0
 11
738.34429537177039
 21
618.56864320173236
 31
0.0
  0
LINE
  5
1FB
100
AcDbEntity
  8
_0-0_
370
              15
  6
Continuous
 62
               7
100
AcDbLine
 10
738.34429537177039
 20
618.56864320173236
 30
0.0
 11
738.30318492429546
 21
618.63724226933186
 31
0.0
  0
LINE
  5
1FC
100
AcDbEntity
  8
_0-0_
370
              15
  6
Continuous
 62
               7
100
AcDbLine
 10
738.30318492429546
 20
618.63724226933186
 30
0.0
 11
738.26424417057967
 21
618.70708366158385
 31
0.0
  0
LINE
  5
1FD
100
AcDbEntity
  8
_0-0_
370
              15
  6
Continuous
 62
               7
100
AcDbLine
 10
738.26424417057967
 20
618.70708366158385
 30
0.0
 11
738.22782306122917
 21
618.77760745751812
 31
0.0
  0
LINE
  5
1FE
100
AcDbEntity
  8
_0-0_
370
              15
  6
Continuous
 62
               7
100
AcDbLine
 10
738.22782306122917
 20
618.77760745751812
 30
0.0
 11
738.19391284747883
 21
618.84879615960438
 31
0.0
  0
LINE
  5
1FF
100
AcDbEntity
  8
_0-0_
370
              15
  6
Continuous
 62
               7
100
AcDbLine
 10
738.19391284747883
 20
618.84879615960438
 30
0.0
 11
738.16251352932875
 21
618.92066726537291
 31
0.0
  0
LINE
  5
200
100
AcDbEntity
  8
_0-0_
370
              15
  6
Continuous
 62
               7
100
AcDbLine
 10
738.16251352932875
 20
618.92066726537291
 30
0.0
 11
738.13362510677882
 21
618.99320327729333
 31
0.0
  0
LINE
  5
201
100
AcDbEntity
  8
_0-0_
370
              15
  6
Continuous
 62
               7
100
AcDbLine
 10
738.13362510677882
 20
618.99320327729333
 30
0.0
 11
738.10724757982905
 21
619.066412944131
 31
0.0
  0
LINE
  5
202
100
AcDbEntity
  8
_0-0_
370
              15
  6
Continuous
 62
               7
100
AcDbLine
 10
738.10724757982905
 20
619.066412944131
 30
0.0
 11
738.08338094847954
 21
619.14028751712056
 31
0.0
  0
LINE
  5
203
100
AcDbEntity
  8
_0-0_
370
              15
  6
Continuous
 62
               7
100
AcDbLine
 10
738.08338094847954
 20
619.14028751712056
 30
0.0
 11
738.06202521273019
 21
619.21484449379238
 31
0.0
  0
LINE
  5
204
100
AcDbEntity
  8
_0-0_
370
              15
  6
Continuous
 62
               7
100
AcDbLine
 10
738.06202521273019
 20
619.21484449379238
 30
0.0
 11
738.04318912134613
 21
619.29006637661621
 31
0.0
  0
LINE
  5
205
100
AcDbEntity
  8
_0-0_
370
              15
  6
Continuous
 62
               7
100
AcDbLine
 10
738.04318912134613
 20
619.29006637661621
 30
0.0
 11
738.02686392556234
 21
619.36596191435706
 31
0.0
  0
LINE
  5
206
100
AcDbEntity
  8
_0-0_
370
              15
  6
Continuous
 62
               7
100
AcDbLine
 10
738.02686392556234
 20
619.36596191435706
 30
0.0
 11
738.01304087661356
 21
619.44253110701516
 31
0.0
  0
LINE
  5
207
100
AcDbEntity
  8
_0-0_
370
              15
  6
Continuous
 62
               7
100
AcDbLine
 10
738.01304087661356
 20
619.44253110701516
 30
0.0
 11
738.00173747203019
 21
619.51977395459039
 31
0.0
  0
LINE
  5
208
100
AcDbEntity
  8
_0-0_
370
              15
  6
Continuous
 62
               7
100
AcDbLine
 10
738.00173747203019
 20
619.51977395459039
 30
0.0
 11
737.99294496304685
 21
619.59769045708265
 31
0.0
  0
LINE
  5
209
100
AcDbEntity
  8
_0-0_
370
              15
  6
Continuous
 62
               7
100
AcDbLine
 10
737.99294496304685
 20
619.59769045708265
 30
0.0
 11
737.98667209842904
 21
619.6762718657269
 31
0.0
  0
LINE
  5
20A
100
AcDbEntity
  8
_0-0_
370
              15
  6
Continuous
 62
               7
100
AcDbLine
 10
737.98667209842904
 20
619.6762718657269
 30
0.0
 11
737.98290138064613
 21
619.75553567805355
 31
0.0
  0
LINE
  5
20B
100
AcDbEntity
  8
_0-0_
370
              15
  6
Continuous
 62
               7
100
AcDbLine
 10
737.98290138064613
 20
619.75553567805355
 30
0.0
 11
737.98164155846348
 21
619.83546439653196
 31
0.0
  0
LINE
  5
20C
100
AcDbEntity
  8
_0-0_
370
              15
  6
Continuous
 62
               7
100
AcDbLine
 10
737.98164155846348
 20
619.83546439653196
 30
0.0
 11
737.98172029734985
 21
619.85509662554534
 31
0.0
  0
LINE
  5
20D
100
AcDbEntity
  8
_0-0_
370
              15
  6
Continuous
 62
               7
100
AcDbLine
 10
737.98172029734985
 20
619.85509662554534
 30
0.0
 11
737.98194776524394
 21
619.87468511073291
 31
0.0
  0
LINE
  5
20E
100
AcDbEntity
  8
_0-0_
370
              15
  6
Continuous
 62
               7
100
AcDbLine
 10
737.98194776524394
 20
619.87468511073291
 30
0.0
 11
737.98232396214576
 21
619.89422985209467
 31
0.0
  0
LINE
  5
20F
100
AcDbEntity
  8
_0-0_
370
              15
  6
Continuous
 62
               7
100
AcDbLine
 10
737.98232396214576
 20
619.89422985209467
 30
0.0
 11
737.98284888805517
 21
619.91373959839575
 31
0.0
  0
LINE
  5
210
100
AcDbEntity
  8
_0-0_
370
              15
  6
Continuous
 62
               7
100
AcDbLine
 10
737.98284888805517
 20
619.91373959839575
 30
0.0
 11
737.98352254297231
 21
619.93320560087113
 31
0.0
  0
LINE
  5
211
100
AcDbEntity
  8
_0-0_
370
              15
  6
Continuous
 62
               7
100
AcDbLine
 10
737.98352254297231
 20
619.93320560087113
 30
0.0
 11
737.98435367566231
 21
619.95263660828584
 31
0.0
  0
LINE
  5
212
100
AcDbEntity
  8
_0-0_
370
              15
  6
Continuous
 62
               7
100
AcDbLine
 10
737.98435367566231
 20
619.95263660828584
 30
0.0
 11
737.98533353735991
 21
619.97202387187474
 31
0.0
  0
LINE
  5
213
100
AcDbEntity
  8
_0-0_
370
              15
  6
Continuous
 62
               7
100
AcDbLine
 10
737.98533353735991
 20
619.97202387187474
 30
0.0
 11
737.98646212806523
 21
619.99137614040308
 31
0.0
  0
LINE
  5
214
100
AcDbEntity
  8
_0-0_
370
              15
  6
Continuous
 62
               7
100
AcDbLine
 10
737.98646212806523
 20
619.99137614040308
 30
0.0
 11
737.98773944777827
 21
620.01067591634035
 31
0.0
  0
LINE
  5
215
100
AcDbEntity
  8
_0-0_
370
              15
  6
Continuous
 62
               7
100
AcDbLine
 10
737.98773944777827
 20
620.01067591634035
 30
0.0
 11
737.98917424526405
 21
620.02994944598231
 31
0.0
  0
LINE
  5
216
100
AcDbEntity
  8
_0-0_
370
              15
  6
Continuous
 62
               7
100
AcDbLine
 10
737.98917424526405
 20
620.02994944598231
 30
0.0
 11
737.99074902299242
 21
620.04917048303321
 31
0.0
  0
LINE
  5
217
100
AcDbEntity
  8
_0-0_
370
              15
  6
Continuous
 62
               7
100
AcDbLine
 10
737.99074902299242
 20
620.04917048303321
 30
0.0
 11
737.99248127849353
 21
620.06835652502355
 31
0.0
  0
LINE
  5
218
100
AcDbEntity
  8
_0-0_
370
              15
  6
Continuous
 62
               7
100
AcDbLine
 10
737.99248127849353
 20
620.06835652502355
 30
0.0
 11
737.99436226300236
 21
620.08750757195321
 31
0.0
  0
LINE
  5
219
100
AcDbEntity
  8
_0-0_
370
              15
  6
Continuous
 62
               7
100
AcDbLine
 10
737.99436226300236
 20
620.08750757195321
 30
0.0
 11
737.99640072528405
 21
620.10661487505706
 31
0.0
  0
LINE
  5
21A
100
AcDbEntity
  8
_0-0_
370
              15
  6
Continuous
 62
               7
100
AcDbLine
 10
737.99640072528405
 20
620.10661487505706
 30
0.0
 11
737.99857916780832
 21
620.12567843433521
 31
0.0
  0
LINE
  5
21B
100
AcDbEntity
  8
_0-0_
370
              15
  6
Continuous
 62
               7
100
AcDbLine
 10
737.99857916780832
 20
620.12567843433521
 30
0.0
 11
738.00091508810533
 21
620.14470699855258
 31
0.0
  0
LINE
  5
21C
100
AcDbEntity
  8
_0-0_
370
              15
  6
Continuous
 62
               7
100
AcDbLine
 10
742.78164281333682
 20
620.45272477345122
 30
0.0
 11
742.78164281333682
 21
620.45271602468608
 31
0.0
  0
LINE
  5
21D
100
AcDbEntity
  8
_0-0_
370
              15
  6
Continuous
 62
               7
100
AcDbLine
 10
742.78164281333682
 20
620.45271602468608
 30
0.0
 11
742.78039173991931
 21
620.37310226175316
 31
0.0
  0
LINE
  5
21E
100
AcDbEntity
  8
_0-0_
370
              15
  6
Continuous
 62
               7
100
AcDbLine
 10
742.78039173991931
 20
620.37310226175316
 30
0.0
 11
742.77662102213651
 21
620.29416215373749
 31
0.0
  0
LINE
  5
21F
100
AcDbEntity
  8
_0-0_
370
              15
  6
Continuous
 62
               7
100
AcDbLine
 10
742.77662102213651
 20
620.29416215373749
 30
0.0
 11
742.77033940875344
 21
620.2158869518737
 31
0.0
  0
LINE
  5
220
100
AcDbEntity
  8
_0-0_
370
              15
  6
Continuous
 62
               7
100
AcDbLine
 10
742.77033940875344
 20
620.2158869518737
 30
0.0
 11
742.76154689977022
 21
620.13828540492705
 31
0.0
  0
LINE
  5
221
100
AcDbEntity
  8
_0-0_
370
              15
  6
Continuous
 62
               7
100
AcDbLine
 10
742.76154689977022
 20
620.13828540492705
 30
0.0
 11
742.75024349518674
 21
620.06134876413239
 31
0.0
  0
LINE
  5
222
100
AcDbEntity
  8
_0-0_
370
              15
  6
Continuous
 62
               7
100
AcDbLine
 10
742.75024349518674
 20
620.06134876413239
 30
0.0
 11
742.7364291950031
 21
619.98507702948973
 31
0.0
  0
LINE
  5
223
100
AcDbEntity
  8
_0-0_
370
              15
  6
Continuous
 62
               7
100
AcDbLine
 10
742.7364291950031
 20
619.98507702948973
 30
0.0
 11
742.7201039992193
 21
619.90947894976409
 31
0.0
  0
LINE
  5
224
100
AcDbEntity
  8
_0-0_
370
              15
  6
Continuous
 62
               7
100
AcDbLine
 10
742.7201039992193
 20
619.90947894976409
 30
0.0
 11
742.7012591590701
 21
619.83455452495559
 31
0.0
  0
LINE
  5
225
100
AcDbEntity
  8
_0-0_
370
              15
  6
Continuous
 62
               7
100
AcDbLine
 10
742.7012591590701
 20
619.83455452495559
 30
0.0
 11
742.67990342332075
 21
619.7602950062992
 31
0.0
  0
LINE
  5
226
100
AcDbEntity
  8
_0-0_
370
              15
  6
Continuous
 62
               7
100
AcDbLine
 10
742.67990342332075
 20
619.7602950062992
 30
0.0
 11
742.65604554073639
 21
619.68670914255983
 31
0.0
  0
LINE
  5
227
100
AcDbEntity
  8
_0-0_
370
              15
  6
Continuous
 62
               7
100
AcDbLine
 10
742.65604554073639
 20
619.68670914255983
 30
0.0
 11
742.62966801378673
 21
619.61378818497235
 31
0.0
  0
LINE
  5
228
100
AcDbEntity
  8
_0-0_
370
              15
  6
Continuous
 62
               7
100
AcDbLine
 10
742.62966801378673
 20
619.61378818497235
 30
0.0
 11
742.6007795912368
 21
619.54154088230212
 31
0.0
  0
LINE
  5
229
100
AcDbEntity
  8
_0-0_
370
              15
  6
Continuous
 62
               7
100
AcDbLine
 10
742.6007795912368
 20
619.54154088230212
 30
0.0
 11
742.56938027308661
 21
619.46995848578376
 31
0.0
  0
LINE
  5
22A
100
AcDbEntity
  8
_0-0_
370
              15
  6
Continuous
 62
               7
100
AcDbLine
 10
742.56938027308661
 20
619.46995848578376
 30
0.0
 11
742.53547005933638
 21
619.39904974418266
 31
0.0
  0
LINE
  5
22B
100
AcDbEntity
  8
_0-0_
370
              15
  6
Continuous
 62
               7
100
AcDbLine
 10
742.53547005933638
 20
619.39904974418266
 30
0.0
 11
742.49904020122074
 21
619.32880590873344
 31
0.0
  0
LINE
  5
22C
100
AcDbEntity
  8
_0-0_
370
              15
  6
Continuous
 62
               7
100
AcDbLine
 10
742.49904020122074
 20
619.32880590873344
 30
0.0
 11
742.46010819626997
 21
619.25923572820125
 31
0.0
  0
LINE
  5
22D
100
AcDbEntity
  8
_0-0_
370
              15
  6
Continuous
 62
               7
100
AcDbLine
 10
742.46010819626997
 20
619.25923572820125
 30
0.0
 11
742.41899774879516
 21
619.19091662108667
 31
0.0
  0
LINE
  5
22E
100
AcDbEntity
  8
_0-0_
370
              15
  6
Continuous
 62
               7
100
AcDbLine
 10
742.41899774879516
 20
619.19091662108667
 30
0.0
 11
742.37604131187197
 21
619.12441725712483
 31
0.0
  0
LINE
  5
22F
100
AcDbEntity
  8
_0-0_
370
              15
  6
Continuous
 62
               7
100
AcDbLine
 10
742.37604131187197
 20
619.12441725712483
 30
0.0
 11
742.33125638303102
 21
619.05975513384612
 31
0.0
  0
LINE
  5
230
100
AcDbEntity
  8
_0-0_
370
              15
  6
Continuous
 62
               7
100
AcDbLine
 10
742.33125638303102
 20
619.05975513384612
 30
0.0
 11
742.28462546474179
 21
618.99692150248529
 31
0.0
  0
LINE
  5
231
100
AcDbEntity
  8
_0-0_
370
              15
  6
Continuous
 62
               7
100
AcDbLine
 10
742.28462546474179
 20
618.99692150248529
 30
0.0
 11
742.23615730576944
 21
618.93591636304234
 31
0.0
  0
LINE
  5
232
100
AcDbEntity
  8
_0-0_
370
              15
  6
Continuous
 62
               7
100
AcDbLine
 10
742.23615730576944
 20
618.93591636304234
 30
0.0
 11
742.18585190611407
 21
618.87673096675212
 31
0.0
  0
LINE
  5
233
100
AcDbEntity
  8
_0-0_
370
              15
  6
Continuous
 62
               7
100
AcDbLine
 10
742.18585190611407
 20
618.87673096675212
 30
0.0
 11
742.13370926577568
 21
618.81938281114503
 31
0.0
  0
LINE
  5
234
100
AcDbEntity
  8
_0-0_
370
              15
  6
Continuous
 62
               7
100
AcDbLine
 10
742.13370926577568
 20
618.81938281114503
 30
0.0
 11
742.07972063598891
 21
618.76386314745582
 31
0.0
  0
LINE
  5
235
100
AcDbEntity
  8
_0-0_
370
              15
  6
Continuous
 62
               7
100
AcDbLine
 10
742.07972063598891
 20
618.76386314745582
 30
0.0
 11
742.02389476551923
 21
618.71017197568449
 31
0.0
  0
LINE
  5
236
100
AcDbEntity
  8
_0-0_
370
              15
  6
Continuous
 62
               7
100
AcDbLine
 10
742.02389476551923
 20
618.71017197568449
 30
0.0
 11
741.96623165436642
 21
618.65830929583103
 31
0.0
  0
LINE
  5
237
100
AcDbEntity
  8
_0-0_
370
              15
  6
Continuous
 62
               7
100
AcDbLine
 10
741.96623165436642
 20
618.65830929583103
 30
0.0
 11
741.9067313025306
 21
618.60828385666071
 31
0.0
  0
LINE
  5
238
100
AcDbEntity
  8
_0-0_
370
              15
  6
Continuous
 62
               7
100
AcDbLine
 10
741.9067313025306
 20
618.60828385666071
 30
0.0
 11
741.84539371001165
 21
618.56007816064312
 31
0.0
  0
LINE
  5
239
100
AcDbEntity
  8
_0-0_
370
              15
  6
Continuous
 62
               7
100
AcDbLine
 10
741.84539371001165
 20
618.56007816064312
 30
0.0
 11
741.78221887680968
 21
618.51370095654352
 31
0.0
  0
LINE
  5
23A
100
AcDbEntity
  8
_0-0_
370
              15
  6
Continuous
 62
               7
100
AcDbLine
 10
741.78221887680968
 20
618.51370095654352
 30
0.0
 11
741.71719805415944
 21
618.46915224436168
 31
0.0
  0
LINE
  5
23B
100
AcDbEntity
  8
_0-0_
370
              15
  6
Continuous
 62
               7
100
AcDbLine
 10
741.71719805415944
 20
618.46915224436168
 30
0.0
 11
741.65033999082618
 21
618.42643202409783
 31
0.0
  0
LINE
  5
23C
100
AcDbEntity
  8
_0-0_
370
              15
  6
Continuous
 62
               7
100
AcDbLine
 10
741.65033999082618
 20
618.42643202409783
 30
0.0
 11
741.5816446868098
 21
618.38554904451701
 31
0.0
  0
LINE
  5
23D
100
AcDbEntity
  8
_0-0_
370
              15
  6
Continuous
 62
               7
100
AcDbLine
 10
741.5816446868098
 20
618.38554904451701
 30
0.0
 11
741.51168956061076
 21
618.34682700993017
 31
0.0
  0
LINE
  5
23E
100
AcDbEntity
  8
_0-0_
370
              15
  6
Continuous
 62
               7
100
AcDbLine
 10
741.51168956061076
 20
618.34682700993017
 30
0.0
 11
741.44106952825973
 21
618.31059837341309
 31
0.0
  0
LINE
  5
23F
100
AcDbEntity
  8
_0-0_
370
              15
  6
Continuous
 62
               7
100
AcDbLine
 10
741.44106952825973
 20
618.31059837341309
 30
0.0
 11
741.36976709222654
 21
618.27687188373113
 31
0.0
  0
LINE
  5
240
100
AcDbEntity
  8
_0-0_
370
              15
  6
Continuous
 62
               7
100
AcDbLine
 10
741.36976709222654
 20
618.27687188373113
 30
0.0
 11
741.29779975004124
 21
618.24563879211905
 31
0.0
  0
LINE
  5
241
100
AcDbEntity
  8
_0-0_
370
              15
  6
Continuous
 62
               7
100
AcDbLine
 10
741.29779975004124
 20
618.24563879211905
 30
0.0
 11
741.22515875293891
 21
618.21690784734187
 31
0.0
  0
LINE
  5
242
100
AcDbEntity
  8
_0-0_
370
              15
  6
Continuous
 62
               7
100
AcDbLine
 10
741.22515875293891
 20
618.21690784734187
 30
0.0
 11
741.15183535215431
 21
618.19067030063468
 31
0.0
  0
LINE
  5
243
100
AcDbEntity
  8
_0-0_
370
              15
  6
Continuous
 62
               7
100
AcDbLine
 10
741.15183535215431
 20
618.19067030063468
 30
0.0
 11
741.07784704521771
 21
618.16694364952764
 31
0.0
  0
LINE
  5
244
100
AcDbEntity
  8
_0-0_
370
              15
  6
Continuous
 62
               7
100
AcDbLine
 10
741.07784704521771
 20
618.16694364952764
 30
0.0
 11
741.00318508336397
 21
618.14570164772533
 31
0.0
  0
LINE
  5
245
100
AcDbEntity
  8
_0-0_
370
              15
  6
Continuous
 62
               7
100
AcDbLine
 10
741.00318508336397
 20
618.14570164772533
 30
0.0
 11
740.9278494665931
 21
618.12696179275815
 31
0.0
  0
LINE
  5
246
100
AcDbEntity
  8
_0-0_
370
              15
  6
Continuous
 62
               7
100
AcDbLine
 10
740.9278494665931
 20
618.12696179275815
 30
0.0
 11
740.85184019490509
 21
618.11072408462587
 31
0.0
  0
LINE
  5
247
100
AcDbEntity
  8
_0-0_
370
              15
  6
Continuous
 62
               7
100
AcDbLine
 10
740.85184019490509
 20
618.11072408462587
 30
0.0
 11
740.77515726829995
 21
618.09698852332872
 31
0.0
  0
LINE
  5
248
100
AcDbEntity
  8
_0-0_
370
              15
  6
Continuous
 62
               7
100
AcDbLine
 10
740.77515726829995
 20
618.09698852332872
 30
0.0
 11
740.69780068677778
 21
618.08574636010133
 31
0.0
  0
LINE
  5
249
100
AcDbEntity
  8
_0-0_
370
              15
  6
Continuous
 62
               7
100
AcDbLine
 10
740.69780068677778
 20
618.08574636010133
 30
0.0
 11
740.61977045033836
 21
618.07699759494392
 31
0.0
  0
LINE
  5
24A
100
AcDbEntity
  8
_0-0_
370
              15
  6
Continuous
 62
               7
100
AcDbLine
 10
740.61977045033836
 20
618.07699759494392
 30
0.0
 11
740.54106655898192
 21
618.07075097662141
 31
0.0
  0
LINE
  5
24B
100
AcDbEntity
  8
_0-0_
370
              15
  6
Continuous
 62
               7
100
AcDbLine
 10
740.54106655898192
 20
618.07075097662141
 30
0.0
 11
740.46168901270835
 21
618.06700650513403
 31
0.0
  0
LINE
  5
24C
100
AcDbEntity
  8
_0-0_
370
              15
  6
Continuous
 62
               7
100
AcDbLine
 10
740.46168901270835
 20
618.06700650513403
 30
0.0
 11
740.38164656028277
 21
618.06575543171652
 31
0.0
  0
LINE
  5
24D
100
AcDbEntity
  8
_0-0_
370
              15
  6
Continuous
 62
               7
100
AcDbLine
 10
740.38164656028277
 20
618.06575543171652
 30
0.0
 11
740.30159535909206
 21
618.06700650513403
 31
0.0
  0
LINE
  5
24E
100
AcDbEntity
  8
_0-0_
370
              15
  6
Continuous
 62
               7
100
AcDbLine
 10
740.30159535909206
 20
618.06700650513403
 30
0.0
 11
740.22221781281837
 21
618.07075097662141
 31
0.0
  0
LINE
  5
24F
100
AcDbEntity
  8
_0-0_
370
              15
  6
Continuous
 62
               7
100
AcDbLine
 10
740.22221781281837
 20
618.07075097662141
 30
0.0
 11
740.14352267022707
 21
618.07699759494392
 31
0.0
  0
LINE
  5
250
100
AcDbEntity
  8
_0-0_
370
              15
  6
Continuous
 62
               7
100
AcDbLine
 10
740.14352267022707
 20
618.07699759494392
 30
0.0
 11
740.06549243378777
 21
618.08574636010133
 31
0.0
  0
LINE
  5
251
100
AcDbEntity
  8
_0-0_
370
              15
  6
Continuous
 62
               7
100
AcDbLine
 10
740.06549243378777
 20
618.08574636010133
 30
0.0
 11
739.98813585226549
 21
618.09698852332872
 31
0.0
  0
LINE
  5
252
100
AcDbEntity
  8
_0-0_
370
              15
  6
Continuous
 62
               7
100
AcDbLine
 10
739.98813585226549
 20
618.09698852332872
 30
0.0
 11
739.91145292566034
 21
618.11072408462587
 31
0.0
  0
LINE
  5
253
100
AcDbEntity
  8
_0-0_
370
              15
  6
Continuous
 62
               7
100
AcDbLine
 10
739.91145292566034
 20
618.11072408462587
 30
0.0
 11
739.83544365397245
 21
618.12696179275815
 31
0.0
  0
LINE
  5
254
100
AcDbEntity
  8
_0-0_
370
              15
  6
Continuous
 62
               7
100
AcDbLine
 10
739.83544365397245
 20
618.12696179275815
 30
0.0
 11
739.76010803720158
 21
618.14570164772533
 31
0.0
  0
LINE
  5
255
100
AcDbEntity
  8
_0-0_
370
              15
  6
Continuous
 62
               7
100
AcDbLine
 10
739.76010803720158
 20
618.14570164772533
 30
0.0
 11
739.68544607534784
 21
618.16694364952764
 31
0.0
  0
LINE
  5
256
100
AcDbEntity
  8
_0-0_
370
              15
  6
Continuous
 62
               7
100
AcDbLine
 10
739.68544607534784
 20
618.16694364952764
 30
0.0
 11
739.6114490196461
 21
618.19067030063468
 31
0.0
  0
LINE
  5
257
100
AcDbEntity
  8
_0-0_
370
              15
  6
Continuous
 62
               7
100
AcDbLine
 10
739.6114490196461
 20
618.19067030063468
 30
0.0
 11
739.53813436762653
 21
618.21690784734187
 31
0.0
  0
LINE
  5
258
100
AcDbEntity
  8
_0-0_
370
              15
  6
Continuous
 62
               7
100
AcDbLine
 10
739.53813436762653
 20
618.21690784734187
 30
0.0
 11
739.4654933705242
 21
618.24563879211905
 31
0.0
  0
LINE
  5
259
100
AcDbEntity
  8
_0-0_
370
              15
  6
Continuous
 62
               7
100
AcDbLine
 10
739.4654933705242
 20
618.24563879211905
 30
0.0
 11
739.39351727957376
 21
618.27687188373113
 31
0.0
  0
LINE
  5
25A
100
AcDbEntity
  8
_0-0_
370
              15
  6
Continuous
 62
               7
100
AcDbLine
 10
739.39351727957376
 20
618.27687188373113
 30
0.0
 11
739.3222235923057
 21
618.31059837341309
 31
0.0
  0
LINE
  5
25B
100
AcDbEntity
  8
_0-0_
370
              15
  6
Continuous
 62
               7
100
AcDbLine
 10
739.3222235923057
 20
618.31059837341309
 30
0.0
 11
739.25159481118953
 21
618.34682700993017
 31
0.0
  0
LINE
  5
25C
100
AcDbEntity
  8
_0-0_
370
              15
  6
Continuous
 62
               7
100
AcDbLine
 10
739.25159481118953
 20
618.34682700993017
 30
0.0
 11
739.18164843375564
 21
618.38554904451701
 31
0.0
  0
LINE
  5
25D
100
AcDbEntity
  8
_0-0_
370
              15
  6
Continuous
 62
               7
100
AcDbLine
 10
739.18164843375564
 20
618.38554904451701
 30
0.0
 11
739.11295312973937
 21
618.42643202409783
 31
0.0
  0
LINE
  5
25E
100
AcDbEntity
  8
_0-0_
370
              15
  6
Continuous
 62
               7
100
AcDbLine
 10
739.11295312973937
 20
618.42643202409783
 30
0.0
 11
739.04609506640611
 21
618.46915224436168
 31
0.0
  0
LINE
  5
25F
100
AcDbEntity
  8
_0-0_
370
              15
  6
Continuous
 62
               7
100
AcDbLine
 10
739.04609506640611
 20
618.46915224436168
 30
0.0
 11
738.98107424375587
 21
618.51370095654352
 31
0.0
  0
LINE
  5
260
100
AcDbEntity
  8
_0-0_
370
              15
  6
Continuous
 62
               7
100
AcDbLine
 10
738.98107424375587
 20
618.51370095654352
 30
0.0
 11
738.91789941055379
 21
618.56007816064312
 31
0.0
  0
LINE
  5
261
100
AcDbEntity
  8
_0-0_
370
              15
  6
Continuous
 62
               7
100
AcDbLine
 10
738.91789941055379
 20
618.56007816064312
 30
0.0
 11
738.85655306926981
 21
618.60828385666071
 31
0.0
  0
LINE
  5
262
100
AcDbEntity
  8
_0-0_
370
              15
  6
Continuous
 62
               7
100
AcDbLine
 10
738.85655306926981
 20
618.60828385666071
 30
0.0
 11
738.79705271743387
 21
618.65830929583103
 31
0.0
  0
LINE
  5
263
100
AcDbEntity
  8
_0-0_
370
              15
  6
Continuous
 62
               7
100
AcDbLine
 10
738.79705271743387
 20
618.65830929583103
 30
0.0
 11
738.73938960628107
 21
618.71017197568449
 31
0.0
  0
LINE
  5
264
100
AcDbEntity
  8
_0-0_
370
              15
  6
Continuous
 62
               7
100
AcDbLine
 10
738.73938960628107
 20
618.71017197568449
 30
0.0
 11
738.68357248457653
 21
618.76386314745582
 31
0.0
  0
LINE
  5
265
100
AcDbEntity
  8
_0-0_
370
              15
  6
Continuous
 62
               7
100
AcDbLine
 10
738.68357248457653
 20
618.76386314745582
 30
0.0
 11
738.62958385478987
 21
618.81938281114503
 31
0.0
  0
LINE
  5
266
100
AcDbEntity
  8
_0-0_
370
              15
  6
Continuous
 62
               7
100
AcDbLine
 10
738.62958385478987
 20
618.81938281114503
 30
0.0
 11
738.57744121445137
 21
618.87673096675212
 31
0.0
  0
LINE
  5
267
100
AcDbEntity
  8
_0-0_
370
              15
  6
Continuous
 62
               7
100
AcDbLine
 10
738.57744121445137
 20
618.87673096675212
 30
0.0
 11
738.527135814796
 21
618.93591636304234
 31
0.0
  0
LINE
  5
268
100
AcDbEntity
  8
_0-0_
370
              15
  6
Continuous
 62
               7
100
AcDbLine
 10
738.527135814796
 20
618.93591636304234
 30
0.0
 11
738.47866765582376
 21
618.99692150248529
 31
0.0
  0
LINE
  5
269
100
AcDbEntity
  8
_0-0_
370
              15
  6
Continuous
 62
               7
100
AcDbLine
 10
738.47866765582376
 20
618.99692150248529
 30
0.0
 11
738.43203673753453
 21
619.05975513384612
 31
0.0
  0
LINE
  5
26A
100
AcDbEntity
  8
_0-0_
370
              15
  6
Continuous
 62
               7
100
AcDbLine
 10
738.43203673753453
 20
619.05975513384612
 30
0.0
 11
738.38724305992832
 21
619.12441725712483
 31
0.0
  0
LINE
  5
26B
100
AcDbEntity
  8
_0-0_
370
              15
  6
Continuous
 62
               7
100
AcDbLine
 10
738.38724305992832
 20
619.12441725712483
 30
0.0
 11
738.34429537177039
 21
619.19091662108667
 31
0.0
  0
LINE
  5
26C
100
AcDbEntity
  8
_0-0_
370
              15
  6
Continuous
 62
               7
100
AcDbLine
 10
738.34429537177039
 20
619.19091662108667
 30
0.0
 11
738.30318492429546
 21
619.25923572820125
 31
0.0
  0
LINE
  5
26D
100
AcDbEntity
  8
_0-0_
370
              15
  6
Continuous
 62
               7
100
AcDbLine
 10
738.30318492429546
 20
619.25923572820125
 30
0.0
 11
738.26424417057967
 21
619.32880590873344
 31
0.0
  0
LINE
  5
26E
100
AcDbEntity
  8
_0-0_
370
              15
  6
Continuous
 62
               7
100
AcDbLine
 10
738.26424417057967
 20
619.32880590873344
 30
0.0
 11
738.22782306122917
 21
619.39904974418266
 31
0.0
  0
LINE
  5
26F
100
AcDbEntity
  8
_0-0_
370
              15
  6
Continuous
 62
               7
100
AcDbLine
 10
738.22782306122917
 20
619.39904974418266
 30
0.0
 11
738.19391284747883
 21
619.46995848578376
 31
0.0
  0
LINE
  5
270
100
AcDbEntity
  8
_0-0_
370
              15
  6
Continuous
 62
               7
100
AcDbLine
 10
738.19391284747883
 20
619.46995848578376
 30
0.0
 11
738.16251352932875
 21
619.54154088230212
 31
0.0
  0
LINE
  5
271
100
AcDbEntity
  8
_0-0_
370
              15
  6
Continuous
 62
               7
100
AcDbLine
 10
738.16251352932875
 20
619.54154088230212
 30
0.0
 11
738.13362510677882
 21
619.61378818497235
 31
0.0
  0
LINE
  5
272
100
AcDbEntity
  8
_0-0_
370
              15
  6
Continuous
 62
               7
100
AcDbLine
 10
738.13362510677882
 20
619.61378818497235
 30
0.0
 11
738.10724757982905
 21
619.68670914255983
 31
0.0
  0
LINE
  5
273
100
AcDbEntity
  8
_0-0_
370
              15
  6
Continuous
 62
               7
100
AcDbLine
 10
738.10724757982905
 20
619.68670914255983
 30
0.0
 11
738.08338094847954
 21
619.7602950062992
 31
0.0
  0
LINE
  5
274
100
AcDbEntity
  8
_0-0_
370
              15
  6
Continuous
 62
               7
100
AcDbLine
 10
738.08338094847954
 20
619.7602950062992
 30
0.0
 11
738.06202521273019
 21
619.83455452495559
 31
0.0
  0
LINE
  5
275
100
AcDbEntity
  8
_0-0_
370
              15
  6
Continuous
 62
               7
100
AcDbLine
 10
738.06202521273019
 20
619.83455452495559
 30
0.0
 11
738.04318912134613
 21
619.90947894976409
 31
0.0
  0
LINE
  5
276
100
AcDbEntity
  8
_0-0_
370
              15
  6
Continuous
 62
               7
100
AcDbLine
 10
738.04318912134613
 20
619.90947894976409
 30
0.0
 11
738.02686392556234
 21
619.98507702948973
 31
0.0
  0
LINE
  5
277
100
AcDbEntity
  8
_0-0_
370
              15
  6
Continuous
 62
               7
100
AcDbLine
 10
738.02686392556234
 20
619.98507702948973
 30
0.0
 11
738.01304087661356
 21
620.06134876413239
 31
0.0
  0
LINE
  5
278
100
AcDbEntity
  8
_0-0_
370
              15
  6
Continuous
 62
               7
100
AcDbLine
 10
738.01304087661356
 20
620.06134876413239
 30
0.0
 11
738.00173747203019
 21
620.13828540492705
 31
0.0
  0
LINE
  5
279
100
AcDbEntity
  8
_0-0_
370
              15
  6
Continuous
 62
               7
100
AcDbLine
 10
738.00173747203019
 20
620.13828540492705
 30
0.0
 11
737.99294496304685
 21
620.2158869518737
 31
0.0
  0
LINE
  5
27A
100
AcDbEntity
  8
_0-0_
370
              15
  6
Continuous
 62
               7
100
AcDbLine
 10
737.99294496304685
 20
620.2158869518737
 30
0.0
 11
737.98667209842904
 21
620.29416215373749
 31
0.0
  0
LINE
  5
27B
100
AcDbEntity
  8
_0-0_
370
              15
  6
Continuous
 62
               7
100
AcDbLine
 10
737.98667209842904
 20
620.29416215373749
 30
0.0
 11
737.98290138064613
 21
620.37310226175316
 31
0.0
  0
LINE
  5
27C
100
AcDbEntity
  8
_0-0_
370
              15
  6
Continuous
 62
               7
100
AcDbLine
 10
737.98290138064613
 20
620.37310226175316
 30
0.0
 11
737.98164155846348
 21
620.45271602468608
 31
0.0
  0
LINE
  5
27D
100
AcDbEntity
  8
_0-0_
370
              15
  6
Continuous
 62
               7
100
AcDbLine
 10
737.98164155846348
 20
620.45271602468608
 30
0.0
 11
737.98164155846348
 21
620.45272477345122
 31
0.0
  0
LINE
  5
27E
100
AcDbEntity
  8
_0-0_
370
              15
  6
Continuous
 62
               7
100
AcDbLine
 10
751.7264940442675
 20
668.54128357434365
 30
0.0
 11
757.72649342566797
 21
668.54128357434365
 31
0.0
  0
LINE
  5
27F
100
AcDbEntity
  8
_0-0_
370
              15
  6
Continuous
 62
               7
100
AcDbLine
 10
757.72649342566797
 20
668.54128357434365
 30
0.0
 11
757.72649342566797
 21
658.94128106459686
 31
0.0
  0
LINE
  5
280
100
AcDbEntity
  8
_0-0_
370
              15
  6
Continuous
 62
               7
100
AcDbLine
 10
757.72649342566797
 20
658.94128106459686
 30
0.0
 11
751.7264940442675
 21
658.94128106459686
 31
0.0
  0
LINE
  5
281
100
AcDbEntity
  8
_0-0_
370
              15
  6
Continuous
 62
               7
100
AcDbLine
 10
751.7264940442675
 20
658.94128106459686
 30
0.0
 11
751.7264940442675
 21
668.54128357434365
 31
0.0
  0
LINE
  5
282
100
AcDbEntity
  8
_0-0_
370
              15
  6
Continuous
 62
               7
100
AcDbLine
 10
742.78164281333682
 20
658.94128106459686
 30
0.0
 11
751.32649175250344
 21
658.94128106459686
 31
0.0
  0
LINE
  5
283
100
AcDbEntity
  8
_0-0_
370
              15
  6
Continuous
 62
               7
100
AcDbLine
 10
751.32649175250344
 20
658.94128106459686
 30
0.0
 11
751.32649175250344
 21
668.53715415718932
 31
0.0
  0
LINE
  5
284
100
AcDbEntity
  8
_0-0_
370
              15
  6
Continuous
 62
               7
100
AcDbLine
 10
751.32649175250344
 20
668.53715415718932
 30
0.0
 11
740.32649434473012
 21
668.53715415718932
 31
0.0
  0
LINE
  5
285
100
AcDbEntity
  8
_0-0_
370
              15
  6
Continuous
 62
               7
100
AcDbLine
 10
845.28445007703885
 20
532.45983638542498
 30
0.0
 11
842.45602679422416
 21
529.63140872822771
 31
0.0
  0
LINE
  5
286
100
AcDbEntity
  8
_0-0_
370
              15
  6
Continuous
 62
               7
100
AcDbLine
 10
845.28445007703885
 20
529.63140872822771
 30
0.0
 11
842.45602679422416
 21
532.45983638542498
 31
0.0
  0
LINE
  5
287
100
AcDbEntity
  8
_0-0_
370
              15
  6
Continuous
 62
               7
100
AcDbLine
 10
741.79585820169018
 20
665.15169699679939
 30
0.0
 11
738.96743491887537
 21
662.3232562164543
 31
0.0
  0
LINE
  5
288
100
AcDbEntity
  8
_0-0_
370
              15
  6
Continuous
 62
               7
100
AcDbLine
 10
741.79585820169018
 20
662.3232562164543
 30
0.0
 11
738.96743491887537
 21
665.15169699679939
 31
0.0
  0
LINE
  5
289
100
AcDbEntity
  8
_0-0_
370
              15
  6
Continuous
 62
               7
100
AcDbLine
 10
797.91959787873634
 20
584.84087620002424
 30
0.0
 11
797.56040857643188
 21
585.10730234536425
 31
0.0
  0
ARC
  5
28A
100
AcDbEntity
  8
_0-0_
370
              15
  6
Continuous
 62
               7
100
AcDbCircle
 10
740.38164656028277
 20
663.73747660662684
 30
0.0
 40
5.4999997974822907
100
AcDbArc
 50
60.858489990234389
 51
244.12789916992187
  0
ARC
  5
28B
100
AcDbEntity
  8
_0-0_
370
              15
  6
Continuous
 62
               7
100
AcDbCircle
 10
740.38164656028277
 20
663.73747660662684
 30
0.0
 40
5.499999797482289
100
AcDbArc
 50
295.87208557128906
 51
299.3040313720702
  0
CIRCLE
  5
28C
100
AcDbEntity
  8
_0-0_
370
              15
  6
Continuous
 62
               7
100
AcDbCircle
 10
843.8702471843967
 20
544.6456239251097
 30
0.0
 40
4.8000001612777403
  0
ARC
  5
28D
100
AcDbEntity
  8
_0-0_
370
              15
  6
Continuous
 62
               7
100
AcDbCircle
 10
740.3364854345399
 20
606.63782092503141
 30
0.0
 40
2.4000000806388702
100
AcDbArc
 50
0.0
 51
180.0
  0
ARC
  5
28E
100
AcDbEntity
  8
_0-1_
370
              15
  6
Continuous
 62
               7
100
AcDbCircle
 10
751.32649175250344
 20
544.6456239251097
 30
0.0
 40
4.4000000567049602
100
AcDbArc
 50
270.0
 51
297.43356323242193
  0
ARC
  5
28F
100
AcDbEntity
  8
_0-1_
370
              15
  6
Continuous
 62
               7
100
AcDbCircle
 10
751.32649175250344
 20
544.6456239251097
 30
0.0
 40
4.4000000567049637
100
AcDbArc
 50
84.784088134765625
 51
89.999984741210952
  0
ARC
  5
290
100
AcDbEntity
  8
_0-0_
370
              15
  6
Continuous
 62
               7
100
AcDbCircle
 10
822.07593583770188
 20
584.83869775750009
 30
0.0
 40
24.200000858675093
100
AcDbArc
 50
2.9203033447265478
 51
85.625
  0
ARC
  5
291
100
AcDbEntity
  8
_0-0_
370
              15
  6
Continuous
 62
               7
100
AcDbCircle
 10
822.07593583770188
 20
584.83869775750009
 30
0.0
 40
24.200000858675111
100
AcDbArc
 50
85.625
 51
168.32969665527341
  0
ARC
  5
292
100
AcDbEntity
  8
_0-0_
370
              15
  6
Continuous
 62
               7
100
AcDbCircle
 10
740.38164656028277
 20
663.73747660662684
 30
0.0
 40
4.8000001612777368
100
AcDbArc
 50
90.658309936523509
 51
240.00000000000003
  0
LINE
  5
293
100
AcDbEntity
  8
_0-0_
370
              15
  6
Continuous
 62
               7
100
AcDbLine
 10
742.33648554730553
 20
584.48979700302073
 30
0.0
 11
742.33648554821548
 21
584.48979700407006
 31
0.0
  0
LINE
  5
294
100
AcDbEntity
  8
_0-0_
370
              15
  6
Continuous
 62
               7
100
AcDbLine
 10
742.33648554730553
 20
584.48979700302073
 30
0.0
 11
742.30610105161668
 21
584.55074751681832
 31
0.0
  0
LINE
  5
295
100
AcDbEntity
  8
_0-0_
370
              15
  6
Continuous
 62
               7
100
AcDbLine
 10
742.30610105161668
 20
584.55074751681832
 30
0.0
 11
742.21587078207676
 21
584.60984608009664
 31
0.0
  0
LINE
  5
296
100
AcDbEntity
  8
_0-0_
370
              15
  6
Continuous
 62
               7
100
AcDbLine
 10
742.21587078207676
 20
584.60984608009664
 30
0.0
 11
742.06853633976664
 21
584.66529701291586
 31
0.0
  0
LINE
  5
297
100
AcDbEntity
  8
_0-0_
370
              15
  6
Continuous
 62
               7
100
AcDbLine
 10
742.06853633976664
 20
584.66529701291586
 30
0.0
 11
741.8685744071613
 21
584.71541546674166
 31
0.0
  0
LINE
  5
298
100
AcDbEntity
  8
_0-0_
370
              15
  6
Continuous
 62
               7
100
AcDbLine
 10
741.8685744071613
 20
584.71541546674166
 30
0.0
 11
741.62206072639731
 21
584.75867861771576
 31
0.0
  0
LINE
  5
299
100
AcDbEntity
  8
_0-0_
370
              15
  6
Continuous
 62
               7
100
AcDbLine
 10
741.62206072639731
 20
584.75867861771576
 30
0.0
 11
741.33648549092277
 21
584.79377193688799
 31
0.0
  0
LINE
  5
29A
100
AcDbEntity
  8
_0-0_
370
              15
  6
Continuous
 62
               7
100
AcDbLine
 10
741.33648549092277
 20
584.79377193688799
 30
0.0
 11
741.02052575975938
 21
584.81962913151335
 31
0.0
  0
LINE
  5
29B
100
AcDbEntity
  8
_0-0_
370
              15
  6
Continuous
 62
               7
100
AcDbLine
 10
741.02052575975938
 20
584.81962913151335
 30
0.0
 11
740.68378180945535
 21
584.83546454381769
 31
0.0
  0
LINE
  5
29C
100
AcDbEntity
  8
_0-0_
370
              15
  6
Continuous
 62
               7
100
AcDbLine
 10
740.68378180945535
 20
584.83546454381769
 30
0.0
 11
740.3364854345399
 21
584.84079702281099
 31
0.0
  0
LINE
  5
29D
100
AcDbEntity
  8
_0-0_
370
              15
  6
Continuous
 62
               7
100
AcDbLine
 10
740.3364854345399
 20
584.84079702281099
 30
0.0
 11
739.98918905962455
 21
584.83546454381769
 31
0.0
  0
LINE
  5
29E
100
AcDbEntity
  8
_0-0_
370
              15
  6
Continuous
 62
               7
100
AcDbLine
 10
739.98918905962455
 20
584.83546454381769
 30
0.0
 11
739.65244510932052
 21
584.81962913151335
 31
0.0
  0
LINE
  5
29F
100
AcDbEntity
  8
_0-0_
370
              15
  6
Continuous
 62
               7
100
AcDbLine
 10
739.65244510932052
 20
584.81962913151335
 30
0.0
 11
739.33648537815714
 21
584.79377193688799
 31
0.0
  0
LINE
  5
2A0
100
AcDbEntity
  8
_0-0_
370
              15
  6
Continuous
 62
               7
100
AcDbLine
 10
739.33648537815714
 20
584.79377193688799
 30
0.0
 11
739.0509101426826
 21
584.75867861771576
 31
0.0
  0
LINE
  5
2A1
100
AcDbEntity
  8
_0-0_
370
              15
  6
Continuous
 62
               7
100
AcDbLine
 10
739.0509101426826
 20
584.75867861771576
 30
0.0
 11
738.8043964619186
 21
584.71541546674166
 31
0.0
  0
LINE
  5
2A2
100
AcDbEntity
  8
_0-0_
370
              15
  6
Continuous
 62
               7
100
AcDbLine
 10
738.8043964619186
 20
584.71541546674166
 30
0.0
 11
738.60443452931327
 21
584.66529701291586
 31
0.0
  0
LINE
  5
2A3
100
AcDbEntity
  8
_0-0_
370
              15
  6
Continuous
 62
               7
100
AcDbLine
 10
738.60443452931327
 20
584.66529701291586
 30
0.0
 11
738.45710008700314
 21
584.60984608009664
 31
0.0
  0
LINE
  5
2A4
100
AcDbEntity
  8
_0-0_
370
              15
  6
Continuous
 62
               7
100
AcDbLine
 10
738.45710008700314
 20
584.60984608009664
 30
0.0
 11
738.36686981746311
 21
584.55074751681832
 31
0.0
  0
LINE
  5
2A5
100
AcDbEntity
  8
_0-0_
370
              15
  6
Continuous
 62
               7
100
AcDbLine
 10
738.36686981746311
 20
584.55074751681832
 30
0.0
 11
738.33648532177438
 21
584.48979700302073
 31
0.0
  0
LINE
  5
2A6
100
AcDbEntity
  8
_0-0_
370
              15
  6
Continuous
 62
               7
100
AcDbLine
 10
738.33648532177438
 20
584.48979700302073
 30
0.0
 11
738.36686981746311
 21
584.42884648922302
 31
0.0
  0
LINE
  5
2A7
100
AcDbEntity
  8
_0-0_
370
              15
  6
Continuous
 62
               7
100
AcDbLine
 10
738.36686981746311
 20
584.42884648922302
 30
0.0
 11
738.45710008700314
 21
584.36974792594469
 31
0.0
  0
LINE
  5
2A8
100
AcDbEntity
  8
_0-0_
370
              15
  6
Continuous
 62
               7
100
AcDbLine
 10
738.45710008700314
 20
584.36974792594469
 30
0.0
 11
738.60443452931327
 21
584.31429699312548
 31
0.0
  0
LINE
  5
2A9
100
AcDbEntity
  8
_0-0_
370
              15
  6
Continuous
 62
               7
100
AcDbLine
 10
738.60443452931327
 20
584.31429699312548
 30
0.0
 11
738.8043964619186
 21
584.26417853929968
 31
0.0
  0
LINE
  5
2AA
100
AcDbEntity
  8
_0-0_
370
              15
  6
Continuous
 62
               7
100
AcDbLine
 10
738.8043964619186
 20
584.26417853929968
 30
0.0
 11
739.0509101426826
 21
584.22091538832558
 31
0.0
  0
LINE
  5
2AB
100
AcDbEntity
  8
_0-0_
370
              15
  6
Continuous
 62
               7
100
AcDbLine
 10
739.0509101426826
 20
584.22091538832558
 30
0.0
 11
739.33648537815714
 21
584.18582206915335
 31
0.0
  0
LINE
  5
2AC
100
AcDbEntity
  8
_0-0_
370
              15
  6
Continuous
 62
               7
100
AcDbLine
 10
739.33648537815714
 20
584.18582206915335
 30
0.0
 11
739.65244510932052
 21
584.15996487452799
 31
0.0
  0
LINE
  5
2AD
100
AcDbEntity
  8
_0-0_
370
              15
  6
Continuous
 62
               7
100
AcDbLine
 10
739.65244510932052
 20
584.15996487452799
 30
0.0
 11
739.98918905962455
 21
584.14412946222376
 31
0.0
  0
LINE
  5
2AE
100
AcDbEntity
  8
_0-0_
370
              15
  6
Continuous
 62
               7
100
AcDbLine
 10
739.98918905962455
 20
584.14412946222376
 30
0.0
 11
740.3364854345399
 21
584.13879698323035
 31
0.0
  0
LINE
  5
2AF
100
AcDbEntity
  8
_0-0_
370
              15
  6
Continuous
 62
               7
100
AcDbLine
 10
740.3364854345399
 20
584.13879698323035
 30
0.0
 11
740.68378180945535
 21
584.14412946222376
 31
0.0
  0
LINE
  5
2B0
100
AcDbEntity
  8
_0-0_
370
              15
  6
Continuous
 62
               7
100
AcDbLine
 10
740.68378180945535
 20
584.14412946222376
 30
0.0
 11
741.02052575975938
 21
584.15996487452799
 31
0.0
  0
LINE
  5
2B1
100
AcDbEntity
  8
_0-0_
370
              15
  6
Continuous
 62
               7
100
AcDbLine
 10
741.02052575975938
 20
584.15996487452799
 30
0.0
 11
741.33648549092277
 21
584.18582206915335
 31
0.0
  0
LINE
  5
2B2
100
AcDbEntity
  8
_0-0_
370
              15
  6
Continuous
 62
               7
100
AcDbLine
 10
741.33648549092277
 20
584.18582206915335
 30
0.0
 11
741.62206072639731
 21
584.22091538832558
 31
0.0
  0
LINE
  5
2B3
100
AcDbEntity
  8
_0-0_
370
              15
  6
Continuous
 62
               7
100
AcDbLine
 10
741.62206072639731
 20
584.22091538832558
 30
0.0
 11
741.8685744071613
 21
584.26417853929968
 31
0.0
  0
LINE
  5
2B4
100
AcDbEntity
  8
_0-0_
370
              15
  6
Continuous
 62
               7
100
AcDbLine
 10
741.8685744071613
 20
584.26417853929968
 30
0.0
 11
742.06853633976664
 21
584.31429699312548
 31
0.0
  0
LINE
  5
2B5
100
AcDbEntity
  8
_0-0_
370
              15
  6
Continuous
 62
               7
100
AcDbLine
 10
742.06853633976664
 20
584.31429699312548
 30
0.0
 11
742.21587078207676
 21
584.36974792594469
 31
0.0
  0
LINE
  5
2B6
100
AcDbEntity
  8
_0-0_
370
              15
  6
Continuous
 62
               7
100
AcDbLine
 10
742.21587078207676
 20
584.36974792594469
 30
0.0
 11
742.30610105161668
 21
584.42884648922302
 31
0.0
  0
LINE
  5
2B7
100
AcDbEntity
  8
_0-0_
370
              15
  6
Continuous
 62
               7
100
AcDbLine
 10
742.30610105161668
 20
584.42884648922302
 30
0.0
 11
742.33648554730553
 21
584.48979700302073
 31
0.0
  0
LINE
  5
2B8
100
AcDbEntity
  8
_0-0_
370
              15
  6
Continuous
 62
               7
100
AcDbLine
 10
742.33648554730553
 20
584.48979700302073
 30
0.0
 11
742.33648554821548
 21
584.48979700407006
 31
0.0
  0
ARC
  5
2B9
100
AcDbEntity
  8
_0-0_
370
              15
  6
Continuous
 62
               7
100
AcDbCircle
 10
740.38164656028277
 20
663.73747660662684
 30
0.0
 40
2.4000000806388702
100
AcDbArc
 50
0.0
 51
180.0
  0
ARC
  5
2BA
100
AcDbEntity
  8
_0-0_
370
              15
  6
Continuous
 62
               7
100
AcDbCircle
 10
751.32649175250344
 20
663.73747660662684
 30
0.0
 40
4.4000000567049486
100
AcDbArc
 50
270.0
 51
275.21589660644526
  0
ARC
  5
2BB
100
AcDbEntity
  8
_0-0_
370
              15
  6
Continuous
 62
               7
100
AcDbCircle
 10
751.32649175250344
 20
663.73747660662684
 30
0.0
 40
4.4000000567049522
100
AcDbArc
 50
84.784088134765597
 51
89.999984741210952
  0
CIRCLE
  5
2BC
100
AcDbEntity
  8
_0-0_
370
              15
  6
Continuous
 62
               7
100
AcDbCircle
 10
755.12649165234916
 20
663.73747660662684
 30
0.0
 40
0.9999999880330507
  0
MTEXT
  5
2BD
100
AcDbEntity
  8
_0-0_
 62
               6
100
AcDbMText
 10
851.07333132229564
 20
661.33719872298548
 30
0.0
 40
10.233502538071066
 41
0.0
 71
               1
 72
               1
  1
{\H0.8795x;\lBX-5227}
 73
               1
 44
0.7828267384257843
  0
INSERT
  5
2BE
100
AcDbEntity
  8
0
 62
               7
100
AcDbBlockReference
  2
グループ
 10
814.17542097058129
 20
599.4344425661684
 30
0.0
 41
0.2
 42
0.2
 43
0.2
  0
ENDSEC
  0
SECTION
  2
OBJECTS
  0
DICTIONARY
  5
19
100
AcDbDictionary
280
               0
281
               1
  3
ACAD_GROUP
350
1A
  3
ACAD_MLINESTYLE
350
1B
  3
ACAD_LAYOUT
350
1E
  3
ACAD_PLOTSETTINGS
350
22
  3
ACAD_PLOTSTYLENAME
350
1F
  3
ACAD_WIPEOUT_VARS
350
23
  0
DICTIONARY
  5
1A
102
{ACAD_REACTORS
330
19
102
}
100
AcDbDictionary
280
               0
281
               1
  0
DICTIONARY
  5
1B
102
{ACAD_REACTORS
330
19
102
}
100
AcDbDictionary
280
               0
281
               1
  3
Standard
350
1C
  0
MLINESTYLE
  5
1C
102
{ACAD_REACTORS
330
1B
102
}
100
AcDbMlineStyle
  2
Standard
 70
               0
  3

 62
               0
 51
90.0
 52
90.0
 71
               2
 49
0.5
 62
             256
  6
ByLayer
 49
-0.5
 62
             256
  6
ByLayer
  0
ACDBDICTIONARYWDFLT
  5
1F
102
{ACAD_REACTORS
330
19
102
}
100
AcDbDictionary
281
               1
  3
Normal
350
1D
100
AcDbDictionaryWithDefault
340
1D
  0
ACDBPLACEHOLDER
  5
1D
102
{ACAD_REACTORS
330
1F
102
}
  0
LAYOUT
  5
20
102
{ACAD_REACTORS
330
1E
102
}
100
AcDbPlotSettings
  1

  2

  4

  6

 40
0.0
 41
0.0
 42
0.0
 43
0.0
 44
0.0
 45
0.0
 46
0.0
 47
0.0
 48
0.0
 49
0.0
140
0.0
141
0.0
142
1.0
143
1.0
 70
            1024
 72
               0
 73
               0
 74
               0
  7

 75
               0
147
1.0
148
0.0
149
0.0
100
AcDbLayout
  1
Model
 70
               0
 71
               0
 10
0.0
 20
0.0
 11
0.0
 21
0.0
 12
0.0
 22
0.0
 32
0.0
 14
0.0
 24
0.0
 34
0.0
 15
0.0
 25
0.0
 35
0.0
146
0.0
 13
0.0
 23
0.0
 33
0.0
 16
0.0
 26
0.0
 36
0.0
 17
0.0
 27
0.0
 37
0.0
 76
               0
330
A
331
0
345
0
346
0
  0
LAYOUT
  5
21
102
{ACAD_REACTORS
330
1E
102
}
100
AcDbPlotSettings
  1

  2

  4

  6

 40
0.0
 41
0.0
 42
0.0
 43
0.0
 44
0.0
 45
0.0
 46
0.0
 47
0.0
 48
0.0
 49
0.0
140
0.0
141
0.0
142
1.0
143
1.0
 70
               0
 72
               0
 73
               0
 74
               0
  7

 75
               0
147
1.0
148
0.0
149
0.0
100
AcDbLayout
  1
Layout1
 70
               0
 71
               0
 10
0.0
 20
0.0
 11
0.0
 21
0.0
 12
0.0
 22
0.0
 32
0.0
 14
0.0
 24
0.0
 34
0.0
 15
0.0
 25
0.0
 35
0.0
146
0.0
 13
0.0
 23
0.0
 33
0.0
 16
0.0
 26
0.0
 36
0.0
 17
0.0
 27
0.0
 37
0.0
 76
               0
330
B
331
0
345
0
346
0
  0
DICTIONARY
  5
1E
102
{ACAD_REACTORS
330
19
102
}
100
AcDbDictionary
280
               0
281
               1
  3
Layout1
350
21
  3
Model
350
20
  0
DICTIONARY
  5
22
102
{ACAD_REACTORS
330
19
102
}
100
AcDbDictionary
280
               0
281
               1
  0
WIPEOUTVARIABLES
  5
23
100
AcDbWipeoutVariables
 70
               0
  0
ENDSEC
  0
EOF
