  0
SECTION
  2
HEADER
  9
$ACADVER
  1
AC1015
  9
$ACADMAINTVER
 70
               6
  9
$DWGCODEPAGE
  3
ANSI_932
  9
$INSBASE
 10
0.0
 20
0.0
 30
0.0
  9
$EXTMIN
 10
-1885.1806079660837
 20
-1325.0
 30
-2.9104166666666669
  9
$EXTMAX
 10
4940.0
 20
3995.9944555567517
 30
2.9104166666666669
  9
$LIMMIN
 10
0.0
 20
0.0
  9
$LIMMAX
 10
0.0
 20
0.0
  9
$ORTHOMODE
 70
               0
  9
$REGENMODE
 70
               1
  9
$FILLMODE
 70
               1
  9
$QTEXTMODE
 70
               0
  9
$MIRRTEXT
 70
               1
  9
$LTSCALE
 40
10.16
  9
$ATTMODE
 70
               1
  9
$TEXTSIZE
 40
0.2
  9
$TRACEWID
 40
1.0
  9
$TEXTSTYLE
  7
Standard
  9
$CLAYER
  8
一般
  9
$CELTYPE
  6
Continuous
  9
$CECOLOR
 62
             256
  9
$CELTSCALE
 40
1.0
  9
$DISPSILH
 70
               0
  9
$DIMSCALE
 40
1.0
  9
$DIMASZ
 40
0.18
  9
$DIMEXO
 40
0.0625
  9
$DIMDLI
 40
0.38
  9
$DIMRND
 40
0.0
  9
$DIMDLE
 40
0.0
  9
$DIMEXE
 40
0.18
  9
$DIMTP
 40
0.0
  9
$DIMTM
 40
0.0
  9
$DIMTXT
 40
0.18
  9
$DIMCEN
 40
0.09
  9
$DIMTSZ
 40
0.0
  9
$DIMTOL
 70
               0
  9
$DIMLIM
 70
               0
  9
$DIMTIH
 70
               1
  9
$DIMTOH
 70
               1
  9
$DIMSE1
 70
               0
  9
$DIMSE2
 70
               0
  9
$DIMTAD
 70
               0
  9
$DIMZIN
 70
               0
  9
$DIMBLK
  1

  9
$DIMASO
 70
               1
  9
$DIMSHO
 70
               1
  9
$DIMPOST
  1

  9
$DIMAPOST
  1

  9
$DIMALT
 70
               0
  9
$DIMALTD
 70
               2
  9
$DIMALTF
 40
25.399999999999999
  9
$DIMLFAC
 40
1.0
  9
$DIMTOFL
 70
               0
  9
$DIMTVP
 40
0.0
  9
$DIMTIX
 70
               0
  9
$DIMSOXD
 70
               0
  9
$DIMSAH
 70
               0
  9
$DIMBLK1
  1

  9
$DIMBLK2
  1

  9
$DIMSTYLE
  2
Standard
  9
$DIMCLRD
 70
               0
  9
$DIMCLRE
 70
               0
  9
$DIMCLRT
 70
               0
  9
$DIMTFAC
 40
1.0
  9
$DIMGAP
 40
0.09
  9
$DIMJUST
 70
               0
  9
$DIMSD1
 70
               0
  9
$DIMSD2
 70
               0
  9
$DIMTOLJ
 70
               1
  9
$DIMTZIN
 70
               0
  9
$DIMALTZ
 70
               0
  9
$DIMALTTZ
 70
               0
  9
$DIMUPT
 70
               0
  9
$DIMDEC
 70
               4
  9
$DIMTDEC
 70
               4
  9
$DIMALTU
 70
               2
  9
$DIMALTTD
 70
               2
  9
$DIMTXSTY
  7
Standard
  9
$DIMAUNIT
 70
               0
  9
$DIMADEC
 70
               0
  9
$DIMALTRND
 40
0.0
  9
$DIMAZIN
 70
               0
  9
$DIMDSEP
 70
               0
  9
$DIMATFIT
 70
               3
  9
$DIMFRAC
 70
               0
  9
$DIMLDRBLK
  1

  9
$DIMLUNIT
 70
               2
  9
$DIMLWD
 70
               0
  9
$DIMLWE
 70
               0
  9
$DIMTMOVE
 70
               0
  9
$LUNITS
 70
               2
  9
$LUPREC
 70
               4
  9
$SKETCHINC
 40
0.1
  9
$FILLETRAD
 40
0.0
  9
$AUNITS
 70
               0
  9
$AUPREC
 70
               0
  9
$MENU
  1
acad
  9
$ELEVATION
 40
0.0
  9
$PELEVATION
 40
0.0
  9
$THICKNESS
 40
0.0
  9
$LIMCHECK
 70
               0
  9
$CHAMFERA
 40
0.0
  9
$CHAMFERB
 40
0.0
  9
$CHAMFERC
 40
0.0
  9
$CHAMFERD
 40
0.0
  9
$SKPOLY
 70
               0
  9
$TDCREATE
 40
2457058.656655093
  9
$TDUCREATE
 40
0.000000000
  9
$TDUPDATE
 40
2457058.656655093
  9
$TDUUPDATE
 40
0.000000000
  9
$TDINDWG
 40
0.0000000000
  9
$TDUSRTIMER
 40
0.0000000000
  9
$USRTIMER
 70
               1
  9
$ANGBASE
 50
0.0
  9
$ANGDIR
 70
               0
  9
$PDMODE
 70
               1
  9
$PDSIZE
 40
-2.0
  9
$PLINEWID
 40
0.0
  9
$SPLFRAME
 70
               0
  9
$SPLINETYPE
 70
               6
  9
$SPLINESEGS
 70
               8
  9
$HANDSEED
  5
2BF
  9
$SURFTAB1
 70
               6
  9
$SURFTAB2
 70
               6
  9
$SURFTYPE
 70
               6
  9
$SURFU
 70
               6
  9
$SURFV
 70
               6
  9
$UCSBASE
  2

  9
$UCSNAME
  2

  9
$UCSORG
 10
0.0
 20
0.0
 30
0.0
  9
$UCSXDIR
 10
1.0
 20
0.0
 30
0.0
  9
$UCSYDIR
 10
0.0
 20
1.0
 30
0.0
  9
$UCSORTHOREF
  2

  9
$UCSORTHOVIEW
 70
               0
  9
$UCSORGTOP
 10
0.0
 20
0.0
 30
0.0
  9
$UCSORGBOTTOM
 10
0.0
 20
0.0
 30
0.0
  9
$UCSORGLEFT
 10
0.0
 20
0.0
 30
0.0
  9
$UCSORGRIGHT
 10
0.0
 20
0.0
 30
0.0
  9
$UCSORGFRONT
 10
0.0
 20
0.0
 30
0.0
  9
$UCSORGBACK
 10
0.0
 20
0.0
 30
0.0
  9
$PUCSBASE
  2

  9
$PUCSNAME
  2

  9
$PUCSORG
 10
0.0
 20
0.0
 30
0.0
  9
$PUCSXDIR
 10
1.0
 20
0.0
 30
0.0
  9
$PUCSYDIR
 10
0.0
 20
1.0
 30
0.0
  9
$PUCSORTHOREF
  2

  9
$PUCSORTHOVIEW
 70
               0
  9
$PUCSORGTOP
 10
0.0
 20
0.0
 30
0.0
  9
$PUCSORGBOTTOM
 10
0.0
 20
0.0
 30
0.0
  9
$PUCSORGLEFT
 10
0.0
 20
0.0
 30
0.0
  9
$PUCSORGRIGHT
 10
0.0
 20
0.0
 30
0.0
  9
$PUCSORGFRONT
 10
0.0
 20
0.0
 30
0.0
  9
$PUCSORGBACK
 10
0.0
 20
0.0
 30
0.0
  9
$USERI1
 70
               0
  9
$USERI2
 70
               0
  9
$USERI3
 70
               0
  9
$USERI4
 70
               0
  9
$USERI5
 70
               0
  9
$USERR1
 40
0.0
  9
$USERR2
 40
0.0
  9
$USERR3
 40
0.0
  9
$USERR4
 40
0.0
  9
$USERR5
 40
0.0
  9
$WORLDVIEW
 70
               1
  9
$SHADEDGE
 70
               3
  9
$SHADEDIF
 70
              70
  9
$TILEMODE
 70
               1
  9
$MAXACTVP
 70
              64
  9
$PINSBASE
 10
0.0
 20
0.0
 30
0.0
  9
$PLIMCHECK
 70
               0
  9
$PEXTMIN
 10
1.0000000000000000E+20
 20
1.0000000000000000E+20
 30
1.0000000000000000E+20
  9
$PEXTMAX
 10
-1.0000000000000000E+20
 20
-1.0000000000000000E+20
 30
-1.0000000000000000E+20
  9
$PLIMMIN
 10
0.0
 20
0.0
  9
$PLIMMAX
 10
12.0
 20
9.0
  9
$UNITMODE
 70
               0
  9
$VISRETAIN
 70
               0
  9
$PLINEGEN
 70
               1
  9
$PSLTSCALE
 70
               0
  9
$TREEDEPTH
 70
            3020
  9
$CMLSTYLE
  2
Standard
  9
$CMLJUST
 70
               0
  9
$CMLSCALE
 40
1.0
  9
$PROXYGRAPHICS
 70
               0
  9
$MEASUREMENT
 70
               1
  9
$CELWEIGHT
370
               0
  9
$ENDCAPS
280
               0
  9
$JOINSTYLE
280
               0
  9
$LWDISPLAY
290
               1
  9
$INSUNITS
 70
               4
  9
$HYPERLINKBASE
  1

  9
$STYLESHEET
  1

  9
$XEDIT
290
               1
  9
$CEPSNTYPE
380
               0
  9
$PSTYLEMODE
290
               1
  9
$FINGERPRINTGUID
  2

  9
$VERSIONGUID
  2

  9
$EXTNAMES
290
               1
  9
$PSVPSCALE
 40
0.0
  0
ENDSEC
  0
SECTION
  2
CLASSES
  0
CLASS
  1
LWPOLYLINE
  2
AcDbPolyline
  3
AutoCAD 2000
 90
        0
280
               0
281
               1
  0
CLASS
  1
IMAGE
  2
AcDbRasterImage
  3
ISM
 90
    32895
280
               0
281
               1
  0
CLASS
  1
OLE2FRAME
  2
AcDbOle2Frame
  3
AutoCAD 2000
 90
    32768
280
               0
281
               1
  0
CLASS
  1
HATCH
  2
AcDbHatch
  3
AutoCAD 2000
 90
    32768
280
               0
281
               1
  0
CLASS
  1
DICTIONARYVAR
  2
AcDbDictionaryVar
  3
AutoCAD 2000
 90
    32768
280
               0
281
               0
  0
CLASS
  1
RASTERVARIABLES
  2
AcDbRasterVariables
  3
ISM
 90
    32768
280
               0
281
               0
  0
CLASS
  1
IMAGEDEF
  2
AcDbRasterImageDef
  3
ISM
 90
    32768
280
               0
281
               0
  0
CLASS
  1
IMAGEDEF_REACTOR
  2
AcDbRasterImageDefReactor
  3
ISM
 90
    32769
280
               0
281
               0
  0
CLASS
  1
IDBUFFER
  2
AcDbIdBuffer
  3
AutoCAD 2000
 90
    32768
280
               0
281
               0
  0
CLASS
  1
SPATIAL_FILTER
  2
AcDbSpatialFilter
  3
AutoCAD 2000
 90
    32768
280
               0
281
               0
  0
CLASS
  1
XRECORD
  2
AcDbXrecord
  3
AutoCAD 2000
 90
    32768
280
               0
281
               0
  0
CLASS
  1
SORTENTSTABLE
  2
AcDbSortentsTable
  3
AutoCAD 2000
 90
    32768
280
               0
281
               0
  0
CLASS
  1
LAYER_INDEX
  2
AcDbLayerIndex
  3
AutoCAD 2000
 90
    32768
280
               0
281
               0
  0
CLASS
  1
SPATIAL_INDEX
  2
AcDbSpatialIndex
  3
AutoCAD 2000
 90
    32768
280
               0
281
               0
  0
CLASS
  1
OBJECT_PTR
  2
CAseDLPNTableRecord
  3
"ASE-LPNTableRecord"
 90
    32769
280
               0
281
               0
  0
CLASS
  1
LAYOUT
  2
AcDbLayout
  3
AutoCAD 2000
 90
        0
280
               0
281
               0
  0
CLASS
  1
PLOTSETTINGS
  2
AcDbPlotSettings
  3
AutoCAD 2000
 90
    32768
280
               0
281
               0
  0
CLASS
  1
ACDBDICTIONARYWDFLT
  2
AcDbDictionaryWithDefault
  3
AutoCAD 2000
 90
        0
280
               0
281
               0
  0
CLASS
  1
ACDBPLACEHOLDER
  2
AcDbPlaceHolder
  3
AutoCAD 2000
 90
        0
280
               0
281
               0
  0
CLASS
  1
VBA_PROJECT
  2
AcDbVbaProject
  3
acadvba
 90
    32768
280
               0
281
               0
  0
CLASS
  1
WIPEOUT
  2
AcDbWipeout
  3
WipeOut|AutoCAD Express Tool|expresstools@autodesk.com
 90
    32895
280
               0
281
               1
  0
CLASS
  1
WIPEOUTVARIABLES
  2
AcDbWipeoutVariables
  3
WipeOut|AutoCAD Express Tool|expresstools@autodesk.com
 90
        0
280
               0
281
               0
  0
CLASS
  1
RTEXT
  2
RText
  3
RText|AutoCAD Express Tool|expresstools@autodesk.com
 90
    32768
280
               0
281
               1
  0
CLASS
  1
ARCALIGNEDTEXT
  2
AcDbArcAlignedText
  3
ATEXT|AutoCAD Express Tool|expresstools@autodesk.com
 90
    32768
280
               0
281
               1
  0
ENDSEC
  0
SECTION
  2
TABLES
  0
TABLE
  2
VPORT
  5
7
100
AcDbSymbolTable
 70
               1
  0
VPORT
  5
15
100
AcDbSymbolTableRecord
100
AcDbViewportTableRecord
  2
*ACTIVE
 70
               0
 10
0.0
 20
0.0
 11
1.0
 21
1.0
 12
1527.4096960169582
 22
1335.4972277783759
 13
0.0
 23
0.0
 14
1.0
 24
1.0
 15
0.0
 25
0.0
 16
0.0
 26
0.0
 36
1.0
 17
0.0
 27
0.0
 37
0.0
 40
5320.9944555567517
 41
0.688564
 42
50.0
 43
0.0
 44
0.0
 50
0.0
 51
0.0
 71
               0
 72
            2000
 73
               1
 74
               1
 75
               0
 76
               0
 77
               0
 78
               0
281
               0
 65
               0
110
0.0
120
0.0
130
0.0
111
1.0
121
0.0
131
0.0
112
0.0
122
1.0
132
0.0
345
0
346
0
 79
               0
146
0.0
  0
ENDTAB
  0
TABLE
  2
LTYPE
  5
4
100
AcDbSymbolTable
 70
              13
  0
LTYPE
  5
11
100
AcDbSymbolTableRecord
100
AcDbLinetypeTableRecord
  2
ByBlock
 70
              64
  3

 72
              65
 73
               0
 40
0.0
  0
LTYPE
  5
12
100
AcDbSymbolTableRecord
100
AcDbLinetypeTableRecord
  2
ByLayer
 70
              64
  3

 72
              65
 73
               0
 40
0.0
  0
LTYPE
  5
13
100
AcDbSymbolTableRecord
100
AcDbLinetypeTableRecord
  2
Continuous
 70
              64
  3
Solid line
 72
              65
 73
               0
 40
0.0
  0
LTYPE
  5
2D
100
AcDbSymbolTableRecord
100
AcDbLinetypeTableRecord
  2
STYLE_01
 70
               0
  3

 72
              65
 73
               2
 40
0.41664
 49
0.20828
 74
               0
 49
-0.20836
 74
               0
  0
LTYPE
  5
2E
100
AcDbSymbolTableRecord
100
AcDbLinetypeTableRecord
  2
STYLE_02
 70
               0
  3

 72
              65
 73
               2
 40
0.6944250000000001
 49
0.48607
 74
               0
 49
-0.2083550000000001
 74
               0
  0
LTYPE
  5
2F
100
AcDbSymbolTableRecord
100
AcDbLinetypeTableRecord
  2
STYLE_03
 70
               0
  3

 72
              65
 73
               2
 40
1.25
 49
1.0416400000000001
 74
               0
 49
-0.2083599999999999
 74
               0
  0
LTYPE
  5
30
100
AcDbSymbolTableRecord
100
AcDbLinetypeTableRecord
  2
STYLE_04
 70
               0
  3

 72
              65
 73
               2
 40
1.5277099999999999
 49
1.3194249999999998
 74
               0
 49
-0.208285
 74
               0
  0
LTYPE
  5
31
100
AcDbSymbolTableRecord
100
AcDbLinetypeTableRecord
  2
STYLE_05
 70
               0
  3

 72
              65
 73
               2
 40
0.20828
 49
0.069425
 74
               0
 49
-0.138855
 74
               0
  0
LTYPE
  5
32
100
AcDbSymbolTableRecord
100
AcDbLinetypeTableRecord
  2
STYLE_06
 70
               0
  3

 72
              65
 73
               4
 40
1.0416400000000001
 49
0.625
 74
               0
 49
-0.20828
 74
               0
 49
0.06943
 74
               0
 49
-0.13893
 74
               0
  0
LTYPE
  5
33
100
AcDbSymbolTableRecord
100
AcDbLinetypeTableRecord
  2
STYLE_07
 70
               0
  3

 72
              65
 73
               6
 40
1.875
 49
0.625
 74
               0
 49
-0.20828
 74
               0
 49
0.6250000000000001
 74
               0
 49
-0.2083599999999999
 74
               0
 49
0.06943
 74
               0
 49
-0.1389299999999999
 74
               0
  0
LTYPE
  5
34
100
AcDbSymbolTableRecord
100
AcDbLinetypeTableRecord
  2
STYLE_08
 70
               0
  3

 72
              65
 73
               6
 40
1.25
 49
0.625
 74
               0
 49
-0.20828
 74
               0
 49
0.06943
 74
               0
 49
-0.13893
 74
               0
 49
0.0694299999999999
 74
               0
 49
-0.13893
 74
               0
  0
LTYPE
  5
35
100
AcDbSymbolTableRecord
100
AcDbLinetypeTableRecord
  2
STYLE_09
 70
               0
  3

 72
              65
 73
               4
 40
5.0
 49
3.75
 74
               0
 49
-0.2777849999999998
 74
               0
 49
0.6944300000000003
 74
               0
 49
-0.2777849999999998
 74
               0
  0
LTYPE
  5
36
100
AcDbSymbolTableRecord
100
AcDbLinetypeTableRecord
  2
STYLE_10
 70
               0
  3

 72
              65
 73
               6
 40
5.9375
 49
3.75
 74
               0
 49
-0.2777849999999998
 74
               0
 49
0.6944300000000003
 74
               0
 49
-0.2777849999999998
 74
               0
 49
0.625
 74
               0
 49
-0.3125
 74
               0
  0
ENDTAB
  0
TABLE
  2
LAYER
  5
2
100
AcDbSymbolTable
 70
               6
  0
LAYER
  5
14
100
AcDbSymbolTableRecord
100
AcDbLayerTableRecord
  2
0
 70
               0
 62
               7
  6
Continuous
290
               1
370
              -3
390
1D
  0
LAYER
  5
37
100
AcDbSymbolTableRecord
100
AcDbLayerTableRecord
  2
一般
 70
               0
 62
               7
  6
Continuous
290
               1
370
               5
390
1D
  0
LAYER
  5
38
100
AcDbSymbolTableRecord
100
AcDbLayerTableRecord
  2
寸法
 70
               0
 62
               7
  6
Continuous
290
               1
370
               5
390
1D
  0
LAYER
  5
39
100
AcDbSymbolTableRecord
100
AcDbLayerTableRecord
  2
補助グリッド
 70
               0
 62
             203
  6
Continuous
290
               1
370
              13
390
1D
  0
LAYER
  5
3A
100
AcDbSymbolTableRecord
100
AcDbLayerTableRecord
  2
ジェット関係
 70
               0
 62
               7
  6
Continuous
290
               1
370
               5
390
1D
  0
LAYER
  5
3B
100
AcDbSymbolTableRecord
100
AcDbLayerTableRecord
  2
排水
 70
               0
 62
               7
  6
Continuous
290
               1
370
              15
390
1D
  0
ENDTAB
  0
TABLE
  2
STYLE
  5
3
100
AcDbSymbolTable
 70
               3
  0
STYLE
  5
17
100
AcDbSymbolTableRecord
100
AcDbTextStyleTableRecord
  2
Standard
 70
               0
 40
0.0
 41
1.0
 50
0.0
 71
               0
 42
0.0
  3
txt
  4
BIGFONT.SHX
  0
STYLE
  5
2B
100
AcDbSymbolTableRecord
100
AcDbTextStyleTableRecord
  2
Arial
 70
               0
 40
0.0
 41
1.0
 50
0.0
 71
               0
 42
0.0
  3

  4
Arial
1001
ACAD
1000
Arial
1071
        0
  0
STYLE
  5
2C
100
AcDbSymbolTableRecord
100
AcDbTextStyleTableRecord
  2
ＭＳ ゴシック
 70
               0
 40
0.0
 41
1.0
 50
0.0
 71
               0
 42
0.0
  3

  4
ＭＳ ゴシック
1001
ACAD
1000
ＭＳ ゴシック
1071
        0
  0
ENDTAB
  0
TABLE
  2
VIEW
  5
5
100
AcDbSymbolTable
 70
               0
  0
ENDTAB
  0
TABLE
  2
UCS
  5
6
100
AcDbSymbolTable
 70
               0
  0
ENDTAB
  0
TABLE
  2
APPID
  5
8
100
AcDbSymbolTable
 70
               1
  0
APPID
  5
16
100
AcDbSymbolTableRecord
100
AcDbRegAppTableRecord
  2
ACAD
 70
               0
  0
ENDTAB
  0
TABLE
  2
DIMSTYLE
  5
9
100
AcDbSymbolTable
 70
               1
100
AcDbDimStyleTable
 71
               0
  0
DIMSTYLE
105
18
100
AcDbSymbolTableRecord
100
AcDbDimStyleTableRecord
  2
Standard
 70
               0
  3

  4

 40
1.0
 41
0.18
 42
0.0625
 43
0.38
 44
0.18
 45
0.0
 46
0.0
 47
0.0
 48
0.0
 71
               0
 72
               0
 73
               1
 74
               1
 75
               0
 76
               0
 77
               0
 78
               0
 79
               0
140
0.18
141
0.09
142
0.0
143
25.399999999999999
144
1.0
145
0.0
146
1.0
147
0.09
148
0.0
170
               0
171
               2
172
               0
173
               0
174
               0
175
               0
176
               0
177
               0
178
               0
179
               0
271
               4
272
               4
273
               2
274
               2
275
               0
276
               0
277
               2
278
              46
279
               0
280
               0
281
               0
282
               0
283
               1
284
               0
285
               0
286
               0
288
               0
340
17
341
0
342
0
343
0
344
0
371
              -2
372
              -2
  0
ENDTAB
  0
TABLE
  2
BLOCK_RECORD
  5
1
100
AcDbSymbolTable
 70
               7
  0
BLOCK_RECORD
  5
A
100
AcDbSymbolTableRecord
100
AcDbBlockTableRecord
  2
*MODEL_SPACE
340
20
  0
BLOCK_RECORD
  5
B
100
AcDbSymbolTableRecord
100
AcDbBlockTableRecord
  2
*PAPER_SPACE
340
21
  0
BLOCK_RECORD
  5
24
100
AcDbSymbolTableRecord
100
AcDbBlockTableRecord
  2
グループ
340
0
102
{BLKREFS
331
49
102
}
  0
BLOCK_RECORD
  5
25
100
AcDbSymbolTableRecord
100
AcDbBlockTableRecord
  2
scal 1_5
340
0
102
{BLKREFS
331
274
102
}
  0
BLOCK_RECORD
  5
26
100
AcDbSymbolTableRecord
100
AcDbBlockTableRecord
  2
グループ-1
340
0
102
{BLKREFS
331
2B9
102
}
  0
BLOCK_RECORD
  5
27
100
AcDbSymbolTableRecord
100
AcDbBlockTableRecord
  2
グループ-2
340
0
102
{BLKREFS
331
2BA
102
}
  0
BLOCK_RECORD
  5
28
100
AcDbSymbolTableRecord
100
AcDbBlockTableRecord
  2
グループ-3
340
0
102
{BLKREFS
331
2BB
102
}
  0
BLOCK_RECORD
  5
29
100
AcDbSymbolTableRecord
100
AcDbBlockTableRecord
  2
グループ-4
340
0
102
{BLKREFS
331
2BC
102
}
  0
BLOCK_RECORD
  5
2A
100
AcDbSymbolTableRecord
100
AcDbBlockTableRecord
  2
グループ-5
340
0
102
{BLKREFS
331
2BD
102
}
  0
ENDTAB
  0
ENDSEC
  0
SECTION
  2
BLOCKS
  0
BLOCK
  5
D
100
AcDbEntity
  8
0
100
AcDbBlockBegin
  2
*MODEL_SPACE
 70
               0
 10
0.0
 20
0.0
 30
0.0
  3
*MODEL_SPACE
  1

  0
ENDBLK
  5
E
100
AcDbEntity
  8
0
100
AcDbBlockEnd
  0
BLOCK
  5
F
100
AcDbEntity
 67
               1
  8
0
100
AcDbBlockBegin
  2
*PAPER_SPACE
 70
               0
 10
0.0
 20
0.0
 30
0.0
  3
*PAPER_SPACE
  1

  0
ENDBLK
  5
10
100
AcDbEntity
 67
               1
  8
0
100
AcDbBlockEnd
  0
BLOCK
  5
3C
100
AcDbEntity
  8
一般
100
AcDbBlockBegin
  2
グループ
 70
               0
 10
0.0
 20
0.0
 30
0.0
  3
グループ
  1

  0
MTEXT
  5
3D
100
AcDbEntity
  8
一般
 62
               8
100
AcDbMText
 10
-61.590303983041849
 20
6.8342057291666851
 30
0.0
 40
8.1442057291666661
 41
7.3612159321675676
 71
               1
 72
               1
  1
0
  7
ＭＳ ゴシック
 73
               1
 44
0.7828267384257844
  0
MTEXT
  5
3E
100
AcDbEntity
  8
一般
 62
               8
100
AcDbMText
 10
-12.909696016958151
 20
6.8342057291666851
 30
0.0
 40
8.1442057291666661
 41
12.75
 71
               1
 72
               1
  1
50
  7
ＭＳ ゴシック
 73
               1
 44
0.7828267384257844
  0
MTEXT
  5
3F
100
AcDbEntity
  8
一般
 62
               8
100
AcDbMText
 10
33.590303983041849
 20
6.8342057291666851
 30
0.0
 40
8.1442057291666661
 41
27.999999999999972
 71
               1
 72
               1
  1
100mm
  7
ＭＳ ゴシック
 73
               1
 44
0.7828267384257844
  0
LINE
  5
40
100
AcDbEntity
  8
寸法
370
              15
 62
               8
100
AcDbLine
 10
-7.9096960169581507
 20
-2.7916666666666288
 30
0.0
 11
-7.9096960169581507
 21
-7.7916666666666288
 31
0.0
  0
POLYLINE
  5
41
100
AcDbEntity
  8
一般
370
              15
  6
Continuous
 62
               9
100
AcDb2dPolyline
 66
               1
 10
0.0
 20
0.0
 30
0.0
 75
               5
  0
VERTEX
  5
42
100
AcDbEntity
  8
一般
370
              15
  6
Continuous
 62
               9
100
AcDbVertex
100
AcDb2dVertex
 10
-57.909696016958037
 20
-2.7916666666666288
 30
0.0
  0
VERTEX
  5
43
100
AcDbEntity
  8
一般
370
              15
  6
Continuous
 62
               9
100
AcDbVertex
100
AcDb2dVertex
 10
-57.909696016958151
 20
-7.7916666666666288
 30
0.0
  0
VERTEX
  5
44
100
AcDbEntity
  8
一般
370
              15
  6
Continuous
 62
               9
100
AcDbVertex
100
AcDb2dVertex
 10
42.090303983041849
 20
-7.7916666666666288
 30
0.0
  0
VERTEX
  5
45
100
AcDbEntity
  8
一般
370
              15
  6
Continuous
 62
               9
100
AcDbVertex
100
AcDb2dVertex
 10
42.090303983041849
 20
-2.7916666666666288
 30
0.0
  0
SEQEND
  5
46
100
AcDbEntity
  8
一般
370
              15
  6
Continuous
 62
               9
  0
ENDBLK
  5
47
100
AcDbEntity
  8
一般
100
AcDbBlockEnd
  0
BLOCK
  5
48
100
AcDbEntity
  8
一般
100
AcDbBlockBegin
  2
scal 1_5
 70
               0
 10
0.0
 20
0.0
 30
0.0
  3
scal 1_5
  1

  0
INSERT
  5
49
100
AcDbEntity
  8
一般
 62
               7
100
AcDbBlockReference
  2
グループ
 10
0.0
 20
0.0
 30
0.0
  0
ENDBLK
  5
4A
100
AcDbEntity
  8
一般
100
AcDbBlockEnd
  0
BLOCK
  5
4B
100
AcDbEntity
  8
一般
100
AcDbBlockBegin
  2
グループ-1
 70
               0
 10
0.0
 20
0.0
 30
0.0
  3
グループ-1
  1

  0
CIRCLE
  5
4C
100
AcDbEntity
  8
一般
370
               5
  6
Continuous
 62
               7
100
AcDbCircle
 10
-125.58040348510811
 20
127.0
 30
0.0
 40
20.000000000000313
  0
LWPOLYLINE
  5
4D
100
AcDbEntity
  8
一般
370
              15
  6
Continuous
 62
               7
100
AcDbPolyline
 90
        5
 70
             129
 10
-108.24020363996547
 20
117.0889496765008
 42
0.1308458060237084
 10
-105.5923457403708
 20
127.03395669144724
 42
0.414213562373099
 10
-125.59234574037113
 20
147.03395669144726
 42
0.4142135623730907
 10
-145.59234574037146
 20
127.03395669144724
 42
0.1308458060236927
 10
-142.94448784077716
 20
117.0889496765008
  0
CIRCLE
  5
4E
100
AcDbEntity
  8
一般
370
               5
  6
Continuous
 62
               7
100
AcDbCircle
 10
-125.58040348510811
 20
127.0
 30
0.0
 40
2.5
  0
LINE
  5
4F
100
AcDbEntity
  8
一般
370
               5
  6
Continuous
 62
               7
100
AcDbLine
 10
-134.18040348510834
 20
115.00000000000006
 30
0.0
 11
-116.08040348510802
 21
115.00000000000006
 31
0.0
  0
LINE
  5
50
100
AcDbEntity
  8
一般
370
               5
  6
Continuous
 62
               7
100
AcDbLine
 10
-133.28040348510828
 20
114.50000000000006
 30
0.0
 11
-116.48040348510803
 21
114.50000000000006
 31
0.0
  0
LINE
  5
51
100
AcDbEntity
  8
一般
370
               5
  6
Continuous
 62
               7
100
AcDbLine
 10
-132.18040348510823
 20
113.80000000000007
 30
0.0
 11
-118.28040348510802
 21
113.80000000000007
 31
0.0
  0
LINE
  5
52
100
AcDbEntity
  8
一般
370
               5
  6
Continuous
 62
               7
100
AcDbLine
 10
-131.08040348510818
 20
113.30000000000007
 30
0.0
 11
-120.48040348510803
 21
113.30000000000007
 31
0.0
  0
LINE
  5
53
100
AcDbEntity
  8
一般
370
               5
  6
Continuous
 62
               7
100
AcDbLine
 10
-128.08040348510804
 20
112.40000000000006
 30
0.0
 11
-122.88040348510803
 21
112.40000000000006
 31
0.0
  0
ENDBLK
  5
54
100
AcDbEntity
  8
一般
100
AcDbBlockEnd
  0
BLOCK
  5
55
100
AcDbEntity
  8
一般
100
AcDbBlockBegin
  2
グループ-2
 70
               0
 10
0.0
 20
0.0
 30
0.0
  3
グループ-2
  1

  0
SPLINE
  5
56
100
AcDbEntity
  8
一般
370
              15
  6
Continuous
 62
               7
100
AcDbSpline
210
0.0
220
0.0
230
1.0
 70
               9
 71
               2
 72
              23
 73
              20
 74
               0
 42
0.000001
 43
0.000001
 40
0.0
 40
0.0
 40
0.0
 40
1.0
 40
1.0
 40
2.0
 40
2.0
 40
3.0
 40
3.0
 40
4.0
 40
5.0
 40
5.0
 40
6.0
 40
6.0
 40
7.0
 40
7.0
 40
8.0
 40
8.0
 40
9.0
 40
9.0
 40
10.0
 40
10.0
 40
10.0
 10
-106.92460402810204
 20
44.136271807029317
 30
0.0
 10
-106.92460402810204
 20
24.136271807029278
 30
0.0
 10
-106.92460402810204
 20
4.1362718070292406
 30
0.0
 10
-108.39815004906822
 20
4.1362718070292406
 30
0.0
 10
-109.87169607003442
 20
4.1362718070292406
 30
0.0
 10
-109.87169607003442
 20
4.1397066338662842
 30
0.0
 10
-109.87169607003442
 20
4.1440179081885606
 30
0.0
 10
-109.87169607003442
 20
6.8235098324997896
 30
0.0
 10
-111.42580138613492
 20
11.46452598387733
 30
0.0
 10
-112.77169607003442
 20
12.804271946032939
 30
0.0
 10
-114.1005497102385
 20
14.127054716525093
 30
0.0
 10
-115.63325036247919
 20
14.143814257765269
 30
0.0
 10
-115.63325036247919
 20
14.148410908799649
 30
0.0
 10
-115.63325036247919
 20
14.153007559834029
 30
0.0
 10
-128.77892719529061
 20
14.153007559834029
 30
0.0
 10
-141.92460402810204
 20
14.153007559834029
 30
0.0
 10
-141.92460402810204
 20
29.144639683431674
 30
0.0
 10
-141.92460402810204
 20
44.136271807029317
 30
0.0
 10
-124.42460402810204
 20
44.136271807029317
 30
0.0
 10
-106.92460402810204
 20
44.136271807029317
 30
0.0
  0
SPLINE
  5
57
100
AcDbEntity
  8
一般
370
              15
  6
Continuous
 62
               7
100
AcDbSpline
210
0.0
220
0.0
230
1.0
 70
               9
 71
               2
 72
              23
 73
              20
 74
               0
 42
0.000001
 43
0.000001
 40
0.0
 40
0.0
 40
0.0
 40
1.0
 40
1.0
 40
2.0
 40
2.0
 40
3.0
 40
3.0
 40
4.0
 40
5.0
 40
5.0
 40
6.0
 40
6.0
 40
7.0
 40
7.0
 40
8.0
 40
8.0
 40
9.0
 40
9.0
 40
10.0
 40
10.0
 40
10.0
 10
-241.89786253134608
 20
44.167327177883884
 30
0.0
 10
-241.89786253134608
 20
24.167327177883845
 30
0.0
 10
-241.89786253134608
 20
4.1673271778838039
 30
0.0
 10
-240.4243165103799
 20
4.1673271778838039
 30
0.0
 10
-238.95077048941371
 20
4.1673271778838039
 30
0.0
 10
-238.95077048941371
 20
4.1707620047208476
 30
0.0
 10
-238.95077048941371
 20
4.175073279043124
 30
0.0
 10
-238.95077048941371
 20
6.8545652033543529
 30
0.0
 10
-237.39666517331321
 20
11.495581354731891
 30
0.0
 10
-236.05077048941371
 20
12.835327316887502
 30
0.0
 10
-234.72191684920963
 20
14.158110087379656
 30
0.0
 10
-233.18921619696894
 20
14.174869628619833
 30
0.0
 10
-233.18921619696894
 20
14.179466279654212
 30
0.0
 10
-233.18921619696894
 20
14.184062930688592
 30
0.0
 10
-220.04353936415751
 20
14.184062930688592
 30
0.0
 10
-206.89786253134608
 20
14.184062930688592
 30
0.0
 10
-206.89786253134608
 20
29.175695054286237
 30
0.0
 10
-206.89786253134608
 20
44.167327177883884
 30
0.0
 10
-224.39786253134608
 20
44.167327177883884
 30
0.0
 10
-241.89786253134608
 20
44.167327177883884
 30
0.0
  0
LINE
  5
58
100
AcDbEntity
  8
一般
370
               5
  6
STYLE_06
 62
               7
100
AcDbLine
 10
-234.79999999999993
 20
24.318884211046768
 30
0.0
 11
-125.19999999999992
 21
24.318884211046768
 31
0.0
  0
POLYLINE
  5
59
100
AcDbEntity
  8
一般
370
               5
  6
Continuous
 62
               7
100
AcDb2dPolyline
 66
               1
 10
0.0
 20
0.0
 30
0.0
 70
               1
 75
               5
  0
VERTEX
  5
5A
100
AcDbEntity
  8
一般
370
               5
  6
Continuous
 62
               7
100
AcDbVertex
100
AcDb2dVertex
 10
-191.29451877366162
 20
26.563555310535563
 30
0.0
  0
VERTEX
  5
5B
100
AcDbEntity
  8
一般
370
               5
  6
Continuous
 62
               7
100
AcDbVertex
100
AcDb2dVertex
 10
-191.19451877366163
 20
26.763555310535555
 30
0.0
  0
VERTEX
  5
5C
100
AcDbEntity
  8
一般
370
               5
  6
Continuous
 62
               7
100
AcDbVertex
100
AcDb2dVertex
 10
-156.39451877366162
 20
26.763555310535555
 30
0.0
  0
VERTEX
  5
5D
100
AcDbEntity
  8
一般
370
               5
  6
Continuous
 62
               7
100
AcDbVertex
100
AcDb2dVertex
 10
-156.29451877366162
 20
26.563555310535563
 30
0.0
  0
VERTEX
  5
5E
100
AcDbEntity
  8
一般
370
               5
  6
Continuous
 62
               7
100
AcDbVertex
100
AcDb2dVertex
 10
-156.29451877366162
 20
21.963555310535543
 30
0.0
  0
VERTEX
  5
5F
100
AcDbEntity
  8
一般
370
               5
  6
Continuous
 62
               7
100
AcDbVertex
100
AcDb2dVertex
 10
-156.39451877366162
 20
21.763555310535523
 30
0.0
  0
VERTEX
  5
60
100
AcDbEntity
  8
一般
370
               5
  6
Continuous
 62
               7
100
AcDbVertex
100
AcDb2dVertex
 10
-191.19451877366163
 20
21.763555310535523
 30
0.0
  0
VERTEX
  5
61
100
AcDbEntity
  8
一般
370
               5
  6
Continuous
 62
               7
100
AcDbVertex
100
AcDb2dVertex
 10
-191.29451877366162
 20
21.963555310535543
 30
0.0
  0
SEQEND
  5
62
100
AcDbEntity
  8
一般
370
               5
  6
Continuous
 62
               7
  0
POLYLINE
  5
63
100
AcDbEntity
  8
一般
370
               5
  6
Continuous
 62
               7
100
AcDb2dPolyline
 66
               1
 10
0.0
 20
0.0
 30
0.0
 70
               1
 75
               5
  0
VERTEX
  5
64
100
AcDbEntity
  8
一般
370
               5
  6
Continuous
 62
               7
100
AcDbVertex
100
AcDb2dVertex
 10
-190.97354115513389
 20
25.922963614659789
 30
0.0
  0
VERTEX
  5
65
100
AcDbEntity
  8
一般
370
               5
  6
Continuous
 62
               7
100
AcDbVertex
100
AcDb2dVertex
 10
-190.80212772757204
 20
27.073555310535529
 30
0.0
  0
VERTEX
  5
66
100
AcDbEntity
  8
一般
370
               5
  6
Continuous
 62
               7
100
AcDbVertex
100
AcDb2dVertex
 10
-190.75354115513389
 20
22.684147006411216
 30
0.0
  0
VERTEX
  5
67
100
AcDbEntity
  8
一般
370
               5
  6
Continuous
 62
               7
100
AcDbVertex
100
AcDb2dVertex
 10
-190.92495458269573
 20
21.533555310535505
 30
0.0
  0
SEQEND
  5
68
100
AcDbEntity
  8
一般
370
               5
  6
Continuous
 62
               7
  0
POLYLINE
  5
69
100
AcDbEntity
  8
一般
370
               5
  6
Continuous
 62
               7
100
AcDb2dPolyline
 66
               1
 10
0.0
 20
0.0
 30
0.0
 70
               1
 75
               5
  0
VERTEX
  5
6A
100
AcDbEntity
  8
一般
370
               5
  6
Continuous
 62
               7
100
AcDbVertex
100
AcDb2dVertex
 10
-189.87354115513389
 20
25.922963614659789
 30
0.0
  0
VERTEX
  5
6B
100
AcDbEntity
  8
一般
370
               5
  6
Continuous
 62
               7
100
AcDbVertex
100
AcDb2dVertex
 10
-189.70212772757205
 20
27.073555310535529
 30
0.0
  0
VERTEX
  5
6C
100
AcDbEntity
  8
一般
370
               5
  6
Continuous
 62
               7
100
AcDbVertex
100
AcDb2dVertex
 10
-189.65354115513389
 20
22.684147006411216
 30
0.0
  0
VERTEX
  5
6D
100
AcDbEntity
  8
一般
370
               5
  6
Continuous
 62
               7
100
AcDbVertex
100
AcDb2dVertex
 10
-189.82495458269574
 20
21.533555310535505
 30
0.0
  0
SEQEND
  5
6E
100
AcDbEntity
  8
一般
370
               5
  6
Continuous
 62
               7
  0
POLYLINE
  5
6F
100
AcDbEntity
  8
一般
370
               5
  6
Continuous
 62
               7
100
AcDb2dPolyline
 66
               1
 10
0.0
 20
0.0
 30
0.0
 70
               1
 75
               5
  0
VERTEX
  5
70
100
AcDbEntity
  8
一般
370
               5
  6
Continuous
 62
               7
100
AcDbVertex
100
AcDb2dVertex
 10
-188.7735411551339
 20
25.922963614659789
 30
0.0
  0
VERTEX
  5
71
100
AcDbEntity
  8
一般
370
               5
  6
Continuous
 62
               7
100
AcDbVertex
100
AcDb2dVertex
 10
-188.60212772757205
 20
27.073555310535529
 30
0.0
  0
VERTEX
  5
72
100
AcDbEntity
  8
一般
370
               5
  6
Continuous
 62
               7
100
AcDbVertex
100
AcDb2dVertex
 10
-188.5535411551339
 20
22.684147006411216
 30
0.0
  0
VERTEX
  5
73
100
AcDbEntity
  8
一般
370
               5
  6
Continuous
 62
               7
100
AcDbVertex
100
AcDb2dVertex
 10
-188.72495458269574
 20
21.533555310535505
 30
0.0
  0
SEQEND
  5
74
100
AcDbEntity
  8
一般
370
               5
  6
Continuous
 62
               7
  0
POLYLINE
  5
75
100
AcDbEntity
  8
一般
370
               5
  6
Continuous
 62
               7
100
AcDb2dPolyline
 66
               1
 10
0.0
 20
0.0
 30
0.0
 70
               1
 75
               5
  0
VERTEX
  5
76
100
AcDbEntity
  8
一般
370
               5
  6
Continuous
 62
               7
100
AcDbVertex
100
AcDb2dVertex
 10
-187.67354115513388
 20
25.922963614659789
 30
0.0
  0
VERTEX
  5
77
100
AcDbEntity
  8
一般
370
               5
  6
Continuous
 62
               7
100
AcDbVertex
100
AcDb2dVertex
 10
-187.50212772757203
 20
27.073555310535529
 30
0.0
  0
VERTEX
  5
78
100
AcDbEntity
  8
一般
370
               5
  6
Continuous
 62
               7
100
AcDbVertex
100
AcDb2dVertex
 10
-187.45354115513388
 20
22.684147006411216
 30
0.0
  0
VERTEX
  5
79
100
AcDbEntity
  8
一般
370
               5
  6
Continuous
 62
               7
100
AcDbVertex
100
AcDb2dVertex
 10
-187.62495458269572
 20
21.533555310535505
 30
0.0
  0
SEQEND
  5
7A
100
AcDbEntity
  8
一般
370
               5
  6
Continuous
 62
               7
  0
POLYLINE
  5
7B
100
AcDbEntity
  8
一般
370
               5
  6
Continuous
 62
               7
100
AcDb2dPolyline
 66
               1
 10
0.0
 20
0.0
 30
0.0
 70
               1
 75
               5
  0
VERTEX
  5
7C
100
AcDbEntity
  8
一般
370
               5
  6
Continuous
 62
               7
100
AcDbVertex
100
AcDb2dVertex
 10
-186.57354115513388
 20
25.922963614659789
 30
0.0
  0
VERTEX
  5
7D
100
AcDbEntity
  8
一般
370
               5
  6
Continuous
 62
               7
100
AcDbVertex
100
AcDb2dVertex
 10
-186.40212772757204
 20
27.073555310535529
 30
0.0
  0
VERTEX
  5
7E
100
AcDbEntity
  8
一般
370
               5
  6
Continuous
 62
               7
100
AcDbVertex
100
AcDb2dVertex
 10
-186.35354115513388
 20
22.684147006411216
 30
0.0
  0
VERTEX
  5
7F
100
AcDbEntity
  8
一般
370
               5
  6
Continuous
 62
               7
100
AcDbVertex
100
AcDb2dVertex
 10
-186.52495458269573
 20
21.533555310535505
 30
0.0
  0
SEQEND
  5
80
100
AcDbEntity
  8
一般
370
               5
  6
Continuous
 62
               7
  0
POLYLINE
  5
81
100
AcDbEntity
  8
一般
370
               5
  6
Continuous
 62
               7
100
AcDb2dPolyline
 66
               1
 10
0.0
 20
0.0
 30
0.0
 70
               1
 75
               5
  0
VERTEX
  5
82
100
AcDbEntity
  8
一般
370
               5
  6
Continuous
 62
               7
100
AcDbVertex
100
AcDb2dVertex
 10
-185.47354115513389
 20
25.922963614659789
 30
0.0
  0
VERTEX
  5
83
100
AcDbEntity
  8
一般
370
               5
  6
Continuous
 62
               7
100
AcDbVertex
100
AcDb2dVertex
 10
-185.30212772757204
 20
27.073555310535529
 30
0.0
  0
VERTEX
  5
84
100
AcDbEntity
  8
一般
370
               5
  6
Continuous
 62
               7
100
AcDbVertex
100
AcDb2dVertex
 10
-185.25354115513389
 20
22.684147006411216
 30
0.0
  0
VERTEX
  5
85
100
AcDbEntity
  8
一般
370
               5
  6
Continuous
 62
               7
100
AcDbVertex
100
AcDb2dVertex
 10
-185.42495458269573
 20
21.533555310535505
 30
0.0
  0
SEQEND
  5
86
100
AcDbEntity
  8
一般
370
               5
  6
Continuous
 62
               7
  0
POLYLINE
  5
87
100
AcDbEntity
  8
一般
370
               5
  6
Continuous
 62
               7
100
AcDb2dPolyline
 66
               1
 10
0.0
 20
0.0
 30
0.0
 70
               1
 75
               5
  0
VERTEX
  5
88
100
AcDbEntity
  8
一般
370
               5
  6
Continuous
 62
               7
100
AcDbVertex
100
AcDb2dVertex
 10
-184.37354115513389
 20
25.922963614659789
 30
0.0
  0
VERTEX
  5
89
100
AcDbEntity
  8
一般
370
               5
  6
Continuous
 62
               7
100
AcDbVertex
100
AcDb2dVertex
 10
-184.20212772757205
 20
27.073555310535529
 30
0.0
  0
VERTEX
  5
8A
100
AcDbEntity
  8
一般
370
               5
  6
Continuous
 62
               7
100
AcDbVertex
100
AcDb2dVertex
 10
-184.15354115513389
 20
22.684147006411216
 30
0.0
  0
VERTEX
  5
8B
100
AcDbEntity
  8
一般
370
               5
  6
Continuous
 62
               7
100
AcDbVertex
100
AcDb2dVertex
 10
-184.32495458269574
 20
21.533555310535505
 30
0.0
  0
SEQEND
  5
8C
100
AcDbEntity
  8
一般
370
               5
  6
Continuous
 62
               7
  0
POLYLINE
  5
8D
100
AcDbEntity
  8
一般
370
               5
  6
Continuous
 62
               7
100
AcDb2dPolyline
 66
               1
 10
0.0
 20
0.0
 30
0.0
 70
               1
 75
               5
  0
VERTEX
  5
8E
100
AcDbEntity
  8
一般
370
               5
  6
Continuous
 62
               7
100
AcDbVertex
100
AcDb2dVertex
 10
-183.2735411551339
 20
25.922963614659789
 30
0.0
  0
VERTEX
  5
8F
100
AcDbEntity
  8
一般
370
               5
  6
Continuous
 62
               7
100
AcDbVertex
100
AcDb2dVertex
 10
-183.10212772757205
 20
27.073555310535529
 30
0.0
  0
VERTEX
  5
90
100
AcDbEntity
  8
一般
370
               5
  6
Continuous
 62
               7
100
AcDbVertex
100
AcDb2dVertex
 10
-183.0535411551339
 20
22.684147006411216
 30
0.0
  0
VERTEX
  5
91
100
AcDbEntity
  8
一般
370
               5
  6
Continuous
 62
               7
100
AcDbVertex
100
AcDb2dVertex
 10
-183.22495458269574
 20
21.533555310535505
 30
0.0
  0
SEQEND
  5
92
100
AcDbEntity
  8
一般
370
               5
  6
Continuous
 62
               7
  0
POLYLINE
  5
93
100
AcDbEntity
  8
一般
370
               5
  6
Continuous
 62
               7
100
AcDb2dPolyline
 66
               1
 10
0.0
 20
0.0
 30
0.0
 70
               1
 75
               5
  0
VERTEX
  5
94
100
AcDbEntity
  8
一般
370
               5
  6
Continuous
 62
               7
100
AcDbVertex
100
AcDb2dVertex
 10
-182.17354115513388
 20
25.922963614659789
 30
0.0
  0
VERTEX
  5
95
100
AcDbEntity
  8
一般
370
               5
  6
Continuous
 62
               7
100
AcDbVertex
100
AcDb2dVertex
 10
-182.00212772757203
 20
27.073555310535529
 30
0.0
  0
VERTEX
  5
96
100
AcDbEntity
  8
一般
370
               5
  6
Continuous
 62
               7
100
AcDbVertex
100
AcDb2dVertex
 10
-181.95354115513388
 20
22.684147006411216
 30
0.0
  0
VERTEX
  5
97
100
AcDbEntity
  8
一般
370
               5
  6
Continuous
 62
               7
100
AcDbVertex
100
AcDb2dVertex
 10
-182.12495458269572
 20
21.533555310535505
 30
0.0
  0
SEQEND
  5
98
100
AcDbEntity
  8
一般
370
               5
  6
Continuous
 62
               7
  0
POLYLINE
  5
99
100
AcDbEntity
  8
一般
370
               5
  6
Continuous
 62
               7
100
AcDb2dPolyline
 66
               1
 10
0.0
 20
0.0
 30
0.0
 70
               1
 75
               5
  0
VERTEX
  5
9A
100
AcDbEntity
  8
一般
370
               5
  6
Continuous
 62
               7
100
AcDbVertex
100
AcDb2dVertex
 10
-181.07354115513388
 20
25.922963614659789
 30
0.0
  0
VERTEX
  5
9B
100
AcDbEntity
  8
一般
370
               5
  6
Continuous
 62
               7
100
AcDbVertex
100
AcDb2dVertex
 10
-180.90212772757204
 20
27.073555310535529
 30
0.0
  0
VERTEX
  5
9C
100
AcDbEntity
  8
一般
370
               5
  6
Continuous
 62
               7
100
AcDbVertex
100
AcDb2dVertex
 10
-180.85354115513388
 20
22.684147006411216
 30
0.0
  0
VERTEX
  5
9D
100
AcDbEntity
  8
一般
370
               5
  6
Continuous
 62
               7
100
AcDbVertex
100
AcDb2dVertex
 10
-181.02495458269573
 20
21.533555310535505
 30
0.0
  0
SEQEND
  5
9E
100
AcDbEntity
  8
一般
370
               5
  6
Continuous
 62
               7
  0
POLYLINE
  5
9F
100
AcDbEntity
  8
一般
370
               5
  6
Continuous
 62
               7
100
AcDb2dPolyline
 66
               1
 10
0.0
 20
0.0
 30
0.0
 70
               1
 75
               5
  0
VERTEX
  5
A0
100
AcDbEntity
  8
一般
370
               5
  6
Continuous
 62
               7
100
AcDbVertex
100
AcDb2dVertex
 10
-179.97354115513389
 20
25.922963614659789
 30
0.0
  0
VERTEX
  5
A1
100
AcDbEntity
  8
一般
370
               5
  6
Continuous
 62
               7
100
AcDbVertex
100
AcDb2dVertex
 10
-179.80212772757204
 20
27.073555310535529
 30
0.0
  0
VERTEX
  5
A2
100
AcDbEntity
  8
一般
370
               5
  6
Continuous
 62
               7
100
AcDbVertex
100
AcDb2dVertex
 10
-179.75354115513389
 20
22.684147006411216
 30
0.0
  0
VERTEX
  5
A3
100
AcDbEntity
  8
一般
370
               5
  6
Continuous
 62
               7
100
AcDbVertex
100
AcDb2dVertex
 10
-179.92495458269573
 20
21.533555310535505
 30
0.0
  0
SEQEND
  5
A4
100
AcDbEntity
  8
一般
370
               5
  6
Continuous
 62
               7
  0
POLYLINE
  5
A5
100
AcDbEntity
  8
一般
370
               5
  6
Continuous
 62
               7
100
AcDb2dPolyline
 66
               1
 10
0.0
 20
0.0
 30
0.0
 70
               1
 75
               5
  0
VERTEX
  5
A6
100
AcDbEntity
  8
一般
370
               5
  6
Continuous
 62
               7
100
AcDbVertex
100
AcDb2dVertex
 10
-178.87354115513389
 20
25.922963614659789
 30
0.0
  0
VERTEX
  5
A7
100
AcDbEntity
  8
一般
370
               5
  6
Continuous
 62
               7
100
AcDbVertex
100
AcDb2dVertex
 10
-178.70212772757205
 20
27.073555310535529
 30
0.0
  0
VERTEX
  5
A8
100
AcDbEntity
  8
一般
370
               5
  6
Continuous
 62
               7
100
AcDbVertex
100
AcDb2dVertex
 10
-178.65354115513389
 20
22.684147006411216
 30
0.0
  0
VERTEX
  5
A9
100
AcDbEntity
  8
一般
370
               5
  6
Continuous
 62
               7
100
AcDbVertex
100
AcDb2dVertex
 10
-178.82495458269574
 20
21.533555310535505
 30
0.0
  0
SEQEND
  5
AA
100
AcDbEntity
  8
一般
370
               5
  6
Continuous
 62
               7
  0
POLYLINE
  5
AB
100
AcDbEntity
  8
一般
370
               5
  6
Continuous
 62
               7
100
AcDb2dPolyline
 66
               1
 10
0.0
 20
0.0
 30
0.0
 70
               1
 75
               5
  0
VERTEX
  5
AC
100
AcDbEntity
  8
一般
370
               5
  6
Continuous
 62
               7
100
AcDbVertex
100
AcDb2dVertex
 10
-177.7735411551339
 20
25.922963614659789
 30
0.0
  0
VERTEX
  5
AD
100
AcDbEntity
  8
一般
370
               5
  6
Continuous
 62
               7
100
AcDbVertex
100
AcDb2dVertex
 10
-177.60212772757205
 20
27.073555310535529
 30
0.0
  0
VERTEX
  5
AE
100
AcDbEntity
  8
一般
370
               5
  6
Continuous
 62
               7
100
AcDbVertex
100
AcDb2dVertex
 10
-177.5535411551339
 20
22.684147006411216
 30
0.0
  0
VERTEX
  5
AF
100
AcDbEntity
  8
一般
370
               5
  6
Continuous
 62
               7
100
AcDbVertex
100
AcDb2dVertex
 10
-177.72495458269574
 20
21.533555310535505
 30
0.0
  0
SEQEND
  5
B0
100
AcDbEntity
  8
一般
370
               5
  6
Continuous
 62
               7
  0
POLYLINE
  5
B1
100
AcDbEntity
  8
一般
370
               5
  6
Continuous
 62
               7
100
AcDb2dPolyline
 66
               1
 10
0.0
 20
0.0
 30
0.0
 70
               1
 75
               5
  0
VERTEX
  5
B2
100
AcDbEntity
  8
一般
370
               5
  6
Continuous
 62
               7
100
AcDbVertex
100
AcDb2dVertex
 10
-176.6735411551339
 20
25.922963614659789
 30
0.0
  0
VERTEX
  5
B3
100
AcDbEntity
  8
一般
370
               5
  6
Continuous
 62
               7
100
AcDbVertex
100
AcDb2dVertex
 10
-176.50212772757206
 20
27.073555310535529
 30
0.0
  0
VERTEX
  5
B4
100
AcDbEntity
  8
一般
370
               5
  6
Continuous
 62
               7
100
AcDbVertex
100
AcDb2dVertex
 10
-176.45354115513391
 20
22.684147006411216
 30
0.0
  0
VERTEX
  5
B5
100
AcDbEntity
  8
一般
370
               5
  6
Continuous
 62
               7
100
AcDbVertex
100
AcDb2dVertex
 10
-176.62495458269575
 20
21.533555310535505
 30
0.0
  0
SEQEND
  5
B6
100
AcDbEntity
  8
一般
370
               5
  6
Continuous
 62
               7
  0
POLYLINE
  5
B7
100
AcDbEntity
  8
一般
370
               5
  6
Continuous
 62
               7
100
AcDb2dPolyline
 66
               1
 10
0.0
 20
0.0
 30
0.0
 70
               1
 75
               5
  0
VERTEX
  5
B8
100
AcDbEntity
  8
一般
370
               5
  6
Continuous
 62
               7
100
AcDbVertex
100
AcDb2dVertex
 10
-175.57354115513388
 20
25.922963614659789
 30
0.0
  0
VERTEX
  5
B9
100
AcDbEntity
  8
一般
370
               5
  6
Continuous
 62
               7
100
AcDbVertex
100
AcDb2dVertex
 10
-175.40212772757204
 20
27.073555310535529
 30
0.0
  0
VERTEX
  5
BA
100
AcDbEntity
  8
一般
370
               5
  6
Continuous
 62
               7
100
AcDbVertex
100
AcDb2dVertex
 10
-175.35354115513388
 20
22.684147006411216
 30
0.0
  0
VERTEX
  5
BB
100
AcDbEntity
  8
一般
370
               5
  6
Continuous
 62
               7
100
AcDbVertex
100
AcDb2dVertex
 10
-175.52495458269573
 20
21.533555310535505
 30
0.0
  0
SEQEND
  5
BC
100
AcDbEntity
  8
一般
370
               5
  6
Continuous
 62
               7
  0
POLYLINE
  5
BD
100
AcDbEntity
  8
一般
370
               5
  6
Continuous
 62
               7
100
AcDb2dPolyline
 66
               1
 10
0.0
 20
0.0
 30
0.0
 70
               1
 75
               5
  0
VERTEX
  5
BE
100
AcDbEntity
  8
一般
370
               5
  6
Continuous
 62
               7
100
AcDbVertex
100
AcDb2dVertex
 10
-174.47354115513389
 20
25.922963614659789
 30
0.0
  0
VERTEX
  5
BF
100
AcDbEntity
  8
一般
370
               5
  6
Continuous
 62
               7
100
AcDbVertex
100
AcDb2dVertex
 10
-174.30212772757204
 20
27.073555310535529
 30
0.0
  0
VERTEX
  5
C0
100
AcDbEntity
  8
一般
370
               5
  6
Continuous
 62
               7
100
AcDbVertex
100
AcDb2dVertex
 10
-174.25354115513389
 20
22.684147006411216
 30
0.0
  0
VERTEX
  5
C1
100
AcDbEntity
  8
一般
370
               5
  6
Continuous
 62
               7
100
AcDbVertex
100
AcDb2dVertex
 10
-174.42495458269573
 20
21.533555310535505
 30
0.0
  0
SEQEND
  5
C2
100
AcDbEntity
  8
一般
370
               5
  6
Continuous
 62
               7
  0
POLYLINE
  5
C3
100
AcDbEntity
  8
一般
370
               5
  6
Continuous
 62
               7
100
AcDb2dPolyline
 66
               1
 10
0.0
 20
0.0
 30
0.0
 70
               1
 75
               5
  0
VERTEX
  5
C4
100
AcDbEntity
  8
一般
370
               5
  6
Continuous
 62
               7
100
AcDbVertex
100
AcDb2dVertex
 10
-173.37354115513389
 20
25.922963614659789
 30
0.0
  0
VERTEX
  5
C5
100
AcDbEntity
  8
一般
370
               5
  6
Continuous
 62
               7
100
AcDbVertex
100
AcDb2dVertex
 10
-173.20212772757205
 20
27.073555310535529
 30
0.0
  0
VERTEX
  5
C6
100
AcDbEntity
  8
一般
370
               5
  6
Continuous
 62
               7
100
AcDbVertex
100
AcDb2dVertex
 10
-173.15354115513389
 20
22.684147006411216
 30
0.0
  0
VERTEX
  5
C7
100
AcDbEntity
  8
一般
370
               5
  6
Continuous
 62
               7
100
AcDbVertex
100
AcDb2dVertex
 10
-173.32495458269574
 20
21.533555310535505
 30
0.0
  0
SEQEND
  5
C8
100
AcDbEntity
  8
一般
370
               5
  6
Continuous
 62
               7
  0
POLYLINE
  5
C9
100
AcDbEntity
  8
一般
370
               5
  6
Continuous
 62
               7
100
AcDb2dPolyline
 66
               1
 10
0.0
 20
0.0
 30
0.0
 70
               1
 75
               5
  0
VERTEX
  5
CA
100
AcDbEntity
  8
一般
370
               5
  6
Continuous
 62
               7
100
AcDbVertex
100
AcDb2dVertex
 10
-172.2735411551339
 20
25.922963614659789
 30
0.0
  0
VERTEX
  5
CB
100
AcDbEntity
  8
一般
370
               5
  6
Continuous
 62
               7
100
AcDbVertex
100
AcDb2dVertex
 10
-172.10212772757205
 20
27.073555310535529
 30
0.0
  0
VERTEX
  5
CC
100
AcDbEntity
  8
一般
370
               5
  6
Continuous
 62
               7
100
AcDbVertex
100
AcDb2dVertex
 10
-172.0535411551339
 20
22.684147006411216
 30
0.0
  0
VERTEX
  5
CD
100
AcDbEntity
  8
一般
370
               5
  6
Continuous
 62
               7
100
AcDbVertex
100
AcDb2dVertex
 10
-172.22495458269574
 20
21.533555310535505
 30
0.0
  0
SEQEND
  5
CE
100
AcDbEntity
  8
一般
370
               5
  6
Continuous
 62
               7
  0
POLYLINE
  5
CF
100
AcDbEntity
  8
一般
370
               5
  6
Continuous
 62
               7
100
AcDb2dPolyline
 66
               1
 10
0.0
 20
0.0
 30
0.0
 70
               1
 75
               5
  0
VERTEX
  5
D0
100
AcDbEntity
  8
一般
370
               5
  6
Continuous
 62
               7
100
AcDbVertex
100
AcDb2dVertex
 10
-171.17354115513388
 20
25.922963614659789
 30
0.0
  0
VERTEX
  5
D1
100
AcDbEntity
  8
一般
370
               5
  6
Continuous
 62
               7
100
AcDbVertex
100
AcDb2dVertex
 10
-171.00212772757203
 20
27.073555310535529
 30
0.0
  0
VERTEX
  5
D2
100
AcDbEntity
  8
一般
370
               5
  6
Continuous
 62
               7
100
AcDbVertex
100
AcDb2dVertex
 10
-170.95354115513388
 20
22.684147006411216
 30
0.0
  0
VERTEX
  5
D3
100
AcDbEntity
  8
一般
370
               5
  6
Continuous
 62
               7
100
AcDbVertex
100
AcDb2dVertex
 10
-171.12495458269572
 20
21.533555310535505
 30
0.0
  0
SEQEND
  5
D4
100
AcDbEntity
  8
一般
370
               5
  6
Continuous
 62
               7
  0
POLYLINE
  5
D5
100
AcDbEntity
  8
一般
370
               5
  6
Continuous
 62
               7
100
AcDb2dPolyline
 66
               1
 10
0.0
 20
0.0
 30
0.0
 70
               1
 75
               5
  0
VERTEX
  5
D6
100
AcDbEntity
  8
一般
370
               5
  6
Continuous
 62
               7
100
AcDbVertex
100
AcDb2dVertex
 10
-170.07354115513388
 20
25.922963614659789
 30
0.0
  0
VERTEX
  5
D7
100
AcDbEntity
  8
一般
370
               5
  6
Continuous
 62
               7
100
AcDbVertex
100
AcDb2dVertex
 10
-169.90212772757204
 20
27.073555310535529
 30
0.0
  0
VERTEX
  5
D8
100
AcDbEntity
  8
一般
370
               5
  6
Continuous
 62
               7
100
AcDbVertex
100
AcDb2dVertex
 10
-169.85354115513388
 20
22.684147006411216
 30
0.0
  0
VERTEX
  5
D9
100
AcDbEntity
  8
一般
370
               5
  6
Continuous
 62
               7
100
AcDbVertex
100
AcDb2dVertex
 10
-170.02495458269573
 20
21.533555310535505
 30
0.0
  0
SEQEND
  5
DA
100
AcDbEntity
  8
一般
370
               5
  6
Continuous
 62
               7
  0
POLYLINE
  5
DB
100
AcDbEntity
  8
一般
370
               5
  6
Continuous
 62
               7
100
AcDb2dPolyline
 66
               1
 10
0.0
 20
0.0
 30
0.0
 70
               1
 75
               5
  0
VERTEX
  5
DC
100
AcDbEntity
  8
一般
370
               5
  6
Continuous
 62
               7
100
AcDbVertex
100
AcDb2dVertex
 10
-168.97354115513389
 20
25.922963614659789
 30
0.0
  0
VERTEX
  5
DD
100
AcDbEntity
  8
一般
370
               5
  6
Continuous
 62
               7
100
AcDbVertex
100
AcDb2dVertex
 10
-168.80212772757204
 20
27.073555310535529
 30
0.0
  0
VERTEX
  5
DE
100
AcDbEntity
  8
一般
370
               5
  6
Continuous
 62
               7
100
AcDbVertex
100
AcDb2dVertex
 10
-168.75354115513389
 20
22.684147006411216
 30
0.0
  0
VERTEX
  5
DF
100
AcDbEntity
  8
一般
370
               5
  6
Continuous
 62
               7
100
AcDbVertex
100
AcDb2dVertex
 10
-168.92495458269573
 20
21.533555310535505
 30
0.0
  0
SEQEND
  5
E0
100
AcDbEntity
  8
一般
370
               5
  6
Continuous
 62
               7
  0
POLYLINE
  5
E1
100
AcDbEntity
  8
一般
370
               5
  6
Continuous
 62
               7
100
AcDb2dPolyline
 66
               1
 10
0.0
 20
0.0
 30
0.0
 70
               1
 75
               5
  0
VERTEX
  5
E2
100
AcDbEntity
  8
一般
370
               5
  6
Continuous
 62
               7
100
AcDbVertex
100
AcDb2dVertex
 10
-167.87354115513389
 20
25.922963614659789
 30
0.0
  0
VERTEX
  5
E3
100
AcDbEntity
  8
一般
370
               5
  6
Continuous
 62
               7
100
AcDbVertex
100
AcDb2dVertex
 10
-167.70212772757205
 20
27.073555310535529
 30
0.0
  0
VERTEX
  5
E4
100
AcDbEntity
  8
一般
370
               5
  6
Continuous
 62
               7
100
AcDbVertex
100
AcDb2dVertex
 10
-167.65354115513389
 20
22.684147006411216
 30
0.0
  0
VERTEX
  5
E5
100
AcDbEntity
  8
一般
370
               5
  6
Continuous
 62
               7
100
AcDbVertex
100
AcDb2dVertex
 10
-167.82495458269574
 20
21.533555310535505
 30
0.0
  0
SEQEND
  5
E6
100
AcDbEntity
  8
一般
370
               5
  6
Continuous
 62
               7
  0
POLYLINE
  5
E7
100
AcDbEntity
  8
一般
370
               5
  6
Continuous
 62
               7
100
AcDb2dPolyline
 66
               1
 10
0.0
 20
0.0
 30
0.0
 70
               1
 75
               5
  0
VERTEX
  5
E8
100
AcDbEntity
  8
一般
370
               5
  6
Continuous
 62
               7
100
AcDbVertex
100
AcDb2dVertex
 10
-166.77354115513387
 20
25.922963614659789
 30
0.0
  0
VERTEX
  5
E9
100
AcDbEntity
  8
一般
370
               5
  6
Continuous
 62
               7
100
AcDbVertex
100
AcDb2dVertex
 10
-166.60212772757203
 20
27.073555310535529
 30
0.0
  0
VERTEX
  5
EA
100
AcDbEntity
  8
一般
370
               5
  6
Continuous
 62
               7
100
AcDbVertex
100
AcDb2dVertex
 10
-166.55354115513387
 20
22.684147006411216
 30
0.0
  0
VERTEX
  5
EB
100
AcDbEntity
  8
一般
370
               5
  6
Continuous
 62
               7
100
AcDbVertex
100
AcDb2dVertex
 10
-166.72495458269572
 20
21.533555310535505
 30
0.0
  0
SEQEND
  5
EC
100
AcDbEntity
  8
一般
370
               5
  6
Continuous
 62
               7
  0
POLYLINE
  5
ED
100
AcDbEntity
  8
一般
370
               5
  6
Continuous
 62
               7
100
AcDb2dPolyline
 66
               1
 10
0.0
 20
0.0
 30
0.0
 70
               1
 75
               5
  0
VERTEX
  5
EE
100
AcDbEntity
  8
一般
370
               5
  6
Continuous
 62
               7
100
AcDbVertex
100
AcDb2dVertex
 10
-165.67354115513388
 20
25.922963614659789
 30
0.0
  0
VERTEX
  5
EF
100
AcDbEntity
  8
一般
370
               5
  6
Continuous
 62
               7
100
AcDbVertex
100
AcDb2dVertex
 10
-165.50212772757203
 20
27.073555310535529
 30
0.0
  0
VERTEX
  5
F0
100
AcDbEntity
  8
一般
370
               5
  6
Continuous
 62
               7
100
AcDbVertex
100
AcDb2dVertex
 10
-165.45354115513388
 20
22.684147006411216
 30
0.0
  0
VERTEX
  5
F1
100
AcDbEntity
  8
一般
370
               5
  6
Continuous
 62
               7
100
AcDbVertex
100
AcDb2dVertex
 10
-165.62495458269572
 20
21.533555310535505
 30
0.0
  0
SEQEND
  5
F2
100
AcDbEntity
  8
一般
370
               5
  6
Continuous
 62
               7
  0
POLYLINE
  5
F3
100
AcDbEntity
  8
一般
370
               5
  6
Continuous
 62
               7
100
AcDb2dPolyline
 66
               1
 10
0.0
 20
0.0
 30
0.0
 70
               1
 75
               5
  0
VERTEX
  5
F4
100
AcDbEntity
  8
一般
370
               5
  6
Continuous
 62
               7
100
AcDbVertex
100
AcDb2dVertex
 10
-164.57354115513388
 20
25.922963614659789
 30
0.0
  0
VERTEX
  5
F5
100
AcDbEntity
  8
一般
370
               5
  6
Continuous
 62
               7
100
AcDbVertex
100
AcDb2dVertex
 10
-164.40212772757204
 20
27.073555310535529
 30
0.0
  0
VERTEX
  5
F6
100
AcDbEntity
  8
一般
370
               5
  6
Continuous
 62
               7
100
AcDbVertex
100
AcDb2dVertex
 10
-164.35354115513388
 20
22.684147006411216
 30
0.0
  0
VERTEX
  5
F7
100
AcDbEntity
  8
一般
370
               5
  6
Continuous
 62
               7
100
AcDbVertex
100
AcDb2dVertex
 10
-164.52495458269573
 20
21.533555310535505
 30
0.0
  0
SEQEND
  5
F8
100
AcDbEntity
  8
一般
370
               5
  6
Continuous
 62
               7
  0
POLYLINE
  5
F9
100
AcDbEntity
  8
一般
370
               5
  6
Continuous
 62
               7
100
AcDb2dPolyline
 66
               1
 10
0.0
 20
0.0
 30
0.0
 70
               1
 75
               5
  0
VERTEX
  5
FA
100
AcDbEntity
  8
一般
370
               5
  6
Continuous
 62
               7
100
AcDbVertex
100
AcDb2dVertex
 10
-163.47354115513389
 20
25.922963614659789
 30
0.0
  0
VERTEX
  5
FB
100
AcDbEntity
  8
一般
370
               5
  6
Continuous
 62
               7
100
AcDbVertex
100
AcDb2dVertex
 10
-163.30212772757204
 20
27.073555310535529
 30
0.0
  0
VERTEX
  5
FC
100
AcDbEntity
  8
一般
370
               5
  6
Continuous
 62
               7
100
AcDbVertex
100
AcDb2dVertex
 10
-163.25354115513389
 20
22.684147006411216
 30
0.0
  0
VERTEX
  5
FD
100
AcDbEntity
  8
一般
370
               5
  6
Continuous
 62
               7
100
AcDbVertex
100
AcDb2dVertex
 10
-163.42495458269573
 20
21.533555310535505
 30
0.0
  0
SEQEND
  5
FE
100
AcDbEntity
  8
一般
370
               5
  6
Continuous
 62
               7
  0
POLYLINE
  5
FF
100
AcDbEntity
  8
一般
370
               5
  6
Continuous
 62
               7
100
AcDb2dPolyline
 66
               1
 10
0.0
 20
0.0
 30
0.0
 70
               1
 75
               5
  0
VERTEX
  5
100
100
AcDbEntity
  8
一般
370
               5
  6
Continuous
 62
               7
100
AcDbVertex
100
AcDb2dVertex
 10
-162.37354115513386
 20
25.922963614659789
 30
0.0
  0
VERTEX
  5
101
100
AcDbEntity
  8
一般
370
               5
  6
Continuous
 62
               7
100
AcDbVertex
100
AcDb2dVertex
 10
-162.20212772757202
 20
27.073555310535529
 30
0.0
  0
VERTEX
  5
102
100
AcDbEntity
  8
一般
370
               5
  6
Continuous
 62
               7
100
AcDbVertex
100
AcDb2dVertex
 10
-162.15354115513387
 20
22.684147006411216
 30
0.0
  0
VERTEX
  5
103
100
AcDbEntity
  8
一般
370
               5
  6
Continuous
 62
               7
100
AcDbVertex
100
AcDb2dVertex
 10
-162.32495458269571
 20
21.533555310535505
 30
0.0
  0
SEQEND
  5
104
100
AcDbEntity
  8
一般
370
               5
  6
Continuous
 62
               7
  0
POLYLINE
  5
105
100
AcDbEntity
  8
一般
370
               5
  6
Continuous
 62
               7
100
AcDb2dPolyline
 66
               1
 10
0.0
 20
0.0
 30
0.0
 70
               1
 75
               5
  0
VERTEX
  5
106
100
AcDbEntity
  8
一般
370
               5
  6
Continuous
 62
               7
100
AcDbVertex
100
AcDb2dVertex
 10
-161.27354115513387
 20
25.922963614659789
 30
0.0
  0
VERTEX
  5
107
100
AcDbEntity
  8
一般
370
               5
  6
Continuous
 62
               7
100
AcDbVertex
100
AcDb2dVertex
 10
-161.10212772757203
 20
27.073555310535529
 30
0.0
  0
VERTEX
  5
108
100
AcDbEntity
  8
一般
370
               5
  6
Continuous
 62
               7
100
AcDbVertex
100
AcDb2dVertex
 10
-161.05354115513387
 20
22.684147006411216
 30
0.0
  0
VERTEX
  5
109
100
AcDbEntity
  8
一般
370
               5
  6
Continuous
 62
               7
100
AcDbVertex
100
AcDb2dVertex
 10
-161.22495458269572
 20
21.533555310535505
 30
0.0
  0
SEQEND
  5
10A
100
AcDbEntity
  8
一般
370
               5
  6
Continuous
 62
               7
  0
POLYLINE
  5
10B
100
AcDbEntity
  8
一般
370
               5
  6
Continuous
 62
               7
100
AcDb2dPolyline
 66
               1
 10
0.0
 20
0.0
 30
0.0
 70
               1
 75
               5
  0
VERTEX
  5
10C
100
AcDbEntity
  8
一般
370
               5
  6
Continuous
 62
               7
100
AcDbVertex
100
AcDb2dVertex
 10
-160.17354115513388
 20
25.922963614659789
 30
0.0
  0
VERTEX
  5
10D
100
AcDbEntity
  8
一般
370
               5
  6
Continuous
 62
               7
100
AcDbVertex
100
AcDb2dVertex
 10
-160.00212772757203
 20
27.073555310535529
 30
0.0
  0
VERTEX
  5
10E
100
AcDbEntity
  8
一般
370
               5
  6
Continuous
 62
               7
100
AcDbVertex
100
AcDb2dVertex
 10
-159.95354115513388
 20
22.684147006411216
 30
0.0
  0
VERTEX
  5
10F
100
AcDbEntity
  8
一般
370
               5
  6
Continuous
 62
               7
100
AcDbVertex
100
AcDb2dVertex
 10
-160.12495458269572
 20
21.533555310535505
 30
0.0
  0
SEQEND
  5
110
100
AcDbEntity
  8
一般
370
               5
  6
Continuous
 62
               7
  0
POLYLINE
  5
111
100
AcDbEntity
  8
一般
370
               5
  6
Continuous
 62
               7
100
AcDb2dPolyline
 66
               1
 10
0.0
 20
0.0
 30
0.0
 70
               1
 75
               5
  0
VERTEX
  5
112
100
AcDbEntity
  8
一般
370
               5
  6
Continuous
 62
               7
100
AcDbVertex
100
AcDb2dVertex
 10
-159.07354115513388
 20
25.922963614659789
 30
0.0
  0
VERTEX
  5
113
100
AcDbEntity
  8
一般
370
               5
  6
Continuous
 62
               7
100
AcDbVertex
100
AcDb2dVertex
 10
-158.90212772757204
 20
27.073555310535529
 30
0.0
  0
VERTEX
  5
114
100
AcDbEntity
  8
一般
370
               5
  6
Continuous
 62
               7
100
AcDbVertex
100
AcDb2dVertex
 10
-158.85354115513388
 20
22.684147006411216
 30
0.0
  0
VERTEX
  5
115
100
AcDbEntity
  8
一般
370
               5
  6
Continuous
 62
               7
100
AcDbVertex
100
AcDb2dVertex
 10
-159.02495458269573
 20
21.533555310535505
 30
0.0
  0
SEQEND
  5
116
100
AcDbEntity
  8
一般
370
               5
  6
Continuous
 62
               7
  0
POLYLINE
  5
117
100
AcDbEntity
  8
一般
370
               5
  6
Continuous
 62
               7
100
AcDb2dPolyline
 66
               1
 10
0.0
 20
0.0
 30
0.0
 70
               1
 75
               5
  0
VERTEX
  5
118
100
AcDbEntity
  8
一般
370
               5
  6
Continuous
 62
               7
100
AcDbVertex
100
AcDb2dVertex
 10
-157.97354115513386
 20
25.922963614659789
 30
0.0
  0
VERTEX
  5
119
100
AcDbEntity
  8
一般
370
               5
  6
Continuous
 62
               7
100
AcDbVertex
100
AcDb2dVertex
 10
-157.80212772757201
 20
27.073555310535529
 30
0.0
  0
VERTEX
  5
11A
100
AcDbEntity
  8
一般
370
               5
  6
Continuous
 62
               7
100
AcDbVertex
100
AcDb2dVertex
 10
-157.75354115513386
 20
22.684147006411216
 30
0.0
  0
VERTEX
  5
11B
100
AcDbEntity
  8
一般
370
               5
  6
Continuous
 62
               7
100
AcDbVertex
100
AcDb2dVertex
 10
-157.9249545826957
 20
21.533555310535505
 30
0.0
  0
SEQEND
  5
11C
100
AcDbEntity
  8
一般
370
               5
  6
Continuous
 62
               7
  0
POLYLINE
  5
11D
100
AcDbEntity
  8
一般
370
               5
  6
Continuous
 62
               7
100
AcDb2dPolyline
 66
               1
 10
0.0
 20
0.0
 30
0.0
 70
               1
 75
               5
  0
VERTEX
  5
11E
100
AcDbEntity
  8
一般
370
               5
  6
Continuous
 62
               7
100
AcDbVertex
100
AcDb2dVertex
 10
-156.87354115513386
 20
25.922963614659789
 30
0.0
  0
VERTEX
  5
11F
100
AcDbEntity
  8
一般
370
               5
  6
Continuous
 62
               7
100
AcDbVertex
100
AcDb2dVertex
 10
-156.70212772757202
 20
27.073555310535529
 30
0.0
  0
VERTEX
  5
120
100
AcDbEntity
  8
一般
370
               5
  6
Continuous
 62
               7
100
AcDbVertex
100
AcDb2dVertex
 10
-156.65354115513387
 20
22.684147006411216
 30
0.0
  0
VERTEX
  5
121
100
AcDbEntity
  8
一般
370
               5
  6
Continuous
 62
               7
100
AcDbVertex
100
AcDb2dVertex
 10
-156.82495458269571
 20
21.533555310535505
 30
0.0
  0
SEQEND
  5
122
100
AcDbEntity
  8
一般
370
               5
  6
Continuous
 62
               7
  0
ENDBLK
  5
123
100
AcDbEntity
  8
一般
100
AcDbBlockEnd
  0
BLOCK
  5
124
100
AcDbEntity
  8
一般
100
AcDbBlockBegin
  2
グループ-3
 70
               0
 10
0.0
 20
0.0
 30
0.0
  3
グループ-3
  1

  0
LWPOLYLINE
  5
125
100
AcDbEntity
  8
一般
370
              15
  6
Continuous
 62
               7
100
AcDbPolyline
 90
        5
 70
             129
 10
-180.12890264211993
 20
-22.945007014946455
 42
0.1308458060237084
 10
-177.48104474252526
 20
-13.000000000000014
 42
0.4142135623730992
 10
-197.48104474252557
 20
7.0
 42
0.4142135623730907
 10
-217.48104474252588
 20
-13.000000000000014
 42
0.130845806023691
 10
-214.83318684293161
 20
-22.945007014946455
  0
LWPOLYLINE
  5
126
100
AcDbEntity
  8
一般
370
              15
  6
Continuous
 62
               7
100
AcDbPolyline
 90
        4
 70
             129
 10
-197.39300711652388
 20
-9.9999999999999964
 42
0.414213562373095
 10
-199.89300711652388
 20
-12.5
 42
0.414213562373095
 10
-197.39300711652388
 20
-15.000000000000004
 42
0.414213562373095
 10
-194.89300711652388
 20
-12.5
 42
0.414213562373095
  0
POLYLINE
  5
127
100
AcDbEntity
  8
一般
370
              15
  6
Continuous
 62
               7
100
AcDb2dPolyline
 66
               1
 10
0.0
 20
0.0
 30
0.0
 70
               1
 75
               5
  0
VERTEX
  5
128
100
AcDbEntity
  8
一般
370
              15
  6
Continuous
 62
               7
100
AcDbVertex
100
AcDb2dVertex
 10
-150.49999999999997
 20
7.0515332586654846
 30
0.0
  0
VERTEX
  5
129
100
AcDbEntity
  8
一般
370
              15
  6
Continuous
 62
               7
100
AcDbVertex
100
AcDb2dVertex
 10
-149.49999999999997
 20
7.0515332586654846
 30
0.0
  0
VERTEX
  5
12A
100
AcDbEntity
  8
一般
370
              15
  6
Continuous
 62
               7
100
AcDbVertex
100
AcDb2dVertex
 10
-149.49999999999997
 20
-22.948466741334521
 30
0.0
  0
VERTEX
  5
12B
100
AcDbEntity
  8
一般
370
              15
  6
Continuous
 62
               7
100
AcDbVertex
100
AcDb2dVertex
 10
-150.49999999999997
 20
-22.948466741334521
 30
0.0
  0
SEQEND
  5
12C
100
AcDbEntity
  8
一般
370
              15
  6
Continuous
 62
               7
  0
POLYLINE
  5
12D
100
AcDbEntity
  8
一般
370
              15
  6
Continuous
 62
               7
100
AcDb2dPolyline
 66
               1
 10
0.0
 20
0.0
 30
0.0
 70
               1
 75
               5
  0
VERTEX
  5
12E
100
AcDbEntity
  8
一般
370
              15
  6
Continuous
 62
               7
100
AcDbVertex
100
AcDb2dVertex
 10
-169.0
 20
-6.5
 30
0.0
  0
VERTEX
  5
12F
100
AcDbEntity
  8
一般
370
              15
  6
Continuous
 62
               7
100
AcDbVertex
100
AcDb2dVertex
 10
-164.0
 20
-6.5
 30
0.0
  0
VERTEX
  5
130
100
AcDbEntity
  8
一般
370
              15
  6
Continuous
 62
               7
100
AcDbVertex
100
AcDb2dVertex
 10
-164.0
 20
-14.5
 30
0.0
  0
VERTEX
  5
131
100
AcDbEntity
  8
一般
370
              15
  6
Continuous
 62
               7
100
AcDbVertex
100
AcDb2dVertex
 10
-169.0
 20
-14.5
 30
0.0
  0
SEQEND
  5
132
100
AcDbEntity
  8
一般
370
              15
  6
Continuous
 62
               7
  0
ENDBLK
  5
133
100
AcDbEntity
  8
一般
100
AcDbBlockEnd
  0
BLOCK
  5
134
100
AcDbEntity
  8
一般
100
AcDbBlockBegin
  2
グループ-4
 70
               0
 10
0.0
 20
0.0
 30
0.0
  3
グループ-4
  1

  0
SPLINE
  5
135
100
AcDbEntity
  8
一般
370
              15
  6
Continuous
 62
               7
100
AcDbSpline
210
0.0
220
0.0
230
1.0
 70
               9
 71
               2
 72
              23
 73
              20
 74
               0
 42
0.000001
 43
0.000001
 40
0.0
 40
0.0
 40
0.0
 40
1.0
 40
1.0
 40
2.0
 40
2.0
 40
3.0
 40
3.0
 40
4.0
 40
5.0
 40
5.0
 40
6.0
 40
6.0
 40
7.0
 40
7.0
 40
8.0
 40
8.0
 40
9.0
 40
9.0
 40
10.0
 40
10.0
 40
10.0
 10
80.473258503244011
 20
43.787828840192233
 30
0.0
 10
80.473258503244011
 20
23.787828840192194
 30
0.0
 10
80.473258503244011
 20
3.7878288401921569
 30
0.0
 10
78.999712482277829
 20
3.7878288401921569
 30
0.0
 10
77.526166461311632
 20
3.7878288401921569
 30
0.0
 10
77.526166461311632
 20
3.7912636670292006
 30
0.0
 10
77.526166461311632
 20
3.795574941351477
 30
0.0
 10
77.526166461311632
 20
6.475066865662706
 30
0.0
 10
75.972061145211129
 20
11.116083017040246
 30
0.0
 10
74.626166461311627
 20
12.455828979195855
 30
0.0
 10
73.297312821107553
 20
13.778611749688009
 30
0.0
 10
71.764612168866861
 20
13.795371290928186
 30
0.0
 10
71.764612168866861
 20
13.799967941962565
 30
0.0
 10
71.764612168866861
 20
13.804564592996945
 30
0.0
 10
58.618935336055436
 20
13.804564592996945
 30
0.0
 10
45.473258503244011
 20
13.804564592996945
 30
0.0
 10
45.473258503244011
 20
28.79619671659459
 30
0.0
 10
45.473258503244011
 20
43.787828840192233
 30
0.0
 10
62.973258503244011
 20
43.787828840192233
 30
0.0
 10
80.473258503244011
 20
43.787828840192233
 30
0.0
  0
SPLINE
  5
136
100
AcDbEntity
  8
一般
370
              15
  6
Continuous
 62
               7
100
AcDbSpline
210
0.0
220
0.0
230
1.0
 70
               9
 71
               2
 72
              23
 73
              20
 74
               0
 42
0.000001
 43
0.000001
 40
0.0
 40
0.0
 40
0.0
 40
1.0
 40
1.0
 40
2.0
 40
2.0
 40
3.0
 40
3.0
 40
4.0
 40
5.0
 40
5.0
 40
6.0
 40
6.0
 40
7.0
 40
7.0
 40
8.0
 40
8.0
 40
9.0
 40
9.0
 40
10.0
 40
10.0
 40
10.0
 10
-54.500000000000028
 20
43.8188842110468
 30
0.0
 10
-54.500000000000028
 20
23.818884211046761
 30
0.0
 10
-54.500000000000028
 20
3.8188842110467203
 30
0.0
 10
-53.026453979033846
 20
3.8188842110467203
 30
0.0
 10
-51.552907958067664
 20
3.8188842110467203
 30
0.0
 10
-51.552907958067664
 20
3.8223190378837639
 30
0.0
 10
-51.552907958067664
 20
3.8266303122060403
 30
0.0
 10
-51.552907958067664
 20
6.5061222365172693
 30
0.0
 10
-49.99880264196716
 20
11.147138387894808
 30
0.0
 10
-48.652907958067658
 20
12.486884350050419
 30
0.0
 10
-47.324054317863585
 20
13.809667120542573
 30
0.0
 10
-45.791353665622893
 20
13.826426661782749
 30
0.0
 10
-45.791353665622893
 20
13.831023312817129
 30
0.0
 10
-45.791353665622893
 20
13.835619963851508
 30
0.0
 10
-32.645676832811461
 20
13.835619963851508
 30
0.0
 10
-19.500000000000028
 20
13.835619963851508
 30
0.0
 10
-19.500000000000028
 20
28.827252087449153
 30
0.0
 10
-19.500000000000028
 20
43.8188842110468
 30
0.0
 10
-37.000000000000028
 20
43.8188842110468
 30
0.0
 10
-54.500000000000028
 20
43.8188842110468
 30
0.0
  0
POLYLINE
  5
137
100
AcDbEntity
  8
一般
370
               5
  6
Continuous
 62
               7
100
AcDb2dPolyline
 66
               1
 10
0.0
 20
0.0
 30
0.0
 75
               5
  0
VERTEX
  5
138
100
AcDbEntity
  8
一般
370
               5
  6
Continuous
 62
               7
100
AcDbVertex
100
AcDb2dVertex
 10
16.230955983698124
 20
21.802928237578151
 30
0.0
  0
VERTEX
  5
139
100
AcDbEntity
  8
一般
370
               5
  6
Continuous
 62
               7
100
AcDbVertex
100
AcDb2dVertex
 10
31.003343757684434
 20
21.802928237578151
 30
0.0
  0
VERTEX
  5
13A
100
AcDbEntity
  8
一般
370
               5
  6
Continuous
 62
               7
100
AcDbVertex
100
AcDb2dVertex
 10
31.103343757684428
 20
22.002928237578168
 30
0.0
  0
VERTEX
  5
13B
100
AcDbEntity
  8
一般
370
               5
  6
Continuous
 62
               7
100
AcDbVertex
100
AcDb2dVertex
 10
31.103343757684428
 20
26.60292823757819
 30
0.0
  0
VERTEX
  5
13C
100
AcDbEntity
  8
一般
370
               5
  6
Continuous
 62
               7
100
AcDbVertex
100
AcDb2dVertex
 10
31.003343757684434
 20
26.802928237578179
 30
0.0
  0
VERTEX
  5
13D
100
AcDbEntity
  8
一般
370
               5
  6
Continuous
 62
               7
100
AcDbVertex
100
AcDb2dVertex
 10
16.230955983698124
 20
26.802928237578179
 30
0.0
  0
SEQEND
  5
13E
100
AcDbEntity
  8
一般
370
               5
  6
Continuous
 62
               7
  0
POLYLINE
  5
13F
100
AcDbEntity
  8
一般
370
               5
  6
Continuous
 62
               7
100
AcDb2dPolyline
 66
               1
 10
0.0
 20
0.0
 30
0.0
 75
               5
  0
VERTEX
  5
140
100
AcDbEntity
  8
一般
370
               5
  6
Continuous
 62
               7
100
AcDbVertex
100
AcDb2dVertex
 10
11.230955983698122
 20
21.802928237578151
 30
0.0
  0
VERTEX
  5
141
100
AcDbEntity
  8
一般
370
               5
  6
Continuous
 62
               7
100
AcDbVertex
100
AcDb2dVertex
 10
-3.7966562423155779
 20
21.802928237578151
 30
0.0
  0
VERTEX
  5
142
100
AcDbEntity
  8
一般
370
               5
  6
Continuous
 62
               7
100
AcDbVertex
100
AcDb2dVertex
 10
-3.8966562423155722
 20
22.002928237578168
 30
0.0
  0
VERTEX
  5
143
100
AcDbEntity
  8
一般
370
               5
  6
Continuous
 62
               7
100
AcDbVertex
100
AcDb2dVertex
 10
-3.8966562423155722
 20
26.60292823757819
 30
0.0
  0
VERTEX
  5
144
100
AcDbEntity
  8
一般
370
               5
  6
Continuous
 62
               7
100
AcDbVertex
100
AcDb2dVertex
 10
-3.7966562423155779
 20
26.802928237578179
 30
0.0
  0
VERTEX
  5
145
100
AcDbEntity
  8
一般
370
               5
  6
Continuous
 62
               7
100
AcDbVertex
100
AcDb2dVertex
 10
11.230955983698122
 20
26.802928237578179
 30
0.0
  0
SEQEND
  5
146
100
AcDbEntity
  8
一般
370
               5
  6
Continuous
 62
               7
  0
POLYLINE
  5
147
100
AcDbEntity
  8
一般
370
               5
  6
Continuous
 62
               7
100
AcDb2dPolyline
 66
               1
 10
0.0
 20
0.0
 30
0.0
 70
               1
 75
               5
  0
VERTEX
  5
148
100
AcDbEntity
  8
一般
370
               5
  6
Continuous
 62
               7
100
AcDbVertex
100
AcDb2dVertex
 10
-3.5756786237878373
 20
25.962336541702417
 30
0.0
  0
VERTEX
  5
149
100
AcDbEntity
  8
一般
370
               5
  6
Continuous
 62
               7
100
AcDbVertex
100
AcDb2dVertex
 10
-3.4042651962259924
 20
27.112928237578156
 30
0.0
  0
VERTEX
  5
14A
100
AcDbEntity
  8
一般
370
               5
  6
Continuous
 62
               7
100
AcDbVertex
100
AcDb2dVertex
 10
-3.3556786237878384
 20
22.72351993345384
 30
0.0
  0
VERTEX
  5
14B
100
AcDbEntity
  8
一般
370
               5
  6
Continuous
 62
               7
100
AcDbVertex
100
AcDb2dVertex
 10
-3.5270920513496833
 20
21.572928237578129
 30
0.0
  0
SEQEND
  5
14C
100
AcDbEntity
  8
一般
370
               5
  6
Continuous
 62
               7
  0
POLYLINE
  5
14D
100
AcDbEntity
  8
一般
370
               5
  6
Continuous
 62
               7
100
AcDb2dPolyline
 66
               1
 10
0.0
 20
0.0
 30
0.0
 70
               1
 75
               5
  0
VERTEX
  5
14E
100
AcDbEntity
  8
一般
370
               5
  6
Continuous
 62
               7
100
AcDbVertex
100
AcDb2dVertex
 10
-2.475678623787843
 20
25.962336541702417
 30
0.0
  0
VERTEX
  5
14F
100
AcDbEntity
  8
一般
370
               5
  6
Continuous
 62
               7
100
AcDbVertex
100
AcDb2dVertex
 10
-2.3042651962259981
 20
27.112928237578156
 30
0.0
  0
VERTEX
  5
150
100
AcDbEntity
  8
一般
370
               5
  6
Continuous
 62
               7
100
AcDbVertex
100
AcDb2dVertex
 10
-2.2556786237878441
 20
22.72351993345384
 30
0.0
  0
VERTEX
  5
151
100
AcDbEntity
  8
一般
370
               5
  6
Continuous
 62
               7
100
AcDbVertex
100
AcDb2dVertex
 10
-2.427092051349689
 20
21.572928237578129
 30
0.0
  0
SEQEND
  5
152
100
AcDbEntity
  8
一般
370
               5
  6
Continuous
 62
               7
  0
POLYLINE
  5
153
100
AcDbEntity
  8
一般
370
               5
  6
Continuous
 62
               7
100
AcDb2dPolyline
 66
               1
 10
0.0
 20
0.0
 30
0.0
 70
               1
 75
               5
  0
VERTEX
  5
154
100
AcDbEntity
  8
一般
370
               5
  6
Continuous
 62
               7
100
AcDbVertex
100
AcDb2dVertex
 10
-1.3756786237878487
 20
25.962336541702417
 30
0.0
  0
VERTEX
  5
155
100
AcDbEntity
  8
一般
370
               5
  6
Continuous
 62
               7
100
AcDbVertex
100
AcDb2dVertex
 10
-1.2042651962260038
 20
27.112928237578156
 30
0.0
  0
VERTEX
  5
156
100
AcDbEntity
  8
一般
370
               5
  6
Continuous
 62
               7
100
AcDbVertex
100
AcDb2dVertex
 10
-1.1556786237878498
 20
22.72351993345384
 30
0.0
  0
VERTEX
  5
157
100
AcDbEntity
  8
一般
370
               5
  6
Continuous
 62
               7
100
AcDbVertex
100
AcDb2dVertex
 10
-1.3270920513496947
 20
21.572928237578129
 30
0.0
  0
SEQEND
  5
158
100
AcDbEntity
  8
一般
370
               5
  6
Continuous
 62
               7
  0
POLYLINE
  5
159
100
AcDbEntity
  8
一般
370
               5
  6
Continuous
 62
               7
100
AcDb2dPolyline
 66
               1
 10
0.0
 20
0.0
 30
0.0
 70
               1
 75
               5
  0
VERTEX
  5
15A
100
AcDbEntity
  8
一般
370
               5
  6
Continuous
 62
               7
100
AcDbVertex
100
AcDb2dVertex
 10
-0.2756786237878259
 20
25.962336541702417
 30
0.0
  0
VERTEX
  5
15B
100
AcDbEntity
  8
一般
370
               5
  6
Continuous
 62
               7
100
AcDbVertex
100
AcDb2dVertex
 10
-0.1042651962259811
 20
27.112928237578156
 30
0.0
  0
VERTEX
  5
15C
100
AcDbEntity
  8
一般
370
               5
  6
Continuous
 62
               7
100
AcDbVertex
100
AcDb2dVertex
 10
-0.0556786237878271
 20
22.72351993345384
 30
0.0
  0
VERTEX
  5
15D
100
AcDbEntity
  8
一般
370
               5
  6
Continuous
 62
               7
100
AcDbVertex
100
AcDb2dVertex
 10
-0.2270920513496719
 20
21.572928237578129
 30
0.0
  0
SEQEND
  5
15E
100
AcDbEntity
  8
一般
370
               5
  6
Continuous
 62
               7
  0
POLYLINE
  5
15F
100
AcDbEntity
  8
一般
370
               5
  6
Continuous
 62
               7
100
AcDb2dPolyline
 66
               1
 10
0.0
 20
0.0
 30
0.0
 70
               1
 75
               5
  0
VERTEX
  5
160
100
AcDbEntity
  8
一般
370
               5
  6
Continuous
 62
               7
100
AcDbVertex
100
AcDb2dVertex
 10
0.8243213762121684
 20
25.962336541702417
 30
0.0
  0
VERTEX
  5
161
100
AcDbEntity
  8
一般
370
               5
  6
Continuous
 62
               7
100
AcDbVertex
100
AcDb2dVertex
 10
0.9957348037740132
 20
27.112928237578156
 30
0.0
  0
VERTEX
  5
162
100
AcDbEntity
  8
一般
370
               5
  6
Continuous
 62
               7
100
AcDbVertex
100
AcDb2dVertex
 10
1.0443213762121673
 20
22.72351993345384
 30
0.0
  0
VERTEX
  5
163
100
AcDbEntity
  8
一般
370
               5
  6
Continuous
 62
               7
100
AcDbVertex
100
AcDb2dVertex
 10
0.8729079486503224
 20
21.572928237578129
 30
0.0
  0
SEQEND
  5
164
100
AcDbEntity
  8
一般
370
               5
  6
Continuous
 62
               7
  0
POLYLINE
  5
165
100
AcDbEntity
  8
一般
370
               5
  6
Continuous
 62
               7
100
AcDb2dPolyline
 66
               1
 10
0.0
 20
0.0
 30
0.0
 70
               1
 75
               5
  0
VERTEX
  5
166
100
AcDbEntity
  8
一般
370
               5
  6
Continuous
 62
               7
100
AcDbVertex
100
AcDb2dVertex
 10
1.9243213762121627
 20
25.962336541702417
 30
0.0
  0
VERTEX
  5
167
100
AcDbEntity
  8
一般
370
               5
  6
Continuous
 62
               7
100
AcDbVertex
100
AcDb2dVertex
 10
2.0957348037740076
 20
27.112928237578156
 30
0.0
  0
VERTEX
  5
168
100
AcDbEntity
  8
一般
370
               5
  6
Continuous
 62
               7
100
AcDbVertex
100
AcDb2dVertex
 10
2.1443213762121616
 20
22.72351993345384
 30
0.0
  0
VERTEX
  5
169
100
AcDbEntity
  8
一般
370
               5
  6
Continuous
 62
               7
100
AcDbVertex
100
AcDb2dVertex
 10
1.9729079486503167
 20
21.572928237578129
 30
0.0
  0
SEQEND
  5
16A
100
AcDbEntity
  8
一般
370
               5
  6
Continuous
 62
               7
  0
POLYLINE
  5
16B
100
AcDbEntity
  8
一般
370
               5
  6
Continuous
 62
               7
100
AcDb2dPolyline
 66
               1
 10
0.0
 20
0.0
 30
0.0
 70
               1
 75
               5
  0
VERTEX
  5
16C
100
AcDbEntity
  8
一般
370
               5
  6
Continuous
 62
               7
100
AcDbVertex
100
AcDb2dVertex
 10
3.024321376212157
 20
25.962336541702417
 30
0.0
  0
VERTEX
  5
16D
100
AcDbEntity
  8
一般
370
               5
  6
Continuous
 62
               7
100
AcDbVertex
100
AcDb2dVertex
 10
3.1957348037740019
 20
27.112928237578156
 30
0.0
  0
VERTEX
  5
16E
100
AcDbEntity
  8
一般
370
               5
  6
Continuous
 62
               7
100
AcDbVertex
100
AcDb2dVertex
 10
3.2443213762121559
 20
22.72351993345384
 30
0.0
  0
VERTEX
  5
16F
100
AcDbEntity
  8
一般
370
               5
  6
Continuous
 62
               7
100
AcDbVertex
100
AcDb2dVertex
 10
3.072907948650311
 20
21.572928237578129
 30
0.0
  0
SEQEND
  5
170
100
AcDbEntity
  8
一般
370
               5
  6
Continuous
 62
               7
  0
POLYLINE
  5
171
100
AcDbEntity
  8
一般
370
               5
  6
Continuous
 62
               7
100
AcDb2dPolyline
 66
               1
 10
0.0
 20
0.0
 30
0.0
 70
               1
 75
               5
  0
VERTEX
  5
172
100
AcDbEntity
  8
一般
370
               5
  6
Continuous
 62
               7
100
AcDbVertex
100
AcDb2dVertex
 10
4.1243213762121513
 20
25.962336541702417
 30
0.0
  0
VERTEX
  5
173
100
AcDbEntity
  8
一般
370
               5
  6
Continuous
 62
               7
100
AcDbVertex
100
AcDb2dVertex
 10
4.2957348037739962
 20
27.112928237578156
 30
0.0
  0
VERTEX
  5
174
100
AcDbEntity
  8
一般
370
               5
  6
Continuous
 62
               7
100
AcDbVertex
100
AcDb2dVertex
 10
4.3443213762121502
 20
22.72351993345384
 30
0.0
  0
VERTEX
  5
175
100
AcDbEntity
  8
一般
370
               5
  6
Continuous
 62
               7
100
AcDbVertex
100
AcDb2dVertex
 10
4.1729079486503053
 20
21.572928237578129
 30
0.0
  0
SEQEND
  5
176
100
AcDbEntity
  8
一般
370
               5
  6
Continuous
 62
               7
  0
POLYLINE
  5
177
100
AcDbEntity
  8
一般
370
               5
  6
Continuous
 62
               7
100
AcDb2dPolyline
 66
               1
 10
0.0
 20
0.0
 30
0.0
 70
               1
 75
               5
  0
VERTEX
  5
178
100
AcDbEntity
  8
一般
370
               5
  6
Continuous
 62
               7
100
AcDbVertex
100
AcDb2dVertex
 10
5.2243213762121741
 20
25.962336541702417
 30
0.0
  0
VERTEX
  5
179
100
AcDbEntity
  8
一般
370
               5
  6
Continuous
 62
               7
100
AcDbVertex
100
AcDb2dVertex
 10
5.3957348037740189
 20
27.112928237578156
 30
0.0
  0
VERTEX
  5
17A
100
AcDbEntity
  8
一般
370
               5
  6
Continuous
 62
               7
100
AcDbVertex
100
AcDb2dVertex
 10
5.4443213762121729
 20
22.72351993345384
 30
0.0
  0
VERTEX
  5
17B
100
AcDbEntity
  8
一般
370
               5
  6
Continuous
 62
               7
100
AcDbVertex
100
AcDb2dVertex
 10
5.2729079486503281
 20
21.572928237578129
 30
0.0
  0
SEQEND
  5
17C
100
AcDbEntity
  8
一般
370
               5
  6
Continuous
 62
               7
  0
POLYLINE
  5
17D
100
AcDbEntity
  8
一般
370
               5
  6
Continuous
 62
               7
100
AcDb2dPolyline
 66
               1
 10
0.0
 20
0.0
 30
0.0
 70
               1
 75
               5
  0
VERTEX
  5
17E
100
AcDbEntity
  8
一般
370
               5
  6
Continuous
 62
               7
100
AcDbVertex
100
AcDb2dVertex
 10
6.3243213762121684
 20
25.962336541702417
 30
0.0
  0
VERTEX
  5
17F
100
AcDbEntity
  8
一般
370
               5
  6
Continuous
 62
               7
100
AcDbVertex
100
AcDb2dVertex
 10
6.4957348037740132
 20
27.112928237578156
 30
0.0
  0
VERTEX
  5
180
100
AcDbEntity
  8
一般
370
               5
  6
Continuous
 62
               7
100
AcDbVertex
100
AcDb2dVertex
 10
6.5443213762121673
 20
22.72351993345384
 30
0.0
  0
VERTEX
  5
181
100
AcDbEntity
  8
一般
370
               5
  6
Continuous
 62
               7
100
AcDbVertex
100
AcDb2dVertex
 10
6.3729079486503224
 20
21.572928237578129
 30
0.0
  0
SEQEND
  5
182
100
AcDbEntity
  8
一般
370
               5
  6
Continuous
 62
               7
  0
POLYLINE
  5
183
100
AcDbEntity
  8
一般
370
               5
  6
Continuous
 62
               7
100
AcDb2dPolyline
 66
               1
 10
0.0
 20
0.0
 30
0.0
 70
               1
 75
               5
  0
VERTEX
  5
184
100
AcDbEntity
  8
一般
370
               5
  6
Continuous
 62
               7
100
AcDbVertex
100
AcDb2dVertex
 10
7.4243213762121627
 20
25.962336541702417
 30
0.0
  0
VERTEX
  5
185
100
AcDbEntity
  8
一般
370
               5
  6
Continuous
 62
               7
100
AcDbVertex
100
AcDb2dVertex
 10
7.5957348037740076
 20
27.112928237578156
 30
0.0
  0
VERTEX
  5
186
100
AcDbEntity
  8
一般
370
               5
  6
Continuous
 62
               7
100
AcDbVertex
100
AcDb2dVertex
 10
7.6443213762121616
 20
22.72351993345384
 30
0.0
  0
VERTEX
  5
187
100
AcDbEntity
  8
一般
370
               5
  6
Continuous
 62
               7
100
AcDbVertex
100
AcDb2dVertex
 10
7.4729079486503167
 20
21.572928237578129
 30
0.0
  0
SEQEND
  5
188
100
AcDbEntity
  8
一般
370
               5
  6
Continuous
 62
               7
  0
POLYLINE
  5
189
100
AcDbEntity
  8
一般
370
               5
  6
Continuous
 62
               7
100
AcDb2dPolyline
 66
               1
 10
0.0
 20
0.0
 30
0.0
 70
               1
 75
               5
  0
VERTEX
  5
18A
100
AcDbEntity
  8
一般
370
               5
  6
Continuous
 62
               7
100
AcDbVertex
100
AcDb2dVertex
 10
8.524321376212157
 20
25.962336541702417
 30
0.0
  0
VERTEX
  5
18B
100
AcDbEntity
  8
一般
370
               5
  6
Continuous
 62
               7
100
AcDbVertex
100
AcDb2dVertex
 10
8.6957348037740019
 20
27.112928237578156
 30
0.0
  0
VERTEX
  5
18C
100
AcDbEntity
  8
一般
370
               5
  6
Continuous
 62
               7
100
AcDbVertex
100
AcDb2dVertex
 10
8.7443213762121559
 20
22.72351993345384
 30
0.0
  0
VERTEX
  5
18D
100
AcDbEntity
  8
一般
370
               5
  6
Continuous
 62
               7
100
AcDbVertex
100
AcDb2dVertex
 10
8.572907948650311
 20
21.572928237578129
 30
0.0
  0
SEQEND
  5
18E
100
AcDbEntity
  8
一般
370
               5
  6
Continuous
 62
               7
  0
POLYLINE
  5
18F
100
AcDbEntity
  8
一般
370
               5
  6
Continuous
 62
               7
100
AcDb2dPolyline
 66
               1
 10
0.0
 20
0.0
 30
0.0
 70
               1
 75
               5
  0
VERTEX
  5
190
100
AcDbEntity
  8
一般
370
               5
  6
Continuous
 62
               7
100
AcDbVertex
100
AcDb2dVertex
 10
9.6243213762121513
 20
25.962336541702417
 30
0.0
  0
VERTEX
  5
191
100
AcDbEntity
  8
一般
370
               5
  6
Continuous
 62
               7
100
AcDbVertex
100
AcDb2dVertex
 10
9.7957348037739962
 20
27.112928237578156
 30
0.0
  0
VERTEX
  5
192
100
AcDbEntity
  8
一般
370
               5
  6
Continuous
 62
               7
100
AcDbVertex
100
AcDb2dVertex
 10
9.8443213762121502
 20
22.72351993345384
 30
0.0
  0
VERTEX
  5
193
100
AcDbEntity
  8
一般
370
               5
  6
Continuous
 62
               7
100
AcDbVertex
100
AcDb2dVertex
 10
9.6729079486503053
 20
21.572928237578129
 30
0.0
  0
SEQEND
  5
194
100
AcDbEntity
  8
一般
370
               5
  6
Continuous
 62
               7
  0
POLYLINE
  5
195
100
AcDbEntity
  8
一般
370
               5
  6
Continuous
 62
               7
100
AcDb2dPolyline
 66
               1
 10
0.0
 20
0.0
 30
0.0
 70
               1
 75
               5
  0
VERTEX
  5
196
100
AcDbEntity
  8
一般
370
               5
  6
Continuous
 62
               7
100
AcDbVertex
100
AcDb2dVertex
 10
10.724321376212146
 20
25.962336541702417
 30
0.0
  0
VERTEX
  5
197
100
AcDbEntity
  8
一般
370
               5
  6
Continuous
 62
               7
100
AcDbVertex
100
AcDb2dVertex
 10
10.895734803773991
 20
27.112928237578156
 30
0.0
  0
VERTEX
  5
198
100
AcDbEntity
  8
一般
370
               5
  6
Continuous
 62
               7
100
AcDbVertex
100
AcDb2dVertex
 10
10.944321376212145
 20
22.72351993345384
 30
0.0
  0
VERTEX
  5
199
100
AcDbEntity
  8
一般
370
               5
  6
Continuous
 62
               7
100
AcDbVertex
100
AcDb2dVertex
 10
10.7729079486503
 20
21.572928237578129
 30
0.0
  0
SEQEND
  5
19A
100
AcDbEntity
  8
一般
370
               5
  6
Continuous
 62
               7
  0
POLYLINE
  5
19B
100
AcDbEntity
  8
一般
370
               5
  6
Continuous
 62
               7
100
AcDb2dPolyline
 66
               1
 10
0.0
 20
0.0
 30
0.0
 70
               1
 75
               5
  0
VERTEX
  5
19C
100
AcDbEntity
  8
一般
370
               5
  6
Continuous
 62
               7
100
AcDbVertex
100
AcDb2dVertex
 10
16.224321376212174
 20
25.962336541702417
 30
0.0
  0
VERTEX
  5
19D
100
AcDbEntity
  8
一般
370
               5
  6
Continuous
 62
               7
100
AcDbVertex
100
AcDb2dVertex
 10
16.395734803774019
 20
27.112928237578156
 30
0.0
  0
VERTEX
  5
19E
100
AcDbEntity
  8
一般
370
               5
  6
Continuous
 62
               7
100
AcDbVertex
100
AcDb2dVertex
 10
16.444321376212173
 20
22.72351993345384
 30
0.0
  0
VERTEX
  5
19F
100
AcDbEntity
  8
一般
370
               5
  6
Continuous
 62
               7
100
AcDbVertex
100
AcDb2dVertex
 10
16.272907948650328
 20
21.572928237578129
 30
0.0
  0
SEQEND
  5
1A0
100
AcDbEntity
  8
一般
370
               5
  6
Continuous
 62
               7
  0
POLYLINE
  5
1A1
100
AcDbEntity
  8
一般
370
               5
  6
Continuous
 62
               7
100
AcDb2dPolyline
 66
               1
 10
0.0
 20
0.0
 30
0.0
 70
               1
 75
               5
  0
VERTEX
  5
1A2
100
AcDbEntity
  8
一般
370
               5
  6
Continuous
 62
               7
100
AcDbVertex
100
AcDb2dVertex
 10
17.324321376212168
 20
25.962336541702417
 30
0.0
  0
VERTEX
  5
1A3
100
AcDbEntity
  8
一般
370
               5
  6
Continuous
 62
               7
100
AcDbVertex
100
AcDb2dVertex
 10
17.495734803774013
 20
27.112928237578156
 30
0.0
  0
VERTEX
  5
1A4
100
AcDbEntity
  8
一般
370
               5
  6
Continuous
 62
               7
100
AcDbVertex
100
AcDb2dVertex
 10
17.544321376212167
 20
22.72351993345384
 30
0.0
  0
VERTEX
  5
1A5
100
AcDbEntity
  8
一般
370
               5
  6
Continuous
 62
               7
100
AcDbVertex
100
AcDb2dVertex
 10
17.372907948650322
 20
21.572928237578129
 30
0.0
  0
SEQEND
  5
1A6
100
AcDbEntity
  8
一般
370
               5
  6
Continuous
 62
               7
  0
POLYLINE
  5
1A7
100
AcDbEntity
  8
一般
370
               5
  6
Continuous
 62
               7
100
AcDb2dPolyline
 66
               1
 10
0.0
 20
0.0
 30
0.0
 70
               1
 75
               5
  0
VERTEX
  5
1A8
100
AcDbEntity
  8
一般
370
               5
  6
Continuous
 62
               7
100
AcDbVertex
100
AcDb2dVertex
 10
18.424321376212163
 20
25.962336541702417
 30
0.0
  0
VERTEX
  5
1A9
100
AcDbEntity
  8
一般
370
               5
  6
Continuous
 62
               7
100
AcDbVertex
100
AcDb2dVertex
 10
18.595734803774008
 20
27.112928237578156
 30
0.0
  0
VERTEX
  5
1AA
100
AcDbEntity
  8
一般
370
               5
  6
Continuous
 62
               7
100
AcDbVertex
100
AcDb2dVertex
 10
18.644321376212162
 20
22.72351993345384
 30
0.0
  0
VERTEX
  5
1AB
100
AcDbEntity
  8
一般
370
               5
  6
Continuous
 62
               7
100
AcDbVertex
100
AcDb2dVertex
 10
18.472907948650317
 20
21.572928237578129
 30
0.0
  0
SEQEND
  5
1AC
100
AcDbEntity
  8
一般
370
               5
  6
Continuous
 62
               7
  0
POLYLINE
  5
1AD
100
AcDbEntity
  8
一般
370
               5
  6
Continuous
 62
               7
100
AcDb2dPolyline
 66
               1
 10
0.0
 20
0.0
 30
0.0
 70
               1
 75
               5
  0
VERTEX
  5
1AE
100
AcDbEntity
  8
一般
370
               5
  6
Continuous
 62
               7
100
AcDbVertex
100
AcDb2dVertex
 10
19.524321376212157
 20
25.962336541702417
 30
0.0
  0
VERTEX
  5
1AF
100
AcDbEntity
  8
一般
370
               5
  6
Continuous
 62
               7
100
AcDbVertex
100
AcDb2dVertex
 10
19.695734803774002
 20
27.112928237578156
 30
0.0
  0
VERTEX
  5
1B0
100
AcDbEntity
  8
一般
370
               5
  6
Continuous
 62
               7
100
AcDbVertex
100
AcDb2dVertex
 10
19.744321376212156
 20
22.72351993345384
 30
0.0
  0
VERTEX
  5
1B1
100
AcDbEntity
  8
一般
370
               5
  6
Continuous
 62
               7
100
AcDbVertex
100
AcDb2dVertex
 10
19.572907948650311
 20
21.572928237578129
 30
0.0
  0
SEQEND
  5
1B2
100
AcDbEntity
  8
一般
370
               5
  6
Continuous
 62
               7
  0
POLYLINE
  5
1B3
100
AcDbEntity
  8
一般
370
               5
  6
Continuous
 62
               7
100
AcDb2dPolyline
 66
               1
 10
0.0
 20
0.0
 30
0.0
 70
               1
 75
               5
  0
VERTEX
  5
1B4
100
AcDbEntity
  8
一般
370
               5
  6
Continuous
 62
               7
100
AcDbVertex
100
AcDb2dVertex
 10
20.62432137621218
 20
25.962336541702417
 30
0.0
  0
VERTEX
  5
1B5
100
AcDbEntity
  8
一般
370
               5
  6
Continuous
 62
               7
100
AcDbVertex
100
AcDb2dVertex
 10
20.795734803774025
 20
27.112928237578156
 30
0.0
  0
VERTEX
  5
1B6
100
AcDbEntity
  8
一般
370
               5
  6
Continuous
 62
               7
100
AcDbVertex
100
AcDb2dVertex
 10
20.844321376212179
 20
22.72351993345384
 30
0.0
  0
VERTEX
  5
1B7
100
AcDbEntity
  8
一般
370
               5
  6
Continuous
 62
               7
100
AcDbVertex
100
AcDb2dVertex
 10
20.672907948650334
 20
21.572928237578129
 30
0.0
  0
SEQEND
  5
1B8
100
AcDbEntity
  8
一般
370
               5
  6
Continuous
 62
               7
  0
POLYLINE
  5
1B9
100
AcDbEntity
  8
一般
370
               5
  6
Continuous
 62
               7
100
AcDb2dPolyline
 66
               1
 10
0.0
 20
0.0
 30
0.0
 70
               1
 75
               5
  0
VERTEX
  5
1BA
100
AcDbEntity
  8
一般
370
               5
  6
Continuous
 62
               7
100
AcDbVertex
100
AcDb2dVertex
 10
21.724321376212174
 20
25.962336541702417
 30
0.0
  0
VERTEX
  5
1BB
100
AcDbEntity
  8
一般
370
               5
  6
Continuous
 62
               7
100
AcDbVertex
100
AcDb2dVertex
 10
21.895734803774019
 20
27.112928237578156
 30
0.0
  0
VERTEX
  5
1BC
100
AcDbEntity
  8
一般
370
               5
  6
Continuous
 62
               7
100
AcDbVertex
100
AcDb2dVertex
 10
21.944321376212173
 20
22.72351993345384
 30
0.0
  0
VERTEX
  5
1BD
100
AcDbEntity
  8
一般
370
               5
  6
Continuous
 62
               7
100
AcDbVertex
100
AcDb2dVertex
 10
21.772907948650328
 20
21.572928237578129
 30
0.0
  0
SEQEND
  5
1BE
100
AcDbEntity
  8
一般
370
               5
  6
Continuous
 62
               7
  0
POLYLINE
  5
1BF
100
AcDbEntity
  8
一般
370
               5
  6
Continuous
 62
               7
100
AcDb2dPolyline
 66
               1
 10
0.0
 20
0.0
 30
0.0
 70
               1
 75
               5
  0
VERTEX
  5
1C0
100
AcDbEntity
  8
一般
370
               5
  6
Continuous
 62
               7
100
AcDbVertex
100
AcDb2dVertex
 10
22.824321376212168
 20
25.962336541702417
 30
0.0
  0
VERTEX
  5
1C1
100
AcDbEntity
  8
一般
370
               5
  6
Continuous
 62
               7
100
AcDbVertex
100
AcDb2dVertex
 10
22.995734803774013
 20
27.112928237578156
 30
0.0
  0
VERTEX
  5
1C2
100
AcDbEntity
  8
一般
370
               5
  6
Continuous
 62
               7
100
AcDbVertex
100
AcDb2dVertex
 10
23.044321376212167
 20
22.72351993345384
 30
0.0
  0
VERTEX
  5
1C3
100
AcDbEntity
  8
一般
370
               5
  6
Continuous
 62
               7
100
AcDbVertex
100
AcDb2dVertex
 10
22.872907948650322
 20
21.572928237578129
 30
0.0
  0
SEQEND
  5
1C4
100
AcDbEntity
  8
一般
370
               5
  6
Continuous
 62
               7
  0
POLYLINE
  5
1C5
100
AcDbEntity
  8
一般
370
               5
  6
Continuous
 62
               7
100
AcDb2dPolyline
 66
               1
 10
0.0
 20
0.0
 30
0.0
 70
               1
 75
               5
  0
VERTEX
  5
1C6
100
AcDbEntity
  8
一般
370
               5
  6
Continuous
 62
               7
100
AcDbVertex
100
AcDb2dVertex
 10
23.924321376212163
 20
25.962336541702417
 30
0.0
  0
VERTEX
  5
1C7
100
AcDbEntity
  8
一般
370
               5
  6
Continuous
 62
               7
100
AcDbVertex
100
AcDb2dVertex
 10
24.095734803774008
 20
27.112928237578156
 30
0.0
  0
VERTEX
  5
1C8
100
AcDbEntity
  8
一般
370
               5
  6
Continuous
 62
               7
100
AcDbVertex
100
AcDb2dVertex
 10
24.144321376212162
 20
22.72351993345384
 30
0.0
  0
VERTEX
  5
1C9
100
AcDbEntity
  8
一般
370
               5
  6
Continuous
 62
               7
100
AcDbVertex
100
AcDb2dVertex
 10
23.972907948650317
 20
21.572928237578129
 30
0.0
  0
SEQEND
  5
1CA
100
AcDbEntity
  8
一般
370
               5
  6
Continuous
 62
               7
  0
POLYLINE
  5
1CB
100
AcDbEntity
  8
一般
370
               5
  6
Continuous
 62
               7
100
AcDb2dPolyline
 66
               1
 10
0.0
 20
0.0
 30
0.0
 70
               1
 75
               5
  0
VERTEX
  5
1CC
100
AcDbEntity
  8
一般
370
               5
  6
Continuous
 62
               7
100
AcDbVertex
100
AcDb2dVertex
 10
25.024321376212185
 20
25.962336541702417
 30
0.0
  0
VERTEX
  5
1CD
100
AcDbEntity
  8
一般
370
               5
  6
Continuous
 62
               7
100
AcDbVertex
100
AcDb2dVertex
 10
25.19573480377403
 20
27.112928237578156
 30
0.0
  0
VERTEX
  5
1CE
100
AcDbEntity
  8
一般
370
               5
  6
Continuous
 62
               7
100
AcDbVertex
100
AcDb2dVertex
 10
25.244321376212184
 20
22.72351993345384
 30
0.0
  0
VERTEX
  5
1CF
100
AcDbEntity
  8
一般
370
               5
  6
Continuous
 62
               7
100
AcDbVertex
100
AcDb2dVertex
 10
25.072907948650339
 20
21.572928237578129
 30
0.0
  0
SEQEND
  5
1D0
100
AcDbEntity
  8
一般
370
               5
  6
Continuous
 62
               7
  0
POLYLINE
  5
1D1
100
AcDbEntity
  8
一般
370
               5
  6
Continuous
 62
               7
100
AcDb2dPolyline
 66
               1
 10
0.0
 20
0.0
 30
0.0
 70
               1
 75
               5
  0
VERTEX
  5
1D2
100
AcDbEntity
  8
一般
370
               5
  6
Continuous
 62
               7
100
AcDbVertex
100
AcDb2dVertex
 10
26.12432137621218
 20
25.962336541702417
 30
0.0
  0
VERTEX
  5
1D3
100
AcDbEntity
  8
一般
370
               5
  6
Continuous
 62
               7
100
AcDbVertex
100
AcDb2dVertex
 10
26.295734803774025
 20
27.112928237578156
 30
0.0
  0
VERTEX
  5
1D4
100
AcDbEntity
  8
一般
370
               5
  6
Continuous
 62
               7
100
AcDbVertex
100
AcDb2dVertex
 10
26.344321376212179
 20
22.72351993345384
 30
0.0
  0
VERTEX
  5
1D5
100
AcDbEntity
  8
一般
370
               5
  6
Continuous
 62
               7
100
AcDbVertex
100
AcDb2dVertex
 10
26.172907948650334
 20
21.572928237578129
 30
0.0
  0
SEQEND
  5
1D6
100
AcDbEntity
  8
一般
370
               5
  6
Continuous
 62
               7
  0
POLYLINE
  5
1D7
100
AcDbEntity
  8
一般
370
               5
  6
Continuous
 62
               7
100
AcDb2dPolyline
 66
               1
 10
0.0
 20
0.0
 30
0.0
 70
               1
 75
               5
  0
VERTEX
  5
1D8
100
AcDbEntity
  8
一般
370
               5
  6
Continuous
 62
               7
100
AcDbVertex
100
AcDb2dVertex
 10
27.224321376212174
 20
25.962336541702417
 30
0.0
  0
VERTEX
  5
1D9
100
AcDbEntity
  8
一般
370
               5
  6
Continuous
 62
               7
100
AcDbVertex
100
AcDb2dVertex
 10
27.395734803774019
 20
27.112928237578156
 30
0.0
  0
VERTEX
  5
1DA
100
AcDbEntity
  8
一般
370
               5
  6
Continuous
 62
               7
100
AcDbVertex
100
AcDb2dVertex
 10
27.444321376212173
 20
22.72351993345384
 30
0.0
  0
VERTEX
  5
1DB
100
AcDbEntity
  8
一般
370
               5
  6
Continuous
 62
               7
100
AcDbVertex
100
AcDb2dVertex
 10
27.272907948650328
 20
21.572928237578129
 30
0.0
  0
SEQEND
  5
1DC
100
AcDbEntity
  8
一般
370
               5
  6
Continuous
 62
               7
  0
POLYLINE
  5
1DD
100
AcDbEntity
  8
一般
370
               5
  6
Continuous
 62
               7
100
AcDb2dPolyline
 66
               1
 10
0.0
 20
0.0
 30
0.0
 70
               1
 75
               5
  0
VERTEX
  5
1DE
100
AcDbEntity
  8
一般
370
               5
  6
Continuous
 62
               7
100
AcDbVertex
100
AcDb2dVertex
 10
28.324321376212168
 20
25.962336541702417
 30
0.0
  0
VERTEX
  5
1DF
100
AcDbEntity
  8
一般
370
               5
  6
Continuous
 62
               7
100
AcDbVertex
100
AcDb2dVertex
 10
28.495734803774013
 20
27.112928237578156
 30
0.0
  0
VERTEX
  5
1E0
100
AcDbEntity
  8
一般
370
               5
  6
Continuous
 62
               7
100
AcDbVertex
100
AcDb2dVertex
 10
28.544321376212167
 20
22.72351993345384
 30
0.0
  0
VERTEX
  5
1E1
100
AcDbEntity
  8
一般
370
               5
  6
Continuous
 62
               7
100
AcDbVertex
100
AcDb2dVertex
 10
28.372907948650322
 20
21.572928237578129
 30
0.0
  0
SEQEND
  5
1E2
100
AcDbEntity
  8
一般
370
               5
  6
Continuous
 62
               7
  0
POLYLINE
  5
1E3
100
AcDbEntity
  8
一般
370
               5
  6
Continuous
 62
               7
100
AcDb2dPolyline
 66
               1
 10
0.0
 20
0.0
 30
0.0
 70
               1
 75
               5
  0
VERTEX
  5
1E4
100
AcDbEntity
  8
一般
370
               5
  6
Continuous
 62
               7
100
AcDbVertex
100
AcDb2dVertex
 10
29.424321376212191
 20
25.962336541702417
 30
0.0
  0
VERTEX
  5
1E5
100
AcDbEntity
  8
一般
370
               5
  6
Continuous
 62
               7
100
AcDbVertex
100
AcDb2dVertex
 10
29.595734803774036
 20
27.112928237578156
 30
0.0
  0
VERTEX
  5
1E6
100
AcDbEntity
  8
一般
370
               5
  6
Continuous
 62
               7
100
AcDbVertex
100
AcDb2dVertex
 10
29.64432137621219
 20
22.72351993345384
 30
0.0
  0
VERTEX
  5
1E7
100
AcDbEntity
  8
一般
370
               5
  6
Continuous
 62
               7
100
AcDbVertex
100
AcDb2dVertex
 10
29.472907948650345
 20
21.572928237578129
 30
0.0
  0
SEQEND
  5
1E8
100
AcDbEntity
  8
一般
370
               5
  6
Continuous
 62
               7
  0
POLYLINE
  5
1E9
100
AcDbEntity
  8
一般
370
               5
  6
Continuous
 62
               7
100
AcDb2dPolyline
 66
               1
 10
0.0
 20
0.0
 30
0.0
 70
               1
 75
               5
  0
VERTEX
  5
1EA
100
AcDbEntity
  8
一般
370
               5
  6
Continuous
 62
               7
100
AcDbVertex
100
AcDb2dVertex
 10
30.524321376212185
 20
25.962336541702417
 30
0.0
  0
VERTEX
  5
1EB
100
AcDbEntity
  8
一般
370
               5
  6
Continuous
 62
               7
100
AcDbVertex
100
AcDb2dVertex
 10
30.69573480377403
 20
27.112928237578156
 30
0.0
  0
VERTEX
  5
1EC
100
AcDbEntity
  8
一般
370
               5
  6
Continuous
 62
               7
100
AcDbVertex
100
AcDb2dVertex
 10
30.744321376212184
 20
22.72351993345384
 30
0.0
  0
VERTEX
  5
1ED
100
AcDbEntity
  8
一般
370
               5
  6
Continuous
 62
               7
100
AcDbVertex
100
AcDb2dVertex
 10
30.572907948650339
 20
21.572928237578129
 30
0.0
  0
SEQEND
  5
1EE
100
AcDbEntity
  8
一般
370
               5
  6
Continuous
 62
               7
  0
POLYLINE
  5
1EF
100
AcDbEntity
  8
一般
370
              15
  6
Continuous
 62
               7
100
AcDb2dPolyline
 66
               1
 10
0.0
 20
0.0
 30
0.0
 70
               1
 75
               5
  0
VERTEX
  5
1F0
100
AcDbEntity
  8
一般
370
              15
  6
Continuous
 62
               7
100
AcDbVertex
100
AcDb2dVertex
 10
40.60000000000008
 20
43.20000000000006
 30
0.0
  0
VERTEX
  5
1F1
100
AcDbEntity
  8
一般
370
              15
  6
Continuous
 62
               7
100
AcDbVertex
100
AcDb2dVertex
 10
41.60000000000008
 20
43.20000000000006
 30
0.0
  0
VERTEX
  5
1F2
100
AcDbEntity
  8
一般
370
              15
  6
Continuous
 62
               7
100
AcDbVertex
100
AcDb2dVertex
 10
41.60000000000008
 20
13.200000000000054
 30
0.0
  0
VERTEX
  5
1F3
100
AcDbEntity
  8
一般
370
              15
  6
Continuous
 62
               7
100
AcDbVertex
100
AcDb2dVertex
 10
40.60000000000008
 20
13.200000000000054
 30
0.0
  0
SEQEND
  5
1F4
100
AcDbEntity
  8
一般
370
              15
  6
Continuous
 62
               7
  0
POLYLINE
  5
1F5
100
AcDbEntity
  8
一般
370
              15
  6
Continuous
 62
               7
100
AcDb2dPolyline
 66
               1
 10
0.0
 20
0.0
 30
0.0
 70
               1
 75
               5
  0
VERTEX
  5
1F6
100
AcDbEntity
  8
一般
370
              15
  6
Continuous
 62
               7
100
AcDbVertex
100
AcDb2dVertex
 10
11.230955983698122
 20
28.41127240155916
 30
0.0
  0
VERTEX
  5
1F7
100
AcDbEntity
  8
一般
370
              15
  6
Continuous
 62
               7
100
AcDbVertex
100
AcDb2dVertex
 10
16.230955983698124
 20
28.41127240155916
 30
0.0
  0
VERTEX
  5
1F8
100
AcDbEntity
  8
一般
370
              15
  6
Continuous
 62
               7
100
AcDbVertex
100
AcDb2dVertex
 10
16.230955983698124
 20
20.41127240155916
 30
0.0
  0
VERTEX
  5
1F9
100
AcDbEntity
  8
一般
370
              15
  6
Continuous
 62
               7
100
AcDbVertex
100
AcDb2dVertex
 10
11.230955983698122
 20
20.41127240155916
 30
0.0
  0
SEQEND
  5
1FA
100
AcDbEntity
  8
一般
370
              15
  6
Continuous
 62
               7
  0
POLYLINE
  5
1FB
100
AcDbEntity
  8
一般
370
              15
  6
Continuous
 62
               7
100
AcDb2dPolyline
 66
               1
 10
0.0
 20
0.0
 30
0.0
 70
               1
 75
               5
  0
VERTEX
  5
1FC
100
AcDbEntity
  8
一般
370
              15
  6
Continuous
 62
               7
100
AcDbVertex
100
AcDb2dVertex
 10
-15.993484151963393
 20
43.624391998025693
 30
0.0
  0
VERTEX
  5
1FD
100
AcDbEntity
  8
一般
370
              15
  6
Continuous
 62
               7
100
AcDbVertex
100
AcDb2dVertex
 10
-14.993484151963388
 20
43.624391998025693
 30
0.0
  0
VERTEX
  5
1FE
100
AcDbEntity
  8
一般
370
              15
  6
Continuous
 62
               7
100
AcDbVertex
100
AcDb2dVertex
 10
-14.993484151963388
 20
13.624391998025851
 30
0.0
  0
VERTEX
  5
1FF
100
AcDbEntity
  8
一般
370
              15
  6
Continuous
 62
               7
100
AcDbVertex
100
AcDb2dVertex
 10
-15.993484151963393
 20
13.624391998025851
 30
0.0
  0
SEQEND
  5
200
100
AcDbEntity
  8
一般
370
              15
  6
Continuous
 62
               7
  0
LINE
  5
201
100
AcDbEntity
  8
一般
370
               5
  6
STYLE_06
 62
               7
100
AcDbLine
 10
-43.233573518255305
 20
24.318884211046768
 30
0.0
 11
11.230955983698124
 21
24.318884211046768
 31
0.0
  0
LINE
  5
202
100
AcDbEntity
  8
一般
370
               5
  6
STYLE_06
 62
               7
100
AcDbLine
 10
16.230955983698124
 20
24.318884211046768
 30
0.0
 11
58.166426481744644
 21
24.318884211046768
 31
0.0
  0
ENDBLK
  5
203
100
AcDbEntity
  8
一般
100
AcDbBlockEnd
  0
BLOCK
  5
204
100
AcDbEntity
  8
一般
100
AcDbBlockBegin
  2
グループ-5
 70
               0
 10
0.0
 20
0.0
 30
0.0
  3
グループ-5
  1

  0
POLYLINE
  5
205
100
AcDbEntity
  8
一般
370
               5
  6
Continuous
 62
               7
100
AcDb2dPolyline
 66
               1
 10
0.0
 20
0.0
 30
0.0
 70
               1
 75
               5
  0
VERTEX
  5
206
100
AcDbEntity
  8
一般
370
               5
  6
Continuous
 62
               7
100
AcDbVertex
100
AcDb2dVertex
 10
-199.53848052085849
 20
-90.816069970039337
 30
0.0
  0
VERTEX
  5
207
100
AcDbEntity
  8
一般
370
               5
  6
Continuous
 62
               7
100
AcDbVertex
100
AcDb2dVertex
 10
-187.53848052085849
 20
-90.816069970039337
 30
0.0
  0
VERTEX
  5
208
100
AcDbEntity
  8
一般
370
               5
  6
Continuous
 62
               7
100
AcDbVertex
100
AcDb2dVertex
 10
-187.53848052085849
 20
-102.81606997003934
 30
0.0
  0
VERTEX
  5
209
100
AcDbEntity
  8
一般
370
               5
  6
Continuous
 62
               7
100
AcDbVertex
100
AcDb2dVertex
 10
-199.53848052085849
 20
-102.81606997003934
 30
0.0
  0
SEQEND
  5
20A
100
AcDbEntity
  8
一般
370
               5
  6
Continuous
 62
               7
  0
LINE
  5
20B
100
AcDbEntity
  8
一般
370
               5
  6
Continuous
 62
               7
100
AcDbLine
 10
-187.54813418770323
 20
-41.825464654021253
 30
0.0
 11
-187.54813418770323
 21
-155.82546465402098
 31
0.0
  0
LINE
  5
20C
100
AcDbEntity
  8
一般
370
               5
  6
STYLE_06
 62
               7
100
AcDbLine
 10
-193.54813418770323
 20
-40.552989994189986
 30
0.0
 11
-193.54813418770323
 21
-163.5
 31
0.0
  0
LINE
  5
20D
100
AcDbEntity
  8
一般
370
               5
  6
Continuous
 62
               7
100
AcDbLine
 10
-199.54813418770323
 20
-41.825464654021253
 30
0.0
 11
-199.54813418770323
 21
-155.82546465402098
 31
0.0
  0
LINE
  5
20E
100
AcDbEntity
  8
一般
370
               5
  6
Continuous
 62
               7
100
AcDbLine
 10
-186.57517374945257
 20
-99.485695184103861
 30
0.0
 11
-186.54094786699625
 21
-99.485695184103861
 31
0.0
  0
LINE
  5
20F
100
AcDbEntity
  8
一般
370
               5
  6
Continuous
 62
               7
100
AcDbLine
 10
-186.54094786699625
 20
-94.485695184103861
 30
0.0
 11
-186.57517374945257
 21
-94.485695184103861
 31
0.0
  0
LINE
  5
210
100
AcDbEntity
  8
一般
370
               5
  6
Continuous
 62
               7
100
AcDbLine
 10
-187.53848052085849
 20
-99.485695184103861
 30
0.0
 11
-190.98278717532577
 21
-99.485695184103861
 31
0.0
  0
LINE
  5
211
100
AcDbEntity
  8
一般
370
               5
  6
Continuous
 62
               7
100
AcDbLine
 10
-187.53848052085849
 20
-94.485695184103861
 30
0.0
 11
-190.98278717532577
 21
-94.485695184103861
 31
0.0
  0
LINE
  5
212
100
AcDbEntity
  8
一般
370
               5
  6
Continuous
 62
               7
100
AcDbLine
 10
-200.59903982301873
 20
-99.485695184103861
 30
0.0
 11
-200.54544147439969
 21
-99.485695184103861
 31
0.0
  0
LINE
  5
213
100
AcDbEntity
  8
一般
370
               5
  6
Continuous
 62
               7
100
AcDbLine
 10
-199.54813418770323
 20
-99.485695184103861
 30
0.0
 11
-195.98278717532577
 21
-99.485695184103861
 31
0.0
  0
LINE
  5
214
100
AcDbEntity
  8
一般
370
               5
  6
Continuous
 62
               7
100
AcDbLine
 10
-200.59903982301873
 20
-94.485695184103861
 30
0.0
 11
-200.54544147439969
 21
-94.485695184103861
 31
0.0
  0
LINE
  5
215
100
AcDbEntity
  8
一般
370
               5
  6
Continuous
 62
               7
100
AcDbLine
 10
-199.54813418770323
 20
-94.485695184103861
 30
0.0
 11
-195.98278717532577
 21
-94.485695184103861
 31
0.0
  0
POLYLINE
  5
216
100
AcDbEntity
  8
一般
370
               5
  6
Continuous
 62
               7
100
AcDb2dPolyline
 66
               1
 10
0.0
 20
0.0
 30
0.0
 70
               1
 75
               5
  0
VERTEX
  5
217
100
AcDbEntity
  8
一般
370
               5
  6
Continuous
 62
               7
100
AcDbVertex
100
AcDb2dVertex
 10
-198.6271565691755
 20
-95.326286879979591
 30
0.0
  0
VERTEX
  5
218
100
AcDbEntity
  8
一般
370
               5
  6
Continuous
 62
               7
100
AcDbVertex
100
AcDb2dVertex
 10
-198.45574314161365
 20
-94.175695184103859
 30
0.0
  0
VERTEX
  5
219
100
AcDbEntity
  8
一般
370
               5
  6
Continuous
 62
               7
100
AcDbVertex
100
AcDb2dVertex
 10
-198.4071565691755
 20
-98.565103488228146
 30
0.0
  0
VERTEX
  5
21A
100
AcDbEntity
  8
一般
370
               5
  6
Continuous
 62
               7
100
AcDbVertex
100
AcDb2dVertex
 10
-198.57856999673734
 20
-99.715695184103879
 30
0.0
  0
SEQEND
  5
21B
100
AcDbEntity
  8
一般
370
               5
  6
Continuous
 62
               7
  0
POLYLINE
  5
21C
100
AcDbEntity
  8
一般
370
               5
  6
Continuous
 62
               7
100
AcDb2dPolyline
 66
               1
 10
0.0
 20
0.0
 30
0.0
 70
               1
 75
               5
  0
VERTEX
  5
21D
100
AcDbEntity
  8
一般
370
               5
  6
Continuous
 62
               7
100
AcDbVertex
100
AcDb2dVertex
 10
-197.5271565691755
 20
-95.326286879979591
 30
0.0
  0
VERTEX
  5
21E
100
AcDbEntity
  8
一般
370
               5
  6
Continuous
 62
               7
100
AcDbVertex
100
AcDb2dVertex
 10
-197.35574314161366
 20
-94.175695184103859
 30
0.0
  0
VERTEX
  5
21F
100
AcDbEntity
  8
一般
370
               5
  6
Continuous
 62
               7
100
AcDbVertex
100
AcDb2dVertex
 10
-197.3071565691755
 20
-98.565103488228146
 30
0.0
  0
VERTEX
  5
220
100
AcDbEntity
  8
一般
370
               5
  6
Continuous
 62
               7
100
AcDbVertex
100
AcDb2dVertex
 10
-197.47856999673735
 20
-99.715695184103879
 30
0.0
  0
SEQEND
  5
221
100
AcDbEntity
  8
一般
370
               5
  6
Continuous
 62
               7
  0
POLYLINE
  5
222
100
AcDbEntity
  8
一般
370
               5
  6
Continuous
 62
               7
100
AcDb2dPolyline
 66
               1
 10
0.0
 20
0.0
 30
0.0
 70
               1
 75
               5
  0
VERTEX
  5
223
100
AcDbEntity
  8
一般
370
               5
  6
Continuous
 62
               7
100
AcDbVertex
100
AcDb2dVertex
 10
-196.42715656917551
 20
-95.326286879979591
 30
0.0
  0
VERTEX
  5
224
100
AcDbEntity
  8
一般
370
               5
  6
Continuous
 62
               7
100
AcDbVertex
100
AcDb2dVertex
 10
-196.25574314161366
 20
-94.175695184103859
 30
0.0
  0
VERTEX
  5
225
100
AcDbEntity
  8
一般
370
               5
  6
Continuous
 62
               7
100
AcDbVertex
100
AcDb2dVertex
 10
-196.20715656917551
 20
-98.565103488228146
 30
0.0
  0
VERTEX
  5
226
100
AcDbEntity
  8
一般
370
               5
  6
Continuous
 62
               7
100
AcDbVertex
100
AcDb2dVertex
 10
-196.37856999673735
 20
-99.715695184103879
 30
0.0
  0
SEQEND
  5
227
100
AcDbEntity
  8
一般
370
               5
  6
Continuous
 62
               7
  0
POLYLINE
  5
228
100
AcDbEntity
  8
一般
370
               5
  6
Continuous
 62
               7
100
AcDb2dPolyline
 66
               1
 10
0.0
 20
0.0
 30
0.0
 70
               1
 75
               5
  0
VERTEX
  5
229
100
AcDbEntity
  8
一般
370
               5
  6
Continuous
 62
               7
100
AcDbVertex
100
AcDb2dVertex
 10
-190.92715656917548
 20
-95.326286879979591
 30
0.0
  0
VERTEX
  5
22A
100
AcDbEntity
  8
一般
370
               5
  6
Continuous
 62
               7
100
AcDbVertex
100
AcDb2dVertex
 10
-190.75574314161364
 20
-94.175695184103859
 30
0.0
  0
VERTEX
  5
22B
100
AcDbEntity
  8
一般
370
               5
  6
Continuous
 62
               7
100
AcDbVertex
100
AcDb2dVertex
 10
-190.70715656917548
 20
-98.565103488228146
 30
0.0
  0
VERTEX
  5
22C
100
AcDbEntity
  8
一般
370
               5
  6
Continuous
 62
               7
100
AcDbVertex
100
AcDb2dVertex
 10
-190.87856999673733
 20
-99.715695184103879
 30
0.0
  0
SEQEND
  5
22D
100
AcDbEntity
  8
一般
370
               5
  6
Continuous
 62
               7
  0
POLYLINE
  5
22E
100
AcDbEntity
  8
一般
370
               5
  6
Continuous
 62
               7
100
AcDb2dPolyline
 66
               1
 10
0.0
 20
0.0
 30
0.0
 70
               1
 75
               5
  0
VERTEX
  5
22F
100
AcDbEntity
  8
一般
370
               5
  6
Continuous
 62
               7
100
AcDbVertex
100
AcDb2dVertex
 10
-189.82715656917549
 20
-95.326286879979591
 30
0.0
  0
VERTEX
  5
230
100
AcDbEntity
  8
一般
370
               5
  6
Continuous
 62
               7
100
AcDbVertex
100
AcDb2dVertex
 10
-189.65574314161364
 20
-94.175695184103859
 30
0.0
  0
VERTEX
  5
231
100
AcDbEntity
  8
一般
370
               5
  6
Continuous
 62
               7
100
AcDbVertex
100
AcDb2dVertex
 10
-189.60715656917549
 20
-98.565103488228146
 30
0.0
  0
VERTEX
  5
232
100
AcDbEntity
  8
一般
370
               5
  6
Continuous
 62
               7
100
AcDbVertex
100
AcDb2dVertex
 10
-189.77856999673733
 20
-99.715695184103879
 30
0.0
  0
SEQEND
  5
233
100
AcDbEntity
  8
一般
370
               5
  6
Continuous
 62
               7
  0
POLYLINE
  5
234
100
AcDbEntity
  8
一般
370
               5
  6
Continuous
 62
               7
100
AcDb2dPolyline
 66
               1
 10
0.0
 20
0.0
 30
0.0
 70
               1
 75
               5
  0
VERTEX
  5
235
100
AcDbEntity
  8
一般
370
               5
  6
Continuous
 62
               7
100
AcDbVertex
100
AcDb2dVertex
 10
-188.72715656917549
 20
-95.326286879979591
 30
0.0
  0
VERTEX
  5
236
100
AcDbEntity
  8
一般
370
               5
  6
Continuous
 62
               7
100
AcDbVertex
100
AcDb2dVertex
 10
-188.55574314161365
 20
-94.175695184103859
 30
0.0
  0
VERTEX
  5
237
100
AcDbEntity
  8
一般
370
               5
  6
Continuous
 62
               7
100
AcDbVertex
100
AcDb2dVertex
 10
-188.50715656917549
 20
-98.565103488228146
 30
0.0
  0
VERTEX
  5
238
100
AcDbEntity
  8
一般
370
               5
  6
Continuous
 62
               7
100
AcDbVertex
100
AcDb2dVertex
 10
-188.67856999673734
 20
-99.715695184103879
 30
0.0
  0
SEQEND
  5
239
100
AcDbEntity
  8
一般
370
               5
  6
Continuous
 62
               7
  0
POLYLINE
  5
23A
100
AcDbEntity
  8
一般
370
              15
  6
Continuous
 62
               7
100
AcDb2dPolyline
 66
               1
 10
0.0
 20
0.0
 30
0.0
 70
               1
 75
               5
  0
VERTEX
  5
23B
100
AcDbEntity
  8
一般
370
              15
  6
Continuous
 62
               7
100
AcDbVertex
100
AcDb2dVertex
 10
-187.57517374945257
 20
-77.213663980040138
 30
0.0
  0
VERTEX
  5
23C
100
AcDbEntity
  8
一般
370
              15
  6
Continuous
 62
               7
100
AcDbVertex
100
AcDb2dVertex
 10
-186.57517374945257
 20
-77.213663980040138
 30
0.0
  0
VERTEX
  5
23D
100
AcDbEntity
  8
一般
370
              15
  6
Continuous
 62
               7
100
AcDbVertex
100
AcDb2dVertex
 10
-186.57517374945257
 20
-106.21366398004072
 30
0.0
  0
VERTEX
  5
23E
100
AcDbEntity
  8
一般
370
              15
  6
Continuous
 62
               7
100
AcDbVertex
100
AcDb2dVertex
 10
-187.57517374945257
 20
-106.21366398004072
 30
0.0
  0
SEQEND
  5
23F
100
AcDbEntity
  8
一般
370
              15
  6
Continuous
 62
               7
  0
POLYLINE
  5
240
100
AcDbEntity
  8
一般
370
              15
  6
Continuous
 62
               7
100
AcDb2dPolyline
 66
               1
 10
0.0
 20
0.0
 30
0.0
 70
               1
 75
               5
  0
VERTEX
  5
241
100
AcDbEntity
  8
一般
370
              15
  6
Continuous
 62
               7
100
AcDbVertex
100
AcDb2dVertex
 10
-200.54544147439969
 20
-77.099847663546115
 30
0.0
  0
VERTEX
  5
242
100
AcDbEntity
  8
一般
370
              15
  6
Continuous
 62
               7
100
AcDbVertex
100
AcDb2dVertex
 10
-199.54544147439969
 20
-77.099847663546115
 30
0.0
  0
VERTEX
  5
243
100
AcDbEntity
  8
一般
370
              15
  6
Continuous
 62
               7
100
AcDbVertex
100
AcDb2dVertex
 10
-199.54544147439969
 20
-106.0998476635467
 30
0.0
  0
VERTEX
  5
244
100
AcDbEntity
  8
一般
370
              15
  6
Continuous
 62
               7
100
AcDbVertex
100
AcDb2dVertex
 10
-200.54544147439969
 20
-106.0998476635467
 30
0.0
  0
SEQEND
  5
245
100
AcDbEntity
  8
一般
370
              15
  6
Continuous
 62
               7
  0
POLYLINE
  5
246
100
AcDbEntity
  8
一般
370
              15
  6
Continuous
 62
               7
100
AcDb2dPolyline
 66
               1
 10
0.0
 20
0.0
 30
0.0
 70
               1
 75
               5
  0
VERTEX
  5
247
100
AcDbEntity
  8
一般
370
              15
  6
Continuous
 62
               7
100
AcDbVertex
100
AcDb2dVertex
 10
-195.98278717532577
 20
-92.975464654021664
 30
0.0
  0
VERTEX
  5
248
100
AcDbEntity
  8
一般
370
              15
  6
Continuous
 62
               7
100
AcDbVertex
100
AcDb2dVertex
 10
-190.98278717532577
 20
-92.975464654021664
 30
0.0
  0
VERTEX
  5
249
100
AcDbEntity
  8
一般
370
              15
  6
Continuous
 62
               7
100
AcDbVertex
100
AcDb2dVertex
 10
-190.98278717532577
 20
-100.97546465402166
 30
0.0
  0
VERTEX
  5
24A
100
AcDbEntity
  8
一般
370
              15
  6
Continuous
 62
               7
100
AcDbVertex
100
AcDb2dVertex
 10
-195.98278717532577
 20
-100.97546465402166
 30
0.0
  0
SEQEND
  5
24B
100
AcDbEntity
  8
一般
370
              15
  6
Continuous
 62
               7
  0
LINE
  5
24C
100
AcDbEntity
  8
一般
370
               5
  6
STYLE_02
 62
               7
100
AcDbLine
 10
-205.58605165741082
 20
-106.92546465402179
 30
0.0
 11
-205.58605165741082
 21
-125.325464654021
 31
0.0
  0
LINE
  5
24D
100
AcDbEntity
  8
一般
370
               5
  6
STYLE_02
 62
               7
100
AcDbLine
 10
-205.58605165741074
 20
-108.93863647045963
 30
0.0
 11
-205.58605165741074
 21
-109.03863647045965
 31
0.0
  0
SOLID
  5
24E
100
AcDbEntity
  8
一般
370
               5
 62
               7
100
AcDbTrace
 10
-205.58605165741074
 20
-108.93863647045963
 30
0.0
 11
-192.18940975189597
 21
-158.93558471264714
 31
0.0
 12
-218.9826935629255
 22
-158.93558471264714
 32
0.0
 13
-218.9826935629255
 23
-158.93558471264714
 33
0.0
  0
POLYLINE
  5
24F
100
AcDbEntity
  8
一般
370
               5
  6
Continuous
 62
               7
100
AcDb2dPolyline
 66
               1
 10
0.0
 20
0.0
 30
0.0
 70
               1
 75
               5
  0
VERTEX
  5
250
100
AcDbEntity
  8
一般
370
               5
  6
Continuous
 62
               7
100
AcDbVertex
100
AcDb2dVertex
 10
-207.57044902766569
 20
-118.31298253264866
 30
0.0
  0
VERTEX
  5
251
100
AcDbEntity
  8
一般
370
               5
  6
Continuous
 62
               7
100
AcDbVertex
100
AcDb2dVertex
 10
-205.57044902766569
 20
-116.31298253264876
 30
0.0
  0
VERTEX
  5
252
100
AcDbEntity
  8
一般
370
               5
  6
Continuous
 62
               7
100
AcDbVertex
100
AcDb2dVertex
 10
-205.57044902766569
 20
-116.31298253264876
 30
0.0
  0
VERTEX
  5
253
100
AcDbEntity
  8
一般
370
               5
  6
Continuous
 62
               7
100
AcDbVertex
100
AcDb2dVertex
 10
-203.57044902766569
 20
-118.31298253264866
 30
0.0
  0
VERTEX
  5
254
100
AcDbEntity
  8
一般
370
               5
  6
Continuous
 62
               7
100
AcDbVertex
100
AcDb2dVertex
 10
-203.57044902766569
 20
-120.31298253264858
 30
0.0
  0
VERTEX
  5
255
100
AcDbEntity
  8
一般
370
               5
  6
Continuous
 62
               7
100
AcDbVertex
100
AcDb2dVertex
 10
-207.57044902766569
 20
-120.31298253264858
 30
0.0
  0
SEQEND
  5
256
100
AcDbEntity
  8
一般
370
               5
  6
Continuous
 62
               7
  0
POLYLINE
  5
257
100
AcDbEntity
  8
一般
370
               5
  6
Continuous
 62
               7
100
AcDb2dPolyline
 66
               1
 10
0.0
 20
0.0
 30
0.0
 70
               1
 75
               5
  0
VERTEX
  5
258
100
AcDbEntity
  8
一般
370
               5
  6
Continuous
 62
               7
100
AcDbVertex
100
AcDb2dVertex
 10
-207.91044902766578
 20
-118.51521267751643
 30
0.0
  0
VERTEX
  5
259
100
AcDbEntity
  8
一般
370
               5
  6
Continuous
 62
               7
100
AcDbVertex
100
AcDb2dVertex
 10
-203.91044902766578
 20
-118.4857141524427
 30
0.0
  0
VERTEX
  5
25A
100
AcDbEntity
  8
一般
370
               5
  6
Continuous
 62
               7
100
AcDbVertex
100
AcDb2dVertex
 10
-203.21044902766576
 20
-118.65621562736894
 30
0.0
  0
VERTEX
  5
25B
100
AcDbEntity
  8
一般
370
               5
  6
Continuous
 62
               7
100
AcDbVertex
100
AcDb2dVertex
 10
-207.21044902766576
 20
-118.68571415244267
 30
0.0
  0
SEQEND
  5
25C
100
AcDbEntity
  8
一般
370
               5
  6
Continuous
 62
               7
  0
POLYLINE
  5
25D
100
AcDbEntity
  8
一般
370
               5
  6
Continuous
 62
               7
100
AcDb2dPolyline
 66
               1
 10
0.0
 20
0.0
 30
0.0
 70
               1
 75
               5
  0
VERTEX
  5
25E
100
AcDbEntity
  8
一般
370
               5
  6
Continuous
 62
               7
100
AcDbVertex
100
AcDb2dVertex
 10
-207.91044902766578
 20
-119.0152126775164
 30
0.0
  0
VERTEX
  5
25F
100
AcDbEntity
  8
一般
370
               5
  6
Continuous
 62
               7
100
AcDbVertex
100
AcDb2dVertex
 10
-203.91044902766578
 20
-118.98571415244267
 30
0.0
  0
VERTEX
  5
260
100
AcDbEntity
  8
一般
370
               5
  6
Continuous
 62
               7
100
AcDbVertex
100
AcDb2dVertex
 10
-203.21044902766576
 20
-119.15621562736892
 30
0.0
  0
VERTEX
  5
261
100
AcDbEntity
  8
一般
370
               5
  6
Continuous
 62
               7
100
AcDbVertex
100
AcDb2dVertex
 10
-207.21044902766576
 20
-119.18571415244264
 30
0.0
  0
SEQEND
  5
262
100
AcDbEntity
  8
一般
370
               5
  6
Continuous
 62
               7
  0
POLYLINE
  5
263
100
AcDbEntity
  8
一般
370
               5
  6
Continuous
 62
               7
100
AcDb2dPolyline
 66
               1
 10
0.0
 20
0.0
 30
0.0
 70
               1
 75
               5
  0
VERTEX
  5
264
100
AcDbEntity
  8
一般
370
               5
  6
Continuous
 62
               7
100
AcDbVertex
100
AcDb2dVertex
 10
-207.91044902766578
 20
-119.51521267751637
 30
0.0
  0
VERTEX
  5
265
100
AcDbEntity
  8
一般
370
               5
  6
Continuous
 62
               7
100
AcDbVertex
100
AcDb2dVertex
 10
-203.91044902766578
 20
-119.48571415244264
 30
0.0
  0
VERTEX
  5
266
100
AcDbEntity
  8
一般
370
               5
  6
Continuous
 62
               7
100
AcDbVertex
100
AcDb2dVertex
 10
-203.21044902766576
 20
-119.65621562736889
 30
0.0
  0
VERTEX
  5
267
100
AcDbEntity
  8
一般
370
               5
  6
Continuous
 62
               7
100
AcDbVertex
100
AcDb2dVertex
 10
-207.21044902766576
 20
-119.68571415244263
 30
0.0
  0
SEQEND
  5
268
100
AcDbEntity
  8
一般
370
               5
  6
Continuous
 62
               7
  0
POLYLINE
  5
269
100
AcDbEntity
  8
一般
370
               5
  6
Continuous
 62
               7
100
AcDb2dPolyline
 66
               1
 10
0.0
 20
0.0
 30
0.0
 70
               1
 75
               5
  0
VERTEX
  5
26A
100
AcDbEntity
  8
一般
370
               5
  6
Continuous
 62
               7
100
AcDbVertex
100
AcDb2dVertex
 10
-207.91044902766578
 20
-120.01521267751636
 30
0.0
  0
VERTEX
  5
26B
100
AcDbEntity
  8
一般
370
               5
  6
Continuous
 62
               7
100
AcDbVertex
100
AcDb2dVertex
 10
-203.91044902766578
 20
-119.98571415244263
 30
0.0
  0
VERTEX
  5
26C
100
AcDbEntity
  8
一般
370
               5
  6
Continuous
 62
               7
100
AcDbVertex
100
AcDb2dVertex
 10
-203.21044902766576
 20
-120.15621562736887
 30
0.0
  0
VERTEX
  5
26D
100
AcDbEntity
  8
一般
370
               5
  6
Continuous
 62
               7
100
AcDbVertex
100
AcDb2dVertex
 10
-207.21044902766576
 20
-120.1857141524426
 30
0.0
  0
SEQEND
  5
26E
100
AcDbEntity
  8
一般
370
               5
  6
Continuous
 62
               7
  0
LINE
  5
26F
100
AcDbEntity
  8
一般
370
               5
  6
STYLE_02
 62
               7
100
AcDbLine
 10
-207.52044902766573
 20
-118.34298253264869
 30
0.0
 11
-203.57044902766569
 21
-118.34298253264869
 31
0.0
  0
SPLINE
  5
270
100
AcDbEntity
  8
一般
370
              15
  6
Continuous
 62
               7
100
AcDbSpline
210
0.0
220
0.0
230
1.0
 70
               9
 71
               2
 72
              23
 73
              20
 74
               0
 42
0.000001
 43
0.000001
 40
0.0
 40
0.0
 40
0.0
 40
1.0
 40
1.0
 40
2.0
 40
2.0
 40
3.0
 40
3.0
 40
4.0
 40
5.0
 40
5.0
 40
6.0
 40
6.0
 40
7.0
 40
7.0
 40
8.0
 40
8.0
 40
9.0
 40
9.0
 40
10.0
 40
10.0
 40
10.0
 10
-235.59903982301873
 20
-76.819430594110685
 30
0.0
 10
-235.59903982301873
 20
-96.819430594111225
 30
0.0
 10
-235.59903982301873
 20
-116.81943059411175
 30
0.0
 10
-234.12549380205255
 20
-116.81943059411175
 30
0.0
 10
-232.65194778108636
 20
-116.81943059411175
 30
0.0
 10
-232.65194778108636
 20
-116.81599576727471
 30
0.0
 10
-232.65194778108636
 20
-116.81168449295244
 30
0.0
 10
-232.65194778108636
 20
-114.13219256864087
 30
0.0
 10
-231.09784246498586
 20
-109.49117641726279
 30
0.0
 10
-229.75194778108633
 20
-108.15143045510706
 30
0.0
 10
-228.42309414088228
 20
-106.82864768461484
 30
0.0
 10
-226.89039348864159
 20
-106.81188814337466
 30
0.0
 10
-226.89039348864159
 20
-106.80729149234028
 30
0.0
 10
-226.89039348864159
 20
-106.80269484130589
 30
0.0
 10
-213.74471665583016
 20
-106.80269484130589
 30
0.0
 10
-200.59903982301873
 20
-106.80269484130589
 30
0.0
 10
-200.59903982301873
 20
-91.811062717708296
 30
0.0
 10
-200.59903982301873
 20
-76.819430594110685
 30
0.0
 10
-218.09903982301873
 20
-76.819430594110685
 30
0.0
 10
-235.59903982301873
 20
-76.819430594110685
 30
0.0
  0
SPLINE
  5
271
100
AcDbEntity
  8
一般
370
              15
  6
Continuous
 62
               7
100
AcDbSpline
210
0.0
220
0.0
230
1.0
 70
               9
 71
               2
 72
              23
 73
              20
 74
               0
 42
0.000001
 43
0.000001
 40
0.0
 40
0.0
 40
0.0
 40
1.0
 40
1.0
 40
2.0
 40
2.0
 40
3.0
 40
3.0
 40
4.0
 40
5.0
 40
5.0
 40
6.0
 40
6.0
 40
7.0
 40
7.0
 40
8.0
 40
8.0
 40
9.0
 40
9.0
 40
10.0
 40
10.0
 40
10.0
 10
-151.54094786699625
 20
-76.760777822811235
 30
0.0
 10
-151.54094786699625
 20
-96.760777822811718
 30
0.0
 10
-151.54094786699625
 20
-116.76077782281222
 30
0.0
 10
-153.01449388796243
 20
-116.76077782281222
 30
0.0
 10
-154.48803990892864
 20
-116.76077782281222
 30
0.0
 10
-154.48803990892864
 20
-116.75734299597515
 30
0.0
 10
-154.48803990892864
 20
-116.75303172165287
 30
0.0
 10
-154.48803990892864
 20
-114.07353979734143
 30
0.0
 10
-156.04214522502915
 20
-109.43252364596336
 30
0.0
 10
-157.38803990892865
 20
-108.09277768380758
 30
0.0
 10
-158.71689354913272
 20
-106.76999491331539
 30
0.0
 10
-160.24959420137341
 20
-106.75323537207521
 30
0.0
 10
-160.24959420137341
 20
-106.74863872104083
 30
0.0
 10
-160.24959420137341
 20
-106.74404207000644
 30
0.0
 10
-173.39527103418482
 20
-106.74404207000644
 30
0.0
 10
-186.54094786699625
 20
-106.74404207000644
 30
0.0
 10
-186.54094786699625
 20
-91.752409946408847
 30
0.0
 10
-186.54094786699625
 20
-76.760777822811235
 30
0.0
 10
-169.04094786699625
 20
-76.760777822811235
 30
0.0
 10
-151.54094786699625
 20
-76.760777822811235
 30
0.0
  0
LINE
  5
272
100
AcDbEntity
  8
一般
370
               5
  6
STYLE_06
 62
               7
100
AcDbLine
 10
-212.39999999999992
 20
-96.712701902931784
 30
0.0
 11
-172.19999999999993
 21
-96.712701902931784
 31
0.0
  0
ENDBLK
  5
273
100
AcDbEntity
  8
一般
100
AcDbBlockEnd
  0
ENDSEC
  0
SECTION
  2
ENTITIES
  0
INSERT
  5
274
100
AcDbEntity
  8
寸法
 62
               7
100
AcDbBlockReference
  2
scal 1_5
 10
-1823.5903039830418
 20
-1317.2083333333335
 30
0.0
  0
LINE
  5
275
100
AcDbEntity
  8
一般
370
               5
  6
STYLE_02
 62
               7
100
AcDbLine
 10
2592.4818967690585
 20
2898.1819370119829
 30
0.0
 11
2592.4818967690585
 21
3608.1819370119911
 31
0.0
  0
LINE
  5
276
100
AcDbEntity
  8
一般
370
               5
  6
STYLE_02
 62
               7
100
AcDbLine
 10
690.0
 20
3148.333352574758
 30
0.0
 11
4940.0
 21
3148.333352574758
 31
0.0
  0
LINE
  5
277
100
AcDbEntity
  8
一般
370
               5
  6
STYLE_02
 62
               7
100
AcDbLine
 10
2636.0257813264543
 20
2903.333352574758
 30
0.0
 11
4940.0
 21
2903.333352574758
 31
0.0
  0
LINE
  5
278
100
AcDbEntity
  8
一般
370
               5
  6
STYLE_02
 62
               7
100
AcDbLine
 10
2738.6789674211122
 20
3995.9944555567517
 30
0.0
 11
2738.6789674211122
 21
1045.9944555567517
 31
0.0
  0
LINE
  5
279
100
AcDbEntity
  8
一般
370
               5
  6
STYLE_02
 62
               7
100
AcDbLine
 10
3096.4143094233518
 20
3995.9944555567517
 30
0.0
 11
3096.4143094233518
 21
1045.9944555567517
 31
0.0
  0
LINE
  5
27A
100
AcDbEntity
  8
一般
370
               5
  6
STYLE_02
 62
               7
100
AcDbLine
 10
3187.066025737246
 20
3995.9944555567517
 30
0.0
 11
3187.066025737246
 21
1045.9944555567517
 31
0.0
  0
LINE
  5
27B
100
AcDbEntity
  8
一般
370
               5
  6
STYLE_02
 62
               7
100
AcDbLine
 10
2636.0257813264543
 20
2783.333352574758
 30
0.0
 11
4940.0
 21
2783.333352574758
 31
0.0
  0
LINE
  5
27C
100
AcDbEntity
  8
一般
370
               5
  6
STYLE_02
 62
               7
100
AcDbLine
 10
2636.0257813264543
 20
2663.333352574758
 30
0.0
 11
4940.0
 21
2663.333352574758
 31
0.0
  0
LINE
  5
27D
100
AcDbEntity
  8
一般
370
               5
  6
STYLE_02
 62
               7
100
AcDbLine
 10
2636.0257813264543
 20
2543.333352574758
 30
0.0
 11
4940.0
 21
2543.333352574758
 31
0.0
  0
LINE
  5
27E
100
AcDbEntity
  8
一般
370
               5
  6
STYLE_02
 62
               7
100
AcDbLine
 10
2636.0257813264543
 20
2423.333352574758
 30
0.0
 11
4940.0
 21
2423.333352574758
 31
0.0
  0
LINE
  5
27F
100
AcDbEntity
  8
一般
370
               5
  6
STYLE_02
 62
               7
100
AcDbLine
 10
2636.0257813264543
 20
2303.333352574758
 30
0.0
 11
4940.0
 21
2303.333352574758
 31
0.0
  0
LINE
  5
280
100
AcDbEntity
  8
一般
370
               5
  6
STYLE_02
 62
               7
100
AcDbLine
 10
2636.0257813264543
 20
2183.333352574758
 30
0.0
 11
4940.0
 21
2183.333352574758
 31
0.0
  0
LINE
  5
281
100
AcDbEntity
  8
一般
370
               5
  6
STYLE_02
 62
               7
100
AcDbLine
 10
2636.0257813264543
 20
2063.333352574758
 30
0.0
 11
4940.0
 21
2063.333352574758
 31
0.0
  0
LINE
  5
282
100
AcDbEntity
  8
一般
370
               5
  6
STYLE_02
 62
               7
100
AcDbLine
 10
2636.0257813264543
 20
1943.333352574758
 30
0.0
 11
4940.0
 21
1943.333352574758
 31
0.0
  0
LINE
  5
283
100
AcDbEntity
  8
一般
370
               5
  6
STYLE_02
 62
               7
100
AcDbLine
 10
2636.0257813264543
 20
1823.333352574758
 30
0.0
 11
4940.0
 21
1823.333352574758
 31
0.0
  0
LINE
  5
284
100
AcDbEntity
  8
一般
370
               5
  6
STYLE_02
 62
               7
100
AcDbLine
 10
2636.0257813264543
 20
1703.333352574758
 30
0.0
 11
4940.0
 21
1703.333352574758
 31
0.0
  0
LINE
  5
285
100
AcDbEntity
  8
一般
370
               5
  6
STYLE_02
 62
               7
100
AcDbLine
 10
2636.0257813264543
 20
1583.333352574758
 30
0.0
 11
4940.0
 21
1583.333352574758
 31
0.0
  0
LINE
  5
286
100
AcDbEntity
  8
一般
370
               5
  6
STYLE_02
 62
               7
100
AcDbLine
 10
2636.0257813264543
 20
1463.333352574758
 30
0.0
 11
4940.0
 21
1463.333352574758
 31
0.0
  0
LINE
  5
287
100
AcDbEntity
  8
一般
370
               5
  6
STYLE_02
 62
               7
100
AcDbLine
 10
2636.0257813264543
 20
1343.333352574758
 30
0.0
 11
4940.0
 21
1343.333352574758
 31
0.0
  0
LINE
  5
288
100
AcDbEntity
  8
一般
370
               5
  6
STYLE_02
 62
               7
100
AcDbLine
 10
2636.0257813264543
 20
1223.333352574758
 30
0.0
 11
4940.0
 21
1223.333352574758
 31
0.0
  0
LINE
  5
289
100
AcDbEntity
  8
一般
370
               5
  6
STYLE_02
 62
               7
100
AcDbLine
 10
2636.0257813264543
 20
1103.333352574758
 30
0.0
 11
4940.0
 21
1103.333352574758
 31
0.0
  0
LINE
  5
28A
100
AcDbEntity
  8
一般
370
               5
  6
STYLE_02
 62
               7
100
AcDbLine
 10
2636.0257813264543
 20
983.33335257475801
 30
0.0
 11
4940.0
 21
983.33335257475801
 31
0.0
  0
LINE
  5
28B
100
AcDbEntity
  8
一般
370
               5
  6
STYLE_02
 62
               7
100
AcDbLine
 10
2636.0257813264543
 20
863.33335257475801
 30
0.0
 11
4940.0
 21
863.33335257475801
 31
0.0
  0
LINE
  5
28C
100
AcDbEntity
  8
一般
370
               5
  6
STYLE_02
 62
               7
100
AcDbLine
 10
2636.0257813264543
 20
743.33335257475801
 30
0.0
 11
4940.0
 21
743.33335257475801
 31
0.0
  0
LINE
  5
28D
100
AcDbEntity
  8
一般
370
               5
  6
STYLE_02
 62
               7
100
AcDbLine
 10
2636.0257813264543
 20
623.33335257475801
 30
0.0
 11
4940.0
 21
623.33335257475801
 31
0.0
  0
LINE
  5
28E
100
AcDbEntity
  8
一般
370
               5
  6
STYLE_02
 62
               7
100
AcDbLine
 10
2636.0257813264543
 20
503.33335257475801
 30
0.0
 11
4940.0
 21
503.33335257475801
 31
0.0
  0
LINE
  5
28F
100
AcDbEntity
  8
一般
370
               5
  6
STYLE_02
 62
               7
100
AcDbLine
 10
2636.0257813264543
 20
383.33335257475801
 30
0.0
 11
4940.0
 21
383.33335257475801
 31
0.0
  0
LINE
  5
290
100
AcDbEntity
  8
一般
370
               5
  6
STYLE_02
 62
               7
100
AcDbLine
 10
2636.0257813264543
 20
263.33335257475801
 30
0.0
 11
4940.0
 21
263.33335257475801
 31
0.0
  0
LINE
  5
291
100
AcDbEntity
  8
一般
370
               5
  6
STYLE_02
 62
               7
100
AcDbLine
 10
2636.0257813264543
 20
143.33335257475801
 30
0.0
 11
4940.0
 21
143.33335257475801
 31
0.0
  0
LINE
  5
292
100
AcDbEntity
  8
一般
370
               5
  6
STYLE_02
 62
               7
100
AcDbLine
 10
2636.0257813264543
 20
263.33335257475801
 30
0.0
 11
4940.0
 21
263.33335257475801
 31
0.0
  0
LINE
  5
293
100
AcDbEntity
  8
一般
370
               5
  6
STYLE_02
 62
               7
100
AcDbLine
 10
2636.0257813264543
 20
143.33335257475801
 30
0.0
 11
4940.0
 21
143.33335257475801
 31
0.0
  0
LINE
  5
294
100
AcDbEntity
  8
一般
370
               5
  6
STYLE_02
 62
               7
100
AcDbLine
 10
2636.0257813264543
 20
23.33335257475801
 30
0.0
 11
4940.0
 21
23.33335257475801
 31
0.0
  0
LINE
  5
295
100
AcDbEntity
  8
一般
370
               5
  6
STYLE_02
 62
               7
100
AcDbLine
 10
3336.2672261659054
 20
1770.0
 30
0.0
 11
3336.2672261659054
 21
-10.0
 31
0.0
  0
LINE
  5
296
100
AcDbEntity
  8
一般
370
               5
  6
STYLE_02
 62
               7
100
AcDbLine
 10
2592.4818967690585
 20
2898.1819370119829
 30
0.0
 11
2592.4818967690585
 21
3608.1819370119911
 31
0.0
  0
LINE
  5
297
100
AcDbEntity
  8
一般
370
               5
  6
STYLE_02
 62
               7
100
AcDbLine
 10
2636.0257813264543
 20
2903.333352574758
 30
0.0
 11
4940.0
 21
2903.333352574758
 31
0.0
  0
LINE
  5
298
100
AcDbEntity
  8
一般
370
               5
  6
STYLE_02
 62
               7
100
AcDbLine
 10
2738.6789674211122
 20
3995.9944555567517
 30
0.0
 11
2738.6789674211122
 21
1045.9944555567517
 31
0.0
  0
LINE
  5
299
100
AcDbEntity
  8
一般
370
               5
  6
STYLE_02
 62
               7
100
AcDbLine
 10
3096.4143094233518
 20
3995.9944555567517
 30
0.0
 11
3096.4143094233518
 21
1045.9944555567517
 31
0.0
  0
LINE
  5
29A
100
AcDbEntity
  8
一般
370
               5
  6
STYLE_02
 62
               7
100
AcDbLine
 10
3187.066025737246
 20
3995.9944555567517
 30
0.0
 11
3187.066025737246
 21
1045.9944555567517
 31
0.0
  0
LINE
  5
29B
100
AcDbEntity
  8
一般
370
               5
  6
STYLE_02
 62
               7
100
AcDbLine
 10
2636.0257813264543
 20
2783.333352574758
 30
0.0
 11
4940.0
 21
2783.333352574758
 31
0.0
  0
LINE
  5
29C
100
AcDbEntity
  8
一般
370
               5
  6
STYLE_02
 62
               7
100
AcDbLine
 10
2636.0257813264543
 20
2663.333352574758
 30
0.0
 11
4940.0
 21
2663.333352574758
 31
0.0
  0
LINE
  5
29D
100
AcDbEntity
  8
一般
370
               5
  6
STYLE_02
 62
               7
100
AcDbLine
 10
2636.0257813264543
 20
2543.333352574758
 30
0.0
 11
4940.0
 21
2543.333352574758
 31
0.0
  0
LINE
  5
29E
100
AcDbEntity
  8
一般
370
               5
  6
STYLE_02
 62
               7
100
AcDbLine
 10
2636.0257813264543
 20
2423.333352574758
 30
0.0
 11
4940.0
 21
2423.333352574758
 31
0.0
  0
LINE
  5
29F
100
AcDbEntity
  8
一般
370
               5
  6
STYLE_02
 62
               7
100
AcDbLine
 10
2636.0257813264543
 20
2303.333352574758
 30
0.0
 11
4940.0
 21
2303.333352574758
 31
0.0
  0
LINE
  5
2A0
100
AcDbEntity
  8
一般
370
               5
  6
STYLE_02
 62
               7
100
AcDbLine
 10
2636.0257813264543
 20
2183.333352574758
 30
0.0
 11
4940.0
 21
2183.333352574758
 31
0.0
  0
LINE
  5
2A1
100
AcDbEntity
  8
一般
370
               5
  6
STYLE_02
 62
               7
100
AcDbLine
 10
2636.0257813264543
 20
2063.333352574758
 30
0.0
 11
4940.0
 21
2063.333352574758
 31
0.0
  0
LINE
  5
2A2
100
AcDbEntity
  8
一般
370
               5
  6
STYLE_02
 62
               7
100
AcDbLine
 10
2636.0257813264543
 20
1943.333352574758
 30
0.0
 11
4940.0
 21
1943.333352574758
 31
0.0
  0
LINE
  5
2A3
100
AcDbEntity
  8
一般
370
               5
  6
STYLE_02
 62
               7
100
AcDbLine
 10
2636.0257813264543
 20
1823.333352574758
 30
0.0
 11
4940.0
 21
1823.333352574758
 31
0.0
  0
LINE
  5
2A4
100
AcDbEntity
  8
一般
370
               5
  6
STYLE_02
 62
               7
100
AcDbLine
 10
2636.0257813264543
 20
1703.333352574758
 30
0.0
 11
4940.0
 21
1703.333352574758
 31
0.0
  0
LINE
  5
2A5
100
AcDbEntity
  8
一般
370
               5
  6
STYLE_02
 62
               7
100
AcDbLine
 10
2636.0257813264543
 20
1583.333352574758
 30
0.0
 11
4940.0
 21
1583.333352574758
 31
0.0
  0
LINE
  5
2A6
100
AcDbEntity
  8
一般
370
               5
  6
STYLE_02
 62
               7
100
AcDbLine
 10
2636.0257813264543
 20
1463.333352574758
 30
0.0
 11
4940.0
 21
1463.333352574758
 31
0.0
  0
LINE
  5
2A7
100
AcDbEntity
  8
一般
370
               5
  6
STYLE_02
 62
               7
100
AcDbLine
 10
2636.0257813264543
 20
1343.333352574758
 30
0.0
 11
4940.0
 21
1343.333352574758
 31
0.0
  0
LINE
  5
2A8
100
AcDbEntity
  8
一般
370
               5
  6
STYLE_02
 62
               7
100
AcDbLine
 10
2636.0257813264543
 20
1223.333352574758
 30
0.0
 11
4940.0
 21
1223.333352574758
 31
0.0
  0
LINE
  5
2A9
100
AcDbEntity
  8
一般
370
               5
  6
STYLE_02
 62
               7
100
AcDbLine
 10
2636.0257813264543
 20
1103.333352574758
 30
0.0
 11
4940.0
 21
1103.333352574758
 31
0.0
  0
LINE
  5
2AA
100
AcDbEntity
  8
一般
370
               5
  6
STYLE_02
 62
               7
100
AcDbLine
 10
2636.0257813264543
 20
983.33335257475801
 30
0.0
 11
4940.0
 21
983.33335257475801
 31
0.0
  0
LINE
  5
2AB
100
AcDbEntity
  8
一般
370
               5
  6
STYLE_02
 62
               7
100
AcDbLine
 10
2636.0257813264543
 20
863.33335257475801
 30
0.0
 11
4940.0
 21
863.33335257475801
 31
0.0
  0
LINE
  5
2AC
100
AcDbEntity
  8
一般
370
               5
  6
STYLE_02
 62
               7
100
AcDbLine
 10
2636.0257813264543
 20
743.33335257475801
 30
0.0
 11
4940.0
 21
743.33335257475801
 31
0.0
  0
LINE
  5
2AD
100
AcDbEntity
  8
一般
370
               5
  6
STYLE_02
 62
               7
100
AcDbLine
 10
2636.0257813264543
 20
623.33335257475801
 30
0.0
 11
4940.0
 21
623.33335257475801
 31
0.0
  0
LINE
  5
2AE
100
AcDbEntity
  8
一般
370
               5
  6
STYLE_02
 62
               7
100
AcDbLine
 10
2636.0257813264543
 20
503.33335257475801
 30
0.0
 11
4940.0
 21
503.33335257475801
 31
0.0
  0
LINE
  5
2AF
100
AcDbEntity
  8
一般
370
               5
  6
STYLE_02
 62
               7
100
AcDbLine
 10
2636.0257813264543
 20
383.33335257475801
 30
0.0
 11
4940.0
 21
383.33335257475801
 31
0.0
  0
LINE
  5
2B0
100
AcDbEntity
  8
一般
370
               5
  6
STYLE_02
 62
               7
100
AcDbLine
 10
2636.0257813264543
 20
263.33335257475801
 30
0.0
 11
4940.0
 21
263.33335257475801
 31
0.0
  0
LINE
  5
2B1
100
AcDbEntity
  8
一般
370
               5
  6
STYLE_02
 62
               7
100
AcDbLine
 10
2636.0257813264543
 20
143.33335257475801
 30
0.0
 11
4940.0
 21
143.33335257475801
 31
0.0
  0
LINE
  5
2B2
100
AcDbEntity
  8
一般
370
               5
  6
STYLE_02
 62
               7
100
AcDbLine
 10
2636.0257813264543
 20
263.33335257475801
 30
0.0
 11
4940.0
 21
263.33335257475801
 31
0.0
  0
LINE
  5
2B3
100
AcDbEntity
  8
一般
370
               5
  6
STYLE_02
 62
               7
100
AcDbLine
 10
2636.0257813264543
 20
143.33335257475801
 30
0.0
 11
4940.0
 21
143.33335257475801
 31
0.0
  0
LINE
  5
2B4
100
AcDbEntity
  8
一般
370
               5
  6
STYLE_02
 62
               7
100
AcDbLine
 10
2636.0257813264543
 20
23.33335257475801
 30
0.0
 11
4940.0
 21
23.33335257475801
 31
0.0
  0
LINE
  5
2B5
100
AcDbEntity
  8
一般
370
               5
  6
STYLE_02
 62
               7
100
AcDbLine
 10
3336.2672261659054
 20
1770.0
 30
0.0
 11
3336.2672261659054
 21
-10.0
 31
0.0
  0
CIRCLE
  5
2B6
100
AcDbEntity
  8
一般
370
              15
  6
Continuous
 62
               7
100
AcDbCircle
 10
1225.9069928834761
 20
1147.0
 30
0.0
 40
20.000000000000007
  0
LWPOLYLINE
  5
2B7
100
AcDbEntity
  8
一般
370
               5
  6
Continuous
 62
               7
100
AcDbPolyline
 90
        4
 70
             129
 10
1338.3637755989737
 20
960.44627582324642
 10
1338.3637755989737
 20
884.04627582324497
 10
1414.7637755989736
 20
884.04627582324497
 10
1414.7637755989736
 20
960.44627582324642
  0
LWPOLYLINE
  5
2B8
100
AcDbEntity
  8
一般
370
               5
  6
Continuous
 62
               7
100
AcDbPolyline
 90
        4
 70
             129
 10
1365.2165388262763
 20
916.53208152374668
 42
0.4142135623730992
 10
1371.2165388262761
 20
922.53208152374668
 42
0.4142135623730909
 10
1365.2165388262763
 20
928.53208152374668
 42
0.4142135623730978
 10
1359.2165388262763
 20
922.53208152374668
 42
0.4142135623730916
  0
INSERT
  5
2B9
100
AcDbEntity
  8
一般
 62
               7
100
AcDbBlockReference
  2
グループ-1
 10
1450.0
 20
1020.0
 30
0.0
  0
INSERT
  5
2BA
100
AcDbEntity
  8
一般
 62
               7
100
AcDbBlockReference
  2
グループ-2
 10
1450.0
 20
1020.0
 30
0.0
  0
INSERT
  5
2BB
100
AcDbEntity
  8
一般
 62
               7
100
AcDbBlockReference
  2
グループ-3
 10
1450.0
 20
1020.0
 30
0.0
  0
INSERT
  5
2BC
100
AcDbEntity
  8
一般
 62
               7
100
AcDbBlockReference
  2
グループ-4
 10
1450.0
 20
1020.0
 30
0.0
  0
INSERT
  5
2BD
100
AcDbEntity
  8
一般
 62
               7
100
AcDbBlockReference
  2
グループ-5
 10
1450.0
 20
1020.0
 30
0.0
  0
MTEXT
  5
2BE
100
AcDbEntity
  8
一般
 62
               7
100
AcDbMText
 10
1568.2566435644453
 20
1201.774526073682
 30
0.0
 40
14.147858796296296
 41
0.0
 71
               1
 72
               1
  1
SF-DK30
  7
Arial
 73
               1
 44
0.9673603504928808
  0
ENDSEC
  0
SECTION
  2
OBJECTS
  0
DICTIONARY
  5
19
100
AcDbDictionary
280
               0
281
               1
  3
ACAD_GROUP
350
1A
  3
ACAD_MLINESTYLE
350
1B
  3
ACAD_LAYOUT
350
1E
  3
ACAD_PLOTSETTINGS
350
22
  3
ACAD_PLOTSTYLENAME
350
1F
  3
ACAD_WIPEOUT_VARS
350
23
  0
DICTIONARY
  5
1A
102
{ACAD_REACTORS
330
19
102
}
100
AcDbDictionary
280
               0
281
               1
  0
DICTIONARY
  5
1B
102
{ACAD_REACTORS
330
19
102
}
100
AcDbDictionary
280
               0
281
               1
  3
Standard
350
1C
  0
MLINESTYLE
  5
1C
102
{ACAD_REACTORS
330
1B
102
}
100
AcDbMlineStyle
  2
Standard
 70
               0
  3

 62
               0
 51
90.0
 52
90.0
 71
               2
 49
0.5
 62
             256
  6
ByLayer
 49
-0.5
 62
             256
  6
ByLayer
  0
ACDBDICTIONARYWDFLT
  5
1F
102
{ACAD_REACTORS
330
19
102
}
100
AcDbDictionary
281
               1
  3
Normal
350
1D
100
AcDbDictionaryWithDefault
340
1D
  0
ACDBPLACEHOLDER
  5
1D
102
{ACAD_REACTORS
330
1F
102
}
  0
LAYOUT
  5
20
102
{ACAD_REACTORS
330
1E
102
}
100
AcDbPlotSettings
  1

  2

  4

  6

 40
0.0
 41
0.0
 42
0.0
 43
0.0
 44
0.0
 45
0.0
 46
0.0
 47
0.0
 48
0.0
 49
0.0
140
0.0
141
0.0
142
1.0
143
1.0
 70
            1024
 72
               0
 73
               0
 74
               0
  7

 75
               0
147
1.0
148
0.0
149
0.0
100
AcDbLayout
  1
Model
 70
               0
 71
               0
 10
0.0
 20
0.0
 11
0.0
 21
0.0
 12
0.0
 22
0.0
 32
0.0
 14
0.0
 24
0.0
 34
0.0
 15
0.0
 25
0.0
 35
0.0
146
0.0
 13
0.0
 23
0.0
 33
0.0
 16
0.0
 26
0.0
 36
0.0
 17
0.0
 27
0.0
 37
0.0
 76
               0
330
A
331
0
345
0
346
0
  0
LAYOUT
  5
21
102
{ACAD_REACTORS
330
1E
102
}
100
AcDbPlotSettings
  1

  2

  4

  6

 40
0.0
 41
0.0
 42
0.0
 43
0.0
 44
0.0
 45
0.0
 46
0.0
 47
0.0
 48
0.0
 49
0.0
140
0.0
141
0.0
142
1.0
143
1.0
 70
               0
 72
               0
 73
               0
 74
               0
  7

 75
               0
147
1.0
148
0.0
149
0.0
100
AcDbLayout
  1
Layout1
 70
               0
 71
               0
 10
0.0
 20
0.0
 11
0.0
 21
0.0
 12
0.0
 22
0.0
 32
0.0
 14
0.0
 24
0.0
 34
0.0
 15
0.0
 25
0.0
 35
0.0
146
0.0
 13
0.0
 23
0.0
 33
0.0
 16
0.0
 26
0.0
 36
0.0
 17
0.0
 27
0.0
 37
0.0
 76
               0
330
B
331
0
345
0
346
0
  0
DICTIONARY
  5
1E
102
{ACAD_REACTORS
330
19
102
}
100
AcDbDictionary
280
               0
281
               1
  3
Layout1
350
21
  3
Model
350
20
  0
DICTIONARY
  5
22
102
{ACAD_REACTORS
330
19
102
}
100
AcDbDictionary
280
               0
281
               1
  0
WIPEOUTVARIABLES
  5
23
100
AcDbWipeoutVariables
 70
               0
  0
ENDSEC
  0
EOF
