  0
SECTION
  2
HEADER
  9
$ACADVER
  1
AC1015
  9
$ACADMAINTVER
 70
               6
  9
$DWGCODEPAGE
  3
ANSI_932
  9
$INSBASE
 10
0.0
 20
0.0
 30
0.0
  9
$EXTMIN
 10
1258.8127732081668
 20
860.07914849730957
 30
-2.9068888888888886
  9
$EXTMAX
 10
1662.1927877351418
 20
1189.0443825539028
 30
2.9068888888888886
  9
$LIMMIN
 10
0.0
 20
0.0
  9
$LIMMAX
 10
0.0
 20
0.0
  9
$ORTHOMODE
 70
               0
  9
$REGENMODE
 70
               1
  9
$FILLMODE
 70
               1
  9
$QTEXTMODE
 70
               0
  9
$MIRRTEXT
 70
               1
  9
$LTSCALE
 40
10.16
  9
$ATTMODE
 70
               1
  9
$TEXTSIZE
 40
0.2
  9
$TRACEWID
 40
1.0
  9
$TEXTSTYLE
  7
Standard
  9
$CLAYER
  8
一般
  9
$CELTYPE
  6
Continuous
  9
$CECOLOR
 62
             256
  9
$CELTSCALE
 40
1.0
  9
$DISPSILH
 70
               0
  9
$DIMSCALE
 40
1.0
  9
$DIMASZ
 40
0.18
  9
$DIMEXO
 40
0.0625
  9
$DIMDLI
 40
0.38
  9
$DIMRND
 40
0.0
  9
$DIMDLE
 40
0.0
  9
$DIMEXE
 40
0.18
  9
$DIMTP
 40
0.0
  9
$DIMTM
 40
0.0
  9
$DIMTXT
 40
0.18
  9
$DIMCEN
 40
0.09
  9
$DIMTSZ
 40
0.0
  9
$DIMTOL
 70
               0
  9
$DIMLIM
 70
               0
  9
$DIMTIH
 70
               1
  9
$DIMTOH
 70
               1
  9
$DIMSE1
 70
               0
  9
$DIMSE2
 70
               0
  9
$DIMTAD
 70
               0
  9
$DIMZIN
 70
               0
  9
$DIMBLK
  1

  9
$DIMASO
 70
               1
  9
$DIMSHO
 70
               1
  9
$DIMPOST
  1

  9
$DIMAPOST
  1

  9
$DIMALT
 70
               0
  9
$DIMALTD
 70
               2
  9
$DIMALTF
 40
25.399999999999999
  9
$DIMLFAC
 40
1.0
  9
$DIMTOFL
 70
               0
  9
$DIMTVP
 40
0.0
  9
$DIMTIX
 70
               0
  9
$DIMSOXD
 70
               0
  9
$DIMSAH
 70
               0
  9
$DIMBLK1
  1

  9
$DIMBLK2
  1

  9
$DIMSTYLE
  2
Standard
  9
$DIMCLRD
 70
               0
  9
$DIMCLRE
 70
               0
  9
$DIMCLRT
 70
               0
  9
$DIMTFAC
 40
1.0
  9
$DIMGAP
 40
0.09
  9
$DIMJUST
 70
               0
  9
$DIMSD1
 70
               0
  9
$DIMSD2
 70
               0
  9
$DIMTOLJ
 70
               1
  9
$DIMTZIN
 70
               0
  9
$DIMALTZ
 70
               0
  9
$DIMALTTZ
 70
               0
  9
$DIMUPT
 70
               0
  9
$DIMDEC
 70
               4
  9
$DIMTDEC
 70
               4
  9
$DIMALTU
 70
               2
  9
$DIMALTTD
 70
               2
  9
$DIMTXSTY
  7
Standard
  9
$DIMAUNIT
 70
               0
  9
$DIMADEC
 70
               0
  9
$DIMALTRND
 40
0.0
  9
$DIMAZIN
 70
               0
  9
$DIMDSEP
 70
               0
  9
$DIMATFIT
 70
               3
  9
$DIMFRAC
 70
               0
  9
$DIMLDRBLK
  1

  9
$DIMLUNIT
 70
               2
  9
$DIMLWD
 70
               0
  9
$DIMLWE
 70
               0
  9
$DIMTMOVE
 70
               0
  9
$LUNITS
 70
               2
  9
$LUPREC
 70
               4
  9
$SKETCHINC
 40
0.1
  9
$FILLETRAD
 40
0.0
  9
$AUNITS
 70
               0
  9
$AUPREC
 70
               0
  9
$MENU
  1
acad
  9
$ELEVATION
 40
0.0
  9
$PELEVATION
 40
0.0
  9
$THICKNESS
 40
0.0
  9
$LIMCHECK
 70
               0
  9
$CHAMFERA
 40
0.0
  9
$CHAMFERB
 40
0.0
  9
$CHAMFERC
 40
0.0
  9
$CHAMFERD
 40
0.0
  9
$SKPOLY
 70
               0
  9
$TDCREATE
 40
2455839.418668982
  9
$TDUCREATE
 40
0.000000000
  9
$TDUPDATE
 40
2455839.418668982
  9
$TDUUPDATE
 40
0.000000000
  9
$TDINDWG
 40
0.0000000000
  9
$TDUSRTIMER
 40
0.0000000000
  9
$USRTIMER
 70
               1
  9
$ANGBASE
 50
0.0
  9
$ANGDIR
 70
               0
  9
$PDMODE
 70
               1
  9
$PDSIZE
 40
-2.0
  9
$PLINEWID
 40
0.0
  9
$SPLFRAME
 70
               0
  9
$SPLINETYPE
 70
               6
  9
$SPLINESEGS
 70
               8
  9
$HANDSEED
  5
3E8
  9
$SURFTAB1
 70
               6
  9
$SURFTAB2
 70
               6
  9
$SURFTYPE
 70
               6
  9
$SURFU
 70
               6
  9
$SURFV
 70
               6
  9
$UCSBASE
  2

  9
$UCSNAME
  2

  9
$UCSORG
 10
0.0
 20
0.0
 30
0.0
  9
$UCSXDIR
 10
1.0
 20
0.0
 30
0.0
  9
$UCSYDIR
 10
0.0
 20
1.0
 30
0.0
  9
$UCSORTHOREF
  2

  9
$UCSORTHOVIEW
 70
               0
  9
$UCSORGTOP
 10
0.0
 20
0.0
 30
0.0
  9
$UCSORGBOTTOM
 10
0.0
 20
0.0
 30
0.0
  9
$UCSORGLEFT
 10
0.0
 20
0.0
 30
0.0
  9
$UCSORGRIGHT
 10
0.0
 20
0.0
 30
0.0
  9
$UCSORGFRONT
 10
0.0
 20
0.0
 30
0.0
  9
$UCSORGBACK
 10
0.0
 20
0.0
 30
0.0
  9
$PUCSBASE
  2

  9
$PUCSNAME
  2

  9
$PUCSORG
 10
0.0
 20
0.0
 30
0.0
  9
$PUCSXDIR
 10
1.0
 20
0.0
 30
0.0
  9
$PUCSYDIR
 10
0.0
 20
1.0
 30
0.0
  9
$PUCSORTHOREF
  2

  9
$PUCSORTHOVIEW
 70
               0
  9
$PUCSORGTOP
 10
0.0
 20
0.0
 30
0.0
  9
$PUCSORGBOTTOM
 10
0.0
 20
0.0
 30
0.0
  9
$PUCSORGLEFT
 10
0.0
 20
0.0
 30
0.0
  9
$PUCSORGRIGHT
 10
0.0
 20
0.0
 30
0.0
  9
$PUCSORGFRONT
 10
0.0
 20
0.0
 30
0.0
  9
$PUCSORGBACK
 10
0.0
 20
0.0
 30
0.0
  9
$USERI1
 70
               0
  9
$USERI2
 70
               0
  9
$USERI3
 70
               0
  9
$USERI4
 70
               0
  9
$USERI5
 70
               0
  9
$USERR1
 40
0.0
  9
$USERR2
 40
0.0
  9
$USERR3
 40
0.0
  9
$USERR4
 40
0.0
  9
$USERR5
 40
0.0
  9
$WORLDVIEW
 70
               1
  9
$SHADEDGE
 70
               3
  9
$SHADEDIF
 70
              70
  9
$TILEMODE
 70
               1
  9
$MAXACTVP
 70
              64
  9
$PINSBASE
 10
0.0
 20
0.0
 30
0.0
  9
$PLIMCHECK
 70
               0
  9
$PEXTMIN
 10
1.0000000000000000E+20
 20
1.0000000000000000E+20
 30
1.0000000000000000E+20
  9
$PEXTMAX
 10
-1.0000000000000000E+20
 20
-1.0000000000000000E+20
 30
-1.0000000000000000E+20
  9
$PLIMMIN
 10
0.0
 20
0.0
  9
$PLIMMAX
 10
12.0
 20
9.0
  9
$UNITMODE
 70
               0
  9
$VISRETAIN
 70
               0
  9
$PLINEGEN
 70
               1
  9
$PSLTSCALE
 70
               0
  9
$TREEDEPTH
 70
            3020
  9
$CMLSTYLE
  2
Standard
  9
$CMLJUST
 70
               0
  9
$CMLSCALE
 40
1.0
  9
$PROXYGRAPHICS
 70
               0
  9
$MEASUREMENT
 70
               1
  9
$CELWEIGHT
370
               0
  9
$ENDCAPS
280
               0
  9
$JOINSTYLE
280
               0
  9
$LWDISPLAY
290
               1
  9
$INSUNITS
 70
               4
  9
$HYPERLINKBASE
  1

  9
$STYLESHEET
  1

  9
$XEDIT
290
               1
  9
$CEPSNTYPE
380
               0
  9
$PSTYLEMODE
290
               1
  9
$FINGERPRINTGUID
  2

  9
$VERSIONGUID
  2

  9
$EXTNAMES
290
               1
  9
$PSVPSCALE
 40
0.0
  0
ENDSEC
  0
SECTION
  2
CLASSES
  0
CLASS
  1
LWPOLYLINE
  2
AcDbPolyline
  3
AutoCAD 2000
 90
        0
280
               0
281
               1
  0
CLASS
  1
IMAGE
  2
AcDbRasterImage
  3
ISM
 90
    32895
280
               0
281
               1
  0
CLASS
  1
OLE2FRAME
  2
AcDbOle2Frame
  3
AutoCAD 2000
 90
    32768
280
               0
281
               1
  0
CLASS
  1
HATCH
  2
AcDbHatch
  3
AutoCAD 2000
 90
    32768
280
               0
281
               1
  0
CLASS
  1
DICTIONARYVAR
  2
AcDbDictionaryVar
  3
AutoCAD 2000
 90
    32768
280
               0
281
               0
  0
CLASS
  1
RASTERVARIABLES
  2
AcDbRasterVariables
  3
ISM
 90
    32768
280
               0
281
               0
  0
CLASS
  1
IMAGEDEF
  2
AcDbRasterImageDef
  3
ISM
 90
    32768
280
               0
281
               0
  0
CLASS
  1
IMAGEDEF_REACTOR
  2
AcDbRasterImageDefReactor
  3
ISM
 90
    32769
280
               0
281
               0
  0
CLASS
  1
IDBUFFER
  2
AcDbIdBuffer
  3
AutoCAD 2000
 90
    32768
280
               0
281
               0
  0
CLASS
  1
SPATIAL_FILTER
  2
AcDbSpatialFilter
  3
AutoCAD 2000
 90
    32768
280
               0
281
               0
  0
CLASS
  1
XRECORD
  2
AcDbXrecord
  3
AutoCAD 2000
 90
    32768
280
               0
281
               0
  0
CLASS
  1
SORTENTSTABLE
  2
AcDbSortentsTable
  3
AutoCAD 2000
 90
    32768
280
               0
281
               0
  0
CLASS
  1
LAYER_INDEX
  2
AcDbLayerIndex
  3
AutoCAD 2000
 90
    32768
280
               0
281
               0
  0
CLASS
  1
SPATIAL_INDEX
  2
AcDbSpatialIndex
  3
AutoCAD 2000
 90
    32768
280
               0
281
               0
  0
CLASS
  1
OBJECT_PTR
  2
CAseDLPNTableRecord
  3
"ASE-LPNTableRecord"
 90
    32769
280
               0
281
               0
  0
CLASS
  1
LAYOUT
  2
AcDbLayout
  3
AutoCAD 2000
 90
        0
280
               0
281
               0
  0
CLASS
  1
PLOTSETTINGS
  2
AcDbPlotSettings
  3
AutoCAD 2000
 90
    32768
280
               0
281
               0
  0
CLASS
  1
ACDBDICTIONARYWDFLT
  2
AcDbDictionaryWithDefault
  3
AutoCAD 2000
 90
        0
280
               0
281
               0
  0
CLASS
  1
ACDBPLACEHOLDER
  2
AcDbPlaceHolder
  3
AutoCAD 2000
 90
        0
280
               0
281
               0
  0
CLASS
  1
VBA_PROJECT
  2
AcDbVbaProject
  3
acadvba
 90
    32768
280
               0
281
               0
  0
CLASS
  1
WIPEOUT
  2
AcDbWipeout
  3
WipeOut|AutoCAD Express Tool|expresstools@autodesk.com
 90
    32895
280
               0
281
               1
  0
CLASS
  1
WIPEOUTVARIABLES
  2
AcDbWipeoutVariables
  3
WipeOut|AutoCAD Express Tool|expresstools@autodesk.com
 90
        0
280
               0
281
               0
  0
CLASS
  1
RTEXT
  2
RText
  3
RText|AutoCAD Express Tool|expresstools@autodesk.com
 90
    32768
280
               0
281
               1
  0
CLASS
  1
ARCALIGNEDTEXT
  2
AcDbArcAlignedText
  3
ATEXT|AutoCAD Express Tool|expresstools@autodesk.com
 90
    32768
280
               0
281
               1
  0
ENDSEC
  0
SECTION
  2
TABLES
  0
TABLE
  2
VPORT
  5
7
100
AcDbSymbolTable
 70
               1
  0
VPORT
  5
15
100
AcDbSymbolTableRecord
100
AcDbViewportTableRecord
  2
*ACTIVE
 70
               0
 10
0.0
 20
0.0
 11
1.0
 21
1.0
 12
1460.5027804716542
 22
1024.5617655256062
 13
0.0
 23
0.0
 14
1.0
 24
1.0
 15
0.0
 25
0.0
 16
0.0
 26
0.0
 36
1.0
 17
0.0
 27
0.0
 37
0.0
 40
328.9652340565932
 41
0.688564
 42
50.0
 43
0.0
 44
0.0
 50
0.0
 51
0.0
 71
               0
 72
            2000
 73
               1
 74
               1
 75
               0
 76
               0
 77
               0
 78
               0
281
               0
 65
               0
110
0.0
120
0.0
130
0.0
111
1.0
121
0.0
131
0.0
112
0.0
122
1.0
132
0.0
345
0
346
0
 79
               0
146
0.0
  0
ENDTAB
  0
TABLE
  2
LTYPE
  5
4
100
AcDbSymbolTable
 70
              13
  0
LTYPE
  5
11
100
AcDbSymbolTableRecord
100
AcDbLinetypeTableRecord
  2
ByBlock
 70
              64
  3

 72
              65
 73
               0
 40
0.0
  0
LTYPE
  5
12
100
AcDbSymbolTableRecord
100
AcDbLinetypeTableRecord
  2
ByLayer
 70
              64
  3

 72
              65
 73
               0
 40
0.0
  0
LTYPE
  5
13
100
AcDbSymbolTableRecord
100
AcDbLinetypeTableRecord
  2
Continuous
 70
              64
  3
Solid line
 72
              65
 73
               0
 40
0.0
  0
LTYPE
  5
2D
100
AcDbSymbolTableRecord
100
AcDbLinetypeTableRecord
  2
STYLE_01
 70
               0
  3

 72
              65
 73
               2
 40
0.41664
 49
0.20828
 74
               0
 49
-0.20836
 74
               0
  0
LTYPE
  5
2E
100
AcDbSymbolTableRecord
100
AcDbLinetypeTableRecord
  2
STYLE_02
 70
               0
  3

 72
              65
 73
               2
 40
0.6944250000000001
 49
0.48607
 74
               0
 49
-0.2083550000000001
 74
               0
  0
LTYPE
  5
2F
100
AcDbSymbolTableRecord
100
AcDbLinetypeTableRecord
  2
STYLE_03
 70
               0
  3

 72
              65
 73
               2
 40
1.25
 49
1.0416400000000001
 74
               0
 49
-0.2083599999999999
 74
               0
  0
LTYPE
  5
30
100
AcDbSymbolTableRecord
100
AcDbLinetypeTableRecord
  2
STYLE_04
 70
               0
  3

 72
              65
 73
               2
 40
1.5277099999999999
 49
1.3194249999999998
 74
               0
 49
-0.208285
 74
               0
  0
LTYPE
  5
31
100
AcDbSymbolTableRecord
100
AcDbLinetypeTableRecord
  2
STYLE_05
 70
               0
  3

 72
              65
 73
               2
 40
0.20828
 49
0.069425
 74
               0
 49
-0.138855
 74
               0
  0
LTYPE
  5
32
100
AcDbSymbolTableRecord
100
AcDbLinetypeTableRecord
  2
STYLE_06
 70
               0
  3

 72
              65
 73
               4
 40
1.0416400000000001
 49
0.625
 74
               0
 49
-0.20828
 74
               0
 49
0.06943
 74
               0
 49
-0.13893
 74
               0
  0
LTYPE
  5
33
100
AcDbSymbolTableRecord
100
AcDbLinetypeTableRecord
  2
STYLE_07
 70
               0
  3

 72
              65
 73
               6
 40
1.875
 49
0.625
 74
               0
 49
-0.20828
 74
               0
 49
0.6250000000000001
 74
               0
 49
-0.2083599999999999
 74
               0
 49
0.06943
 74
               0
 49
-0.1389299999999999
 74
               0
  0
LTYPE
  5
34
100
AcDbSymbolTableRecord
100
AcDbLinetypeTableRecord
  2
STYLE_08
 70
               0
  3

 72
              65
 73
               6
 40
1.25
 49
0.625
 74
               0
 49
-0.20828
 74
               0
 49
0.06943
 74
               0
 49
-0.13893
 74
               0
 49
0.0694299999999999
 74
               0
 49
-0.13893
 74
               0
  0
LTYPE
  5
35
100
AcDbSymbolTableRecord
100
AcDbLinetypeTableRecord
  2
STYLE_09
 70
               0
  3

 72
              65
 73
               4
 40
5.0
 49
3.75
 74
               0
 49
-0.2777849999999998
 74
               0
 49
0.6944300000000003
 74
               0
 49
-0.2777849999999998
 74
               0
  0
LTYPE
  5
36
100
AcDbSymbolTableRecord
100
AcDbLinetypeTableRecord
  2
STYLE_10
 70
               0
  3

 72
              65
 73
               6
 40
5.9375
 49
3.75
 74
               0
 49
-0.2777849999999998
 74
               0
 49
0.6944300000000003
 74
               0
 49
-0.2777849999999998
 74
               0
 49
0.625
 74
               0
 49
-0.3125
 74
               0
  0
ENDTAB
  0
TABLE
  2
LAYER
  5
2
100
AcDbSymbolTable
 70
               6
  0
LAYER
  5
14
100
AcDbSymbolTableRecord
100
AcDbLayerTableRecord
  2
0
 70
               0
 62
               7
  6
Continuous
290
               1
370
              -3
390
1D
  0
LAYER
  5
37
100
AcDbSymbolTableRecord
100
AcDbLayerTableRecord
  2
一般
 70
               0
 62
               7
  6
Continuous
290
               1
370
               5
390
1D
  0
LAYER
  5
38
100
AcDbSymbolTableRecord
100
AcDbLayerTableRecord
  2
寸法
 70
               0
 62
               7
  6
Continuous
290
               1
370
               5
390
1D
  0
LAYER
  5
39
100
AcDbSymbolTableRecord
100
AcDbLayerTableRecord
  2
補助グリッド
 70
               0
 62
             203
  6
Continuous
290
               1
370
              13
390
1D
  0
LAYER
  5
3A
100
AcDbSymbolTableRecord
100
AcDbLayerTableRecord
  2
ジェット関係
 70
               0
 62
               7
  6
Continuous
290
               1
370
               5
390
1D
  0
LAYER
  5
3B
100
AcDbSymbolTableRecord
100
AcDbLayerTableRecord
  2
排水
 70
               0
 62
               7
  6
Continuous
290
               1
370
              15
390
1D
  0
ENDTAB
  0
TABLE
  2
STYLE
  5
3
100
AcDbSymbolTable
 70
               3
  0
STYLE
  5
17
100
AcDbSymbolTableRecord
100
AcDbTextStyleTableRecord
  2
Standard
 70
               0
 40
0.0
 41
1.0
 50
0.0
 71
               0
 42
0.0
  3
txt
  4
BIGFONT.SHX
  0
STYLE
  5
2B
100
AcDbSymbolTableRecord
100
AcDbTextStyleTableRecord
  2
Arial
 70
               0
 40
0.0
 41
1.0
 50
0.0
 71
               0
 42
0.0
  3

  4
Arial
1001
ACAD
1000
Arial
1071
        0
  0
STYLE
  5
2C
100
AcDbSymbolTableRecord
100
AcDbTextStyleTableRecord
  2
ＭＳ ゴシック
 70
               0
 40
0.0
 41
1.0
 50
0.0
 71
               0
 42
0.0
  3

  4
ＭＳ ゴシック
1001
ACAD
1000
ＭＳ ゴシック
1071
        0
  0
ENDTAB
  0
TABLE
  2
VIEW
  5
5
100
AcDbSymbolTable
 70
               0
  0
ENDTAB
  0
TABLE
  2
UCS
  5
6
100
AcDbSymbolTable
 70
               0
  0
ENDTAB
  0
TABLE
  2
APPID
  5
8
100
AcDbSymbolTable
 70
               1
  0
APPID
  5
16
100
AcDbSymbolTableRecord
100
AcDbRegAppTableRecord
  2
ACAD
 70
               0
  0
ENDTAB
  0
TABLE
  2
DIMSTYLE
  5
9
100
AcDbSymbolTable
 70
               1
100
AcDbDimStyleTable
 71
               0
  0
DIMSTYLE
105
18
100
AcDbSymbolTableRecord
100
AcDbDimStyleTableRecord
  2
Standard
 70
               0
  3

  4

 40
1.0
 41
0.18
 42
0.0625
 43
0.38
 44
0.18
 45
0.0
 46
0.0
 47
0.0
 48
0.0
 71
               0
 72
               0
 73
               1
 74
               1
 75
               0
 76
               0
 77
               0
 78
               0
 79
               0
140
0.18
141
0.09
142
0.0
143
25.399999999999999
144
1.0
145
0.0
146
1.0
147
0.09
148
0.0
170
               0
171
               2
172
               0
173
               0
174
               0
175
               0
176
               0
177
               0
178
               0
179
               0
271
               4
272
               4
273
               2
274
               2
275
               0
276
               0
277
               2
278
              46
279
               0
280
               0
281
               0
282
               0
283
               1
284
               0
285
               0
286
               0
288
               0
340
17
341
0
342
0
343
0
344
0
371
              -2
372
              -2
  0
ENDTAB
  0
TABLE
  2
BLOCK_RECORD
  5
1
100
AcDbSymbolTable
 70
               7
  0
BLOCK_RECORD
  5
A
100
AcDbSymbolTableRecord
100
AcDbBlockTableRecord
  2
*MODEL_SPACE
340
20
  0
BLOCK_RECORD
  5
B
100
AcDbSymbolTableRecord
100
AcDbBlockTableRecord
  2
*PAPER_SPACE
340
21
  0
BLOCK_RECORD
  5
24
100
AcDbSymbolTableRecord
100
AcDbBlockTableRecord
  2
グループ
340
0
102
{BLKREFS
331
3DC
102
}
  0
BLOCK_RECORD
  5
25
100
AcDbSymbolTableRecord
100
AcDbBlockTableRecord
  2
グループ-1
340
0
102
{BLKREFS
331
3DF
102
}
  0
BLOCK_RECORD
  5
26
100
AcDbSymbolTableRecord
100
AcDbBlockTableRecord
  2
グループ-2
340
0
102
{BLKREFS
331
3E0
102
}
  0
BLOCK_RECORD
  5
27
100
AcDbSymbolTableRecord
100
AcDbBlockTableRecord
  2
グループ-3
340
0
102
{BLKREFS
331
3E1
102
}
  0
BLOCK_RECORD
  5
28
100
AcDbSymbolTableRecord
100
AcDbBlockTableRecord
  2
グループ-4
340
0
102
{BLKREFS
331
3E4
102
}
  0
BLOCK_RECORD
  5
29
100
AcDbSymbolTableRecord
100
AcDbBlockTableRecord
  2
グループ-5
340
0
102
{BLKREFS
331
3E5
102
}
  0
BLOCK_RECORD
  5
2A
100
AcDbSymbolTableRecord
100
AcDbBlockTableRecord
  2
グループ-6
340
0
102
{BLKREFS
331
3E6
102
}
  0
ENDTAB
  0
ENDSEC
  0
SECTION
  2
BLOCKS
  0
BLOCK
  5
D
100
AcDbEntity
  8
0
100
AcDbBlockBegin
  2
*MODEL_SPACE
 70
               0
 10
0.0
 20
0.0
 30
0.0
  3
*MODEL_SPACE
  1

  0
ENDBLK
  5
E
100
AcDbEntity
  8
0
100
AcDbBlockEnd
  0
BLOCK
  5
F
100
AcDbEntity
 67
               1
  8
0
100
AcDbBlockBegin
  2
*PAPER_SPACE
 70
               0
 10
0.0
 20
0.0
 30
0.0
  3
*PAPER_SPACE
  1

  0
ENDBLK
  5
10
100
AcDbEntity
 67
               1
  8
0
100
AcDbBlockEnd
  0
BLOCK
  5
3C
100
AcDbEntity
  8
一般
100
AcDbBlockBegin
  2
グループ
 70
               0
 10
0.0
 20
0.0
 30
0.0
  3
グループ
  1

  0
LINE
  5
3D
100
AcDbEntity
  8
一般
370
               5
  6
Continuous
 62
               7
100
AcDbLine
 10
-12.189797787409379
 20
-66.235409096404908
 30
0.0
 11
-12.592951906578893
 21
-66.235409096404908
 31
0.0
  0
LINE
  5
3E
100
AcDbEntity
  8
一般
370
               5
  6
Continuous
 62
               7
100
AcDbLine
 10
-13.189797787409379
 20
-66.235409096404908
 30
0.0
 11
-13.592951906578893
 21
-66.235409096404908
 31
0.0
  0
LINE
  5
3F
100
AcDbEntity
  8
一般
370
               5
  6
Continuous
 62
               7
100
AcDbLine
 10
-15.238917466198178
 20
-69.235409096404908
 30
0.0
 11
-15.642071585367677
 21
-69.235409096404908
 31
0.0
  0
LINE
  5
40
100
AcDbEntity
  8
一般
370
               5
  6
Continuous
 62
               7
100
AcDbLine
 10
-16.189797787409407
 20
-66.235409096404908
 30
0.0
 11
-16.592951906578993
 21
-66.235409096404908
 31
0.0
  0
LINE
  5
41
100
AcDbEntity
  8
一般
370
               5
  6
Continuous
 62
               7
100
AcDbLine
 10
-17.238917466198348
 20
-69.235409096404908
 30
0.0
 11
-17.642071585367905
 21
-69.235409096404908
 31
0.0
  0
LINE
  5
42
100
AcDbEntity
  8
一般
370
               5
  6
Continuous
 62
               7
100
AcDbLine
 10
-18.189797787409663
 20
-66.235409096404908
 30
0.0
 11
-18.59295190657922
 21
-66.235409096404908
 31
0.0
  0
LINE
  5
43
100
AcDbEntity
  8
一般
370
               5
  6
Continuous
 62
               7
100
AcDbLine
 10
-19.238917466198576
 20
-69.235409096404908
 30
0.0
 11
-19.642071585368161
 21
-69.235409096404908
 31
0.0
  0
LINE
  5
44
100
AcDbEntity
  8
一般
370
               5
  6
Continuous
 62
               7
100
AcDbLine
 10
-20.189797787409919
 20
-66.235409096404908
 30
0.0
 11
-20.592951906579504
 21
-66.235409096404908
 31
0.0
  0
LINE
  5
45
100
AcDbEntity
  8
一般
370
               5
  6
Continuous
 62
               7
100
AcDbLine
 10
-21.189797787410061
 20
-66.235409096404908
 30
0.0
 11
-21.592951906579618
 21
-66.235409096404908
 31
0.0
  0
LINE
  5
46
100
AcDbEntity
  8
一般
370
               5
  6
Continuous
 62
               7
100
AcDbLine
 10
-22.189797787410175
 20
-66.235409096404908
 30
0.0
 11
-22.592951906579732
 21
-66.235409096404908
 31
0.0
  0
LINE
  5
47
100
AcDbEntity
  8
一般
370
               5
  6
Continuous
 62
               7
100
AcDbLine
 10
-21.23891746619886
 20
-69.235409096404908
 30
0.0
 11
-21.642071585368416
 21
-69.235409096404908
 31
0.0
  0
LINE
  5
48
100
AcDbEntity
  8
一般
370
               5
  6
Continuous
 62
               7
100
AcDbLine
 10
-22.238917466198973
 20
-69.235409096404908
 30
0.0
 11
-22.64207158536853
 21
-69.235409096404908
 31
0.0
  0
LINE
  5
49
100
AcDbEntity
  8
一般
370
               5
  6
Continuous
 62
               7
100
AcDbLine
 10
-24.189797787410402
 20
-66.235409096404908
 30
0.0
 11
-24.592951906579902
 21
-66.235409096404908
 31
0.0
  0
LINE
  5
4A
100
AcDbEntity
  8
一般
370
               5
  6
Continuous
 62
               7
100
AcDbLine
 10
-25.189797787410402
 20
-66.235409096404908
 30
0.0
 11
-25.592951906579902
 21
-66.235409096404908
 31
0.0
  0
LINE
  5
4B
100
AcDbEntity
  8
一般
370
               5
  6
Continuous
 62
               7
100
AcDbLine
 10
-26.189797787410402
 20
-66.235409096404908
 30
0.0
 11
-26.592951906579902
 21
-66.235409096404908
 31
0.0
  0
LINE
  5
4C
100
AcDbEntity
  8
一般
370
               5
  6
Continuous
 62
               7
100
AcDbLine
 10
-24.238917466199201
 20
-69.235409096404908
 30
0.0
 11
-24.642071585368701
 21
-69.235409096404908
 31
0.0
  0
LINE
  5
4D
100
AcDbEntity
  8
一般
370
               5
  6
Continuous
 62
               7
100
AcDbLine
 10
-25.238917466199201
 20
-69.235409096404908
 30
0.0
 11
-25.642071585368701
 21
-69.235409096404908
 31
0.0
  0
LINE
  5
4E
100
AcDbEntity
  8
一般
370
               5
  6
Continuous
 62
               7
100
AcDbLine
 10
-26.238917466199201
 20
-69.235409096404908
 30
0.0
 11
-26.642071585368701
 21
-69.235409096404908
 31
0.0
  0
LINE
  5
4F
100
AcDbEntity
  8
一般
370
               5
  6
Continuous
 62
               7
100
AcDbLine
 10
-28.189797787410402
 20
-66.235409096404908
 30
0.0
 11
-28.592951906579902
 21
-66.235409096404908
 31
0.0
  0
LINE
  5
50
100
AcDbEntity
  8
一般
370
               5
  6
Continuous
 62
               7
100
AcDbLine
 10
-29.189797787410402
 20
-66.235409096404908
 30
0.0
 11
-29.592951906579902
 21
-66.235409096404908
 31
0.0
  0
LINE
  5
51
100
AcDbEntity
  8
一般
370
               5
  6
Continuous
 62
               7
100
AcDbLine
 10
-30.189797787410402
 20
-66.235409096404908
 30
0.0
 11
-30.592951906579902
 21
-66.235409096404908
 31
0.0
  0
LINE
  5
52
100
AcDbEntity
  8
一般
370
               5
  6
Continuous
 62
               7
100
AcDbLine
 10
-28.238917466199201
 20
-69.235409096404908
 30
0.0
 11
-28.642071585368701
 21
-69.235409096404908
 31
0.0
  0
LINE
  5
53
100
AcDbEntity
  8
一般
370
               5
  6
Continuous
 62
               7
100
AcDbLine
 10
-29.238917466199201
 20
-69.235409096404908
 30
0.0
 11
-29.642071585368701
 21
-69.235409096404908
 31
0.0
  0
LINE
  5
54
100
AcDbEntity
  8
一般
370
               5
  6
Continuous
 62
               7
100
AcDbLine
 10
-30.238917466199201
 20
-69.235409096404908
 30
0.0
 11
-30.642071585368701
 21
-69.235409096404908
 31
0.0
  0
LINE
  5
55
100
AcDbEntity
  8
一般
370
               5
  6
Continuous
 62
               7
100
AcDbLine
 10
-32.19366610948849
 20
-66.572058380067034
 30
0.0
 11
-32.59185538146339
 21
-66.721379357057629
 31
0.0
  0
LINE
  5
56
100
AcDbEntity
  8
一般
370
               5
  6
Continuous
 62
               7
100
AcDbLine
 10
-33.195474526479515
 20
-66.947736536438669
 30
0.0
 11
-33.591708833142533
 21
-67.0963244014373
 31
0.0
  0
POLYLINE
  5
57
100
AcDbEntity
  8
一般
370
               5
  6
Continuous
 62
               7
100
AcDb2dPolyline
 66
               1
 10
0.0
 20
0.0
 30
0.0
 75
               5
  0
VERTEX
  5
58
100
AcDbEntity
  8
一般
370
               5
  6
Continuous
 62
               7
100
AcDbVertex
100
AcDb2dVertex
 10
-34.232058596774394
 20
-68.134362630010571
 30
0.0
  0
VERTEX
  5
59
100
AcDbEntity
  8
一般
370
               5
  6
Continuous
 62
               7
100
AcDbVertex
100
AcDb2dVertex
 10
-35.295934686389515
 20
-67.735409096404908
 30
0.0
  0
VERTEX
  5
5A
100
AcDbEntity
  8
一般
370
               5
  6
Continuous
 62
               7
100
AcDbVertex
100
AcDb2dVertex
 10
-34.200656566080781
 20
-67.324679801289136
 30
0.0
  0
SEQEND
  5
5B
100
AcDbEntity
  8
一般
370
               5
  6
Continuous
 62
               7
  0
LINE
  5
5C
100
AcDbEntity
  8
一般
370
               5
  6
Continuous
 62
               7
100
AcDbLine
 10
-33.640569621612784
 20
-68.356170995696175
 30
0.0
 11
-33.234387231031306
 21
-68.508489392164222
 31
0.0
  0
LINE
  5
5D
100
AcDbEntity
  8
一般
370
               5
  6
Continuous
 62
               7
100
AcDbLine
 10
-32.639854420764848
 20
-68.731439196014151
 30
0.0
 11
-32.237256654457028
 21
-68.88241335837958
 31
0.0
  0
POLYLINE
  5
5E
100
AcDbEntity
  8
一般
370
               5
  6
Continuous
 62
               7
100
AcDb2dPolyline
 66
               1
 10
0.0
 20
0.0
 30
0.0
 75
               5
  0
VERTEX
  5
5F
100
AcDbEntity
  8
一般
370
               5
  6
Continuous
 62
               7
100
AcDbVertex
100
AcDb2dVertex
 10
-31.64138125479052
 20
-69.105866633254522
 30
0.0
  0
VERTEX
  5
60
100
AcDbEntity
  8
一般
370
               5
  6
Continuous
 62
               7
100
AcDbVertex
100
AcDb2dVertex
 10
-31.295934686389518
 20
-69.235409096404908
 30
0.0
  0
VERTEX
  5
61
100
AcDbEntity
  8
一般
370
               5
  6
Continuous
 62
               7
100
AcDbVertex
100
AcDb2dVertex
 10
-31.238917466199201
 20
-69.235409096404908
 30
0.0
  0
SEQEND
  5
62
100
AcDbEntity
  8
一般
370
               5
  6
Continuous
 62
               7
  0
POLYLINE
  5
63
100
AcDbEntity
  8
一般
370
               5
  6
Continuous
 62
               7
100
AcDb2dPolyline
 66
               1
 10
0.0
 20
0.0
 30
0.0
 75
               5
  0
VERTEX
  5
64
100
AcDbEntity
  8
一般
370
               5
  6
Continuous
 62
               7
100
AcDbVertex
100
AcDb2dVertex
 10
-31.603176397905106
 20
-66.350624738223246
 30
0.0
  0
VERTEX
  5
65
100
AcDbEntity
  8
一般
370
               5
  6
Continuous
 62
               7
100
AcDbVertex
100
AcDb2dVertex
 10
-31.295934686389518
 20
-66.235409096404908
 30
0.0
  0
VERTEX
  5
66
100
AcDbEntity
  8
一般
370
               5
  6
Continuous
 62
               7
100
AcDbVertex
100
AcDb2dVertex
 10
-31.189797787410402
 20
-66.235409096404908
 30
0.0
  0
SEQEND
  5
67
100
AcDbEntity
  8
一般
370
               5
  6
Continuous
 62
               7
  0
LINE
  5
68
100
AcDbEntity
  8
一般
370
               5
  6
Continuous
 62
               7
100
AcDbLine
 10
-27.642071585368701
 20
-69.235409096404908
 30
0.0
 11
-27.238917466199201
 21
-69.235409096404908
 31
0.0
  0
LINE
  5
69
100
AcDbEntity
  8
一般
370
               5
  6
Continuous
 62
               7
100
AcDbLine
 10
-27.592951906579902
 20
-66.235409096404908
 30
0.0
 11
-27.189797787410402
 21
-66.235409096404908
 31
0.0
  0
LINE
  5
6A
100
AcDbEntity
  8
一般
370
               5
  6
Continuous
 62
               7
100
AcDbLine
 10
-23.642071585368672
 20
-69.235409096404908
 30
0.0
 11
-23.238917466199087
 21
-69.235409096404908
 31
0.0
  0
LINE
  5
6B
100
AcDbEntity
  8
一般
370
               5
  6
Continuous
 62
               7
100
AcDbLine
 10
-23.592951906579902
 20
-66.235409096404908
 30
0.0
 11
-23.189797787410317
 21
-66.235409096404908
 31
0.0
  0
LINE
  5
6C
100
AcDbEntity
  8
一般
370
               5
  6
Continuous
 62
               7
100
AcDbLine
 10
-20.642071585368274
 20
-69.235409096404908
 30
0.0
 11
-20.238917466198689
 21
-69.235409096404908
 31
0.0
  0
LINE
  5
6D
100
AcDbEntity
  8
一般
370
               5
  6
Continuous
 62
               7
100
AcDbLine
 10
-19.592951906579334
 20
-66.235409096404908
 30
0.0
 11
-19.189797787409805
 21
-66.235409096404908
 31
0.0
  0
LINE
  5
6E
100
AcDbEntity
  8
一般
370
               5
  6
Continuous
 62
               7
100
AcDbLine
 10
-18.642071585368019
 20
-69.235409096404908
 30
0.0
 11
-18.238917466198462
 21
-69.235409096404908
 31
0.0
  0
LINE
  5
6F
100
AcDbEntity
  8
一般
370
               5
  6
Continuous
 62
               7
100
AcDbLine
 10
-17.592951906579106
 20
-66.235409096404908
 30
0.0
 11
-17.18979778740955
 21
-66.235409096404908
 31
0.0
  0
LINE
  5
70
100
AcDbEntity
  8
一般
370
               5
  6
Continuous
 62
               7
100
AcDbLine
 10
-16.642071585367763
 20
-69.235409096404908
 30
0.0
 11
-16.238917466198178
 21
-69.235409096404908
 31
0.0
  0
LINE
  5
71
100
AcDbEntity
  8
一般
370
               5
  6
Continuous
 62
               7
100
AcDbLine
 10
-15.592951906578893
 20
-66.235409096404908
 30
0.0
 11
-15.189797787409379
 21
-66.235409096404908
 31
0.0
  0
LINE
  5
72
100
AcDbEntity
  8
一般
370
               5
  6
Continuous
 62
               7
100
AcDbLine
 10
-14.642071585367677
 20
-69.235409096404908
 30
0.0
 11
-14.238917466198178
 21
-69.235409096404908
 31
0.0
  0
LINE
  5
73
100
AcDbEntity
  8
一般
370
               5
  6
Continuous
 62
               7
100
AcDbLine
 10
-14.592951906578893
 20
-66.235409096404908
 30
0.0
 11
-14.189797787409379
 21
-66.235409096404908
 31
0.0
  0
LINE
  5
74
100
AcDbEntity
  8
一般
370
               5
  6
Continuous
 62
               7
100
AcDbLine
 10
-13.642071585367677
 20
-69.235409096404908
 30
0.0
 11
-13.238917466198178
 21
-69.235409096404908
 31
0.0
  0
LINE
  5
75
100
AcDbEntity
  8
一般
370
               5
  6
Continuous
 62
               7
100
AcDbLine
 10
-12.642071585367677
 20
-69.235409096404908
 30
0.0
 11
-12.238917466198178
 21
-69.235409096404908
 31
0.0
  0
LINE
  5
76
100
AcDbEntity
  8
一般
370
               5
  6
Continuous
 62
               7
100
AcDbLine
 10
-11.592951906578893
 20
-66.235409096404908
 30
0.0
 11
-10.304065313610483
 21
-66.235409096404908
 31
0.0
  0
LINE
  5
77
100
AcDbEntity
  8
一般
370
               5
  6
Continuous
 62
               7
100
AcDbLine
 10
-11.642071585367677
 20
-69.235409096404908
 30
0.0
 11
-10.304065313610483
 21
-69.235409096404908
 31
0.0
  0
SPLINE
  5
78
100
AcDbEntity
  8
一般
370
               5
  6
Continuous
 62
               7
100
AcDbSpline
210
0.0
220
0.0
230
1.0
 70
               9
 71
               2
 72
              14
 73
              11
 74
               0
 42
0.000001
 43
0.000001
 40
0.0
 40
0.0
 40
0.0
 40
1.0
 40
2.0
 40
3.0
 40
4.0
 40
4.0
 40
5.0
 40
5.0
 40
6.0
 40
7.0
 40
7.0
 40
7.0
 10
-8.5720145060416009
 20
-65.789706390584058
 30
0.0
 10
-8.3040653136104829
 20
-66.717909620859558
 30
0.0
 10
-8.3040653136104829
 20
-68.861503160308558
 30
0.0
 10
-8.8399636984727188
 20
-70.717909620859558
 30
0.0
 10
-9.7681669287482471
 20
-71.789706390584058
 30
0.0
 10
-10.304065313610483
 20
-71.789706390584058
 30
0.0
 10
-10.304065313610483
 20
-67.789706390584058
 30
0.0
 10
-10.304065313610483
 20
-63.789706390584065
 30
0.0
 10
-9.7681669287482471
 20
-63.789706390584065
 30
0.0
 10
-8.8399636984727188
 20
-64.861503160308558
 30
0.0
 10
-8.5720145060416009
 20
-65.789706390584058
 30
0.0
  0
POLYLINE
  5
79
100
AcDbEntity
  8
一般
370
               5
  6
Continuous
 62
               7
100
AcDb2dPolyline
 66
               1
 10
0.0
 20
0.0
 30
0.0
 70
               1
 75
               5
  0
VERTEX
  5
7A
100
AcDbEntity
  8
一般
370
               5
  6
Continuous
 62
               7
100
AcDbVertex
100
AcDb2dVertex
 10
-11.9508394992631
 20
-69.735104486717717
 30
0.0
  0
VERTEX
  5
7B
100
AcDbEntity
  8
一般
370
               5
  6
Continuous
 62
               7
100
AcDbVertex
100
AcDb2dVertex
 10
-11.642158987497528
 20
-69.240416361070686
 30
0.0
  0
VERTEX
  5
7C
100
AcDbEntity
  8
一般
370
               5
  6
Continuous
 62
               7
100
AcDbVertex
100
AcDb2dVertex
 10
-11.589801768185698
 20
-66.24087327560153
 30
0.0
  0
VERTEX
  5
7D
100
AcDbEntity
  8
一般
370
               5
  6
Continuous
 62
               7
100
AcDbVertex
100
AcDb2dVertex
 10
-11.881029873513956
 20
-65.735713706092156
 30
0.0
  0
VERTEX
  5
7E
100
AcDbEntity
  8
一般
370
               5
  6
Continuous
 62
               7
100
AcDbVertex
100
AcDb2dVertex
 10
-11.881029873513928
 20
-65.735713706092156
 30
0.0
  0
VERTEX
  5
7F
100
AcDbEntity
  8
一般
370
               5
  6
Continuous
 62
               7
100
AcDbVertex
100
AcDb2dVertex
 10
-12.189710385279529
 20
-66.230401831739158
 30
0.0
  0
VERTEX
  5
80
100
AcDbEntity
  8
一般
370
               5
  6
Continuous
 62
               7
100
AcDbVertex
100
AcDb2dVertex
 10
-12.242067604591359
 20
-69.229944917208314
 30
0.0
  0
VERTEX
  5
81
100
AcDbEntity
  8
一般
370
               5
  6
Continuous
 62
               7
100
AcDbVertex
100
AcDb2dVertex
 10
-11.950839499263072
 20
-69.735104486717717
 30
0.0
  0
SEQEND
  5
82
100
AcDbEntity
  8
一般
370
               5
  6
Continuous
 62
               7
  0
POLYLINE
  5
83
100
AcDbEntity
  8
一般
370
               5
  6
Continuous
 62
               7
100
AcDb2dPolyline
 66
               1
 10
0.0
 20
0.0
 30
0.0
 70
               1
 75
               5
  0
VERTEX
  5
84
100
AcDbEntity
  8
一般
370
               5
  6
Continuous
 62
               7
100
AcDbVertex
100
AcDb2dVertex
 10
-12.9508394992631
 20
-69.735104486717717
 30
0.0
  0
VERTEX
  5
85
100
AcDbEntity
  8
一般
370
               5
  6
Continuous
 62
               7
100
AcDbVertex
100
AcDb2dVertex
 10
-12.642158987497528
 20
-69.240416361070686
 30
0.0
  0
VERTEX
  5
86
100
AcDbEntity
  8
一般
370
               5
  6
Continuous
 62
               7
100
AcDbVertex
100
AcDb2dVertex
 10
-12.589801768185698
 20
-66.24087327560153
 30
0.0
  0
VERTEX
  5
87
100
AcDbEntity
  8
一般
370
               5
  6
Continuous
 62
               7
100
AcDbVertex
100
AcDb2dVertex
 10
-12.881029873513956
 20
-65.735713706092156
 30
0.0
  0
VERTEX
  5
88
100
AcDbEntity
  8
一般
370
               5
  6
Continuous
 62
               7
100
AcDbVertex
100
AcDb2dVertex
 10
-12.881029873513928
 20
-65.735713706092156
 30
0.0
  0
VERTEX
  5
89
100
AcDbEntity
  8
一般
370
               5
  6
Continuous
 62
               7
100
AcDbVertex
100
AcDb2dVertex
 10
-13.189710385279529
 20
-66.230401831739158
 30
0.0
  0
VERTEX
  5
8A
100
AcDbEntity
  8
一般
370
               5
  6
Continuous
 62
               7
100
AcDbVertex
100
AcDb2dVertex
 10
-13.242067604591359
 20
-69.229944917208314
 30
0.0
  0
VERTEX
  5
8B
100
AcDbEntity
  8
一般
370
               5
  6
Continuous
 62
               7
100
AcDbVertex
100
AcDb2dVertex
 10
-12.950839499263072
 20
-69.735104486717717
 30
0.0
  0
SEQEND
  5
8C
100
AcDbEntity
  8
一般
370
               5
  6
Continuous
 62
               7
  0
POLYLINE
  5
8D
100
AcDbEntity
  8
一般
370
               5
  6
Continuous
 62
               7
100
AcDb2dPolyline
 66
               1
 10
0.0
 20
0.0
 30
0.0
 70
               1
 75
               5
  0
VERTEX
  5
8E
100
AcDbEntity
  8
一般
370
               5
  6
Continuous
 62
               7
100
AcDbVertex
100
AcDb2dVertex
 10
-13.9508394992631
 20
-69.735104486717717
 30
0.0
  0
VERTEX
  5
8F
100
AcDbEntity
  8
一般
370
               5
  6
Continuous
 62
               7
100
AcDbVertex
100
AcDb2dVertex
 10
-13.642158987497528
 20
-69.240416361070686
 30
0.0
  0
VERTEX
  5
90
100
AcDbEntity
  8
一般
370
               5
  6
Continuous
 62
               7
100
AcDbVertex
100
AcDb2dVertex
 10
-13.589801768185698
 20
-66.24087327560153
 30
0.0
  0
VERTEX
  5
91
100
AcDbEntity
  8
一般
370
               5
  6
Continuous
 62
               7
100
AcDbVertex
100
AcDb2dVertex
 10
-13.881029873513956
 20
-65.735713706092156
 30
0.0
  0
VERTEX
  5
92
100
AcDbEntity
  8
一般
370
               5
  6
Continuous
 62
               7
100
AcDbVertex
100
AcDb2dVertex
 10
-13.881029873513928
 20
-65.735713706092156
 30
0.0
  0
VERTEX
  5
93
100
AcDbEntity
  8
一般
370
               5
  6
Continuous
 62
               7
100
AcDbVertex
100
AcDb2dVertex
 10
-14.189710385279529
 20
-66.230401831739158
 30
0.0
  0
VERTEX
  5
94
100
AcDbEntity
  8
一般
370
               5
  6
Continuous
 62
               7
100
AcDbVertex
100
AcDb2dVertex
 10
-14.242067604591359
 20
-69.229944917208314
 30
0.0
  0
VERTEX
  5
95
100
AcDbEntity
  8
一般
370
               5
  6
Continuous
 62
               7
100
AcDbVertex
100
AcDb2dVertex
 10
-13.950839499263072
 20
-69.735104486717717
 30
0.0
  0
SEQEND
  5
96
100
AcDbEntity
  8
一般
370
               5
  6
Continuous
 62
               7
  0
POLYLINE
  5
97
100
AcDbEntity
  8
一般
370
               5
  6
Continuous
 62
               7
100
AcDb2dPolyline
 66
               1
 10
0.0
 20
0.0
 30
0.0
 70
               1
 75
               5
  0
VERTEX
  5
98
100
AcDbEntity
  8
一般
370
               5
  6
Continuous
 62
               7
100
AcDbVertex
100
AcDb2dVertex
 10
-14.9508394992631
 20
-69.735104486717717
 30
0.0
  0
VERTEX
  5
99
100
AcDbEntity
  8
一般
370
               5
  6
Continuous
 62
               7
100
AcDbVertex
100
AcDb2dVertex
 10
-14.642158987497528
 20
-69.240416361070686
 30
0.0
  0
VERTEX
  5
9A
100
AcDbEntity
  8
一般
370
               5
  6
Continuous
 62
               7
100
AcDbVertex
100
AcDb2dVertex
 10
-14.589801768185698
 20
-66.24087327560153
 30
0.0
  0
VERTEX
  5
9B
100
AcDbEntity
  8
一般
370
               5
  6
Continuous
 62
               7
100
AcDbVertex
100
AcDb2dVertex
 10
-14.881029873513956
 20
-65.735713706092156
 30
0.0
  0
VERTEX
  5
9C
100
AcDbEntity
  8
一般
370
               5
  6
Continuous
 62
               7
100
AcDbVertex
100
AcDb2dVertex
 10
-14.881029873513928
 20
-65.735713706092156
 30
0.0
  0
VERTEX
  5
9D
100
AcDbEntity
  8
一般
370
               5
  6
Continuous
 62
               7
100
AcDbVertex
100
AcDb2dVertex
 10
-15.189710385279529
 20
-66.230401831739158
 30
0.0
  0
VERTEX
  5
9E
100
AcDbEntity
  8
一般
370
               5
  6
Continuous
 62
               7
100
AcDbVertex
100
AcDb2dVertex
 10
-15.242067604591359
 20
-69.229944917208314
 30
0.0
  0
VERTEX
  5
9F
100
AcDbEntity
  8
一般
370
               5
  6
Continuous
 62
               7
100
AcDbVertex
100
AcDb2dVertex
 10
-14.950839499263072
 20
-69.735104486717717
 30
0.0
  0
SEQEND
  5
A0
100
AcDbEntity
  8
一般
370
               5
  6
Continuous
 62
               7
  0
POLYLINE
  5
A1
100
AcDbEntity
  8
一般
370
               5
  6
Continuous
 62
               7
100
AcDb2dPolyline
 66
               1
 10
0.0
 20
0.0
 30
0.0
 70
               1
 75
               5
  0
VERTEX
  5
A2
100
AcDbEntity
  8
一般
370
               5
  6
Continuous
 62
               7
100
AcDbVertex
100
AcDb2dVertex
 10
-15.9508394992631
 20
-69.735104486717717
 30
0.0
  0
VERTEX
  5
A3
100
AcDbEntity
  8
一般
370
               5
  6
Continuous
 62
               7
100
AcDbVertex
100
AcDb2dVertex
 10
-15.642158987497528
 20
-69.240416361070686
 30
0.0
  0
VERTEX
  5
A4
100
AcDbEntity
  8
一般
370
               5
  6
Continuous
 62
               7
100
AcDbVertex
100
AcDb2dVertex
 10
-15.589801768185698
 20
-66.24087327560153
 30
0.0
  0
VERTEX
  5
A5
100
AcDbEntity
  8
一般
370
               5
  6
Continuous
 62
               7
100
AcDbVertex
100
AcDb2dVertex
 10
-15.881029873513956
 20
-65.735713706092156
 30
0.0
  0
VERTEX
  5
A6
100
AcDbEntity
  8
一般
370
               5
  6
Continuous
 62
               7
100
AcDbVertex
100
AcDb2dVertex
 10
-15.881029873513928
 20
-65.735713706092156
 30
0.0
  0
VERTEX
  5
A7
100
AcDbEntity
  8
一般
370
               5
  6
Continuous
 62
               7
100
AcDbVertex
100
AcDb2dVertex
 10
-16.189710385279557
 20
-66.230401831739158
 30
0.0
  0
VERTEX
  5
A8
100
AcDbEntity
  8
一般
370
               5
  6
Continuous
 62
               7
100
AcDbVertex
100
AcDb2dVertex
 10
-16.242067604591387
 20
-69.229944917208314
 30
0.0
  0
VERTEX
  5
A9
100
AcDbEntity
  8
一般
370
               5
  6
Continuous
 62
               7
100
AcDbVertex
100
AcDb2dVertex
 10
-15.950839499263072
 20
-69.735104486717717
 30
0.0
  0
SEQEND
  5
AA
100
AcDbEntity
  8
一般
370
               5
  6
Continuous
 62
               7
  0
POLYLINE
  5
AB
100
AcDbEntity
  8
一般
370
               5
  6
Continuous
 62
               7
100
AcDb2dPolyline
 66
               1
 10
0.0
 20
0.0
 30
0.0
 70
               1
 75
               5
  0
VERTEX
  5
AC
100
AcDbEntity
  8
一般
370
               5
  6
Continuous
 62
               7
100
AcDbVertex
100
AcDb2dVertex
 10
-16.950839499263214
 20
-69.735104486717717
 30
0.0
  0
VERTEX
  5
AD
100
AcDbEntity
  8
一般
370
               5
  6
Continuous
 62
               7
100
AcDbVertex
100
AcDb2dVertex
 10
-16.642158987497613
 20
-69.240416361070686
 30
0.0
  0
VERTEX
  5
AE
100
AcDbEntity
  8
一般
370
               5
  6
Continuous
 62
               7
100
AcDbVertex
100
AcDb2dVertex
 10
-16.589801768185783
 20
-66.24087327560153
 30
0.0
  0
VERTEX
  5
AF
100
AcDbEntity
  8
一般
370
               5
  6
Continuous
 62
               7
100
AcDbVertex
100
AcDb2dVertex
 10
-16.88102987351407
 20
-65.735713706092156
 30
0.0
  0
VERTEX
  5
B0
100
AcDbEntity
  8
一般
370
               5
  6
Continuous
 62
               7
100
AcDbVertex
100
AcDb2dVertex
 10
-16.881029873514041
 20
-65.735713706092156
 30
0.0
  0
VERTEX
  5
B1
100
AcDbEntity
  8
一般
370
               5
  6
Continuous
 62
               7
100
AcDbVertex
100
AcDb2dVertex
 10
-17.1897103852797
 20
-66.230401831739158
 30
0.0
  0
VERTEX
  5
B2
100
AcDbEntity
  8
一般
370
               5
  6
Continuous
 62
               7
100
AcDbVertex
100
AcDb2dVertex
 10
-17.242067604591529
 20
-69.229944917208314
 30
0.0
  0
VERTEX
  5
B3
100
AcDbEntity
  8
一般
370
               5
  6
Continuous
 62
               7
100
AcDbVertex
100
AcDb2dVertex
 10
-16.950839499263186
 20
-69.735104486717717
 30
0.0
  0
SEQEND
  5
B4
100
AcDbEntity
  8
一般
370
               5
  6
Continuous
 62
               7
  0
POLYLINE
  5
B5
100
AcDbEntity
  8
一般
370
               5
  6
Continuous
 62
               7
100
AcDb2dPolyline
 66
               1
 10
0.0
 20
0.0
 30
0.0
 70
               1
 75
               5
  0
VERTEX
  5
B6
100
AcDbEntity
  8
一般
370
               5
  6
Continuous
 62
               7
100
AcDbVertex
100
AcDb2dVertex
 10
-17.950839499263356
 20
-69.735104486717717
 30
0.0
  0
VERTEX
  5
B7
100
AcDbEntity
  8
一般
370
               5
  6
Continuous
 62
               7
100
AcDbVertex
100
AcDb2dVertex
 10
-17.642158987497755
 20
-69.240416361070686
 30
0.0
  0
VERTEX
  5
B8
100
AcDbEntity
  8
一般
370
               5
  6
Continuous
 62
               7
100
AcDbVertex
100
AcDb2dVertex
 10
-17.589801768185897
 20
-66.24087327560153
 30
0.0
  0
VERTEX
  5
B9
100
AcDbEntity
  8
一般
370
               5
  6
Continuous
 62
               7
100
AcDbVertex
100
AcDb2dVertex
 10
-17.881029873514212
 20
-65.735713706092156
 30
0.0
  0
VERTEX
  5
BA
100
AcDbEntity
  8
一般
370
               5
  6
Continuous
 62
               7
100
AcDbVertex
100
AcDb2dVertex
 10
-17.881029873514183
 20
-65.735713706092156
 30
0.0
  0
VERTEX
  5
BB
100
AcDbEntity
  8
一般
370
               5
  6
Continuous
 62
               7
100
AcDbVertex
100
AcDb2dVertex
 10
-18.189710385279813
 20
-66.230401831739158
 30
0.0
  0
VERTEX
  5
BC
100
AcDbEntity
  8
一般
370
               5
  6
Continuous
 62
               7
100
AcDbVertex
100
AcDb2dVertex
 10
-18.242067604591643
 20
-69.229944917208314
 30
0.0
  0
VERTEX
  5
BD
100
AcDbEntity
  8
一般
370
               5
  6
Continuous
 62
               7
100
AcDbVertex
100
AcDb2dVertex
 10
-17.950839499263328
 20
-69.735104486717717
 30
0.0
  0
SEQEND
  5
BE
100
AcDbEntity
  8
一般
370
               5
  6
Continuous
 62
               7
  0
POLYLINE
  5
BF
100
AcDbEntity
  8
一般
370
               5
  6
Continuous
 62
               7
100
AcDb2dPolyline
 66
               1
 10
0.0
 20
0.0
 30
0.0
 70
               1
 75
               5
  0
VERTEX
  5
C0
100
AcDbEntity
  8
一般
370
               5
  6
Continuous
 62
               7
100
AcDbVertex
100
AcDb2dVertex
 10
-18.950839499263498
 20
-69.735104486717717
 30
0.0
  0
VERTEX
  5
C1
100
AcDbEntity
  8
一般
370
               5
  6
Continuous
 62
               7
100
AcDbVertex
100
AcDb2dVertex
 10
-18.642158987497869
 20
-69.240416361070686
 30
0.0
  0
VERTEX
  5
C2
100
AcDbEntity
  8
一般
370
               5
  6
Continuous
 62
               7
100
AcDbVertex
100
AcDb2dVertex
 10
-18.589801768186039
 20
-66.24087327560153
 30
0.0
  0
VERTEX
  5
C3
100
AcDbEntity
  8
一般
370
               5
  6
Continuous
 62
               7
100
AcDbVertex
100
AcDb2dVertex
 10
-18.881029873514326
 20
-65.735713706092156
 30
0.0
  0
VERTEX
  5
C4
100
AcDbEntity
  8
一般
370
               5
  6
Continuous
 62
               7
100
AcDbVertex
100
AcDb2dVertex
 10
-18.881029873514297
 20
-65.735713706092156
 30
0.0
  0
VERTEX
  5
C5
100
AcDbEntity
  8
一般
370
               5
  6
Continuous
 62
               7
100
AcDbVertex
100
AcDb2dVertex
 10
-19.189710385279955
 20
-66.230401831739158
 30
0.0
  0
VERTEX
  5
C6
100
AcDbEntity
  8
一般
370
               5
  6
Continuous
 62
               7
100
AcDbVertex
100
AcDb2dVertex
 10
-19.242067604591785
 20
-69.229944917208314
 30
0.0
  0
VERTEX
  5
C7
100
AcDbEntity
  8
一般
370
               5
  6
Continuous
 62
               7
100
AcDbVertex
100
AcDb2dVertex
 10
-18.95083949926347
 20
-69.735104486717717
 30
0.0
  0
SEQEND
  5
C8
100
AcDbEntity
  8
一般
370
               5
  6
Continuous
 62
               7
  0
POLYLINE
  5
C9
100
AcDbEntity
  8
一般
370
               5
  6
Continuous
 62
               7
100
AcDb2dPolyline
 66
               1
 10
0.0
 20
0.0
 30
0.0
 70
               1
 75
               5
  0
VERTEX
  5
CA
100
AcDbEntity
  8
一般
370
               5
  6
Continuous
 62
               7
100
AcDbVertex
100
AcDb2dVertex
 10
-19.950839499263612
 20
-69.735104486717717
 30
0.0
  0
VERTEX
  5
CB
100
AcDbEntity
  8
一般
370
               5
  6
Continuous
 62
               7
100
AcDbVertex
100
AcDb2dVertex
 10
-19.642158987498011
 20
-69.240416361070686
 30
0.0
  0
VERTEX
  5
CC
100
AcDbEntity
  8
一般
370
               5
  6
Continuous
 62
               7
100
AcDbVertex
100
AcDb2dVertex
 10
-19.589801768186152
 20
-66.24087327560153
 30
0.0
  0
VERTEX
  5
CD
100
AcDbEntity
  8
一般
370
               5
  6
Continuous
 62
               7
100
AcDbVertex
100
AcDb2dVertex
 10
-19.881029873514468
 20
-65.735713706092156
 30
0.0
  0
VERTEX
  5
CE
100
AcDbEntity
  8
一般
370
               5
  6
Continuous
 62
               7
100
AcDbVertex
100
AcDb2dVertex
 10
-19.881029873514439
 20
-65.735713706092156
 30
0.0
  0
VERTEX
  5
CF
100
AcDbEntity
  8
一般
370
               5
  6
Continuous
 62
               7
100
AcDbVertex
100
AcDb2dVertex
 10
-20.189710385280069
 20
-66.230401831739158
 30
0.0
  0
VERTEX
  5
D0
100
AcDbEntity
  8
一般
370
               5
  6
Continuous
 62
               7
100
AcDbVertex
100
AcDb2dVertex
 10
-20.242067604591899
 20
-69.229944917208314
 30
0.0
  0
VERTEX
  5
D1
100
AcDbEntity
  8
一般
370
               5
  6
Continuous
 62
               7
100
AcDbVertex
100
AcDb2dVertex
 10
-19.950839499263584
 20
-69.735104486717717
 30
0.0
  0
SEQEND
  5
D2
100
AcDbEntity
  8
一般
370
               5
  6
Continuous
 62
               7
  0
POLYLINE
  5
D3
100
AcDbEntity
  8
一般
370
               5
  6
Continuous
 62
               7
100
AcDb2dPolyline
 66
               1
 10
0.0
 20
0.0
 30
0.0
 70
               1
 75
               5
  0
VERTEX
  5
D4
100
AcDbEntity
  8
一般
370
               5
  6
Continuous
 62
               7
100
AcDbVertex
100
AcDb2dVertex
 10
-20.950839499263754
 20
-69.735104486717717
 30
0.0
  0
VERTEX
  5
D5
100
AcDbEntity
  8
一般
370
               5
  6
Continuous
 62
               7
100
AcDbVertex
100
AcDb2dVertex
 10
-20.642158987498124
 20
-69.240416361070686
 30
0.0
  0
VERTEX
  5
D6
100
AcDbEntity
  8
一般
370
               5
  6
Continuous
 62
               7
100
AcDbVertex
100
AcDb2dVertex
 10
-20.589801768186295
 20
-66.24087327560153
 30
0.0
  0
VERTEX
  5
D7
100
AcDbEntity
  8
一般
370
               5
  6
Continuous
 62
               7
100
AcDbVertex
100
AcDb2dVertex
 10
-20.881029873514581
 20
-65.735713706092156
 30
0.0
  0
VERTEX
  5
D8
100
AcDbEntity
  8
一般
370
               5
  6
Continuous
 62
               7
100
AcDbVertex
100
AcDb2dVertex
 10
-20.881029873514553
 20
-65.735713706092156
 30
0.0
  0
VERTEX
  5
D9
100
AcDbEntity
  8
一般
370
               5
  6
Continuous
 62
               7
100
AcDbVertex
100
AcDb2dVertex
 10
-21.189710385280211
 20
-66.230401831739158
 30
0.0
  0
VERTEX
  5
DA
100
AcDbEntity
  8
一般
370
               5
  6
Continuous
 62
               7
100
AcDbVertex
100
AcDb2dVertex
 10
-21.242067604592041
 20
-69.229944917208314
 30
0.0
  0
VERTEX
  5
DB
100
AcDbEntity
  8
一般
370
               5
  6
Continuous
 62
               7
100
AcDbVertex
100
AcDb2dVertex
 10
-20.950839499263726
 20
-69.735104486717717
 30
0.0
  0
SEQEND
  5
DC
100
AcDbEntity
  8
一般
370
               5
  6
Continuous
 62
               7
  0
POLYLINE
  5
DD
100
AcDbEntity
  8
一般
370
               5
  6
Continuous
 62
               7
100
AcDb2dPolyline
 66
               1
 10
0.0
 20
0.0
 30
0.0
 70
               1
 75
               5
  0
VERTEX
  5
DE
100
AcDbEntity
  8
一般
370
               5
  6
Continuous
 62
               7
100
AcDbVertex
100
AcDb2dVertex
 10
-21.950839499263868
 20
-69.735104486717717
 30
0.0
  0
VERTEX
  5
DF
100
AcDbEntity
  8
一般
370
               5
  6
Continuous
 62
               7
100
AcDbVertex
100
AcDb2dVertex
 10
-21.642158987498266
 20
-69.240416361070686
 30
0.0
  0
VERTEX
  5
E0
100
AcDbEntity
  8
一般
370
               5
  6
Continuous
 62
               7
100
AcDbVertex
100
AcDb2dVertex
 10
-21.589801768186437
 20
-66.24087327560153
 30
0.0
  0
VERTEX
  5
E1
100
AcDbEntity
  8
一般
370
               5
  6
Continuous
 62
               7
100
AcDbVertex
100
AcDb2dVertex
 10
-21.881029873514724
 20
-65.735713706092156
 30
0.0
  0
VERTEX
  5
E2
100
AcDbEntity
  8
一般
370
               5
  6
Continuous
 62
               7
100
AcDbVertex
100
AcDb2dVertex
 10
-21.881029873514695
 20
-65.735713706092156
 30
0.0
  0
VERTEX
  5
E3
100
AcDbEntity
  8
一般
370
               5
  6
Continuous
 62
               7
100
AcDbVertex
100
AcDb2dVertex
 10
-22.189710385280325
 20
-66.230401831739158
 30
0.0
  0
VERTEX
  5
E4
100
AcDbEntity
  8
一般
370
               5
  6
Continuous
 62
               7
100
AcDbVertex
100
AcDb2dVertex
 10
-22.242067604592155
 20
-69.229944917208314
 30
0.0
  0
VERTEX
  5
E5
100
AcDbEntity
  8
一般
370
               5
  6
Continuous
 62
               7
100
AcDbVertex
100
AcDb2dVertex
 10
-21.950839499263839
 20
-69.735104486717717
 30
0.0
  0
SEQEND
  5
E6
100
AcDbEntity
  8
一般
370
               5
  6
Continuous
 62
               7
  0
POLYLINE
  5
E7
100
AcDbEntity
  8
一般
370
               5
  6
Continuous
 62
               7
100
AcDb2dPolyline
 66
               1
 10
0.0
 20
0.0
 30
0.0
 70
               1
 75
               5
  0
VERTEX
  5
E8
100
AcDbEntity
  8
一般
370
               5
  6
Continuous
 62
               7
100
AcDbVertex
100
AcDb2dVertex
 10
-22.95083949926401
 20
-69.735104486717717
 30
0.0
  0
VERTEX
  5
E9
100
AcDbEntity
  8
一般
370
               5
  6
Continuous
 62
               7
100
AcDbVertex
100
AcDb2dVertex
 10
-22.64215898749838
 20
-69.240416361070686
 30
0.0
  0
VERTEX
  5
EA
100
AcDbEntity
  8
一般
370
               5
  6
Continuous
 62
               7
100
AcDbVertex
100
AcDb2dVertex
 10
-22.58980176818655
 20
-66.24087327560153
 30
0.0
  0
VERTEX
  5
EB
100
AcDbEntity
  8
一般
370
               5
  6
Continuous
 62
               7
100
AcDbVertex
100
AcDb2dVertex
 10
-22.881029873514837
 20
-65.735713706092156
 30
0.0
  0
VERTEX
  5
EC
100
AcDbEntity
  8
一般
370
               5
  6
Continuous
 62
               7
100
AcDbVertex
100
AcDb2dVertex
 10
-22.881029873514809
 20
-65.735713706092156
 30
0.0
  0
VERTEX
  5
ED
100
AcDbEntity
  8
一般
370
               5
  6
Continuous
 62
               7
100
AcDbVertex
100
AcDb2dVertex
 10
-23.189710385280467
 20
-66.230401831739158
 30
0.0
  0
VERTEX
  5
EE
100
AcDbEntity
  8
一般
370
               5
  6
Continuous
 62
               7
100
AcDbVertex
100
AcDb2dVertex
 10
-23.242067604592297
 20
-69.229944917208314
 30
0.0
  0
VERTEX
  5
EF
100
AcDbEntity
  8
一般
370
               5
  6
Continuous
 62
               7
100
AcDbVertex
100
AcDb2dVertex
 10
-22.950839499263981
 20
-69.735104486717717
 30
0.0
  0
SEQEND
  5
F0
100
AcDbEntity
  8
一般
370
               5
  6
Continuous
 62
               7
  0
POLYLINE
  5
F1
100
AcDbEntity
  8
一般
370
               5
  6
Continuous
 62
               7
100
AcDb2dPolyline
 66
               1
 10
0.0
 20
0.0
 30
0.0
 70
               1
 75
               5
  0
VERTEX
  5
F2
100
AcDbEntity
  8
一般
370
               5
  6
Continuous
 62
               7
100
AcDbVertex
100
AcDb2dVertex
 10
-23.950839499264124
 20
-69.735104486717717
 30
0.0
  0
VERTEX
  5
F3
100
AcDbEntity
  8
一般
370
               5
  6
Continuous
 62
               7
100
AcDbVertex
100
AcDb2dVertex
 10
-23.642158987498522
 20
-69.240416361070686
 30
0.0
  0
VERTEX
  5
F4
100
AcDbEntity
  8
一般
370
               5
  6
Continuous
 62
               7
100
AcDbVertex
100
AcDb2dVertex
 10
-23.589801768186692
 20
-66.24087327560153
 30
0.0
  0
VERTEX
  5
F5
100
AcDbEntity
  8
一般
370
               5
  6
Continuous
 62
               7
100
AcDbVertex
100
AcDb2dVertex
 10
-23.881029873514979
 20
-65.735713706092156
 30
0.0
  0
VERTEX
  5
F6
100
AcDbEntity
  8
一般
370
               5
  6
Continuous
 62
               7
100
AcDbVertex
100
AcDb2dVertex
 10
-23.881029873514951
 20
-65.735713706092156
 30
0.0
  0
VERTEX
  5
F7
100
AcDbEntity
  8
一般
370
               5
  6
Continuous
 62
               7
100
AcDbVertex
100
AcDb2dVertex
 10
-24.189710385280552
 20
-66.230401831739158
 30
0.0
  0
VERTEX
  5
F8
100
AcDbEntity
  8
一般
370
               5
  6
Continuous
 62
               7
100
AcDbVertex
100
AcDb2dVertex
 10
-24.242067604592382
 20
-69.229944917208314
 30
0.0
  0
VERTEX
  5
F9
100
AcDbEntity
  8
一般
370
               5
  6
Continuous
 62
               7
100
AcDbVertex
100
AcDb2dVertex
 10
-23.950839499264095
 20
-69.735104486717717
 30
0.0
  0
SEQEND
  5
FA
100
AcDbEntity
  8
一般
370
               5
  6
Continuous
 62
               7
  0
POLYLINE
  5
FB
100
AcDbEntity
  8
一般
370
               5
  6
Continuous
 62
               7
100
AcDb2dPolyline
 66
               1
 10
0.0
 20
0.0
 30
0.0
 70
               1
 75
               5
  0
VERTEX
  5
FC
100
AcDbEntity
  8
一般
370
               5
  6
Continuous
 62
               7
100
AcDbVertex
100
AcDb2dVertex
 10
-24.950839499264124
 20
-69.735104486717717
 30
0.0
  0
VERTEX
  5
FD
100
AcDbEntity
  8
一般
370
               5
  6
Continuous
 62
               7
100
AcDbVertex
100
AcDb2dVertex
 10
-24.642158987498551
 20
-69.240416361070686
 30
0.0
  0
VERTEX
  5
FE
100
AcDbEntity
  8
一般
370
               5
  6
Continuous
 62
               7
100
AcDbVertex
100
AcDb2dVertex
 10
-24.589801768186721
 20
-66.24087327560153
 30
0.0
  0
VERTEX
  5
FF
100
AcDbEntity
  8
一般
370
               5
  6
Continuous
 62
               7
100
AcDbVertex
100
AcDb2dVertex
 10
-24.881029873514979
 20
-65.735713706092156
 30
0.0
  0
VERTEX
  5
100
100
AcDbEntity
  8
一般
370
               5
  6
Continuous
 62
               7
100
AcDbVertex
100
AcDb2dVertex
 10
-24.881029873514951
 20
-65.735713706092156
 30
0.0
  0
VERTEX
  5
101
100
AcDbEntity
  8
一般
370
               5
  6
Continuous
 62
               7
100
AcDbVertex
100
AcDb2dVertex
 10
-25.189710385280552
 20
-66.230401831739158
 30
0.0
  0
VERTEX
  5
102
100
AcDbEntity
  8
一般
370
               5
  6
Continuous
 62
               7
100
AcDbVertex
100
AcDb2dVertex
 10
-25.242067604592382
 20
-69.229944917208314
 30
0.0
  0
VERTEX
  5
103
100
AcDbEntity
  8
一般
370
               5
  6
Continuous
 62
               7
100
AcDbVertex
100
AcDb2dVertex
 10
-24.950839499264095
 20
-69.735104486717717
 30
0.0
  0
SEQEND
  5
104
100
AcDbEntity
  8
一般
370
               5
  6
Continuous
 62
               7
  0
POLYLINE
  5
105
100
AcDbEntity
  8
一般
370
               5
  6
Continuous
 62
               7
100
AcDb2dPolyline
 66
               1
 10
0.0
 20
0.0
 30
0.0
 70
               1
 75
               5
  0
VERTEX
  5
106
100
AcDbEntity
  8
一般
370
               5
  6
Continuous
 62
               7
100
AcDbVertex
100
AcDb2dVertex
 10
-25.950839499264124
 20
-69.735104486717717
 30
0.0
  0
VERTEX
  5
107
100
AcDbEntity
  8
一般
370
               5
  6
Continuous
 62
               7
100
AcDbVertex
100
AcDb2dVertex
 10
-25.642158987498551
 20
-69.240416361070686
 30
0.0
  0
VERTEX
  5
108
100
AcDbEntity
  8
一般
370
               5
  6
Continuous
 62
               7
100
AcDbVertex
100
AcDb2dVertex
 10
-25.589801768186721
 20
-66.24087327560153
 30
0.0
  0
VERTEX
  5
109
100
AcDbEntity
  8
一般
370
               5
  6
Continuous
 62
               7
100
AcDbVertex
100
AcDb2dVertex
 10
-25.881029873514979
 20
-65.735713706092156
 30
0.0
  0
VERTEX
  5
10A
100
AcDbEntity
  8
一般
370
               5
  6
Continuous
 62
               7
100
AcDbVertex
100
AcDb2dVertex
 10
-25.881029873514951
 20
-65.735713706092156
 30
0.0
  0
VERTEX
  5
10B
100
AcDbEntity
  8
一般
370
               5
  6
Continuous
 62
               7
100
AcDbVertex
100
AcDb2dVertex
 10
-26.189710385280552
 20
-66.230401831739158
 30
0.0
  0
VERTEX
  5
10C
100
AcDbEntity
  8
一般
370
               5
  6
Continuous
 62
               7
100
AcDbVertex
100
AcDb2dVertex
 10
-26.242067604592382
 20
-69.229944917208314
 30
0.0
  0
VERTEX
  5
10D
100
AcDbEntity
  8
一般
370
               5
  6
Continuous
 62
               7
100
AcDbVertex
100
AcDb2dVertex
 10
-25.950839499264095
 20
-69.735104486717717
 30
0.0
  0
SEQEND
  5
10E
100
AcDbEntity
  8
一般
370
               5
  6
Continuous
 62
               7
  0
POLYLINE
  5
10F
100
AcDbEntity
  8
一般
370
               5
  6
Continuous
 62
               7
100
AcDb2dPolyline
 66
               1
 10
0.0
 20
0.0
 30
0.0
 70
               1
 75
               5
  0
VERTEX
  5
110
100
AcDbEntity
  8
一般
370
               5
  6
Continuous
 62
               7
100
AcDbVertex
100
AcDb2dVertex
 10
-26.950839499264124
 20
-69.735104486717717
 30
0.0
  0
VERTEX
  5
111
100
AcDbEntity
  8
一般
370
               5
  6
Continuous
 62
               7
100
AcDbVertex
100
AcDb2dVertex
 10
-26.642158987498551
 20
-69.240416361070686
 30
0.0
  0
VERTEX
  5
112
100
AcDbEntity
  8
一般
370
               5
  6
Continuous
 62
               7
100
AcDbVertex
100
AcDb2dVertex
 10
-26.589801768186721
 20
-66.24087327560153
 30
0.0
  0
VERTEX
  5
113
100
AcDbEntity
  8
一般
370
               5
  6
Continuous
 62
               7
100
AcDbVertex
100
AcDb2dVertex
 10
-26.881029873514979
 20
-65.735713706092156
 30
0.0
  0
VERTEX
  5
114
100
AcDbEntity
  8
一般
370
               5
  6
Continuous
 62
               7
100
AcDbVertex
100
AcDb2dVertex
 10
-26.881029873514951
 20
-65.735713706092156
 30
0.0
  0
VERTEX
  5
115
100
AcDbEntity
  8
一般
370
               5
  6
Continuous
 62
               7
100
AcDbVertex
100
AcDb2dVertex
 10
-27.189710385280552
 20
-66.230401831739158
 30
0.0
  0
VERTEX
  5
116
100
AcDbEntity
  8
一般
370
               5
  6
Continuous
 62
               7
100
AcDbVertex
100
AcDb2dVertex
 10
-27.242067604592382
 20
-69.229944917208314
 30
0.0
  0
VERTEX
  5
117
100
AcDbEntity
  8
一般
370
               5
  6
Continuous
 62
               7
100
AcDbVertex
100
AcDb2dVertex
 10
-26.950839499264095
 20
-69.735104486717717
 30
0.0
  0
SEQEND
  5
118
100
AcDbEntity
  8
一般
370
               5
  6
Continuous
 62
               7
  0
POLYLINE
  5
119
100
AcDbEntity
  8
一般
370
               5
  6
Continuous
 62
               7
100
AcDb2dPolyline
 66
               1
 10
0.0
 20
0.0
 30
0.0
 70
               1
 75
               5
  0
VERTEX
  5
11A
100
AcDbEntity
  8
一般
370
               5
  6
Continuous
 62
               7
100
AcDbVertex
100
AcDb2dVertex
 10
-27.950839499264124
 20
-69.735104486717717
 30
0.0
  0
VERTEX
  5
11B
100
AcDbEntity
  8
一般
370
               5
  6
Continuous
 62
               7
100
AcDbVertex
100
AcDb2dVertex
 10
-27.642158987498551
 20
-69.240416361070686
 30
0.0
  0
VERTEX
  5
11C
100
AcDbEntity
  8
一般
370
               5
  6
Continuous
 62
               7
100
AcDbVertex
100
AcDb2dVertex
 10
-27.589801768186721
 20
-66.24087327560153
 30
0.0
  0
VERTEX
  5
11D
100
AcDbEntity
  8
一般
370
               5
  6
Continuous
 62
               7
100
AcDbVertex
100
AcDb2dVertex
 10
-27.881029873514979
 20
-65.735713706092156
 30
0.0
  0
VERTEX
  5
11E
100
AcDbEntity
  8
一般
370
               5
  6
Continuous
 62
               7
100
AcDbVertex
100
AcDb2dVertex
 10
-27.881029873514951
 20
-65.735713706092156
 30
0.0
  0
VERTEX
  5
11F
100
AcDbEntity
  8
一般
370
               5
  6
Continuous
 62
               7
100
AcDbVertex
100
AcDb2dVertex
 10
-28.189710385280552
 20
-66.230401831739158
 30
0.0
  0
VERTEX
  5
120
100
AcDbEntity
  8
一般
370
               5
  6
Continuous
 62
               7
100
AcDbVertex
100
AcDb2dVertex
 10
-28.242067604592382
 20
-69.229944917208314
 30
0.0
  0
VERTEX
  5
121
100
AcDbEntity
  8
一般
370
               5
  6
Continuous
 62
               7
100
AcDbVertex
100
AcDb2dVertex
 10
-27.950839499264095
 20
-69.735104486717717
 30
0.0
  0
SEQEND
  5
122
100
AcDbEntity
  8
一般
370
               5
  6
Continuous
 62
               7
  0
POLYLINE
  5
123
100
AcDbEntity
  8
一般
370
               5
  6
Continuous
 62
               7
100
AcDb2dPolyline
 66
               1
 10
0.0
 20
0.0
 30
0.0
 70
               1
 75
               5
  0
VERTEX
  5
124
100
AcDbEntity
  8
一般
370
               5
  6
Continuous
 62
               7
100
AcDbVertex
100
AcDb2dVertex
 10
-28.950839499264124
 20
-69.735104486717717
 30
0.0
  0
VERTEX
  5
125
100
AcDbEntity
  8
一般
370
               5
  6
Continuous
 62
               7
100
AcDbVertex
100
AcDb2dVertex
 10
-28.642158987498551
 20
-69.240416361070686
 30
0.0
  0
VERTEX
  5
126
100
AcDbEntity
  8
一般
370
               5
  6
Continuous
 62
               7
100
AcDbVertex
100
AcDb2dVertex
 10
-28.589801768186721
 20
-66.24087327560153
 30
0.0
  0
VERTEX
  5
127
100
AcDbEntity
  8
一般
370
               5
  6
Continuous
 62
               7
100
AcDbVertex
100
AcDb2dVertex
 10
-28.881029873514979
 20
-65.735713706092156
 30
0.0
  0
VERTEX
  5
128
100
AcDbEntity
  8
一般
370
               5
  6
Continuous
 62
               7
100
AcDbVertex
100
AcDb2dVertex
 10
-28.881029873514951
 20
-65.735713706092156
 30
0.0
  0
VERTEX
  5
129
100
AcDbEntity
  8
一般
370
               5
  6
Continuous
 62
               7
100
AcDbVertex
100
AcDb2dVertex
 10
-29.189710385280552
 20
-66.230401831739158
 30
0.0
  0
VERTEX
  5
12A
100
AcDbEntity
  8
一般
370
               5
  6
Continuous
 62
               7
100
AcDbVertex
100
AcDb2dVertex
 10
-29.242067604592382
 20
-69.229944917208314
 30
0.0
  0
VERTEX
  5
12B
100
AcDbEntity
  8
一般
370
               5
  6
Continuous
 62
               7
100
AcDbVertex
100
AcDb2dVertex
 10
-28.950839499264095
 20
-69.735104486717717
 30
0.0
  0
SEQEND
  5
12C
100
AcDbEntity
  8
一般
370
               5
  6
Continuous
 62
               7
  0
POLYLINE
  5
12D
100
AcDbEntity
  8
一般
370
               5
  6
Continuous
 62
               7
100
AcDb2dPolyline
 66
               1
 10
0.0
 20
0.0
 30
0.0
 70
               1
 75
               5
  0
VERTEX
  5
12E
100
AcDbEntity
  8
一般
370
               5
  6
Continuous
 62
               7
100
AcDbVertex
100
AcDb2dVertex
 10
-29.950839499264124
 20
-69.735104486717717
 30
0.0
  0
VERTEX
  5
12F
100
AcDbEntity
  8
一般
370
               5
  6
Continuous
 62
               7
100
AcDbVertex
100
AcDb2dVertex
 10
-29.642158987498551
 20
-69.240416361070686
 30
0.0
  0
VERTEX
  5
130
100
AcDbEntity
  8
一般
370
               5
  6
Continuous
 62
               7
100
AcDbVertex
100
AcDb2dVertex
 10
-29.589801768186721
 20
-66.24087327560153
 30
0.0
  0
VERTEX
  5
131
100
AcDbEntity
  8
一般
370
               5
  6
Continuous
 62
               7
100
AcDbVertex
100
AcDb2dVertex
 10
-29.881029873514979
 20
-65.735713706092156
 30
0.0
  0
VERTEX
  5
132
100
AcDbEntity
  8
一般
370
               5
  6
Continuous
 62
               7
100
AcDbVertex
100
AcDb2dVertex
 10
-29.881029873514951
 20
-65.735713706092156
 30
0.0
  0
VERTEX
  5
133
100
AcDbEntity
  8
一般
370
               5
  6
Continuous
 62
               7
100
AcDbVertex
100
AcDb2dVertex
 10
-30.189710385280552
 20
-66.230401831739158
 30
0.0
  0
VERTEX
  5
134
100
AcDbEntity
  8
一般
370
               5
  6
Continuous
 62
               7
100
AcDbVertex
100
AcDb2dVertex
 10
-30.242067604592382
 20
-69.229944917208314
 30
0.0
  0
VERTEX
  5
135
100
AcDbEntity
  8
一般
370
               5
  6
Continuous
 62
               7
100
AcDbVertex
100
AcDb2dVertex
 10
-29.950839499264095
 20
-69.735104486717717
 30
0.0
  0
SEQEND
  5
136
100
AcDbEntity
  8
一般
370
               5
  6
Continuous
 62
               7
  0
POLYLINE
  5
137
100
AcDbEntity
  8
一般
370
               5
  6
Continuous
 62
               7
100
AcDb2dPolyline
 66
               1
 10
0.0
 20
0.0
 30
0.0
 70
               1
 75
               5
  0
VERTEX
  5
138
100
AcDbEntity
  8
一般
370
               5
  6
Continuous
 62
               7
100
AcDbVertex
100
AcDb2dVertex
 10
-30.950839499264124
 20
-69.735104486717717
 30
0.0
  0
VERTEX
  5
139
100
AcDbEntity
  8
一般
370
               5
  6
Continuous
 62
               7
100
AcDbVertex
100
AcDb2dVertex
 10
-30.642158987498551
 20
-69.240416361070686
 30
0.0
  0
VERTEX
  5
13A
100
AcDbEntity
  8
一般
370
               5
  6
Continuous
 62
               7
100
AcDbVertex
100
AcDb2dVertex
 10
-30.589801768186721
 20
-66.24087327560153
 30
0.0
  0
VERTEX
  5
13B
100
AcDbEntity
  8
一般
370
               5
  6
Continuous
 62
               7
100
AcDbVertex
100
AcDb2dVertex
 10
-30.881029873514979
 20
-65.735713706092156
 30
0.0
  0
VERTEX
  5
13C
100
AcDbEntity
  8
一般
370
               5
  6
Continuous
 62
               7
100
AcDbVertex
100
AcDb2dVertex
 10
-30.881029873514951
 20
-65.735713706092156
 30
0.0
  0
VERTEX
  5
13D
100
AcDbEntity
  8
一般
370
               5
  6
Continuous
 62
               7
100
AcDbVertex
100
AcDb2dVertex
 10
-31.189710385280552
 20
-66.230401831739158
 30
0.0
  0
VERTEX
  5
13E
100
AcDbEntity
  8
一般
370
               5
  6
Continuous
 62
               7
100
AcDbVertex
100
AcDb2dVertex
 10
-31.242067604592382
 20
-69.229944917208314
 30
0.0
  0
VERTEX
  5
13F
100
AcDbEntity
  8
一般
370
               5
  6
Continuous
 62
               7
100
AcDbVertex
100
AcDb2dVertex
 10
-30.950839499264095
 20
-69.735104486717717
 30
0.0
  0
SEQEND
  5
140
100
AcDbEntity
  8
一般
370
               5
  6
Continuous
 62
               7
  0
POLYLINE
  5
141
100
AcDbEntity
  8
一般
370
               5
  6
Continuous
 62
               7
100
AcDb2dPolyline
 66
               1
 10
0.0
 20
0.0
 30
0.0
 70
               1
 75
               5
  0
VERTEX
  5
142
100
AcDbEntity
  8
一般
370
               5
  6
Continuous
 62
               7
100
AcDbVertex
100
AcDb2dVertex
 10
-31.950839499264124
 20
-69.604743687096317
 30
0.0
  0
VERTEX
  5
143
100
AcDbEntity
  8
一般
370
               5
  6
Continuous
 62
               7
100
AcDbVertex
100
AcDb2dVertex
 10
-31.642158987498551
 20
-69.147087467613886
 30
0.0
  0
VERTEX
  5
144
100
AcDbEntity
  8
一般
370
               5
  6
Continuous
 62
               7
100
AcDbVertex
100
AcDb2dVertex
 10
-31.589801768186721
 20
-66.372087467613881
 30
0.0
  0
VERTEX
  5
145
100
AcDbEntity
  8
一般
370
               5
  6
Continuous
 62
               7
100
AcDbVertex
100
AcDb2dVertex
 10
-31.881029873514979
 20
-65.904743687096328
 30
0.0
  0
VERTEX
  5
146
100
AcDbEntity
  8
一般
370
               5
  6
Continuous
 62
               7
100
AcDbVertex
100
AcDb2dVertex
 10
-31.881029873514951
 20
-65.904743687096328
 30
0.0
  0
VERTEX
  5
147
100
AcDbEntity
  8
一般
370
               5
  6
Continuous
 62
               7
100
AcDbVertex
100
AcDb2dVertex
 10
-32.189710385280549
 20
-66.36239990657873
 30
0.0
  0
VERTEX
  5
148
100
AcDbEntity
  8
一般
370
               5
  6
Continuous
 62
               7
100
AcDbVertex
100
AcDb2dVertex
 10
-32.242067604592378
 20
-69.137399906578736
 30
0.0
  0
VERTEX
  5
149
100
AcDbEntity
  8
一般
370
               5
  6
Continuous
 62
               7
100
AcDbVertex
100
AcDb2dVertex
 10
-31.950839499264095
 20
-69.604743687096317
 30
0.0
  0
SEQEND
  5
14A
100
AcDbEntity
  8
一般
370
               5
  6
Continuous
 62
               7
  0
POLYLINE
  5
14B
100
AcDbEntity
  8
一般
370
               5
  6
Continuous
 62
               7
100
AcDb2dPolyline
 66
               1
 10
0.0
 20
0.0
 30
0.0
 70
               1
 75
               5
  0
VERTEX
  5
14C
100
AcDbEntity
  8
一般
370
               5
  6
Continuous
 62
               7
100
AcDbVertex
100
AcDb2dVertex
 10
-32.95083949926412
 20
-69.170207688358317
 30
0.0
  0
VERTEX
  5
14D
100
AcDbEntity
  8
一般
370
               5
  6
Continuous
 62
               7
100
AcDbVertex
100
AcDb2dVertex
 10
-32.642158987498547
 20
-68.823873251993263
 30
0.0
  0
VERTEX
  5
14E
100
AcDbEntity
  8
一般
370
               5
  6
Continuous
 62
               7
100
AcDbVertex
100
AcDb2dVertex
 10
-32.589801768186717
 20
-66.723873251993211
 30
0.0
  0
VERTEX
  5
14F
100
AcDbEntity
  8
一般
370
               5
  6
Continuous
 62
               7
100
AcDbVertex
100
AcDb2dVertex
 10
-32.881029873514976
 20
-66.370207688358306
 30
0.0
  0
VERTEX
  5
150
100
AcDbEntity
  8
一般
370
               5
  6
Continuous
 62
               7
100
AcDbVertex
100
AcDb2dVertex
 10
-32.881029873514947
 20
-66.370207688358306
 30
0.0
  0
VERTEX
  5
151
100
AcDbEntity
  8
一般
370
               5
  6
Continuous
 62
               7
100
AcDbVertex
100
AcDb2dVertex
 10
-33.189710385280549
 20
-66.716542124723361
 30
0.0
  0
VERTEX
  5
152
100
AcDbEntity
  8
一般
370
               5
  6
Continuous
 62
               7
100
AcDbVertex
100
AcDb2dVertex
 10
-33.242067604592378
 20
-68.816542124723384
 30
0.0
  0
VERTEX
  5
153
100
AcDbEntity
  8
一般
370
               5
  6
Continuous
 62
               7
100
AcDbVertex
100
AcDb2dVertex
 10
-32.950839499264092
 20
-69.170207688358317
 30
0.0
  0
SEQEND
  5
154
100
AcDbEntity
  8
一般
370
               5
  6
Continuous
 62
               7
  0
POLYLINE
  5
155
100
AcDbEntity
  8
一般
370
               5
  6
Continuous
 62
               7
100
AcDb2dPolyline
 66
               1
 10
0.0
 20
0.0
 30
0.0
 70
               1
 75
               5
  0
VERTEX
  5
156
100
AcDbEntity
  8
一般
370
               5
  6
Continuous
 62
               7
100
AcDbVertex
100
AcDb2dVertex
 10
-33.95083949926412
 20
-68.619795423290185
 30
0.0
  0
VERTEX
  5
157
100
AcDbEntity
  8
一般
370
               5
  6
Continuous
 62
               7
100
AcDbVertex
100
AcDb2dVertex
 10
-33.642158987498547
 20
-68.397151857055491
 30
0.0
  0
VERTEX
  5
158
100
AcDbEntity
  8
一般
370
               5
  6
Continuous
 62
               7
100
AcDbVertex
100
AcDb2dVertex
 10
-33.589801768186717
 20
-67.047151857055468
 30
0.0
  0
VERTEX
  5
159
100
AcDbEntity
  8
一般
370
               5
  6
Continuous
 62
               7
100
AcDbVertex
100
AcDb2dVertex
 10
-33.881029873514976
 20
-66.819795423290174
 30
0.0
  0
VERTEX
  5
15A
100
AcDbEntity
  8
一般
370
               5
  6
Continuous
 62
               7
100
AcDbVertex
100
AcDb2dVertex
 10
-33.881029873514947
 20
-66.819795423290174
 30
0.0
  0
VERTEX
  5
15B
100
AcDbEntity
  8
一般
370
               5
  6
Continuous
 62
               7
100
AcDbVertex
100
AcDb2dVertex
 10
-34.189710385280549
 20
-67.042438989524868
 30
0.0
  0
VERTEX
  5
15C
100
AcDbEntity
  8
一般
370
               5
  6
Continuous
 62
               7
100
AcDbVertex
100
AcDb2dVertex
 10
-34.242067604592378
 20
-68.392438989524862
 30
0.0
  0
VERTEX
  5
15D
100
AcDbEntity
  8
一般
370
               5
  6
Continuous
 62
               7
100
AcDbVertex
100
AcDb2dVertex
 10
-33.950839499264092
 20
-68.619795423290185
 30
0.0
  0
SEQEND
  5
15E
100
AcDbEntity
  8
一般
370
               5
  6
Continuous
 62
               7
  0
ENDBLK
  5
15F
100
AcDbEntity
  8
一般
100
AcDbBlockEnd
  0
BLOCK
  5
160
100
AcDbEntity
  8
一般
100
AcDbBlockBegin
  2
グループ-1
 70
               0
 10
0.0
 20
0.0
 30
0.0
  3
グループ-1
  1

  0
LINE
  5
161
100
AcDbEntity
  8
一般
370
               5
  6
Continuous
 62
               7
100
AcDbLine
 10
-130.24570270582078
 20
124.213281678019
 30
0.0
 11
-130.24570270582078
 21
124.61643579718852
 31
0.0
  0
LINE
  5
162
100
AcDbEntity
  8
一般
370
               5
  6
Continuous
 62
               7
100
AcDbLine
 10
-130.24570270582078
 20
125.213281678019
 30
0.0
 11
-130.24570270582078
 21
125.61643579718852
 31
0.0
  0
LINE
  5
163
100
AcDbEntity
  8
一般
370
               5
  6
Continuous
 62
               7
100
AcDbLine
 10
-133.24570270582078
 20
127.2624013568078
 30
0.0
 11
-133.24570270582078
 21
127.6655554759773
 31
0.0
  0
LINE
  5
164
100
AcDbEntity
  8
一般
370
               5
  6
Continuous
 62
               7
100
AcDbLine
 10
-130.24570270582078
 20
128.21328167801903
 30
0.0
 11
-130.24570270582078
 21
128.61643579718861
 31
0.0
  0
LINE
  5
165
100
AcDbEntity
  8
一般
370
               5
  6
Continuous
 62
               7
100
AcDbLine
 10
-133.24570270582078
 20
129.26240135680797
 30
0.0
 11
-133.24570270582078
 21
129.66555547597753
 31
0.0
  0
LINE
  5
166
100
AcDbEntity
  8
一般
370
               5
  6
Continuous
 62
               7
100
AcDbLine
 10
-130.24570270582078
 20
130.21328167801929
 30
0.0
 11
-130.24570270582078
 21
130.61643579718884
 31
0.0
  0
LINE
  5
167
100
AcDbEntity
  8
一般
370
               5
  6
Continuous
 62
               7
100
AcDbLine
 10
-133.24570270582078
 20
131.2624013568082
 30
0.0
 11
-133.24570270582078
 21
131.66555547597778
 31
0.0
  0
LINE
  5
168
100
AcDbEntity
  8
一般
370
               5
  6
Continuous
 62
               7
100
AcDbLine
 10
-130.24570270582078
 20
132.21328167801954
 30
0.0
 11
-130.24570270582078
 21
132.61643579718913
 31
0.0
  0
LINE
  5
169
100
AcDbEntity
  8
一般
370
               5
  6
Continuous
 62
               7
100
AcDbLine
 10
-130.24570270582078
 20
133.21328167801968
 30
0.0
 11
-130.24570270582078
 21
133.61643579718924
 31
0.0
  0
LINE
  5
16A
100
AcDbEntity
  8
一般
370
               5
  6
Continuous
 62
               7
100
AcDbLine
 10
-130.24570270582078
 20
134.2132816780198
 30
0.0
 11
-130.24570270582078
 21
134.61643579718935
 31
0.0
  0
LINE
  5
16B
100
AcDbEntity
  8
一般
370
               5
  6
Continuous
 62
               7
100
AcDbLine
 10
-133.24570270582078
 20
133.26240135680848
 30
0.0
 11
-133.24570270582078
 21
133.66555547597804
 31
0.0
  0
LINE
  5
16C
100
AcDbEntity
  8
一般
370
               5
  6
Continuous
 62
               7
100
AcDbLine
 10
-133.24570270582078
 20
134.2624013568086
 30
0.0
 11
-133.24570270582078
 21
134.66555547597815
 31
0.0
  0
LINE
  5
16D
100
AcDbEntity
  8
一般
370
               5
  6
Continuous
 62
               7
100
AcDbLine
 10
-130.24570270582078
 20
136.21328167802002
 30
0.0
 11
-130.24570270582078
 21
136.61643579718952
 31
0.0
  0
LINE
  5
16E
100
AcDbEntity
  8
一般
370
               5
  6
Continuous
 62
               7
100
AcDbLine
 10
-130.24570270582078
 20
137.21328167802002
 30
0.0
 11
-130.24570270582078
 21
137.61643579718952
 31
0.0
  0
LINE
  5
16F
100
AcDbEntity
  8
一般
370
               5
  6
Continuous
 62
               7
100
AcDbLine
 10
-130.24570270582078
 20
138.21328167802002
 30
0.0
 11
-130.24570270582078
 21
138.61643579718952
 31
0.0
  0
LINE
  5
170
100
AcDbEntity
  8
一般
370
               5
  6
Continuous
 62
               7
100
AcDbLine
 10
-133.24570270582078
 20
136.26240135680882
 30
0.0
 11
-133.24570270582078
 21
136.66555547597832
 31
0.0
  0
LINE
  5
171
100
AcDbEntity
  8
一般
370
               5
  6
Continuous
 62
               7
100
AcDbLine
 10
-133.24570270582078
 20
137.26240135680882
 30
0.0
 11
-133.24570270582078
 21
137.66555547597832
 31
0.0
  0
LINE
  5
172
100
AcDbEntity
  8
一般
370
               5
  6
Continuous
 62
               7
100
AcDbLine
 10
-133.24570270582078
 20
138.26240135680882
 30
0.0
 11
-133.24570270582078
 21
138.66555547597832
 31
0.0
  0
LINE
  5
173
100
AcDbEntity
  8
一般
370
               5
  6
Continuous
 62
               7
100
AcDbLine
 10
-130.24570270582078
 20
140.21328167802002
 30
0.0
 11
-130.24570270582078
 21
140.61643579718952
 31
0.0
  0
LINE
  5
174
100
AcDbEntity
  8
一般
370
               5
  6
Continuous
 62
               7
100
AcDbLine
 10
-130.24570270582078
 20
141.21328167802002
 30
0.0
 11
-130.24570270582078
 21
141.61643579718952
 31
0.0
  0
LINE
  5
175
100
AcDbEntity
  8
一般
370
               5
  6
Continuous
 62
               7
100
AcDbLine
 10
-130.24570270582078
 20
142.21328167802002
 30
0.0
 11
-130.24570270582078
 21
142.61643579718952
 31
0.0
  0
LINE
  5
176
100
AcDbEntity
  8
一般
370
               5
  6
Continuous
 62
               7
100
AcDbLine
 10
-133.24570270582078
 20
140.26240135680882
 30
0.0
 11
-133.24570270582078
 21
140.66555547597832
 31
0.0
  0
LINE
  5
177
100
AcDbEntity
  8
一般
370
               5
  6
Continuous
 62
               7
100
AcDbLine
 10
-133.24570270582078
 20
141.26240135680882
 30
0.0
 11
-133.24570270582078
 21
141.66555547597832
 31
0.0
  0
LINE
  5
178
100
AcDbEntity
  8
一般
370
               5
  6
Continuous
 62
               7
100
AcDbLine
 10
-133.24570270582078
 20
142.26240135680882
 30
0.0
 11
-133.24570270582078
 21
142.66555547597832
 31
0.0
  0
LINE
  5
179
100
AcDbEntity
  8
一般
370
               5
  6
Continuous
 62
               7
100
AcDbLine
 10
-130.5823519894829
 20
144.21715000009812
 30
0.0
 11
-130.7316729664735
 21
144.61533927207302
 31
0.0
  0
LINE
  5
17A
100
AcDbEntity
  8
一般
370
               5
  6
Continuous
 62
               7
100
AcDbLine
 10
-130.95803014585454
 20
145.21895841708914
 30
0.0
 11
-131.10661801085317
 21
145.61519272375216
 31
0.0
  0
POLYLINE
  5
17B
100
AcDbEntity
  8
一般
370
               5
  6
Continuous
 62
               7
100
AcDb2dPolyline
 66
               1
 10
0.0
 20
0.0
 30
0.0
 75
               5
  0
VERTEX
  5
17C
100
AcDbEntity
  8
一般
370
               5
  6
Continuous
 62
               7
100
AcDbVertex
100
AcDb2dVertex
 10
-132.14465623942644
 20
146.25554248738402
 30
0.0
  0
VERTEX
  5
17D
100
AcDbEntity
  8
一般
370
               5
  6
Continuous
 62
               7
100
AcDbVertex
100
AcDb2dVertex
 10
-131.74570270582078
 20
147.31941857699914
 30
0.0
  0
VERTEX
  5
17E
100
AcDbEntity
  8
一般
370
               5
  6
Continuous
 62
               7
100
AcDbVertex
100
AcDb2dVertex
 10
-131.334973410705
 20
146.22414045669041
 30
0.0
  0
SEQEND
  5
17F
100
AcDbEntity
  8
一般
370
               5
  6
Continuous
 62
               7
  0
LINE
  5
180
100
AcDbEntity
  8
一般
370
               5
  6
Continuous
 62
               7
100
AcDbLine
 10
-132.36646460511204
 20
145.66405351222241
 30
0.0
 11
-132.51878300158009
 21
145.25787112164093
 31
0.0
  0
LINE
  5
181
100
AcDbEntity
  8
一般
370
               5
  6
Continuous
 62
               7
100
AcDbLine
 10
-132.74173280543002
 20
144.66333831137447
 30
0.0
 11
-132.89270696779545
 21
144.26074054506665
 31
0.0
  0
POLYLINE
  5
182
100
AcDbEntity
  8
一般
370
               5
  6
Continuous
 62
               7
100
AcDb2dPolyline
 66
               1
 10
0.0
 20
0.0
 30
0.0
 75
               5
  0
VERTEX
  5
183
100
AcDbEntity
  8
一般
370
               5
  6
Continuous
 62
               7
100
AcDbVertex
100
AcDb2dVertex
 10
-133.11616024267039
 20
143.66486514540014
 30
0.0
  0
VERTEX
  5
184
100
AcDbEntity
  8
一般
370
               5
  6
Continuous
 62
               7
100
AcDbVertex
100
AcDb2dVertex
 10
-133.24570270582078
 20
143.31941857699914
 30
0.0
  0
VERTEX
  5
185
100
AcDbEntity
  8
一般
370
               5
  6
Continuous
 62
               7
100
AcDbVertex
100
AcDb2dVertex
 10
-133.24570270582078
 20
143.26240135680882
 30
0.0
  0
SEQEND
  5
186
100
AcDbEntity
  8
一般
370
               5
  6
Continuous
 62
               7
  0
POLYLINE
  5
187
100
AcDbEntity
  8
一般
370
               5
  6
Continuous
 62
               7
100
AcDb2dPolyline
 66
               1
 10
0.0
 20
0.0
 30
0.0
 75
               5
  0
VERTEX
  5
188
100
AcDbEntity
  8
一般
370
               5
  6
Continuous
 62
               7
100
AcDbVertex
100
AcDb2dVertex
 10
-130.36091834763911
 20
143.62666028851473
 30
0.0
  0
VERTEX
  5
189
100
AcDbEntity
  8
一般
370
               5
  6
Continuous
 62
               7
100
AcDbVertex
100
AcDb2dVertex
 10
-130.24570270582078
 20
143.31941857699914
 30
0.0
  0
VERTEX
  5
18A
100
AcDbEntity
  8
一般
370
               5
  6
Continuous
 62
               7
100
AcDbVertex
100
AcDb2dVertex
 10
-130.24570270582078
 20
143.21328167802002
 30
0.0
  0
SEQEND
  5
18B
100
AcDbEntity
  8
一般
370
               5
  6
Continuous
 62
               7
  0
LINE
  5
18C
100
AcDbEntity
  8
一般
370
               5
  6
Continuous
 62
               7
100
AcDbLine
 10
-133.24570270582078
 20
139.66555547597832
 30
0.0
 11
-133.24570270582078
 21
139.26240135680882
 31
0.0
  0
LINE
  5
18D
100
AcDbEntity
  8
一般
370
               5
  6
Continuous
 62
               7
100
AcDbLine
 10
-130.24570270582078
 20
139.61643579718952
 30
0.0
 11
-130.24570270582078
 21
139.21328167802002
 31
0.0
  0
LINE
  5
18E
100
AcDbEntity
  8
一般
370
               5
  6
Continuous
 62
               7
100
AcDbLine
 10
-133.24570270582078
 20
135.66555547597829
 30
0.0
 11
-133.24570270582078
 21
135.26240135680871
 31
0.0
  0
LINE
  5
18F
100
AcDbEntity
  8
一般
370
               5
  6
Continuous
 62
               7
100
AcDbLine
 10
-130.24570270582078
 20
135.61643579718952
 30
0.0
 11
-130.24570270582078
 21
135.21328167801994
 31
0.0
  0
LINE
  5
190
100
AcDbEntity
  8
一般
370
               5
  6
Continuous
 62
               7
100
AcDbLine
 10
-133.24570270582078
 20
132.6655554759779
 30
0.0
 11
-133.24570270582078
 21
132.26240135680831
 31
0.0
  0
LINE
  5
191
100
AcDbEntity
  8
一般
370
               5
  6
Continuous
 62
               7
100
AcDbLine
 10
-130.24570270582078
 20
131.61643579718896
 30
0.0
 11
-130.24570270582078
 21
131.21328167801943
 31
0.0
  0
LINE
  5
192
100
AcDbEntity
  8
一般
370
               5
  6
Continuous
 62
               7
100
AcDbLine
 10
-133.24570270582078
 20
130.66555547597764
 30
0.0
 11
-133.24570270582078
 21
130.26240135680808
 31
0.0
  0
LINE
  5
193
100
AcDbEntity
  8
一般
370
               5
  6
Continuous
 62
               7
100
AcDbLine
 10
-130.24570270582078
 20
129.61643579718873
 30
0.0
 11
-130.24570270582078
 21
129.21328167801917
 31
0.0
  0
LINE
  5
194
100
AcDbEntity
  8
一般
370
               5
  6
Continuous
 62
               7
100
AcDbLine
 10
-133.24570270582078
 20
128.66555547597738
 30
0.0
 11
-133.24570270582078
 21
128.2624013568078
 31
0.0
  0
LINE
  5
195
100
AcDbEntity
  8
一般
370
               5
  6
Continuous
 62
               7
100
AcDbLine
 10
-130.24570270582078
 20
127.61643579718852
 30
0.0
 11
-130.24570270582078
 21
127.213281678019
 31
0.0
  0
LINE
  5
196
100
AcDbEntity
  8
一般
370
               5
  6
Continuous
 62
               7
100
AcDbLine
 10
-133.24570270582078
 20
126.6655554759773
 30
0.0
 11
-133.24570270582078
 21
126.2624013568078
 31
0.0
  0
LINE
  5
197
100
AcDbEntity
  8
一般
370
               5
  6
Continuous
 62
               7
100
AcDbLine
 10
-130.24570270582078
 20
126.61643579718852
 30
0.0
 11
-130.24570270582078
 21
126.213281678019
 31
0.0
  0
LINE
  5
198
100
AcDbEntity
  8
一般
370
               5
  6
Continuous
 62
               7
100
AcDbLine
 10
-133.24570270582078
 20
125.6655554759773
 30
0.0
 11
-133.24570270582078
 21
125.2624013568078
 31
0.0
  0
LINE
  5
199
100
AcDbEntity
  8
一般
370
               5
  6
Continuous
 62
               7
100
AcDbLine
 10
-133.24570270582078
 20
124.6655554759773
 30
0.0
 11
-133.24570270582078
 21
124.2624013568078
 31
0.0
  0
LINE
  5
19A
100
AcDbEntity
  8
一般
370
               5
  6
Continuous
 62
               7
100
AcDbLine
 10
-130.24570270582078
 20
123.61643579718852
 30
0.0
 11
-130.24570270582078
 21
122.32754920422011
 31
0.0
  0
LINE
  5
19B
100
AcDbEntity
  8
一般
370
               5
  6
Continuous
 62
               7
100
AcDbLine
 10
-133.24570270582078
 20
123.6655554759773
 30
0.0
 11
-133.24570270582078
 21
122.32754920422011
 31
0.0
  0
SPLINE
  5
19C
100
AcDbEntity
  8
一般
370
               5
  6
Continuous
 62
               7
100
AcDbSpline
210
0.0
220
0.0
230
1.0
 70
               9
 71
               2
 72
              14
 73
              11
 74
               0
 42
0.000001
 43
0.000001
 40
0.0
 40
0.0
 40
0.0
 40
1.0
 40
2.0
 40
3.0
 40
4.0
 40
4.0
 40
5.0
 40
5.0
 40
6.0
 40
7.0
 40
7.0
 40
7.0
 10
-129.79999999999993
 20
120.59549839665122
 30
0.0
 10
-130.72820323027543
 20
120.32754920422011
 30
0.0
 10
-132.87179676972443
 20
120.32754920422011
 30
0.0
 10
-134.72820323027543
 20
120.86344758908234
 30
0.0
 10
-135.79999999999993
 20
121.79165081935787
 30
0.0
 10
-135.79999999999993
 20
122.32754920422011
 30
0.0
 10
-131.79999999999993
 20
122.32754920422011
 30
0.0
 10
-127.79999999999993
 20
122.32754920422011
 30
0.0
 10
-127.79999999999993
 20
121.79165081935787
 30
0.0
 10
-128.87179676972443
 20
120.86344758908234
 30
0.0
 10
-129.79999999999993
 20
120.59549839665122
 30
0.0
  0
POLYLINE
  5
19D
100
AcDbEntity
  8
一般
370
               5
  6
Continuous
 62
               7
100
AcDb2dPolyline
 66
               1
 10
0.0
 20
0.0
 30
0.0
 70
               1
 75
               5
  0
VERTEX
  5
19E
100
AcDbEntity
  8
一般
370
               5
  6
Continuous
 62
               7
100
AcDbVertex
100
AcDb2dVertex
 10
-133.74539809613358
 20
123.97432338987272
 30
0.0
  0
VERTEX
  5
19F
100
AcDbEntity
  8
一般
370
               5
  6
Continuous
 62
               7
100
AcDbVertex
100
AcDb2dVertex
 10
-133.25070997048655
 20
123.66564287810715
 30
0.0
  0
VERTEX
  5
1A0
100
AcDbEntity
  8
一般
370
               5
  6
Continuous
 62
               7
100
AcDbVertex
100
AcDb2dVertex
 10
-130.2511668850174
 20
123.61328565879532
 30
0.0
  0
VERTEX
  5
1A1
100
AcDbEntity
  8
一般
370
               5
  6
Continuous
 62
               7
100
AcDbVertex
100
AcDb2dVertex
 10
-129.74600731550802
 20
123.90451376412358
 30
0.0
  0
VERTEX
  5
1A2
100
AcDbEntity
  8
一般
370
               5
  6
Continuous
 62
               7
100
AcDbVertex
100
AcDb2dVertex
 10
-129.74600731550802
 20
123.90451376412355
 30
0.0
  0
VERTEX
  5
1A3
100
AcDbEntity
  8
一般
370
               5
  6
Continuous
 62
               7
100
AcDbVertex
100
AcDb2dVertex
 10
-130.24069544115503
 20
124.21319427588915
 30
0.0
  0
VERTEX
  5
1A4
100
AcDbEntity
  8
一般
370
               5
  6
Continuous
 62
               7
100
AcDbVertex
100
AcDb2dVertex
 10
-133.24023852662418
 20
124.26555149520098
 30
0.0
  0
VERTEX
  5
1A5
100
AcDbEntity
  8
一般
370
               5
  6
Continuous
 62
               7
100
AcDbVertex
100
AcDb2dVertex
 10
-133.74539809613358
 20
123.97432338987269
 30
0.0
  0
SEQEND
  5
1A6
100
AcDbEntity
  8
一般
370
               5
  6
Continuous
 62
               7
  0
POLYLINE
  5
1A7
100
AcDbEntity
  8
一般
370
               5
  6
Continuous
 62
               7
100
AcDb2dPolyline
 66
               1
 10
0.0
 20
0.0
 30
0.0
 70
               1
 75
               5
  0
VERTEX
  5
1A8
100
AcDbEntity
  8
一般
370
               5
  6
Continuous
 62
               7
100
AcDbVertex
100
AcDb2dVertex
 10
-133.74539809613358
 20
124.97432338987272
 30
0.0
  0
VERTEX
  5
1A9
100
AcDbEntity
  8
一般
370
               5
  6
Continuous
 62
               7
100
AcDbVertex
100
AcDb2dVertex
 10
-133.25070997048655
 20
124.66564287810715
 30
0.0
  0
VERTEX
  5
1AA
100
AcDbEntity
  8
一般
370
               5
  6
Continuous
 62
               7
100
AcDbVertex
100
AcDb2dVertex
 10
-130.2511668850174
 20
124.61328565879532
 30
0.0
  0
VERTEX
  5
1AB
100
AcDbEntity
  8
一般
370
               5
  6
Continuous
 62
               7
100
AcDbVertex
100
AcDb2dVertex
 10
-129.74600731550802
 20
124.90451376412358
 30
0.0
  0
VERTEX
  5
1AC
100
AcDbEntity
  8
一般
370
               5
  6
Continuous
 62
               7
100
AcDbVertex
100
AcDb2dVertex
 10
-129.74600731550802
 20
124.90451376412355
 30
0.0
  0
VERTEX
  5
1AD
100
AcDbEntity
  8
一般
370
               5
  6
Continuous
 62
               7
100
AcDbVertex
100
AcDb2dVertex
 10
-130.24069544115503
 20
125.21319427588915
 30
0.0
  0
VERTEX
  5
1AE
100
AcDbEntity
  8
一般
370
               5
  6
Continuous
 62
               7
100
AcDbVertex
100
AcDb2dVertex
 10
-133.24023852662418
 20
125.26555149520098
 30
0.0
  0
VERTEX
  5
1AF
100
AcDbEntity
  8
一般
370
               5
  6
Continuous
 62
               7
100
AcDbVertex
100
AcDb2dVertex
 10
-133.74539809613358
 20
124.97432338987269
 30
0.0
  0
SEQEND
  5
1B0
100
AcDbEntity
  8
一般
370
               5
  6
Continuous
 62
               7
  0
POLYLINE
  5
1B1
100
AcDbEntity
  8
一般
370
               5
  6
Continuous
 62
               7
100
AcDb2dPolyline
 66
               1
 10
0.0
 20
0.0
 30
0.0
 70
               1
 75
               5
  0
VERTEX
  5
1B2
100
AcDbEntity
  8
一般
370
               5
  6
Continuous
 62
               7
100
AcDbVertex
100
AcDb2dVertex
 10
-133.74539809613358
 20
125.97432338987272
 30
0.0
  0
VERTEX
  5
1B3
100
AcDbEntity
  8
一般
370
               5
  6
Continuous
 62
               7
100
AcDbVertex
100
AcDb2dVertex
 10
-133.25070997048655
 20
125.66564287810715
 30
0.0
  0
VERTEX
  5
1B4
100
AcDbEntity
  8
一般
370
               5
  6
Continuous
 62
               7
100
AcDbVertex
100
AcDb2dVertex
 10
-130.2511668850174
 20
125.61328565879532
 30
0.0
  0
VERTEX
  5
1B5
100
AcDbEntity
  8
一般
370
               5
  6
Continuous
 62
               7
100
AcDbVertex
100
AcDb2dVertex
 10
-129.74600731550802
 20
125.90451376412358
 30
0.0
  0
VERTEX
  5
1B6
100
AcDbEntity
  8
一般
370
               5
  6
Continuous
 62
               7
100
AcDbVertex
100
AcDb2dVertex
 10
-129.74600731550802
 20
125.90451376412355
 30
0.0
  0
VERTEX
  5
1B7
100
AcDbEntity
  8
一般
370
               5
  6
Continuous
 62
               7
100
AcDbVertex
100
AcDb2dVertex
 10
-130.24069544115503
 20
126.21319427588915
 30
0.0
  0
VERTEX
  5
1B8
100
AcDbEntity
  8
一般
370
               5
  6
Continuous
 62
               7
100
AcDbVertex
100
AcDb2dVertex
 10
-133.24023852662418
 20
126.26555149520098
 30
0.0
  0
VERTEX
  5
1B9
100
AcDbEntity
  8
一般
370
               5
  6
Continuous
 62
               7
100
AcDbVertex
100
AcDb2dVertex
 10
-133.74539809613358
 20
125.97432338987269
 30
0.0
  0
SEQEND
  5
1BA
100
AcDbEntity
  8
一般
370
               5
  6
Continuous
 62
               7
  0
POLYLINE
  5
1BB
100
AcDbEntity
  8
一般
370
               5
  6
Continuous
 62
               7
100
AcDb2dPolyline
 66
               1
 10
0.0
 20
0.0
 30
0.0
 70
               1
 75
               5
  0
VERTEX
  5
1BC
100
AcDbEntity
  8
一般
370
               5
  6
Continuous
 62
               7
100
AcDbVertex
100
AcDb2dVertex
 10
-133.74539809613358
 20
126.97432338987272
 30
0.0
  0
VERTEX
  5
1BD
100
AcDbEntity
  8
一般
370
               5
  6
Continuous
 62
               7
100
AcDbVertex
100
AcDb2dVertex
 10
-133.25070997048655
 20
126.66564287810715
 30
0.0
  0
VERTEX
  5
1BE
100
AcDbEntity
  8
一般
370
               5
  6
Continuous
 62
               7
100
AcDbVertex
100
AcDb2dVertex
 10
-130.2511668850174
 20
126.61328565879532
 30
0.0
  0
VERTEX
  5
1BF
100
AcDbEntity
  8
一般
370
               5
  6
Continuous
 62
               7
100
AcDbVertex
100
AcDb2dVertex
 10
-129.74600731550802
 20
126.90451376412358
 30
0.0
  0
VERTEX
  5
1C0
100
AcDbEntity
  8
一般
370
               5
  6
Continuous
 62
               7
100
AcDbVertex
100
AcDb2dVertex
 10
-129.74600731550802
 20
126.90451376412355
 30
0.0
  0
VERTEX
  5
1C1
100
AcDbEntity
  8
一般
370
               5
  6
Continuous
 62
               7
100
AcDbVertex
100
AcDb2dVertex
 10
-130.24069544115503
 20
127.21319427588915
 30
0.0
  0
VERTEX
  5
1C2
100
AcDbEntity
  8
一般
370
               5
  6
Continuous
 62
               7
100
AcDbVertex
100
AcDb2dVertex
 10
-133.24023852662418
 20
127.26555149520098
 30
0.0
  0
VERTEX
  5
1C3
100
AcDbEntity
  8
一般
370
               5
  6
Continuous
 62
               7
100
AcDbVertex
100
AcDb2dVertex
 10
-133.74539809613358
 20
126.97432338987269
 30
0.0
  0
SEQEND
  5
1C4
100
AcDbEntity
  8
一般
370
               5
  6
Continuous
 62
               7
  0
POLYLINE
  5
1C5
100
AcDbEntity
  8
一般
370
               5
  6
Continuous
 62
               7
100
AcDb2dPolyline
 66
               1
 10
0.0
 20
0.0
 30
0.0
 70
               1
 75
               5
  0
VERTEX
  5
1C6
100
AcDbEntity
  8
一般
370
               5
  6
Continuous
 62
               7
100
AcDbVertex
100
AcDb2dVertex
 10
-133.74539809613358
 20
127.97432338987272
 30
0.0
  0
VERTEX
  5
1C7
100
AcDbEntity
  8
一般
370
               5
  6
Continuous
 62
               7
100
AcDbVertex
100
AcDb2dVertex
 10
-133.25070997048655
 20
127.66564287810715
 30
0.0
  0
VERTEX
  5
1C8
100
AcDbEntity
  8
一般
370
               5
  6
Continuous
 62
               7
100
AcDbVertex
100
AcDb2dVertex
 10
-130.2511668850174
 20
127.61328565879532
 30
0.0
  0
VERTEX
  5
1C9
100
AcDbEntity
  8
一般
370
               5
  6
Continuous
 62
               7
100
AcDbVertex
100
AcDb2dVertex
 10
-129.74600731550802
 20
127.90451376412358
 30
0.0
  0
VERTEX
  5
1CA
100
AcDbEntity
  8
一般
370
               5
  6
Continuous
 62
               7
100
AcDbVertex
100
AcDb2dVertex
 10
-129.74600731550802
 20
127.90451376412355
 30
0.0
  0
VERTEX
  5
1CB
100
AcDbEntity
  8
一般
370
               5
  6
Continuous
 62
               7
100
AcDbVertex
100
AcDb2dVertex
 10
-130.24069544115503
 20
128.21319427588918
 30
0.0
  0
VERTEX
  5
1CC
100
AcDbEntity
  8
一般
370
               5
  6
Continuous
 62
               7
100
AcDbVertex
100
AcDb2dVertex
 10
-133.24023852662418
 20
128.26555149520101
 30
0.0
  0
VERTEX
  5
1CD
100
AcDbEntity
  8
一般
370
               5
  6
Continuous
 62
               7
100
AcDbVertex
100
AcDb2dVertex
 10
-133.74539809613358
 20
127.97432338987269
 30
0.0
  0
SEQEND
  5
1CE
100
AcDbEntity
  8
一般
370
               5
  6
Continuous
 62
               7
  0
POLYLINE
  5
1CF
100
AcDbEntity
  8
一般
370
               5
  6
Continuous
 62
               7
100
AcDb2dPolyline
 66
               1
 10
0.0
 20
0.0
 30
0.0
 70
               1
 75
               5
  0
VERTEX
  5
1D0
100
AcDbEntity
  8
一般
370
               5
  6
Continuous
 62
               7
100
AcDbVertex
100
AcDb2dVertex
 10
-133.74539809613358
 20
128.97432338987284
 30
0.0
  0
VERTEX
  5
1D1
100
AcDbEntity
  8
一般
370
               5
  6
Continuous
 62
               7
100
AcDbVertex
100
AcDb2dVertex
 10
-133.25070997048655
 20
128.66564287810723
 30
0.0
  0
VERTEX
  5
1D2
100
AcDbEntity
  8
一般
370
               5
  6
Continuous
 62
               7
100
AcDbVertex
100
AcDb2dVertex
 10
-130.2511668850174
 20
128.61328565879541
 30
0.0
  0
VERTEX
  5
1D3
100
AcDbEntity
  8
一般
370
               5
  6
Continuous
 62
               7
100
AcDbVertex
100
AcDb2dVertex
 10
-129.74600731550802
 20
128.90451376412369
 30
0.0
  0
VERTEX
  5
1D4
100
AcDbEntity
  8
一般
370
               5
  6
Continuous
 62
               7
100
AcDbVertex
100
AcDb2dVertex
 10
-129.74600731550802
 20
128.90451376412366
 30
0.0
  0
VERTEX
  5
1D5
100
AcDbEntity
  8
一般
370
               5
  6
Continuous
 62
               7
100
AcDbVertex
100
AcDb2dVertex
 10
-130.24069544115503
 20
129.21319427588932
 30
0.0
  0
VERTEX
  5
1D6
100
AcDbEntity
  8
一般
370
               5
  6
Continuous
 62
               7
100
AcDbVertex
100
AcDb2dVertex
 10
-133.24023852662418
 20
129.26555149520115
 30
0.0
  0
VERTEX
  5
1D7
100
AcDbEntity
  8
一般
370
               5
  6
Continuous
 62
               7
100
AcDbVertex
100
AcDb2dVertex
 10
-133.74539809613358
 20
128.97432338987281
 30
0.0
  0
SEQEND
  5
1D8
100
AcDbEntity
  8
一般
370
               5
  6
Continuous
 62
               7
  0
POLYLINE
  5
1D9
100
AcDbEntity
  8
一般
370
               5
  6
Continuous
 62
               7
100
AcDb2dPolyline
 66
               1
 10
0.0
 20
0.0
 30
0.0
 70
               1
 75
               5
  0
VERTEX
  5
1DA
100
AcDbEntity
  8
一般
370
               5
  6
Continuous
 62
               7
100
AcDbVertex
100
AcDb2dVertex
 10
-133.74539809613358
 20
129.97432338987298
 30
0.0
  0
VERTEX
  5
1DB
100
AcDbEntity
  8
一般
370
               5
  6
Continuous
 62
               7
100
AcDbVertex
100
AcDb2dVertex
 10
-133.25070997048655
 20
129.66564287810738
 30
0.0
  0
VERTEX
  5
1DC
100
AcDbEntity
  8
一般
370
               5
  6
Continuous
 62
               7
100
AcDbVertex
100
AcDb2dVertex
 10
-130.2511668850174
 20
129.61328565879552
 30
0.0
  0
VERTEX
  5
1DD
100
AcDbEntity
  8
一般
370
               5
  6
Continuous
 62
               7
100
AcDbVertex
100
AcDb2dVertex
 10
-129.74600731550802
 20
129.90451376412383
 30
0.0
  0
VERTEX
  5
1DE
100
AcDbEntity
  8
一般
370
               5
  6
Continuous
 62
               7
100
AcDbVertex
100
AcDb2dVertex
 10
-129.74600731550802
 20
129.90451376412381
 30
0.0
  0
VERTEX
  5
1DF
100
AcDbEntity
  8
一般
370
               5
  6
Continuous
 62
               7
100
AcDbVertex
100
AcDb2dVertex
 10
-130.24069544115503
 20
130.21319427588944
 30
0.0
  0
VERTEX
  5
1E0
100
AcDbEntity
  8
一般
370
               5
  6
Continuous
 62
               7
100
AcDbVertex
100
AcDb2dVertex
 10
-133.24023852662418
 20
130.26555149520127
 30
0.0
  0
VERTEX
  5
1E1
100
AcDbEntity
  8
一般
370
               5
  6
Continuous
 62
               7
100
AcDbVertex
100
AcDb2dVertex
 10
-133.74539809613358
 20
129.97432338987295
 30
0.0
  0
SEQEND
  5
1E2
100
AcDbEntity
  8
一般
370
               5
  6
Continuous
 62
               7
  0
POLYLINE
  5
1E3
100
AcDbEntity
  8
一般
370
               5
  6
Continuous
 62
               7
100
AcDb2dPolyline
 66
               1
 10
0.0
 20
0.0
 30
0.0
 70
               1
 75
               5
  0
VERTEX
  5
1E4
100
AcDbEntity
  8
一般
370
               5
  6
Continuous
 62
               7
100
AcDbVertex
100
AcDb2dVertex
 10
-133.74539809613358
 20
130.97432338987312
 30
0.0
  0
VERTEX
  5
1E5
100
AcDbEntity
  8
一般
370
               5
  6
Continuous
 62
               7
100
AcDbVertex
100
AcDb2dVertex
 10
-133.25070997048655
 20
130.66564287810749
 30
0.0
  0
VERTEX
  5
1E6
100
AcDbEntity
  8
一般
370
               5
  6
Continuous
 62
               7
100
AcDbVertex
100
AcDb2dVertex
 10
-130.2511668850174
 20
130.61328565879566
 30
0.0
  0
VERTEX
  5
1E7
100
AcDbEntity
  8
一般
370
               5
  6
Continuous
 62
               7
100
AcDbVertex
100
AcDb2dVertex
 10
-129.74600731550802
 20
130.90451376412395
 30
0.0
  0
VERTEX
  5
1E8
100
AcDbEntity
  8
一般
370
               5
  6
Continuous
 62
               7
100
AcDbVertex
100
AcDb2dVertex
 10
-129.74600731550802
 20
130.90451376412392
 30
0.0
  0
VERTEX
  5
1E9
100
AcDbEntity
  8
一般
370
               5
  6
Continuous
 62
               7
100
AcDbVertex
100
AcDb2dVertex
 10
-130.24069544115503
 20
131.21319427588958
 30
0.0
  0
VERTEX
  5
1EA
100
AcDbEntity
  8
一般
370
               5
  6
Continuous
 62
               7
100
AcDbVertex
100
AcDb2dVertex
 10
-133.24023852662418
 20
131.26555149520141
 30
0.0
  0
VERTEX
  5
1EB
100
AcDbEntity
  8
一般
370
               5
  6
Continuous
 62
               7
100
AcDbVertex
100
AcDb2dVertex
 10
-133.74539809613358
 20
130.97432338987309
 30
0.0
  0
SEQEND
  5
1EC
100
AcDbEntity
  8
一般
370
               5
  6
Continuous
 62
               7
  0
POLYLINE
  5
1ED
100
AcDbEntity
  8
一般
370
               5
  6
Continuous
 62
               7
100
AcDb2dPolyline
 66
               1
 10
0.0
 20
0.0
 30
0.0
 70
               1
 75
               5
  0
VERTEX
  5
1EE
100
AcDbEntity
  8
一般
370
               5
  6
Continuous
 62
               7
100
AcDbVertex
100
AcDb2dVertex
 10
-133.74539809613358
 20
131.97432338987323
 30
0.0
  0
VERTEX
  5
1EF
100
AcDbEntity
  8
一般
370
               5
  6
Continuous
 62
               7
100
AcDbVertex
100
AcDb2dVertex
 10
-133.25070997048655
 20
131.66564287810763
 30
0.0
  0
VERTEX
  5
1F0
100
AcDbEntity
  8
一般
370
               5
  6
Continuous
 62
               7
100
AcDbVertex
100
AcDb2dVertex
 10
-130.2511668850174
 20
131.61328565879577
 30
0.0
  0
VERTEX
  5
1F1
100
AcDbEntity
  8
一般
370
               5
  6
Continuous
 62
               7
100
AcDbVertex
100
AcDb2dVertex
 10
-129.74600731550802
 20
131.90451376412409
 30
0.0
  0
VERTEX
  5
1F2
100
AcDbEntity
  8
一般
370
               5
  6
Continuous
 62
               7
100
AcDbVertex
100
AcDb2dVertex
 10
-129.74600731550802
 20
131.90451376412406
 30
0.0
  0
VERTEX
  5
1F3
100
AcDbEntity
  8
一般
370
               5
  6
Continuous
 62
               7
100
AcDbVertex
100
AcDb2dVertex
 10
-130.24069544115503
 20
132.21319427588969
 30
0.0
  0
VERTEX
  5
1F4
100
AcDbEntity
  8
一般
370
               5
  6
Continuous
 62
               7
100
AcDbVertex
100
AcDb2dVertex
 10
-133.24023852662418
 20
132.26555149520152
 30
0.0
  0
VERTEX
  5
1F5
100
AcDbEntity
  8
一般
370
               5
  6
Continuous
 62
               7
100
AcDbVertex
100
AcDb2dVertex
 10
-133.74539809613358
 20
131.97432338987321
 30
0.0
  0
SEQEND
  5
1F6
100
AcDbEntity
  8
一般
370
               5
  6
Continuous
 62
               7
  0
POLYLINE
  5
1F7
100
AcDbEntity
  8
一般
370
               5
  6
Continuous
 62
               7
100
AcDb2dPolyline
 66
               1
 10
0.0
 20
0.0
 30
0.0
 70
               1
 75
               5
  0
VERTEX
  5
1F8
100
AcDbEntity
  8
一般
370
               5
  6
Continuous
 62
               7
100
AcDbVertex
100
AcDb2dVertex
 10
-133.74539809613358
 20
132.97432338987338
 30
0.0
  0
VERTEX
  5
1F9
100
AcDbEntity
  8
一般
370
               5
  6
Continuous
 62
               7
100
AcDbVertex
100
AcDb2dVertex
 10
-133.25070997048655
 20
132.66564287810775
 30
0.0
  0
VERTEX
  5
1FA
100
AcDbEntity
  8
一般
370
               5
  6
Continuous
 62
               7
100
AcDbVertex
100
AcDb2dVertex
 10
-130.2511668850174
 20
132.61328565879592
 30
0.0
  0
VERTEX
  5
1FB
100
AcDbEntity
  8
一般
370
               5
  6
Continuous
 62
               7
100
AcDbVertex
100
AcDb2dVertex
 10
-129.74600731550802
 20
132.9045137641242
 30
0.0
  0
VERTEX
  5
1FC
100
AcDbEntity
  8
一般
370
               5
  6
Continuous
 62
               7
100
AcDbVertex
100
AcDb2dVertex
 10
-129.74600731550802
 20
132.90451376412418
 30
0.0
  0
VERTEX
  5
1FD
100
AcDbEntity
  8
一般
370
               5
  6
Continuous
 62
               7
100
AcDbVertex
100
AcDb2dVertex
 10
-130.24069544115503
 20
133.21319427588983
 30
0.0
  0
VERTEX
  5
1FE
100
AcDbEntity
  8
一般
370
               5
  6
Continuous
 62
               7
100
AcDbVertex
100
AcDb2dVertex
 10
-133.24023852662418
 20
133.26555149520166
 30
0.0
  0
VERTEX
  5
1FF
100
AcDbEntity
  8
一般
370
               5
  6
Continuous
 62
               7
100
AcDbVertex
100
AcDb2dVertex
 10
-133.74539809613358
 20
132.97432338987335
 30
0.0
  0
SEQEND
  5
200
100
AcDbEntity
  8
一般
370
               5
  6
Continuous
 62
               7
  0
POLYLINE
  5
201
100
AcDbEntity
  8
一般
370
               5
  6
Continuous
 62
               7
100
AcDb2dPolyline
 66
               1
 10
0.0
 20
0.0
 30
0.0
 70
               1
 75
               5
  0
VERTEX
  5
202
100
AcDbEntity
  8
一般
370
               5
  6
Continuous
 62
               7
100
AcDbVertex
100
AcDb2dVertex
 10
-133.74539809613358
 20
133.97432338987349
 30
0.0
  0
VERTEX
  5
203
100
AcDbEntity
  8
一般
370
               5
  6
Continuous
 62
               7
100
AcDbVertex
100
AcDb2dVertex
 10
-133.25070997048655
 20
133.66564287810789
 30
0.0
  0
VERTEX
  5
204
100
AcDbEntity
  8
一般
370
               5
  6
Continuous
 62
               7
100
AcDbVertex
100
AcDb2dVertex
 10
-130.2511668850174
 20
133.61328565879606
 30
0.0
  0
VERTEX
  5
205
100
AcDbEntity
  8
一般
370
               5
  6
Continuous
 62
               7
100
AcDbVertex
100
AcDb2dVertex
 10
-129.74600731550802
 20
133.90451376412435
 30
0.0
  0
VERTEX
  5
206
100
AcDbEntity
  8
一般
370
               5
  6
Continuous
 62
               7
100
AcDbVertex
100
AcDb2dVertex
 10
-129.74600731550802
 20
133.90451376412432
 30
0.0
  0
VERTEX
  5
207
100
AcDbEntity
  8
一般
370
               5
  6
Continuous
 62
               7
100
AcDbVertex
100
AcDb2dVertex
 10
-130.24069544115503
 20
134.21319427588995
 30
0.0
  0
VERTEX
  5
208
100
AcDbEntity
  8
一般
370
               5
  6
Continuous
 62
               7
100
AcDbVertex
100
AcDb2dVertex
 10
-133.24023852662418
 20
134.26555149520178
 30
0.0
  0
VERTEX
  5
209
100
AcDbEntity
  8
一般
370
               5
  6
Continuous
 62
               7
100
AcDbVertex
100
AcDb2dVertex
 10
-133.74539809613358
 20
133.97432338987346
 30
0.0
  0
SEQEND
  5
20A
100
AcDbEntity
  8
一般
370
               5
  6
Continuous
 62
               7
  0
POLYLINE
  5
20B
100
AcDbEntity
  8
一般
370
               5
  6
Continuous
 62
               7
100
AcDb2dPolyline
 66
               1
 10
0.0
 20
0.0
 30
0.0
 70
               1
 75
               5
  0
VERTEX
  5
20C
100
AcDbEntity
  8
一般
370
               5
  6
Continuous
 62
               7
100
AcDbVertex
100
AcDb2dVertex
 10
-133.74539809613358
 20
134.97432338987363
 30
0.0
  0
VERTEX
  5
20D
100
AcDbEntity
  8
一般
370
               5
  6
Continuous
 62
               7
100
AcDbVertex
100
AcDb2dVertex
 10
-133.25070997048655
 20
134.665642878108
 30
0.0
  0
VERTEX
  5
20E
100
AcDbEntity
  8
一般
370
               5
  6
Continuous
 62
               7
100
AcDbVertex
100
AcDb2dVertex
 10
-130.2511668850174
 20
134.61328565879617
 30
0.0
  0
VERTEX
  5
20F
100
AcDbEntity
  8
一般
370
               5
  6
Continuous
 62
               7
100
AcDbVertex
100
AcDb2dVertex
 10
-129.74600731550802
 20
134.90451376412446
 30
0.0
  0
VERTEX
  5
210
100
AcDbEntity
  8
一般
370
               5
  6
Continuous
 62
               7
100
AcDbVertex
100
AcDb2dVertex
 10
-129.74600731550802
 20
134.90451376412443
 30
0.0
  0
VERTEX
  5
211
100
AcDbEntity
  8
一般
370
               5
  6
Continuous
 62
               7
100
AcDbVertex
100
AcDb2dVertex
 10
-130.24069544115503
 20
135.21319427589009
 30
0.0
  0
VERTEX
  5
212
100
AcDbEntity
  8
一般
370
               5
  6
Continuous
 62
               7
100
AcDbVertex
100
AcDb2dVertex
 10
-133.24023852662418
 20
135.26555149520192
 30
0.0
  0
VERTEX
  5
213
100
AcDbEntity
  8
一般
370
               5
  6
Continuous
 62
               7
100
AcDbVertex
100
AcDb2dVertex
 10
-133.74539809613358
 20
134.9743233898736
 30
0.0
  0
SEQEND
  5
214
100
AcDbEntity
  8
一般
370
               5
  6
Continuous
 62
               7
  0
POLYLINE
  5
215
100
AcDbEntity
  8
一般
370
               5
  6
Continuous
 62
               7
100
AcDb2dPolyline
 66
               1
 10
0.0
 20
0.0
 30
0.0
 70
               1
 75
               5
  0
VERTEX
  5
216
100
AcDbEntity
  8
一般
370
               5
  6
Continuous
 62
               7
100
AcDbVertex
100
AcDb2dVertex
 10
-133.74539809613358
 20
135.97432338987375
 30
0.0
  0
VERTEX
  5
217
100
AcDbEntity
  8
一般
370
               5
  6
Continuous
 62
               7
100
AcDbVertex
100
AcDb2dVertex
 10
-133.25070997048655
 20
135.66564287810814
 30
0.0
  0
VERTEX
  5
218
100
AcDbEntity
  8
一般
370
               5
  6
Continuous
 62
               7
100
AcDbVertex
100
AcDb2dVertex
 10
-130.2511668850174
 20
135.61328565879631
 30
0.0
  0
VERTEX
  5
219
100
AcDbEntity
  8
一般
370
               5
  6
Continuous
 62
               7
100
AcDbVertex
100
AcDb2dVertex
 10
-129.74600731550802
 20
135.9045137641246
 30
0.0
  0
VERTEX
  5
21A
100
AcDbEntity
  8
一般
370
               5
  6
Continuous
 62
               7
100
AcDbVertex
100
AcDb2dVertex
 10
-129.74600731550802
 20
135.90451376412457
 30
0.0
  0
VERTEX
  5
21B
100
AcDbEntity
  8
一般
370
               5
  6
Continuous
 62
               7
100
AcDbVertex
100
AcDb2dVertex
 10
-130.24069544115503
 20
136.21319427589017
 30
0.0
  0
VERTEX
  5
21C
100
AcDbEntity
  8
一般
370
               5
  6
Continuous
 62
               7
100
AcDbVertex
100
AcDb2dVertex
 10
-133.24023852662418
 20
136.265551495202
 30
0.0
  0
VERTEX
  5
21D
100
AcDbEntity
  8
一般
370
               5
  6
Continuous
 62
               7
100
AcDbVertex
100
AcDb2dVertex
 10
-133.74539809613358
 20
135.97432338987372
 30
0.0
  0
SEQEND
  5
21E
100
AcDbEntity
  8
一般
370
               5
  6
Continuous
 62
               7
  0
POLYLINE
  5
21F
100
AcDbEntity
  8
一般
370
               5
  6
Continuous
 62
               7
100
AcDb2dPolyline
 66
               1
 10
0.0
 20
0.0
 30
0.0
 70
               1
 75
               5
  0
VERTEX
  5
220
100
AcDbEntity
  8
一般
370
               5
  6
Continuous
 62
               7
100
AcDbVertex
100
AcDb2dVertex
 10
-133.74539809613358
 20
136.97432338987375
 30
0.0
  0
VERTEX
  5
221
100
AcDbEntity
  8
一般
370
               5
  6
Continuous
 62
               7
100
AcDbVertex
100
AcDb2dVertex
 10
-133.25070997048655
 20
136.66564287810817
 30
0.0
  0
VERTEX
  5
222
100
AcDbEntity
  8
一般
370
               5
  6
Continuous
 62
               7
100
AcDbVertex
100
AcDb2dVertex
 10
-130.2511668850174
 20
136.61328565879634
 30
0.0
  0
VERTEX
  5
223
100
AcDbEntity
  8
一般
370
               5
  6
Continuous
 62
               7
100
AcDbVertex
100
AcDb2dVertex
 10
-129.74600731550802
 20
136.9045137641246
 30
0.0
  0
VERTEX
  5
224
100
AcDbEntity
  8
一般
370
               5
  6
Continuous
 62
               7
100
AcDbVertex
100
AcDb2dVertex
 10
-129.74600731550802
 20
136.90451376412457
 30
0.0
  0
VERTEX
  5
225
100
AcDbEntity
  8
一般
370
               5
  6
Continuous
 62
               7
100
AcDbVertex
100
AcDb2dVertex
 10
-130.24069544115503
 20
137.21319427589017
 30
0.0
  0
VERTEX
  5
226
100
AcDbEntity
  8
一般
370
               5
  6
Continuous
 62
               7
100
AcDbVertex
100
AcDb2dVertex
 10
-133.24023852662418
 20
137.265551495202
 30
0.0
  0
VERTEX
  5
227
100
AcDbEntity
  8
一般
370
               5
  6
Continuous
 62
               7
100
AcDbVertex
100
AcDb2dVertex
 10
-133.74539809613358
 20
136.97432338987372
 30
0.0
  0
SEQEND
  5
228
100
AcDbEntity
  8
一般
370
               5
  6
Continuous
 62
               7
  0
POLYLINE
  5
229
100
AcDbEntity
  8
一般
370
               5
  6
Continuous
 62
               7
100
AcDb2dPolyline
 66
               1
 10
0.0
 20
0.0
 30
0.0
 70
               1
 75
               5
  0
VERTEX
  5
22A
100
AcDbEntity
  8
一般
370
               5
  6
Continuous
 62
               7
100
AcDbVertex
100
AcDb2dVertex
 10
-133.74539809613358
 20
137.97432338987375
 30
0.0
  0
VERTEX
  5
22B
100
AcDbEntity
  8
一般
370
               5
  6
Continuous
 62
               7
100
AcDbVertex
100
AcDb2dVertex
 10
-133.25070997048655
 20
137.66564287810817
 30
0.0
  0
VERTEX
  5
22C
100
AcDbEntity
  8
一般
370
               5
  6
Continuous
 62
               7
100
AcDbVertex
100
AcDb2dVertex
 10
-130.2511668850174
 20
137.61328565879634
 30
0.0
  0
VERTEX
  5
22D
100
AcDbEntity
  8
一般
370
               5
  6
Continuous
 62
               7
100
AcDbVertex
100
AcDb2dVertex
 10
-129.74600731550802
 20
137.9045137641246
 30
0.0
  0
VERTEX
  5
22E
100
AcDbEntity
  8
一般
370
               5
  6
Continuous
 62
               7
100
AcDbVertex
100
AcDb2dVertex
 10
-129.74600731550802
 20
137.90451376412457
 30
0.0
  0
VERTEX
  5
22F
100
AcDbEntity
  8
一般
370
               5
  6
Continuous
 62
               7
100
AcDbVertex
100
AcDb2dVertex
 10
-130.24069544115503
 20
138.21319427589017
 30
0.0
  0
VERTEX
  5
230
100
AcDbEntity
  8
一般
370
               5
  6
Continuous
 62
               7
100
AcDbVertex
100
AcDb2dVertex
 10
-133.24023852662418
 20
138.265551495202
 30
0.0
  0
VERTEX
  5
231
100
AcDbEntity
  8
一般
370
               5
  6
Continuous
 62
               7
100
AcDbVertex
100
AcDb2dVertex
 10
-133.74539809613358
 20
137.97432338987372
 30
0.0
  0
SEQEND
  5
232
100
AcDbEntity
  8
一般
370
               5
  6
Continuous
 62
               7
  0
POLYLINE
  5
233
100
AcDbEntity
  8
一般
370
               5
  6
Continuous
 62
               7
100
AcDb2dPolyline
 66
               1
 10
0.0
 20
0.0
 30
0.0
 70
               1
 75
               5
  0
VERTEX
  5
234
100
AcDbEntity
  8
一般
370
               5
  6
Continuous
 62
               7
100
AcDbVertex
100
AcDb2dVertex
 10
-133.74539809613358
 20
138.97432338987375
 30
0.0
  0
VERTEX
  5
235
100
AcDbEntity
  8
一般
370
               5
  6
Continuous
 62
               7
100
AcDbVertex
100
AcDb2dVertex
 10
-133.25070997048655
 20
138.66564287810817
 30
0.0
  0
VERTEX
  5
236
100
AcDbEntity
  8
一般
370
               5
  6
Continuous
 62
               7
100
AcDbVertex
100
AcDb2dVertex
 10
-130.2511668850174
 20
138.61328565879634
 30
0.0
  0
VERTEX
  5
237
100
AcDbEntity
  8
一般
370
               5
  6
Continuous
 62
               7
100
AcDbVertex
100
AcDb2dVertex
 10
-129.74600731550802
 20
138.9045137641246
 30
0.0
  0
VERTEX
  5
238
100
AcDbEntity
  8
一般
370
               5
  6
Continuous
 62
               7
100
AcDbVertex
100
AcDb2dVertex
 10
-129.74600731550802
 20
138.90451376412457
 30
0.0
  0
VERTEX
  5
239
100
AcDbEntity
  8
一般
370
               5
  6
Continuous
 62
               7
100
AcDbVertex
100
AcDb2dVertex
 10
-130.24069544115503
 20
139.21319427589017
 30
0.0
  0
VERTEX
  5
23A
100
AcDbEntity
  8
一般
370
               5
  6
Continuous
 62
               7
100
AcDbVertex
100
AcDb2dVertex
 10
-133.24023852662418
 20
139.265551495202
 30
0.0
  0
VERTEX
  5
23B
100
AcDbEntity
  8
一般
370
               5
  6
Continuous
 62
               7
100
AcDbVertex
100
AcDb2dVertex
 10
-133.74539809613358
 20
138.97432338987372
 30
0.0
  0
SEQEND
  5
23C
100
AcDbEntity
  8
一般
370
               5
  6
Continuous
 62
               7
  0
POLYLINE
  5
23D
100
AcDbEntity
  8
一般
370
               5
  6
Continuous
 62
               7
100
AcDb2dPolyline
 66
               1
 10
0.0
 20
0.0
 30
0.0
 70
               1
 75
               5
  0
VERTEX
  5
23E
100
AcDbEntity
  8
一般
370
               5
  6
Continuous
 62
               7
100
AcDbVertex
100
AcDb2dVertex
 10
-133.74539809613358
 20
139.97432338987375
 30
0.0
  0
VERTEX
  5
23F
100
AcDbEntity
  8
一般
370
               5
  6
Continuous
 62
               7
100
AcDbVertex
100
AcDb2dVertex
 10
-133.25070997048655
 20
139.66564287810817
 30
0.0
  0
VERTEX
  5
240
100
AcDbEntity
  8
一般
370
               5
  6
Continuous
 62
               7
100
AcDbVertex
100
AcDb2dVertex
 10
-130.2511668850174
 20
139.61328565879634
 30
0.0
  0
VERTEX
  5
241
100
AcDbEntity
  8
一般
370
               5
  6
Continuous
 62
               7
100
AcDbVertex
100
AcDb2dVertex
 10
-129.74600731550802
 20
139.9045137641246
 30
0.0
  0
VERTEX
  5
242
100
AcDbEntity
  8
一般
370
               5
  6
Continuous
 62
               7
100
AcDbVertex
100
AcDb2dVertex
 10
-129.74600731550802
 20
139.90451376412457
 30
0.0
  0
VERTEX
  5
243
100
AcDbEntity
  8
一般
370
               5
  6
Continuous
 62
               7
100
AcDbVertex
100
AcDb2dVertex
 10
-130.24069544115503
 20
140.21319427589017
 30
0.0
  0
VERTEX
  5
244
100
AcDbEntity
  8
一般
370
               5
  6
Continuous
 62
               7
100
AcDbVertex
100
AcDb2dVertex
 10
-133.24023852662418
 20
140.265551495202
 30
0.0
  0
VERTEX
  5
245
100
AcDbEntity
  8
一般
370
               5
  6
Continuous
 62
               7
100
AcDbVertex
100
AcDb2dVertex
 10
-133.74539809613358
 20
139.97432338987372
 30
0.0
  0
SEQEND
  5
246
100
AcDbEntity
  8
一般
370
               5
  6
Continuous
 62
               7
  0
POLYLINE
  5
247
100
AcDbEntity
  8
一般
370
               5
  6
Continuous
 62
               7
100
AcDb2dPolyline
 66
               1
 10
0.0
 20
0.0
 30
0.0
 70
               1
 75
               5
  0
VERTEX
  5
248
100
AcDbEntity
  8
一般
370
               5
  6
Continuous
 62
               7
100
AcDbVertex
100
AcDb2dVertex
 10
-133.74539809613358
 20
140.97432338987375
 30
0.0
  0
VERTEX
  5
249
100
AcDbEntity
  8
一般
370
               5
  6
Continuous
 62
               7
100
AcDbVertex
100
AcDb2dVertex
 10
-133.25070997048655
 20
140.66564287810817
 30
0.0
  0
VERTEX
  5
24A
100
AcDbEntity
  8
一般
370
               5
  6
Continuous
 62
               7
100
AcDbVertex
100
AcDb2dVertex
 10
-130.2511668850174
 20
140.61328565879634
 30
0.0
  0
VERTEX
  5
24B
100
AcDbEntity
  8
一般
370
               5
  6
Continuous
 62
               7
100
AcDbVertex
100
AcDb2dVertex
 10
-129.74600731550802
 20
140.9045137641246
 30
0.0
  0
VERTEX
  5
24C
100
AcDbEntity
  8
一般
370
               5
  6
Continuous
 62
               7
100
AcDbVertex
100
AcDb2dVertex
 10
-129.74600731550802
 20
140.90451376412457
 30
0.0
  0
VERTEX
  5
24D
100
AcDbEntity
  8
一般
370
               5
  6
Continuous
 62
               7
100
AcDbVertex
100
AcDb2dVertex
 10
-130.24069544115503
 20
141.21319427589017
 30
0.0
  0
VERTEX
  5
24E
100
AcDbEntity
  8
一般
370
               5
  6
Continuous
 62
               7
100
AcDbVertex
100
AcDb2dVertex
 10
-133.24023852662418
 20
141.265551495202
 30
0.0
  0
VERTEX
  5
24F
100
AcDbEntity
  8
一般
370
               5
  6
Continuous
 62
               7
100
AcDbVertex
100
AcDb2dVertex
 10
-133.74539809613358
 20
140.97432338987372
 30
0.0
  0
SEQEND
  5
250
100
AcDbEntity
  8
一般
370
               5
  6
Continuous
 62
               7
  0
POLYLINE
  5
251
100
AcDbEntity
  8
一般
370
               5
  6
Continuous
 62
               7
100
AcDb2dPolyline
 66
               1
 10
0.0
 20
0.0
 30
0.0
 70
               1
 75
               5
  0
VERTEX
  5
252
100
AcDbEntity
  8
一般
370
               5
  6
Continuous
 62
               7
100
AcDbVertex
100
AcDb2dVertex
 10
-133.74539809613358
 20
141.97432338987375
 30
0.0
  0
VERTEX
  5
253
100
AcDbEntity
  8
一般
370
               5
  6
Continuous
 62
               7
100
AcDbVertex
100
AcDb2dVertex
 10
-133.25070997048655
 20
141.66564287810817
 30
0.0
  0
VERTEX
  5
254
100
AcDbEntity
  8
一般
370
               5
  6
Continuous
 62
               7
100
AcDbVertex
100
AcDb2dVertex
 10
-130.2511668850174
 20
141.61328565879634
 30
0.0
  0
VERTEX
  5
255
100
AcDbEntity
  8
一般
370
               5
  6
Continuous
 62
               7
100
AcDbVertex
100
AcDb2dVertex
 10
-129.74600731550802
 20
141.9045137641246
 30
0.0
  0
VERTEX
  5
256
100
AcDbEntity
  8
一般
370
               5
  6
Continuous
 62
               7
100
AcDbVertex
100
AcDb2dVertex
 10
-129.74600731550802
 20
141.90451376412457
 30
0.0
  0
VERTEX
  5
257
100
AcDbEntity
  8
一般
370
               5
  6
Continuous
 62
               7
100
AcDbVertex
100
AcDb2dVertex
 10
-130.24069544115503
 20
142.21319427589017
 30
0.0
  0
VERTEX
  5
258
100
AcDbEntity
  8
一般
370
               5
  6
Continuous
 62
               7
100
AcDbVertex
100
AcDb2dVertex
 10
-133.24023852662418
 20
142.265551495202
 30
0.0
  0
VERTEX
  5
259
100
AcDbEntity
  8
一般
370
               5
  6
Continuous
 62
               7
100
AcDbVertex
100
AcDb2dVertex
 10
-133.74539809613358
 20
141.97432338987372
 30
0.0
  0
SEQEND
  5
25A
100
AcDbEntity
  8
一般
370
               5
  6
Continuous
 62
               7
  0
POLYLINE
  5
25B
100
AcDbEntity
  8
一般
370
               5
  6
Continuous
 62
               7
100
AcDb2dPolyline
 66
               1
 10
0.0
 20
0.0
 30
0.0
 70
               1
 75
               5
  0
VERTEX
  5
25C
100
AcDbEntity
  8
一般
370
               5
  6
Continuous
 62
               7
100
AcDbVertex
100
AcDb2dVertex
 10
-133.74539809613358
 20
142.97432338987375
 30
0.0
  0
VERTEX
  5
25D
100
AcDbEntity
  8
一般
370
               5
  6
Continuous
 62
               7
100
AcDbVertex
100
AcDb2dVertex
 10
-133.25070997048655
 20
142.66564287810817
 30
0.0
  0
VERTEX
  5
25E
100
AcDbEntity
  8
一般
370
               5
  6
Continuous
 62
               7
100
AcDbVertex
100
AcDb2dVertex
 10
-130.2511668850174
 20
142.61328565879634
 30
0.0
  0
VERTEX
  5
25F
100
AcDbEntity
  8
一般
370
               5
  6
Continuous
 62
               7
100
AcDbVertex
100
AcDb2dVertex
 10
-129.74600731550802
 20
142.9045137641246
 30
0.0
  0
VERTEX
  5
260
100
AcDbEntity
  8
一般
370
               5
  6
Continuous
 62
               7
100
AcDbVertex
100
AcDb2dVertex
 10
-129.74600731550802
 20
142.90451376412457
 30
0.0
  0
VERTEX
  5
261
100
AcDbEntity
  8
一般
370
               5
  6
Continuous
 62
               7
100
AcDbVertex
100
AcDb2dVertex
 10
-130.24069544115503
 20
143.21319427589017
 30
0.0
  0
VERTEX
  5
262
100
AcDbEntity
  8
一般
370
               5
  6
Continuous
 62
               7
100
AcDbVertex
100
AcDb2dVertex
 10
-133.24023852662418
 20
143.265551495202
 30
0.0
  0
VERTEX
  5
263
100
AcDbEntity
  8
一般
370
               5
  6
Continuous
 62
               7
100
AcDbVertex
100
AcDb2dVertex
 10
-133.74539809613358
 20
142.97432338987372
 30
0.0
  0
SEQEND
  5
264
100
AcDbEntity
  8
一般
370
               5
  6
Continuous
 62
               7
  0
POLYLINE
  5
265
100
AcDbEntity
  8
一般
370
               5
  6
Continuous
 62
               7
100
AcDb2dPolyline
 66
               1
 10
0.0
 20
0.0
 30
0.0
 70
               1
 75
               5
  0
VERTEX
  5
266
100
AcDbEntity
  8
一般
370
               5
  6
Continuous
 62
               7
100
AcDbVertex
100
AcDb2dVertex
 10
-133.61503729651218
 20
143.97432338987375
 30
0.0
  0
VERTEX
  5
267
100
AcDbEntity
  8
一般
370
               5
  6
Continuous
 62
               7
100
AcDbVertex
100
AcDb2dVertex
 10
-133.15738107702975
 20
143.66564287810817
 30
0.0
  0
VERTEX
  5
268
100
AcDbEntity
  8
一般
370
               5
  6
Continuous
 62
               7
100
AcDbVertex
100
AcDb2dVertex
 10
-130.38238107702975
 20
143.61328565879634
 30
0.0
  0
VERTEX
  5
269
100
AcDbEntity
  8
一般
370
               5
  6
Continuous
 62
               7
100
AcDbVertex
100
AcDb2dVertex
 10
-129.9150372965122
 20
143.9045137641246
 30
0.0
  0
VERTEX
  5
26A
100
AcDbEntity
  8
一般
370
               5
  6
Continuous
 62
               7
100
AcDbVertex
100
AcDb2dVertex
 10
-129.9150372965122
 20
143.90451376412457
 30
0.0
  0
VERTEX
  5
26B
100
AcDbEntity
  8
一般
370
               5
  6
Continuous
 62
               7
100
AcDbVertex
100
AcDb2dVertex
 10
-130.3726935159946
 20
144.21319427589017
 30
0.0
  0
VERTEX
  5
26C
100
AcDbEntity
  8
一般
370
               5
  6
Continuous
 62
               7
100
AcDbVertex
100
AcDb2dVertex
 10
-133.1476935159946
 20
144.265551495202
 30
0.0
  0
VERTEX
  5
26D
100
AcDbEntity
  8
一般
370
               5
  6
Continuous
 62
               7
100
AcDbVertex
100
AcDb2dVertex
 10
-133.61503729651218
 20
143.97432338987372
 30
0.0
  0
SEQEND
  5
26E
100
AcDbEntity
  8
一般
370
               5
  6
Continuous
 62
               7
  0
POLYLINE
  5
26F
100
AcDbEntity
  8
一般
370
               5
  6
Continuous
 62
               7
100
AcDb2dPolyline
 66
               1
 10
0.0
 20
0.0
 30
0.0
 70
               1
 75
               5
  0
VERTEX
  5
270
100
AcDbEntity
  8
一般
370
               5
  6
Continuous
 62
               7
100
AcDbVertex
100
AcDb2dVertex
 10
-133.18050129777419
 20
144.97432338987375
 30
0.0
  0
VERTEX
  5
271
100
AcDbEntity
  8
一般
370
               5
  6
Continuous
 62
               7
100
AcDbVertex
100
AcDb2dVertex
 10
-132.83416686140913
 20
144.66564287810817
 30
0.0
  0
VERTEX
  5
272
100
AcDbEntity
  8
一般
370
               5
  6
Continuous
 62
               7
100
AcDbVertex
100
AcDb2dVertex
 10
-130.73416686140908
 20
144.61328565879634
 30
0.0
  0
VERTEX
  5
273
100
AcDbEntity
  8
一般
370
               5
  6
Continuous
 62
               7
100
AcDbVertex
100
AcDb2dVertex
 10
-130.38050129777417
 20
144.9045137641246
 30
0.0
  0
VERTEX
  5
274
100
AcDbEntity
  8
一般
370
               5
  6
Continuous
 62
               7
100
AcDbVertex
100
AcDb2dVertex
 10
-130.38050129777417
 20
144.90451376412457
 30
0.0
  0
VERTEX
  5
275
100
AcDbEntity
  8
一般
370
               5
  6
Continuous
 62
               7
100
AcDbVertex
100
AcDb2dVertex
 10
-130.72683573413923
 20
145.21319427589017
 30
0.0
  0
VERTEX
  5
276
100
AcDbEntity
  8
一般
370
               5
  6
Continuous
 62
               7
100
AcDbVertex
100
AcDb2dVertex
 10
-132.82683573413925
 20
145.265551495202
 30
0.0
  0
VERTEX
  5
277
100
AcDbEntity
  8
一般
370
               5
  6
Continuous
 62
               7
100
AcDbVertex
100
AcDb2dVertex
 10
-133.18050129777419
 20
144.97432338987372
 30
0.0
  0
SEQEND
  5
278
100
AcDbEntity
  8
一般
370
               5
  6
Continuous
 62
               7
  0
POLYLINE
  5
279
100
AcDbEntity
  8
一般
370
               5
  6
Continuous
 62
               7
100
AcDb2dPolyline
 66
               1
 10
0.0
 20
0.0
 30
0.0
 70
               1
 75
               5
  0
VERTEX
  5
27A
100
AcDbEntity
  8
一般
370
               5
  6
Continuous
 62
               7
100
AcDbVertex
100
AcDb2dVertex
 10
-132.63008903270605
 20
145.97432338987375
 30
0.0
  0
VERTEX
  5
27B
100
AcDbEntity
  8
一般
370
               5
  6
Continuous
 62
               7
100
AcDbVertex
100
AcDb2dVertex
 10
-132.40744546647136
 20
145.66564287810817
 30
0.0
  0
VERTEX
  5
27C
100
AcDbEntity
  8
一般
370
               5
  6
Continuous
 62
               7
100
AcDbVertex
100
AcDb2dVertex
 10
-131.05744546647134
 20
145.61328565879634
 30
0.0
  0
VERTEX
  5
27D
100
AcDbEntity
  8
一般
370
               5
  6
Continuous
 62
               7
100
AcDbVertex
100
AcDb2dVertex
 10
-130.83008903270604
 20
145.9045137641246
 30
0.0
  0
VERTEX
  5
27E
100
AcDbEntity
  8
一般
370
               5
  6
Continuous
 62
               7
100
AcDbVertex
100
AcDb2dVertex
 10
-130.83008903270604
 20
145.90451376412457
 30
0.0
  0
VERTEX
  5
27F
100
AcDbEntity
  8
一般
370
               5
  6
Continuous
 62
               7
100
AcDbVertex
100
AcDb2dVertex
 10
-131.05273259894074
 20
146.21319427589017
 30
0.0
  0
VERTEX
  5
280
100
AcDbEntity
  8
一般
370
               5
  6
Continuous
 62
               7
100
AcDbVertex
100
AcDb2dVertex
 10
-132.40273259894073
 20
146.265551495202
 30
0.0
  0
VERTEX
  5
281
100
AcDbEntity
  8
一般
370
               5
  6
Continuous
 62
               7
100
AcDbVertex
100
AcDb2dVertex
 10
-132.63008903270605
 20
145.97432338987372
 30
0.0
  0
SEQEND
  5
282
100
AcDbEntity
  8
一般
370
               5
  6
Continuous
 62
               7
  0
ENDBLK
  5
283
100
AcDbEntity
  8
一般
100
AcDbBlockEnd
  0
BLOCK
  5
284
100
AcDbEntity
  8
一般
100
AcDbBlockBegin
  2
グループ-2
 70
               0
 10
0.0
 20
0.0
 30
0.0
  3
グループ-2
  1

  0
LINE
  5
285
100
AcDbEntity
  8
一般
370
               5
  6
Continuous
 62
               7
100
AcDbLine
 10
-111.84570270582077
 20
124.15784716806311
 30
0.0
 11
-111.84570270582077
 21
124.56100128723263
 31
0.0
  0
LINE
  5
286
100
AcDbEntity
  8
一般
370
               5
  6
Continuous
 62
               7
100
AcDbLine
 10
-111.84570270582077
 20
125.15784716806311
 30
0.0
 11
-111.84570270582077
 21
125.56100128723263
 31
0.0
  0
LINE
  5
287
100
AcDbEntity
  8
一般
370
               5
  6
Continuous
 62
               7
100
AcDbLine
 10
-114.84570270582077
 20
127.20696684685191
 30
0.0
 11
-114.84570270582077
 21
127.61012096602141
 31
0.0
  0
LINE
  5
288
100
AcDbEntity
  8
一般
370
               5
  6
Continuous
 62
               7
100
AcDbLine
 10
-111.84570270582077
 20
128.15784716806314
 30
0.0
 11
-111.84570270582077
 21
128.56100128723273
 31
0.0
  0
LINE
  5
289
100
AcDbEntity
  8
一般
370
               5
  6
Continuous
 62
               7
100
AcDbLine
 10
-114.84570270582077
 20
129.20696684685208
 30
0.0
 11
-114.84570270582077
 21
129.61012096602164
 31
0.0
  0
LINE
  5
28A
100
AcDbEntity
  8
一般
370
               5
  6
Continuous
 62
               7
100
AcDbLine
 10
-111.84570270582077
 20
130.1578471680634
 30
0.0
 11
-111.84570270582077
 21
130.56100128723295
 31
0.0
  0
LINE
  5
28B
100
AcDbEntity
  8
一般
370
               5
  6
Continuous
 62
               7
100
AcDbLine
 10
-114.84570270582077
 20
131.20696684685231
 30
0.0
 11
-114.84570270582077
 21
131.6101209660219
 31
0.0
  0
LINE
  5
28C
100
AcDbEntity
  8
一般
370
               5
  6
Continuous
 62
               7
100
AcDbLine
 10
-111.84570270582077
 20
132.15784716806365
 30
0.0
 11
-111.84570270582077
 21
132.56100128723324
 31
0.0
  0
LINE
  5
28D
100
AcDbEntity
  8
一般
370
               5
  6
Continuous
 62
               7
100
AcDbLine
 10
-111.84570270582077
 20
133.1578471680638
 30
0.0
 11
-111.84570270582077
 21
133.56100128723335
 31
0.0
  0
LINE
  5
28E
100
AcDbEntity
  8
一般
370
               5
  6
Continuous
 62
               7
100
AcDbLine
 10
-111.84570270582077
 20
134.15784716806391
 30
0.0
 11
-111.84570270582077
 21
134.56100128723347
 31
0.0
  0
LINE
  5
28F
100
AcDbEntity
  8
一般
370
               5
  6
Continuous
 62
               7
100
AcDbLine
 10
-114.84570270582077
 20
133.20696684685259
 30
0.0
 11
-114.84570270582077
 21
133.61012096602215
 31
0.0
  0
LINE
  5
290
100
AcDbEntity
  8
一般
370
               5
  6
Continuous
 62
               7
100
AcDbLine
 10
-114.84570270582077
 20
134.20696684685271
 30
0.0
 11
-114.84570270582077
 21
134.61012096602227
 31
0.0
  0
LINE
  5
291
100
AcDbEntity
  8
一般
370
               5
  6
Continuous
 62
               7
100
AcDbLine
 10
-111.84570270582077
 20
136.15784716806414
 30
0.0
 11
-111.84570270582077
 21
136.56100128723364
 31
0.0
  0
LINE
  5
292
100
AcDbEntity
  8
一般
370
               5
  6
Continuous
 62
               7
100
AcDbLine
 10
-111.84570270582077
 20
137.15784716806414
 30
0.0
 11
-111.84570270582077
 21
137.56100128723364
 31
0.0
  0
LINE
  5
293
100
AcDbEntity
  8
一般
370
               5
  6
Continuous
 62
               7
100
AcDbLine
 10
-111.84570270582077
 20
138.15784716806414
 30
0.0
 11
-111.84570270582077
 21
138.56100128723364
 31
0.0
  0
LINE
  5
294
100
AcDbEntity
  8
一般
370
               5
  6
Continuous
 62
               7
100
AcDbLine
 10
-114.84570270582077
 20
136.20696684685294
 30
0.0
 11
-114.84570270582077
 21
136.61012096602244
 31
0.0
  0
LINE
  5
295
100
AcDbEntity
  8
一般
370
               5
  6
Continuous
 62
               7
100
AcDbLine
 10
-114.84570270582077
 20
137.20696684685294
 30
0.0
 11
-114.84570270582077
 21
137.61012096602244
 31
0.0
  0
LINE
  5
296
100
AcDbEntity
  8
一般
370
               5
  6
Continuous
 62
               7
100
AcDbLine
 10
-114.84570270582077
 20
138.20696684685294
 30
0.0
 11
-114.84570270582077
 21
138.61012096602244
 31
0.0
  0
LINE
  5
297
100
AcDbEntity
  8
一般
370
               5
  6
Continuous
 62
               7
100
AcDbLine
 10
-111.84570270582077
 20
140.15784716806414
 30
0.0
 11
-111.84570270582077
 21
140.56100128723364
 31
0.0
  0
LINE
  5
298
100
AcDbEntity
  8
一般
370
               5
  6
Continuous
 62
               7
100
AcDbLine
 10
-111.84570270582077
 20
141.15784716806414
 30
0.0
 11
-111.84570270582077
 21
141.56100128723364
 31
0.0
  0
LINE
  5
299
100
AcDbEntity
  8
一般
370
               5
  6
Continuous
 62
               7
100
AcDbLine
 10
-111.84570270582077
 20
142.15784716806414
 30
0.0
 11
-111.84570270582077
 21
142.56100128723364
 31
0.0
  0
LINE
  5
29A
100
AcDbEntity
  8
一般
370
               5
  6
Continuous
 62
               7
100
AcDbLine
 10
-114.84570270582077
 20
140.20696684685294
 30
0.0
 11
-114.84570270582077
 21
140.61012096602244
 31
0.0
  0
LINE
  5
29B
100
AcDbEntity
  8
一般
370
               5
  6
Continuous
 62
               7
100
AcDbLine
 10
-114.84570270582077
 20
141.20696684685294
 30
0.0
 11
-114.84570270582077
 21
141.61012096602244
 31
0.0
  0
LINE
  5
29C
100
AcDbEntity
  8
一般
370
               5
  6
Continuous
 62
               7
100
AcDbLine
 10
-114.84570270582077
 20
142.20696684685294
 30
0.0
 11
-114.84570270582077
 21
142.61012096602244
 31
0.0
  0
LINE
  5
29D
100
AcDbEntity
  8
一般
370
               5
  6
Continuous
 62
               7
100
AcDbLine
 10
-112.1823519894829
 20
144.16171549014223
 30
0.0
 11
-112.33167296647349
 21
144.55990476211713
 31
0.0
  0
LINE
  5
29E
100
AcDbEntity
  8
一般
370
               5
  6
Continuous
 62
               7
100
AcDbLine
 10
-112.55803014585453
 20
145.16352390713325
 30
0.0
 11
-112.70661801085316
 21
145.55975821379627
 31
0.0
  0
POLYLINE
  5
29F
100
AcDbEntity
  8
一般
370
               5
  6
Continuous
 62
               7
100
AcDb2dPolyline
 66
               1
 10
0.0
 20
0.0
 30
0.0
 75
               5
  0
VERTEX
  5
2A0
100
AcDbEntity
  8
一般
370
               5
  6
Continuous
 62
               7
100
AcDbVertex
100
AcDb2dVertex
 10
-113.74465623942643
 20
146.20010797742813
 30
0.0
  0
VERTEX
  5
2A1
100
AcDbEntity
  8
一般
370
               5
  6
Continuous
 62
               7
100
AcDbVertex
100
AcDb2dVertex
 10
-113.34570270582077
 20
147.26398406704325
 30
0.0
  0
VERTEX
  5
2A2
100
AcDbEntity
  8
一般
370
               5
  6
Continuous
 62
               7
100
AcDbVertex
100
AcDb2dVertex
 10
-112.934973410705
 20
146.16870594673452
 30
0.0
  0
SEQEND
  5
2A3
100
AcDbEntity
  8
一般
370
               5
  6
Continuous
 62
               7
  0
LINE
  5
2A4
100
AcDbEntity
  8
一般
370
               5
  6
Continuous
 62
               7
100
AcDbLine
 10
-113.96646460511204
 20
145.60861900226652
 30
0.0
 11
-114.11878300158008
 21
145.20243661168504
 31
0.0
  0
LINE
  5
2A5
100
AcDbEntity
  8
一般
370
               5
  6
Continuous
 62
               7
100
AcDbLine
 10
-114.34173280543001
 20
144.60790380141859
 30
0.0
 11
-114.49270696779544
 21
144.20530603511077
 31
0.0
  0
POLYLINE
  5
2A6
100
AcDbEntity
  8
一般
370
               5
  6
Continuous
 62
               7
100
AcDb2dPolyline
 66
               1
 10
0.0
 20
0.0
 30
0.0
 75
               5
  0
VERTEX
  5
2A7
100
AcDbEntity
  8
一般
370
               5
  6
Continuous
 62
               7
100
AcDbVertex
100
AcDb2dVertex
 10
-114.71616024267038
 20
143.60943063544426
 30
0.0
  0
VERTEX
  5
2A8
100
AcDbEntity
  8
一般
370
               5
  6
Continuous
 62
               7
100
AcDbVertex
100
AcDb2dVertex
 10
-114.84570270582077
 20
143.26398406704325
 30
0.0
  0
VERTEX
  5
2A9
100
AcDbEntity
  8
一般
370
               5
  6
Continuous
 62
               7
100
AcDbVertex
100
AcDb2dVertex
 10
-114.84570270582077
 20
143.20696684685294
 30
0.0
  0
SEQEND
  5
2AA
100
AcDbEntity
  8
一般
370
               5
  6
Continuous
 62
               7
  0
POLYLINE
  5
2AB
100
AcDbEntity
  8
一般
370
               5
  6
Continuous
 62
               7
100
AcDb2dPolyline
 66
               1
 10
0.0
 20
0.0
 30
0.0
 75
               5
  0
VERTEX
  5
2AC
100
AcDbEntity
  8
一般
370
               5
  6
Continuous
 62
               7
100
AcDbVertex
100
AcDb2dVertex
 10
-111.96091834763911
 20
143.57122577855884
 30
0.0
  0
VERTEX
  5
2AD
100
AcDbEntity
  8
一般
370
               5
  6
Continuous
 62
               7
100
AcDbVertex
100
AcDb2dVertex
 10
-111.84570270582077
 20
143.26398406704325
 30
0.0
  0
VERTEX
  5
2AE
100
AcDbEntity
  8
一般
370
               5
  6
Continuous
 62
               7
100
AcDbVertex
100
AcDb2dVertex
 10
-111.84570270582077
 20
143.15784716806414
 30
0.0
  0
SEQEND
  5
2AF
100
AcDbEntity
  8
一般
370
               5
  6
Continuous
 62
               7
  0
LINE
  5
2B0
100
AcDbEntity
  8
一般
370
               5
  6
Continuous
 62
               7
100
AcDbLine
 10
-114.84570270582077
 20
139.61012096602244
 30
0.0
 11
-114.84570270582077
 21
139.20696684685294
 31
0.0
  0
LINE
  5
2B1
100
AcDbEntity
  8
一般
370
               5
  6
Continuous
 62
               7
100
AcDbLine
 10
-111.84570270582077
 20
139.56100128723364
 30
0.0
 11
-111.84570270582077
 21
139.15784716806414
 31
0.0
  0
LINE
  5
2B2
100
AcDbEntity
  8
一般
370
               5
  6
Continuous
 62
               7
100
AcDbLine
 10
-114.84570270582077
 20
135.61012096602241
 30
0.0
 11
-114.84570270582077
 21
135.20696684685282
 31
0.0
  0
LINE
  5
2B3
100
AcDbEntity
  8
一般
370
               5
  6
Continuous
 62
               7
100
AcDbLine
 10
-111.84570270582077
 20
135.56100128723364
 30
0.0
 11
-111.84570270582077
 21
135.15784716806405
 31
0.0
  0
LINE
  5
2B4
100
AcDbEntity
  8
一般
370
               5
  6
Continuous
 62
               7
100
AcDbLine
 10
-114.84570270582077
 20
132.61012096602201
 30
0.0
 11
-114.84570270582077
 21
132.20696684685242
 31
0.0
  0
LINE
  5
2B5
100
AcDbEntity
  8
一般
370
               5
  6
Continuous
 62
               7
100
AcDbLine
 10
-111.84570270582077
 20
131.56100128723307
 30
0.0
 11
-111.84570270582077
 21
131.15784716806354
 31
0.0
  0
LINE
  5
2B6
100
AcDbEntity
  8
一般
370
               5
  6
Continuous
 62
               7
100
AcDbLine
 10
-114.84570270582077
 20
130.61012096602175
 30
0.0
 11
-114.84570270582077
 21
130.2069668468522
 31
0.0
  0
LINE
  5
2B7
100
AcDbEntity
  8
一般
370
               5
  6
Continuous
 62
               7
100
AcDbLine
 10
-111.84570270582077
 20
129.56100128723284
 30
0.0
 11
-111.84570270582077
 21
129.15784716806328
 31
0.0
  0
LINE
  5
2B8
100
AcDbEntity
  8
一般
370
               5
  6
Continuous
 62
               7
100
AcDbLine
 10
-114.84570270582077
 20
128.6101209660215
 30
0.0
 11
-114.84570270582077
 21
128.20696684685191
 31
0.0
  0
LINE
  5
2B9
100
AcDbEntity
  8
一般
370
               5
  6
Continuous
 62
               7
100
AcDbLine
 10
-111.84570270582077
 20
127.56100128723263
 30
0.0
 11
-111.84570270582077
 21
127.15784716806311
 31
0.0
  0
LINE
  5
2BA
100
AcDbEntity
  8
一般
370
               5
  6
Continuous
 62
               7
100
AcDbLine
 10
-114.84570270582077
 20
126.61012096602141
 30
0.0
 11
-114.84570270582077
 21
126.20696684685191
 31
0.0
  0
LINE
  5
2BB
100
AcDbEntity
  8
一般
370
               5
  6
Continuous
 62
               7
100
AcDbLine
 10
-111.84570270582077
 20
126.56100128723263
 30
0.0
 11
-111.84570270582077
 21
126.15784716806311
 31
0.0
  0
LINE
  5
2BC
100
AcDbEntity
  8
一般
370
               5
  6
Continuous
 62
               7
100
AcDbLine
 10
-114.84570270582077
 20
125.61012096602141
 30
0.0
 11
-114.84570270582077
 21
125.20696684685191
 31
0.0
  0
LINE
  5
2BD
100
AcDbEntity
  8
一般
370
               5
  6
Continuous
 62
               7
100
AcDbLine
 10
-114.84570270582077
 20
124.61012096602141
 30
0.0
 11
-114.84570270582077
 21
124.20696684685191
 31
0.0
  0
LINE
  5
2BE
100
AcDbEntity
  8
一般
370
               5
  6
Continuous
 62
               7
100
AcDbLine
 10
-111.84570270582077
 20
123.56100128723263
 30
0.0
 11
-111.84570270582077
 21
122.27211469426422
 31
0.0
  0
LINE
  5
2BF
100
AcDbEntity
  8
一般
370
               5
  6
Continuous
 62
               7
100
AcDbLine
 10
-114.84570270582077
 20
123.61012096602141
 30
0.0
 11
-114.84570270582077
 21
122.27211469426422
 31
0.0
  0
SPLINE
  5
2C0
100
AcDbEntity
  8
一般
370
               5
  6
Continuous
 62
               7
100
AcDbSpline
210
0.0
220
0.0
230
1.0
 70
               9
 71
               2
 72
              14
 73
              11
 74
               0
 42
0.000001
 43
0.000001
 40
0.0
 40
0.0
 40
0.0
 40
1.0
 40
2.0
 40
3.0
 40
4.0
 40
4.0
 40
5.0
 40
5.0
 40
6.0
 40
7.0
 40
7.0
 40
7.0
 10
-111.39999999999992
 20
120.54006388669534
 30
0.0
 10
-112.32820323027542
 20
120.27211469426422
 30
0.0
 10
-114.47179676972442
 20
120.27211469426422
 30
0.0
 10
-116.32820323027542
 20
120.80801307912645
 30
0.0
 10
-117.39999999999992
 20
121.73621630940198
 30
0.0
 10
-117.39999999999992
 20
122.27211469426422
 30
0.0
 10
-113.39999999999992
 20
122.27211469426422
 30
0.0
 10
-109.39999999999992
 20
122.27211469426422
 30
0.0
 10
-109.39999999999992
 20
121.73621630940198
 30
0.0
 10
-110.47179676972442
 20
120.80801307912645
 30
0.0
 10
-111.39999999999992
 20
120.54006388669534
 30
0.0
  0
POLYLINE
  5
2C1
100
AcDbEntity
  8
一般
370
               5
  6
Continuous
 62
               7
100
AcDb2dPolyline
 66
               1
 10
0.0
 20
0.0
 30
0.0
 70
               1
 75
               5
  0
VERTEX
  5
2C2
100
AcDbEntity
  8
一般
370
               5
  6
Continuous
 62
               7
100
AcDbVertex
100
AcDb2dVertex
 10
-115.34539809613358
 20
123.91888887991684
 30
0.0
  0
VERTEX
  5
2C3
100
AcDbEntity
  8
一般
370
               5
  6
Continuous
 62
               7
100
AcDbVertex
100
AcDb2dVertex
 10
-114.85070997048655
 20
123.61020836815126
 30
0.0
  0
VERTEX
  5
2C4
100
AcDbEntity
  8
一般
370
               5
  6
Continuous
 62
               7
100
AcDbVertex
100
AcDb2dVertex
 10
-111.85116688501739
 20
123.55785114883943
 30
0.0
  0
VERTEX
  5
2C5
100
AcDbEntity
  8
一般
370
               5
  6
Continuous
 62
               7
100
AcDbVertex
100
AcDb2dVertex
 10
-111.34600731550802
 20
123.84907925416769
 30
0.0
  0
VERTEX
  5
2C6
100
AcDbEntity
  8
一般
370
               5
  6
Continuous
 62
               7
100
AcDbVertex
100
AcDb2dVertex
 10
-111.34600731550802
 20
123.84907925416766
 30
0.0
  0
VERTEX
  5
2C7
100
AcDbEntity
  8
一般
370
               5
  6
Continuous
 62
               7
100
AcDbVertex
100
AcDb2dVertex
 10
-111.84069544115502
 20
124.15775976593326
 30
0.0
  0
VERTEX
  5
2C8
100
AcDbEntity
  8
一般
370
               5
  6
Continuous
 62
               7
100
AcDbVertex
100
AcDb2dVertex
 10
-114.84023852662418
 20
124.21011698524509
 30
0.0
  0
VERTEX
  5
2C9
100
AcDbEntity
  8
一般
370
               5
  6
Continuous
 62
               7
100
AcDbVertex
100
AcDb2dVertex
 10
-115.34539809613358
 20
123.91888887991681
 30
0.0
  0
SEQEND
  5
2CA
100
AcDbEntity
  8
一般
370
               5
  6
Continuous
 62
               7
  0
POLYLINE
  5
2CB
100
AcDbEntity
  8
一般
370
               5
  6
Continuous
 62
               7
100
AcDb2dPolyline
 66
               1
 10
0.0
 20
0.0
 30
0.0
 70
               1
 75
               5
  0
VERTEX
  5
2CC
100
AcDbEntity
  8
一般
370
               5
  6
Continuous
 62
               7
100
AcDbVertex
100
AcDb2dVertex
 10
-115.34539809613358
 20
124.91888887991684
 30
0.0
  0
VERTEX
  5
2CD
100
AcDbEntity
  8
一般
370
               5
  6
Continuous
 62
               7
100
AcDbVertex
100
AcDb2dVertex
 10
-114.85070997048655
 20
124.61020836815126
 30
0.0
  0
VERTEX
  5
2CE
100
AcDbEntity
  8
一般
370
               5
  6
Continuous
 62
               7
100
AcDbVertex
100
AcDb2dVertex
 10
-111.85116688501739
 20
124.55785114883943
 30
0.0
  0
VERTEX
  5
2CF
100
AcDbEntity
  8
一般
370
               5
  6
Continuous
 62
               7
100
AcDbVertex
100
AcDb2dVertex
 10
-111.34600731550802
 20
124.84907925416769
 30
0.0
  0
VERTEX
  5
2D0
100
AcDbEntity
  8
一般
370
               5
  6
Continuous
 62
               7
100
AcDbVertex
100
AcDb2dVertex
 10
-111.34600731550802
 20
124.84907925416766
 30
0.0
  0
VERTEX
  5
2D1
100
AcDbEntity
  8
一般
370
               5
  6
Continuous
 62
               7
100
AcDbVertex
100
AcDb2dVertex
 10
-111.84069544115502
 20
125.15775976593326
 30
0.0
  0
VERTEX
  5
2D2
100
AcDbEntity
  8
一般
370
               5
  6
Continuous
 62
               7
100
AcDbVertex
100
AcDb2dVertex
 10
-114.84023852662418
 20
125.21011698524509
 30
0.0
  0
VERTEX
  5
2D3
100
AcDbEntity
  8
一般
370
               5
  6
Continuous
 62
               7
100
AcDbVertex
100
AcDb2dVertex
 10
-115.34539809613358
 20
124.91888887991681
 30
0.0
  0
SEQEND
  5
2D4
100
AcDbEntity
  8
一般
370
               5
  6
Continuous
 62
               7
  0
POLYLINE
  5
2D5
100
AcDbEntity
  8
一般
370
               5
  6
Continuous
 62
               7
100
AcDb2dPolyline
 66
               1
 10
0.0
 20
0.0
 30
0.0
 70
               1
 75
               5
  0
VERTEX
  5
2D6
100
AcDbEntity
  8
一般
370
               5
  6
Continuous
 62
               7
100
AcDbVertex
100
AcDb2dVertex
 10
-115.34539809613358
 20
125.91888887991684
 30
0.0
  0
VERTEX
  5
2D7
100
AcDbEntity
  8
一般
370
               5
  6
Continuous
 62
               7
100
AcDbVertex
100
AcDb2dVertex
 10
-114.85070997048655
 20
125.61020836815126
 30
0.0
  0
VERTEX
  5
2D8
100
AcDbEntity
  8
一般
370
               5
  6
Continuous
 62
               7
100
AcDbVertex
100
AcDb2dVertex
 10
-111.85116688501739
 20
125.55785114883943
 30
0.0
  0
VERTEX
  5
2D9
100
AcDbEntity
  8
一般
370
               5
  6
Continuous
 62
               7
100
AcDbVertex
100
AcDb2dVertex
 10
-111.34600731550802
 20
125.84907925416769
 30
0.0
  0
VERTEX
  5
2DA
100
AcDbEntity
  8
一般
370
               5
  6
Continuous
 62
               7
100
AcDbVertex
100
AcDb2dVertex
 10
-111.34600731550802
 20
125.84907925416766
 30
0.0
  0
VERTEX
  5
2DB
100
AcDbEntity
  8
一般
370
               5
  6
Continuous
 62
               7
100
AcDbVertex
100
AcDb2dVertex
 10
-111.84069544115502
 20
126.15775976593326
 30
0.0
  0
VERTEX
  5
2DC
100
AcDbEntity
  8
一般
370
               5
  6
Continuous
 62
               7
100
AcDbVertex
100
AcDb2dVertex
 10
-114.84023852662418
 20
126.21011698524509
 30
0.0
  0
VERTEX
  5
2DD
100
AcDbEntity
  8
一般
370
               5
  6
Continuous
 62
               7
100
AcDbVertex
100
AcDb2dVertex
 10
-115.34539809613358
 20
125.91888887991681
 30
0.0
  0
SEQEND
  5
2DE
100
AcDbEntity
  8
一般
370
               5
  6
Continuous
 62
               7
  0
POLYLINE
  5
2DF
100
AcDbEntity
  8
一般
370
               5
  6
Continuous
 62
               7
100
AcDb2dPolyline
 66
               1
 10
0.0
 20
0.0
 30
0.0
 70
               1
 75
               5
  0
VERTEX
  5
2E0
100
AcDbEntity
  8
一般
370
               5
  6
Continuous
 62
               7
100
AcDbVertex
100
AcDb2dVertex
 10
-115.34539809613358
 20
126.91888887991684
 30
0.0
  0
VERTEX
  5
2E1
100
AcDbEntity
  8
一般
370
               5
  6
Continuous
 62
               7
100
AcDbVertex
100
AcDb2dVertex
 10
-114.85070997048655
 20
126.61020836815126
 30
0.0
  0
VERTEX
  5
2E2
100
AcDbEntity
  8
一般
370
               5
  6
Continuous
 62
               7
100
AcDbVertex
100
AcDb2dVertex
 10
-111.85116688501739
 20
126.55785114883943
 30
0.0
  0
VERTEX
  5
2E3
100
AcDbEntity
  8
一般
370
               5
  6
Continuous
 62
               7
100
AcDbVertex
100
AcDb2dVertex
 10
-111.34600731550802
 20
126.84907925416769
 30
0.0
  0
VERTEX
  5
2E4
100
AcDbEntity
  8
一般
370
               5
  6
Continuous
 62
               7
100
AcDbVertex
100
AcDb2dVertex
 10
-111.34600731550802
 20
126.84907925416766
 30
0.0
  0
VERTEX
  5
2E5
100
AcDbEntity
  8
一般
370
               5
  6
Continuous
 62
               7
100
AcDbVertex
100
AcDb2dVertex
 10
-111.84069544115502
 20
127.15775976593326
 30
0.0
  0
VERTEX
  5
2E6
100
AcDbEntity
  8
一般
370
               5
  6
Continuous
 62
               7
100
AcDbVertex
100
AcDb2dVertex
 10
-114.84023852662418
 20
127.21011698524509
 30
0.0
  0
VERTEX
  5
2E7
100
AcDbEntity
  8
一般
370
               5
  6
Continuous
 62
               7
100
AcDbVertex
100
AcDb2dVertex
 10
-115.34539809613358
 20
126.91888887991681
 30
0.0
  0
SEQEND
  5
2E8
100
AcDbEntity
  8
一般
370
               5
  6
Continuous
 62
               7
  0
POLYLINE
  5
2E9
100
AcDbEntity
  8
一般
370
               5
  6
Continuous
 62
               7
100
AcDb2dPolyline
 66
               1
 10
0.0
 20
0.0
 30
0.0
 70
               1
 75
               5
  0
VERTEX
  5
2EA
100
AcDbEntity
  8
一般
370
               5
  6
Continuous
 62
               7
100
AcDbVertex
100
AcDb2dVertex
 10
-115.34539809613358
 20
127.91888887991684
 30
0.0
  0
VERTEX
  5
2EB
100
AcDbEntity
  8
一般
370
               5
  6
Continuous
 62
               7
100
AcDbVertex
100
AcDb2dVertex
 10
-114.85070997048655
 20
127.61020836815126
 30
0.0
  0
VERTEX
  5
2EC
100
AcDbEntity
  8
一般
370
               5
  6
Continuous
 62
               7
100
AcDbVertex
100
AcDb2dVertex
 10
-111.85116688501739
 20
127.55785114883943
 30
0.0
  0
VERTEX
  5
2ED
100
AcDbEntity
  8
一般
370
               5
  6
Continuous
 62
               7
100
AcDbVertex
100
AcDb2dVertex
 10
-111.34600731550802
 20
127.84907925416769
 30
0.0
  0
VERTEX
  5
2EE
100
AcDbEntity
  8
一般
370
               5
  6
Continuous
 62
               7
100
AcDbVertex
100
AcDb2dVertex
 10
-111.34600731550802
 20
127.84907925416766
 30
0.0
  0
VERTEX
  5
2EF
100
AcDbEntity
  8
一般
370
               5
  6
Continuous
 62
               7
100
AcDbVertex
100
AcDb2dVertex
 10
-111.84069544115502
 20
128.15775976593329
 30
0.0
  0
VERTEX
  5
2F0
100
AcDbEntity
  8
一般
370
               5
  6
Continuous
 62
               7
100
AcDbVertex
100
AcDb2dVertex
 10
-114.84023852662418
 20
128.21011698524512
 30
0.0
  0
VERTEX
  5
2F1
100
AcDbEntity
  8
一般
370
               5
  6
Continuous
 62
               7
100
AcDbVertex
100
AcDb2dVertex
 10
-115.34539809613358
 20
127.91888887991681
 30
0.0
  0
SEQEND
  5
2F2
100
AcDbEntity
  8
一般
370
               5
  6
Continuous
 62
               7
  0
POLYLINE
  5
2F3
100
AcDbEntity
  8
一般
370
               5
  6
Continuous
 62
               7
100
AcDb2dPolyline
 66
               1
 10
0.0
 20
0.0
 30
0.0
 70
               1
 75
               5
  0
VERTEX
  5
2F4
100
AcDbEntity
  8
一般
370
               5
  6
Continuous
 62
               7
100
AcDbVertex
100
AcDb2dVertex
 10
-115.34539809613358
 20
128.91888887991695
 30
0.0
  0
VERTEX
  5
2F5
100
AcDbEntity
  8
一般
370
               5
  6
Continuous
 62
               7
100
AcDbVertex
100
AcDb2dVertex
 10
-114.85070997048655
 20
128.61020836815135
 30
0.0
  0
VERTEX
  5
2F6
100
AcDbEntity
  8
一般
370
               5
  6
Continuous
 62
               7
100
AcDbVertex
100
AcDb2dVertex
 10
-111.85116688501739
 20
128.55785114883952
 30
0.0
  0
VERTEX
  5
2F7
100
AcDbEntity
  8
一般
370
               5
  6
Continuous
 62
               7
100
AcDbVertex
100
AcDb2dVertex
 10
-111.34600731550802
 20
128.8490792541678
 30
0.0
  0
VERTEX
  5
2F8
100
AcDbEntity
  8
一般
370
               5
  6
Continuous
 62
               7
100
AcDbVertex
100
AcDb2dVertex
 10
-111.34600731550802
 20
128.84907925416778
 30
0.0
  0
VERTEX
  5
2F9
100
AcDbEntity
  8
一般
370
               5
  6
Continuous
 62
               7
100
AcDbVertex
100
AcDb2dVertex
 10
-111.84069544115502
 20
129.15775976593343
 30
0.0
  0
VERTEX
  5
2FA
100
AcDbEntity
  8
一般
370
               5
  6
Continuous
 62
               7
100
AcDbVertex
100
AcDb2dVertex
 10
-114.84023852662418
 20
129.21011698524526
 30
0.0
  0
VERTEX
  5
2FB
100
AcDbEntity
  8
一般
370
               5
  6
Continuous
 62
               7
100
AcDbVertex
100
AcDb2dVertex
 10
-115.34539809613358
 20
128.91888887991692
 30
0.0
  0
SEQEND
  5
2FC
100
AcDbEntity
  8
一般
370
               5
  6
Continuous
 62
               7
  0
POLYLINE
  5
2FD
100
AcDbEntity
  8
一般
370
               5
  6
Continuous
 62
               7
100
AcDb2dPolyline
 66
               1
 10
0.0
 20
0.0
 30
0.0
 70
               1
 75
               5
  0
VERTEX
  5
2FE
100
AcDbEntity
  8
一般
370
               5
  6
Continuous
 62
               7
100
AcDbVertex
100
AcDb2dVertex
 10
-115.34539809613358
 20
129.91888887991709
 30
0.0
  0
VERTEX
  5
2FF
100
AcDbEntity
  8
一般
370
               5
  6
Continuous
 62
               7
100
AcDbVertex
100
AcDb2dVertex
 10
-114.85070997048655
 20
129.61020836815149
 30
0.0
  0
VERTEX
  5
300
100
AcDbEntity
  8
一般
370
               5
  6
Continuous
 62
               7
100
AcDbVertex
100
AcDb2dVertex
 10
-111.85116688501739
 20
129.55785114883963
 30
0.0
  0
VERTEX
  5
301
100
AcDbEntity
  8
一般
370
               5
  6
Continuous
 62
               7
100
AcDbVertex
100
AcDb2dVertex
 10
-111.34600731550802
 20
129.84907925416795
 30
0.0
  0
VERTEX
  5
302
100
AcDbEntity
  8
一般
370
               5
  6
Continuous
 62
               7
100
AcDbVertex
100
AcDb2dVertex
 10
-111.34600731550802
 20
129.84907925416792
 30
0.0
  0
VERTEX
  5
303
100
AcDbEntity
  8
一般
370
               5
  6
Continuous
 62
               7
100
AcDbVertex
100
AcDb2dVertex
 10
-111.84069544115502
 20
130.15775976593355
 30
0.0
  0
VERTEX
  5
304
100
AcDbEntity
  8
一般
370
               5
  6
Continuous
 62
               7
100
AcDbVertex
100
AcDb2dVertex
 10
-114.84023852662418
 20
130.21011698524538
 30
0.0
  0
VERTEX
  5
305
100
AcDbEntity
  8
一般
370
               5
  6
Continuous
 62
               7
100
AcDbVertex
100
AcDb2dVertex
 10
-115.34539809613358
 20
129.91888887991706
 30
0.0
  0
SEQEND
  5
306
100
AcDbEntity
  8
一般
370
               5
  6
Continuous
 62
               7
  0
POLYLINE
  5
307
100
AcDbEntity
  8
一般
370
               5
  6
Continuous
 62
               7
100
AcDb2dPolyline
 66
               1
 10
0.0
 20
0.0
 30
0.0
 70
               1
 75
               5
  0
VERTEX
  5
308
100
AcDbEntity
  8
一般
370
               5
  6
Continuous
 62
               7
100
AcDbVertex
100
AcDb2dVertex
 10
-115.34539809613358
 20
130.91888887991723
 30
0.0
  0
VERTEX
  5
309
100
AcDbEntity
  8
一般
370
               5
  6
Continuous
 62
               7
100
AcDbVertex
100
AcDb2dVertex
 10
-114.85070997048655
 20
130.6102083681516
 30
0.0
  0
VERTEX
  5
30A
100
AcDbEntity
  8
一般
370
               5
  6
Continuous
 62
               7
100
AcDbVertex
100
AcDb2dVertex
 10
-111.85116688501739
 20
130.55785114883977
 30
0.0
  0
VERTEX
  5
30B
100
AcDbEntity
  8
一般
370
               5
  6
Continuous
 62
               7
100
AcDbVertex
100
AcDb2dVertex
 10
-111.34600731550802
 20
130.84907925416806
 30
0.0
  0
VERTEX
  5
30C
100
AcDbEntity
  8
一般
370
               5
  6
Continuous
 62
               7
100
AcDbVertex
100
AcDb2dVertex
 10
-111.34600731550802
 20
130.84907925416803
 30
0.0
  0
VERTEX
  5
30D
100
AcDbEntity
  8
一般
370
               5
  6
Continuous
 62
               7
100
AcDbVertex
100
AcDb2dVertex
 10
-111.84069544115502
 20
131.15775976593369
 30
0.0
  0
VERTEX
  5
30E
100
AcDbEntity
  8
一般
370
               5
  6
Continuous
 62
               7
100
AcDbVertex
100
AcDb2dVertex
 10
-114.84023852662418
 20
131.21011698524552
 30
0.0
  0
VERTEX
  5
30F
100
AcDbEntity
  8
一般
370
               5
  6
Continuous
 62
               7
100
AcDbVertex
100
AcDb2dVertex
 10
-115.34539809613358
 20
130.9188888799172
 30
0.0
  0
SEQEND
  5
310
100
AcDbEntity
  8
一般
370
               5
  6
Continuous
 62
               7
  0
POLYLINE
  5
311
100
AcDbEntity
  8
一般
370
               5
  6
Continuous
 62
               7
100
AcDb2dPolyline
 66
               1
 10
0.0
 20
0.0
 30
0.0
 70
               1
 75
               5
  0
VERTEX
  5
312
100
AcDbEntity
  8
一般
370
               5
  6
Continuous
 62
               7
100
AcDbVertex
100
AcDb2dVertex
 10
-115.34539809613358
 20
131.91888887991735
 30
0.0
  0
VERTEX
  5
313
100
AcDbEntity
  8
一般
370
               5
  6
Continuous
 62
               7
100
AcDbVertex
100
AcDb2dVertex
 10
-114.85070997048655
 20
131.61020836815175
 30
0.0
  0
VERTEX
  5
314
100
AcDbEntity
  8
一般
370
               5
  6
Continuous
 62
               7
100
AcDbVertex
100
AcDb2dVertex
 10
-111.85116688501739
 20
131.55785114883989
 30
0.0
  0
VERTEX
  5
315
100
AcDbEntity
  8
一般
370
               5
  6
Continuous
 62
               7
100
AcDbVertex
100
AcDb2dVertex
 10
-111.34600731550802
 20
131.8490792541682
 30
0.0
  0
VERTEX
  5
316
100
AcDbEntity
  8
一般
370
               5
  6
Continuous
 62
               7
100
AcDbVertex
100
AcDb2dVertex
 10
-111.34600731550802
 20
131.84907925416817
 30
0.0
  0
VERTEX
  5
317
100
AcDbEntity
  8
一般
370
               5
  6
Continuous
 62
               7
100
AcDbVertex
100
AcDb2dVertex
 10
-111.84069544115502
 20
132.1577597659338
 30
0.0
  0
VERTEX
  5
318
100
AcDbEntity
  8
一般
370
               5
  6
Continuous
 62
               7
100
AcDbVertex
100
AcDb2dVertex
 10
-114.84023852662418
 20
132.21011698524563
 30
0.0
  0
VERTEX
  5
319
100
AcDbEntity
  8
一般
370
               5
  6
Continuous
 62
               7
100
AcDbVertex
100
AcDb2dVertex
 10
-115.34539809613358
 20
131.91888887991732
 30
0.0
  0
SEQEND
  5
31A
100
AcDbEntity
  8
一般
370
               5
  6
Continuous
 62
               7
  0
POLYLINE
  5
31B
100
AcDbEntity
  8
一般
370
               5
  6
Continuous
 62
               7
100
AcDb2dPolyline
 66
               1
 10
0.0
 20
0.0
 30
0.0
 70
               1
 75
               5
  0
VERTEX
  5
31C
100
AcDbEntity
  8
一般
370
               5
  6
Continuous
 62
               7
100
AcDbVertex
100
AcDb2dVertex
 10
-115.34539809613358
 20
132.91888887991749
 30
0.0
  0
VERTEX
  5
31D
100
AcDbEntity
  8
一般
370
               5
  6
Continuous
 62
               7
100
AcDbVertex
100
AcDb2dVertex
 10
-114.85070997048655
 20
132.61020836815186
 30
0.0
  0
VERTEX
  5
31E
100
AcDbEntity
  8
一般
370
               5
  6
Continuous
 62
               7
100
AcDbVertex
100
AcDb2dVertex
 10
-111.85116688501739
 20
132.55785114884003
 30
0.0
  0
VERTEX
  5
31F
100
AcDbEntity
  8
一般
370
               5
  6
Continuous
 62
               7
100
AcDbVertex
100
AcDb2dVertex
 10
-111.34600731550802
 20
132.84907925416832
 30
0.0
  0
VERTEX
  5
320
100
AcDbEntity
  8
一般
370
               5
  6
Continuous
 62
               7
100
AcDbVertex
100
AcDb2dVertex
 10
-111.34600731550802
 20
132.84907925416829
 30
0.0
  0
VERTEX
  5
321
100
AcDbEntity
  8
一般
370
               5
  6
Continuous
 62
               7
100
AcDbVertex
100
AcDb2dVertex
 10
-111.84069544115502
 20
133.15775976593395
 30
0.0
  0
VERTEX
  5
322
100
AcDbEntity
  8
一般
370
               5
  6
Continuous
 62
               7
100
AcDbVertex
100
AcDb2dVertex
 10
-114.84023852662418
 20
133.21011698524578
 30
0.0
  0
VERTEX
  5
323
100
AcDbEntity
  8
一般
370
               5
  6
Continuous
 62
               7
100
AcDbVertex
100
AcDb2dVertex
 10
-115.34539809613358
 20
132.91888887991746
 30
0.0
  0
SEQEND
  5
324
100
AcDbEntity
  8
一般
370
               5
  6
Continuous
 62
               7
  0
POLYLINE
  5
325
100
AcDbEntity
  8
一般
370
               5
  6
Continuous
 62
               7
100
AcDb2dPolyline
 66
               1
 10
0.0
 20
0.0
 30
0.0
 70
               1
 75
               5
  0
VERTEX
  5
326
100
AcDbEntity
  8
一般
370
               5
  6
Continuous
 62
               7
100
AcDbVertex
100
AcDb2dVertex
 10
-115.34539809613358
 20
133.9188888799176
 30
0.0
  0
VERTEX
  5
327
100
AcDbEntity
  8
一般
370
               5
  6
Continuous
 62
               7
100
AcDbVertex
100
AcDb2dVertex
 10
-114.85070997048655
 20
133.610208368152
 30
0.0
  0
VERTEX
  5
328
100
AcDbEntity
  8
一般
370
               5
  6
Continuous
 62
               7
100
AcDbVertex
100
AcDb2dVertex
 10
-111.85116688501739
 20
133.55785114884017
 30
0.0
  0
VERTEX
  5
329
100
AcDbEntity
  8
一般
370
               5
  6
Continuous
 62
               7
100
AcDbVertex
100
AcDb2dVertex
 10
-111.34600731550802
 20
133.84907925416846
 30
0.0
  0
VERTEX
  5
32A
100
AcDbEntity
  8
一般
370
               5
  6
Continuous
 62
               7
100
AcDbVertex
100
AcDb2dVertex
 10
-111.34600731550802
 20
133.84907925416843
 30
0.0
  0
VERTEX
  5
32B
100
AcDbEntity
  8
一般
370
               5
  6
Continuous
 62
               7
100
AcDbVertex
100
AcDb2dVertex
 10
-111.84069544115502
 20
134.15775976593406
 30
0.0
  0
VERTEX
  5
32C
100
AcDbEntity
  8
一般
370
               5
  6
Continuous
 62
               7
100
AcDbVertex
100
AcDb2dVertex
 10
-114.84023852662418
 20
134.21011698524589
 30
0.0
  0
VERTEX
  5
32D
100
AcDbEntity
  8
一般
370
               5
  6
Continuous
 62
               7
100
AcDbVertex
100
AcDb2dVertex
 10
-115.34539809613358
 20
133.91888887991757
 30
0.0
  0
SEQEND
  5
32E
100
AcDbEntity
  8
一般
370
               5
  6
Continuous
 62
               7
  0
POLYLINE
  5
32F
100
AcDbEntity
  8
一般
370
               5
  6
Continuous
 62
               7
100
AcDb2dPolyline
 66
               1
 10
0.0
 20
0.0
 30
0.0
 70
               1
 75
               5
  0
VERTEX
  5
330
100
AcDbEntity
  8
一般
370
               5
  6
Continuous
 62
               7
100
AcDbVertex
100
AcDb2dVertex
 10
-115.34539809613358
 20
134.91888887991774
 30
0.0
  0
VERTEX
  5
331
100
AcDbEntity
  8
一般
370
               5
  6
Continuous
 62
               7
100
AcDbVertex
100
AcDb2dVertex
 10
-114.85070997048655
 20
134.61020836815212
 30
0.0
  0
VERTEX
  5
332
100
AcDbEntity
  8
一般
370
               5
  6
Continuous
 62
               7
100
AcDbVertex
100
AcDb2dVertex
 10
-111.85116688501739
 20
134.55785114884029
 30
0.0
  0
VERTEX
  5
333
100
AcDbEntity
  8
一般
370
               5
  6
Continuous
 62
               7
100
AcDbVertex
100
AcDb2dVertex
 10
-111.34600731550802
 20
134.84907925416857
 30
0.0
  0
VERTEX
  5
334
100
AcDbEntity
  8
一般
370
               5
  6
Continuous
 62
               7
100
AcDbVertex
100
AcDb2dVertex
 10
-111.34600731550802
 20
134.84907925416854
 30
0.0
  0
VERTEX
  5
335
100
AcDbEntity
  8
一般
370
               5
  6
Continuous
 62
               7
100
AcDbVertex
100
AcDb2dVertex
 10
-111.84069544115502
 20
135.1577597659342
 30
0.0
  0
VERTEX
  5
336
100
AcDbEntity
  8
一般
370
               5
  6
Continuous
 62
               7
100
AcDbVertex
100
AcDb2dVertex
 10
-114.84023852662418
 20
135.21011698524603
 30
0.0
  0
VERTEX
  5
337
100
AcDbEntity
  8
一般
370
               5
  6
Continuous
 62
               7
100
AcDbVertex
100
AcDb2dVertex
 10
-115.34539809613358
 20
134.91888887991772
 30
0.0
  0
SEQEND
  5
338
100
AcDbEntity
  8
一般
370
               5
  6
Continuous
 62
               7
  0
POLYLINE
  5
339
100
AcDbEntity
  8
一般
370
               5
  6
Continuous
 62
               7
100
AcDb2dPolyline
 66
               1
 10
0.0
 20
0.0
 30
0.0
 70
               1
 75
               5
  0
VERTEX
  5
33A
100
AcDbEntity
  8
一般
370
               5
  6
Continuous
 62
               7
100
AcDbVertex
100
AcDb2dVertex
 10
-115.34539809613358
 20
135.91888887991786
 30
0.0
  0
VERTEX
  5
33B
100
AcDbEntity
  8
一般
370
               5
  6
Continuous
 62
               7
100
AcDbVertex
100
AcDb2dVertex
 10
-114.85070997048655
 20
135.61020836815226
 30
0.0
  0
VERTEX
  5
33C
100
AcDbEntity
  8
一般
370
               5
  6
Continuous
 62
               7
100
AcDbVertex
100
AcDb2dVertex
 10
-111.85116688501739
 20
135.55785114884043
 30
0.0
  0
VERTEX
  5
33D
100
AcDbEntity
  8
一般
370
               5
  6
Continuous
 62
               7
100
AcDbVertex
100
AcDb2dVertex
 10
-111.34600731550802
 20
135.84907925416871
 30
0.0
  0
VERTEX
  5
33E
100
AcDbEntity
  8
一般
370
               5
  6
Continuous
 62
               7
100
AcDbVertex
100
AcDb2dVertex
 10
-111.34600731550802
 20
135.84907925416869
 30
0.0
  0
VERTEX
  5
33F
100
AcDbEntity
  8
一般
370
               5
  6
Continuous
 62
               7
100
AcDbVertex
100
AcDb2dVertex
 10
-111.84069544115502
 20
136.15775976593429
 30
0.0
  0
VERTEX
  5
340
100
AcDbEntity
  8
一般
370
               5
  6
Continuous
 62
               7
100
AcDbVertex
100
AcDb2dVertex
 10
-114.84023852662418
 20
136.21011698524612
 30
0.0
  0
VERTEX
  5
341
100
AcDbEntity
  8
一般
370
               5
  6
Continuous
 62
               7
100
AcDbVertex
100
AcDb2dVertex
 10
-115.34539809613358
 20
135.91888887991783
 30
0.0
  0
SEQEND
  5
342
100
AcDbEntity
  8
一般
370
               5
  6
Continuous
 62
               7
  0
POLYLINE
  5
343
100
AcDbEntity
  8
一般
370
               5
  6
Continuous
 62
               7
100
AcDb2dPolyline
 66
               1
 10
0.0
 20
0.0
 30
0.0
 70
               1
 75
               5
  0
VERTEX
  5
344
100
AcDbEntity
  8
一般
370
               5
  6
Continuous
 62
               7
100
AcDbVertex
100
AcDb2dVertex
 10
-115.34539809613358
 20
136.91888887991786
 30
0.0
  0
VERTEX
  5
345
100
AcDbEntity
  8
一般
370
               5
  6
Continuous
 62
               7
100
AcDbVertex
100
AcDb2dVertex
 10
-114.85070997048655
 20
136.61020836815229
 30
0.0
  0
VERTEX
  5
346
100
AcDbEntity
  8
一般
370
               5
  6
Continuous
 62
               7
100
AcDbVertex
100
AcDb2dVertex
 10
-111.85116688501739
 20
136.55785114884046
 30
0.0
  0
VERTEX
  5
347
100
AcDbEntity
  8
一般
370
               5
  6
Continuous
 62
               7
100
AcDbVertex
100
AcDb2dVertex
 10
-111.34600731550802
 20
136.84907925416871
 30
0.0
  0
VERTEX
  5
348
100
AcDbEntity
  8
一般
370
               5
  6
Continuous
 62
               7
100
AcDbVertex
100
AcDb2dVertex
 10
-111.34600731550802
 20
136.84907925416869
 30
0.0
  0
VERTEX
  5
349
100
AcDbEntity
  8
一般
370
               5
  6
Continuous
 62
               7
100
AcDbVertex
100
AcDb2dVertex
 10
-111.84069544115502
 20
137.15775976593429
 30
0.0
  0
VERTEX
  5
34A
100
AcDbEntity
  8
一般
370
               5
  6
Continuous
 62
               7
100
AcDbVertex
100
AcDb2dVertex
 10
-114.84023852662418
 20
137.21011698524612
 30
0.0
  0
VERTEX
  5
34B
100
AcDbEntity
  8
一般
370
               5
  6
Continuous
 62
               7
100
AcDbVertex
100
AcDb2dVertex
 10
-115.34539809613358
 20
136.91888887991783
 30
0.0
  0
SEQEND
  5
34C
100
AcDbEntity
  8
一般
370
               5
  6
Continuous
 62
               7
  0
POLYLINE
  5
34D
100
AcDbEntity
  8
一般
370
               5
  6
Continuous
 62
               7
100
AcDb2dPolyline
 66
               1
 10
0.0
 20
0.0
 30
0.0
 70
               1
 75
               5
  0
VERTEX
  5
34E
100
AcDbEntity
  8
一般
370
               5
  6
Continuous
 62
               7
100
AcDbVertex
100
AcDb2dVertex
 10
-115.34539809613358
 20
137.91888887991786
 30
0.0
  0
VERTEX
  5
34F
100
AcDbEntity
  8
一般
370
               5
  6
Continuous
 62
               7
100
AcDbVertex
100
AcDb2dVertex
 10
-114.85070997048655
 20
137.61020836815229
 30
0.0
  0
VERTEX
  5
350
100
AcDbEntity
  8
一般
370
               5
  6
Continuous
 62
               7
100
AcDbVertex
100
AcDb2dVertex
 10
-111.85116688501739
 20
137.55785114884046
 30
0.0
  0
VERTEX
  5
351
100
AcDbEntity
  8
一般
370
               5
  6
Continuous
 62
               7
100
AcDbVertex
100
AcDb2dVertex
 10
-111.34600731550802
 20
137.84907925416871
 30
0.0
  0
VERTEX
  5
352
100
AcDbEntity
  8
一般
370
               5
  6
Continuous
 62
               7
100
AcDbVertex
100
AcDb2dVertex
 10
-111.34600731550802
 20
137.84907925416869
 30
0.0
  0
VERTEX
  5
353
100
AcDbEntity
  8
一般
370
               5
  6
Continuous
 62
               7
100
AcDbVertex
100
AcDb2dVertex
 10
-111.84069544115502
 20
138.15775976593429
 30
0.0
  0
VERTEX
  5
354
100
AcDbEntity
  8
一般
370
               5
  6
Continuous
 62
               7
100
AcDbVertex
100
AcDb2dVertex
 10
-114.84023852662418
 20
138.21011698524612
 30
0.0
  0
VERTEX
  5
355
100
AcDbEntity
  8
一般
370
               5
  6
Continuous
 62
               7
100
AcDbVertex
100
AcDb2dVertex
 10
-115.34539809613358
 20
137.91888887991783
 30
0.0
  0
SEQEND
  5
356
100
AcDbEntity
  8
一般
370
               5
  6
Continuous
 62
               7
  0
POLYLINE
  5
357
100
AcDbEntity
  8
一般
370
               5
  6
Continuous
 62
               7
100
AcDb2dPolyline
 66
               1
 10
0.0
 20
0.0
 30
0.0
 70
               1
 75
               5
  0
VERTEX
  5
358
100
AcDbEntity
  8
一般
370
               5
  6
Continuous
 62
               7
100
AcDbVertex
100
AcDb2dVertex
 10
-115.34539809613358
 20
138.91888887991786
 30
0.0
  0
VERTEX
  5
359
100
AcDbEntity
  8
一般
370
               5
  6
Continuous
 62
               7
100
AcDbVertex
100
AcDb2dVertex
 10
-114.85070997048655
 20
138.61020836815229
 30
0.0
  0
VERTEX
  5
35A
100
AcDbEntity
  8
一般
370
               5
  6
Continuous
 62
               7
100
AcDbVertex
100
AcDb2dVertex
 10
-111.85116688501739
 20
138.55785114884046
 30
0.0
  0
VERTEX
  5
35B
100
AcDbEntity
  8
一般
370
               5
  6
Continuous
 62
               7
100
AcDbVertex
100
AcDb2dVertex
 10
-111.34600731550802
 20
138.84907925416871
 30
0.0
  0
VERTEX
  5
35C
100
AcDbEntity
  8
一般
370
               5
  6
Continuous
 62
               7
100
AcDbVertex
100
AcDb2dVertex
 10
-111.34600731550802
 20
138.84907925416869
 30
0.0
  0
VERTEX
  5
35D
100
AcDbEntity
  8
一般
370
               5
  6
Continuous
 62
               7
100
AcDbVertex
100
AcDb2dVertex
 10
-111.84069544115502
 20
139.15775976593429
 30
0.0
  0
VERTEX
  5
35E
100
AcDbEntity
  8
一般
370
               5
  6
Continuous
 62
               7
100
AcDbVertex
100
AcDb2dVertex
 10
-114.84023852662418
 20
139.21011698524612
 30
0.0
  0
VERTEX
  5
35F
100
AcDbEntity
  8
一般
370
               5
  6
Continuous
 62
               7
100
AcDbVertex
100
AcDb2dVertex
 10
-115.34539809613358
 20
138.91888887991783
 30
0.0
  0
SEQEND
  5
360
100
AcDbEntity
  8
一般
370
               5
  6
Continuous
 62
               7
  0
POLYLINE
  5
361
100
AcDbEntity
  8
一般
370
               5
  6
Continuous
 62
               7
100
AcDb2dPolyline
 66
               1
 10
0.0
 20
0.0
 30
0.0
 70
               1
 75
               5
  0
VERTEX
  5
362
100
AcDbEntity
  8
一般
370
               5
  6
Continuous
 62
               7
100
AcDbVertex
100
AcDb2dVertex
 10
-115.34539809613358
 20
139.91888887991786
 30
0.0
  0
VERTEX
  5
363
100
AcDbEntity
  8
一般
370
               5
  6
Continuous
 62
               7
100
AcDbVertex
100
AcDb2dVertex
 10
-114.85070997048655
 20
139.61020836815229
 30
0.0
  0
VERTEX
  5
364
100
AcDbEntity
  8
一般
370
               5
  6
Continuous
 62
               7
100
AcDbVertex
100
AcDb2dVertex
 10
-111.85116688501739
 20
139.55785114884046
 30
0.0
  0
VERTEX
  5
365
100
AcDbEntity
  8
一般
370
               5
  6
Continuous
 62
               7
100
AcDbVertex
100
AcDb2dVertex
 10
-111.34600731550802
 20
139.84907925416871
 30
0.0
  0
VERTEX
  5
366
100
AcDbEntity
  8
一般
370
               5
  6
Continuous
 62
               7
100
AcDbVertex
100
AcDb2dVertex
 10
-111.34600731550802
 20
139.84907925416869
 30
0.0
  0
VERTEX
  5
367
100
AcDbEntity
  8
一般
370
               5
  6
Continuous
 62
               7
100
AcDbVertex
100
AcDb2dVertex
 10
-111.84069544115502
 20
140.15775976593429
 30
0.0
  0
VERTEX
  5
368
100
AcDbEntity
  8
一般
370
               5
  6
Continuous
 62
               7
100
AcDbVertex
100
AcDb2dVertex
 10
-114.84023852662418
 20
140.21011698524612
 30
0.0
  0
VERTEX
  5
369
100
AcDbEntity
  8
一般
370
               5
  6
Continuous
 62
               7
100
AcDbVertex
100
AcDb2dVertex
 10
-115.34539809613358
 20
139.91888887991783
 30
0.0
  0
SEQEND
  5
36A
100
AcDbEntity
  8
一般
370
               5
  6
Continuous
 62
               7
  0
POLYLINE
  5
36B
100
AcDbEntity
  8
一般
370
               5
  6
Continuous
 62
               7
100
AcDb2dPolyline
 66
               1
 10
0.0
 20
0.0
 30
0.0
 70
               1
 75
               5
  0
VERTEX
  5
36C
100
AcDbEntity
  8
一般
370
               5
  6
Continuous
 62
               7
100
AcDbVertex
100
AcDb2dVertex
 10
-115.34539809613358
 20
140.91888887991786
 30
0.0
  0
VERTEX
  5
36D
100
AcDbEntity
  8
一般
370
               5
  6
Continuous
 62
               7
100
AcDbVertex
100
AcDb2dVertex
 10
-114.85070997048655
 20
140.61020836815229
 30
0.0
  0
VERTEX
  5
36E
100
AcDbEntity
  8
一般
370
               5
  6
Continuous
 62
               7
100
AcDbVertex
100
AcDb2dVertex
 10
-111.85116688501739
 20
140.55785114884046
 30
0.0
  0
VERTEX
  5
36F
100
AcDbEntity
  8
一般
370
               5
  6
Continuous
 62
               7
100
AcDbVertex
100
AcDb2dVertex
 10
-111.34600731550802
 20
140.84907925416871
 30
0.0
  0
VERTEX
  5
370
100
AcDbEntity
  8
一般
370
               5
  6
Continuous
 62
               7
100
AcDbVertex
100
AcDb2dVertex
 10
-111.34600731550802
 20
140.84907925416869
 30
0.0
  0
VERTEX
  5
371
100
AcDbEntity
  8
一般
370
               5
  6
Continuous
 62
               7
100
AcDbVertex
100
AcDb2dVertex
 10
-111.84069544115502
 20
141.15775976593429
 30
0.0
  0
VERTEX
  5
372
100
AcDbEntity
  8
一般
370
               5
  6
Continuous
 62
               7
100
AcDbVertex
100
AcDb2dVertex
 10
-114.84023852662418
 20
141.21011698524612
 30
0.0
  0
VERTEX
  5
373
100
AcDbEntity
  8
一般
370
               5
  6
Continuous
 62
               7
100
AcDbVertex
100
AcDb2dVertex
 10
-115.34539809613358
 20
140.91888887991783
 30
0.0
  0
SEQEND
  5
374
100
AcDbEntity
  8
一般
370
               5
  6
Continuous
 62
               7
  0
POLYLINE
  5
375
100
AcDbEntity
  8
一般
370
               5
  6
Continuous
 62
               7
100
AcDb2dPolyline
 66
               1
 10
0.0
 20
0.0
 30
0.0
 70
               1
 75
               5
  0
VERTEX
  5
376
100
AcDbEntity
  8
一般
370
               5
  6
Continuous
 62
               7
100
AcDbVertex
100
AcDb2dVertex
 10
-115.34539809613358
 20
141.91888887991786
 30
0.0
  0
VERTEX
  5
377
100
AcDbEntity
  8
一般
370
               5
  6
Continuous
 62
               7
100
AcDbVertex
100
AcDb2dVertex
 10
-114.85070997048655
 20
141.61020836815229
 30
0.0
  0
VERTEX
  5
378
100
AcDbEntity
  8
一般
370
               5
  6
Continuous
 62
               7
100
AcDbVertex
100
AcDb2dVertex
 10
-111.85116688501739
 20
141.55785114884046
 30
0.0
  0
VERTEX
  5
379
100
AcDbEntity
  8
一般
370
               5
  6
Continuous
 62
               7
100
AcDbVertex
100
AcDb2dVertex
 10
-111.34600731550802
 20
141.84907925416871
 30
0.0
  0
VERTEX
  5
37A
100
AcDbEntity
  8
一般
370
               5
  6
Continuous
 62
               7
100
AcDbVertex
100
AcDb2dVertex
 10
-111.34600731550802
 20
141.84907925416869
 30
0.0
  0
VERTEX
  5
37B
100
AcDbEntity
  8
一般
370
               5
  6
Continuous
 62
               7
100
AcDbVertex
100
AcDb2dVertex
 10
-111.84069544115502
 20
142.15775976593429
 30
0.0
  0
VERTEX
  5
37C
100
AcDbEntity
  8
一般
370
               5
  6
Continuous
 62
               7
100
AcDbVertex
100
AcDb2dVertex
 10
-114.84023852662418
 20
142.21011698524612
 30
0.0
  0
VERTEX
  5
37D
100
AcDbEntity
  8
一般
370
               5
  6
Continuous
 62
               7
100
AcDbVertex
100
AcDb2dVertex
 10
-115.34539809613358
 20
141.91888887991783
 30
0.0
  0
SEQEND
  5
37E
100
AcDbEntity
  8
一般
370
               5
  6
Continuous
 62
               7
  0
POLYLINE
  5
37F
100
AcDbEntity
  8
一般
370
               5
  6
Continuous
 62
               7
100
AcDb2dPolyline
 66
               1
 10
0.0
 20
0.0
 30
0.0
 70
               1
 75
               5
  0
VERTEX
  5
380
100
AcDbEntity
  8
一般
370
               5
  6
Continuous
 62
               7
100
AcDbVertex
100
AcDb2dVertex
 10
-115.34539809613358
 20
142.91888887991786
 30
0.0
  0
VERTEX
  5
381
100
AcDbEntity
  8
一般
370
               5
  6
Continuous
 62
               7
100
AcDbVertex
100
AcDb2dVertex
 10
-114.85070997048655
 20
142.61020836815229
 30
0.0
  0
VERTEX
  5
382
100
AcDbEntity
  8
一般
370
               5
  6
Continuous
 62
               7
100
AcDbVertex
100
AcDb2dVertex
 10
-111.85116688501739
 20
142.55785114884046
 30
0.0
  0
VERTEX
  5
383
100
AcDbEntity
  8
一般
370
               5
  6
Continuous
 62
               7
100
AcDbVertex
100
AcDb2dVertex
 10
-111.34600731550802
 20
142.84907925416871
 30
0.0
  0
VERTEX
  5
384
100
AcDbEntity
  8
一般
370
               5
  6
Continuous
 62
               7
100
AcDbVertex
100
AcDb2dVertex
 10
-111.34600731550802
 20
142.84907925416869
 30
0.0
  0
VERTEX
  5
385
100
AcDbEntity
  8
一般
370
               5
  6
Continuous
 62
               7
100
AcDbVertex
100
AcDb2dVertex
 10
-111.84069544115502
 20
143.15775976593429
 30
0.0
  0
VERTEX
  5
386
100
AcDbEntity
  8
一般
370
               5
  6
Continuous
 62
               7
100
AcDbVertex
100
AcDb2dVertex
 10
-114.84023852662418
 20
143.21011698524612
 30
0.0
  0
VERTEX
  5
387
100
AcDbEntity
  8
一般
370
               5
  6
Continuous
 62
               7
100
AcDbVertex
100
AcDb2dVertex
 10
-115.34539809613358
 20
142.91888887991783
 30
0.0
  0
SEQEND
  5
388
100
AcDbEntity
  8
一般
370
               5
  6
Continuous
 62
               7
  0
POLYLINE
  5
389
100
AcDbEntity
  8
一般
370
               5
  6
Continuous
 62
               7
100
AcDb2dPolyline
 66
               1
 10
0.0
 20
0.0
 30
0.0
 70
               1
 75
               5
  0
VERTEX
  5
38A
100
AcDbEntity
  8
一般
370
               5
  6
Continuous
 62
               7
100
AcDbVertex
100
AcDb2dVertex
 10
-115.21503729651218
 20
143.91888887991786
 30
0.0
  0
VERTEX
  5
38B
100
AcDbEntity
  8
一般
370
               5
  6
Continuous
 62
               7
100
AcDbVertex
100
AcDb2dVertex
 10
-114.75738107702975
 20
143.61020836815229
 30
0.0
  0
VERTEX
  5
38C
100
AcDbEntity
  8
一般
370
               5
  6
Continuous
 62
               7
100
AcDbVertex
100
AcDb2dVertex
 10
-111.98238107702974
 20
143.55785114884046
 30
0.0
  0
VERTEX
  5
38D
100
AcDbEntity
  8
一般
370
               5
  6
Continuous
 62
               7
100
AcDbVertex
100
AcDb2dVertex
 10
-111.51503729651219
 20
143.84907925416871
 30
0.0
  0
VERTEX
  5
38E
100
AcDbEntity
  8
一般
370
               5
  6
Continuous
 62
               7
100
AcDbVertex
100
AcDb2dVertex
 10
-111.51503729651219
 20
143.84907925416869
 30
0.0
  0
VERTEX
  5
38F
100
AcDbEntity
  8
一般
370
               5
  6
Continuous
 62
               7
100
AcDbVertex
100
AcDb2dVertex
 10
-111.97269351599459
 20
144.15775976593429
 30
0.0
  0
VERTEX
  5
390
100
AcDbEntity
  8
一般
370
               5
  6
Continuous
 62
               7
100
AcDbVertex
100
AcDb2dVertex
 10
-114.7476935159946
 20
144.21011698524612
 30
0.0
  0
VERTEX
  5
391
100
AcDbEntity
  8
一般
370
               5
  6
Continuous
 62
               7
100
AcDbVertex
100
AcDb2dVertex
 10
-115.21503729651218
 20
143.91888887991783
 30
0.0
  0
SEQEND
  5
392
100
AcDbEntity
  8
一般
370
               5
  6
Continuous
 62
               7
  0
POLYLINE
  5
393
100
AcDbEntity
  8
一般
370
               5
  6
Continuous
 62
               7
100
AcDb2dPolyline
 66
               1
 10
0.0
 20
0.0
 30
0.0
 70
               1
 75
               5
  0
VERTEX
  5
394
100
AcDbEntity
  8
一般
370
               5
  6
Continuous
 62
               7
100
AcDbVertex
100
AcDb2dVertex
 10
-114.78050129777418
 20
144.91888887991786
 30
0.0
  0
VERTEX
  5
395
100
AcDbEntity
  8
一般
370
               5
  6
Continuous
 62
               7
100
AcDbVertex
100
AcDb2dVertex
 10
-114.43416686140912
 20
144.61020836815229
 30
0.0
  0
VERTEX
  5
396
100
AcDbEntity
  8
一般
370
               5
  6
Continuous
 62
               7
100
AcDbVertex
100
AcDb2dVertex
 10
-112.33416686140907
 20
144.55785114884046
 30
0.0
  0
VERTEX
  5
397
100
AcDbEntity
  8
一般
370
               5
  6
Continuous
 62
               7
100
AcDbVertex
100
AcDb2dVertex
 10
-111.98050129777417
 20
144.84907925416871
 30
0.0
  0
VERTEX
  5
398
100
AcDbEntity
  8
一般
370
               5
  6
Continuous
 62
               7
100
AcDbVertex
100
AcDb2dVertex
 10
-111.98050129777417
 20
144.84907925416869
 30
0.0
  0
VERTEX
  5
399
100
AcDbEntity
  8
一般
370
               5
  6
Continuous
 62
               7
100
AcDbVertex
100
AcDb2dVertex
 10
-112.32683573413922
 20
145.15775976593429
 30
0.0
  0
VERTEX
  5
39A
100
AcDbEntity
  8
一般
370
               5
  6
Continuous
 62
               7
100
AcDbVertex
100
AcDb2dVertex
 10
-114.42683573413925
 20
145.21011698524612
 30
0.0
  0
VERTEX
  5
39B
100
AcDbEntity
  8
一般
370
               5
  6
Continuous
 62
               7
100
AcDbVertex
100
AcDb2dVertex
 10
-114.78050129777418
 20
144.91888887991783
 30
0.0
  0
SEQEND
  5
39C
100
AcDbEntity
  8
一般
370
               5
  6
Continuous
 62
               7
  0
POLYLINE
  5
39D
100
AcDbEntity
  8
一般
370
               5
  6
Continuous
 62
               7
100
AcDb2dPolyline
 66
               1
 10
0.0
 20
0.0
 30
0.0
 70
               1
 75
               5
  0
VERTEX
  5
39E
100
AcDbEntity
  8
一般
370
               5
  6
Continuous
 62
               7
100
AcDbVertex
100
AcDb2dVertex
 10
-114.23008903270605
 20
145.91888887991786
 30
0.0
  0
VERTEX
  5
39F
100
AcDbEntity
  8
一般
370
               5
  6
Continuous
 62
               7
100
AcDbVertex
100
AcDb2dVertex
 10
-114.00744546647135
 20
145.61020836815229
 30
0.0
  0
VERTEX
  5
3A0
100
AcDbEntity
  8
一般
370
               5
  6
Continuous
 62
               7
100
AcDbVertex
100
AcDb2dVertex
 10
-112.65744546647133
 20
145.55785114884046
 30
0.0
  0
VERTEX
  5
3A1
100
AcDbEntity
  8
一般
370
               5
  6
Continuous
 62
               7
100
AcDbVertex
100
AcDb2dVertex
 10
-112.43008903270604
 20
145.84907925416871
 30
0.0
  0
VERTEX
  5
3A2
100
AcDbEntity
  8
一般
370
               5
  6
Continuous
 62
               7
100
AcDbVertex
100
AcDb2dVertex
 10
-112.43008903270604
 20
145.84907925416869
 30
0.0
  0
VERTEX
  5
3A3
100
AcDbEntity
  8
一般
370
               5
  6
Continuous
 62
               7
100
AcDbVertex
100
AcDb2dVertex
 10
-112.65273259894073
 20
146.15775976593429
 30
0.0
  0
VERTEX
  5
3A4
100
AcDbEntity
  8
一般
370
               5
  6
Continuous
 62
               7
100
AcDbVertex
100
AcDb2dVertex
 10
-114.00273259894072
 20
146.21011698524612
 30
0.0
  0
VERTEX
  5
3A5
100
AcDbEntity
  8
一般
370
               5
  6
Continuous
 62
               7
100
AcDbVertex
100
AcDb2dVertex
 10
-114.23008903270605
 20
145.91888887991783
 30
0.0
  0
SEQEND
  5
3A6
100
AcDbEntity
  8
一般
370
               5
  6
Continuous
 62
               7
  0
ENDBLK
  5
3A7
100
AcDbEntity
  8
一般
100
AcDbBlockEnd
  0
BLOCK
  5
3A8
100
AcDbEntity
  8
一般
100
AcDbBlockBegin
  2
グループ-3
 70
               0
 10
0.0
 20
0.0
 30
0.0
  3
グループ-3
  1

  0
SPLINE
  5
3A9
100
AcDbEntity
  8
一般
370
              15
  6
Continuous
 62
               7
100
AcDbSpline
210
0.0
220
0.0
230
1.0
 70
              13
 71
               2
 72
              38
 73
              35
 74
               0
 42
0.000001
 43
0.000001
 40
0.0
 40
0.0
 40
0.0
 40
1.0
 40
1.0
 40
2.0
 40
2.0
 40
3.0
 40
3.0
 40
4.0
 40
4.0
 40
5.0
 40
5.0
 40
6.0
 40
7.0
 40
8.0
 40
9.0
 40
9.0
 40
10.0
 40
10.0
 40
11.0
 40
11.0
 40
12.0
 40
12.0
 40
13.0
 40
13.0
 40
14.0
 40
14.0
 40
15.0
 40
15.0
 40
16.0
 40
16.0
 40
17.0
 40
18.0
 40
19.0
 40
20.0
 40
20.0
 40
20.0
 10
-157.98003207018735
 20
-83.197321702402462
 30
0.0
 41
1.0
 10
-157.32099930234517
 20
-83.838498783321199
 30
0.0
 41
1.0
 10
-157.0183493634724
 20
-84.486301441369605
 30
0.0
 41
1.0
 10
-150.56584842168502
 20
-84.486301441369605
 30
0.0
 41
1.0
 10
-144.11334747989761
 20
-84.486301441369605
 30
0.0
 41
1.0
 10
-144.11334747989761
 20
-67.236301441369605
 30
0.0
 41
1.0
 10
-144.11334747989761
 20
-49.986301441369605
 30
0.0
 41
1.0
 10
-150.565474402061
 20
-49.986301441369605
 30
0.0
 41
1.0
 10
-157.01760132422436
 20
-49.986301441369605
 30
0.0
 41
1.0
 10
-157.31267109912744
 20
-50.68649414747847
 30
0.0
 41
1.0
 10
-158.02605044931812
 20
-51.380545356556539
 30
0.0
 41
1.0
 10
-159.37041824069667
 20
-52.688489146634709
 30
0.0
 41
1.0
 10
-164.30752805133659
 20
-54.554525955163953
 30
0.0
 41
1.0
 10
-170.17011750315456
 20
-55.170708936173895
 30
0.0
 41
1.0
 10
-175.38731048698077
 20
-54.371932357513145
 30
0.0
 41
1.0
 10
-176.97423742151119
 20
-53.372080057939939
 30
0.0
 41
1.0
 10
-176.98615327574171
 20
-53.364572406519741
 30
0.0
 41
1.0
 10
-176.99776657104491
 20
-53.357192558368794
 30
0.0
 41
1.0
 10
-177.15555702547124
 20
-53.357192558368794
 30
0.0
 41
1.0
 10
-177.3133474798976
 20
-53.357192558368794
 30
0.0
 41
1.0
 10
-179.11334747989761
 20
-53.357192558368801
 30
0.0
 41
0.7071067811865476
 10
-179.11334747989761
 20
-55.157192558368791
 30
0.0
 41
1.0
 10
-179.11334747989761
 20
-67.381433956529861
 30
0.0
 41
1.0
 10
-179.11334747989761
 20
-79.605675354690916
 30
0.0
 41
1.0
 10
-179.11334747989761
 20
-81.405675354690942
 30
0.0
 41
0.7071067811865419
 10
-177.3133474798976
 20
-81.405675354690914
 30
0.0
 41
1.0
 10
-177.26986062320736
 20
-81.405675354690914
 30
0.0
 41
1.0
 10
-177.22637376651713
 20
-81.405675354690914
 30
0.0
 41
1.0
 10
-177.08417276951729
 20
-81.304046529741967
 30
0.0
 41
1.0
 10
-176.92821904238042
 20
-81.205787001018962
 30
0.0
 41
1.0
 10
-175.34129210784999
 20
-80.205934701445756
 30
0.0
 41
1.0
 10
-170.12409912402379
 20
-79.407158122785006
 30
0.0
 41
1.0
 10
-164.26150967220582
 20
-80.023341103794934
 30
0.0
 41
1.0
 10
-159.32439986156589
 20
-81.889377912324193
 30
0.0
 41
1.0
 10
-157.98003207018735
 20
-83.197321702402462
 30
0.0
 41
1.0
  0
POLYLINE
  5
3AA
100
AcDbEntity
  8
一般
370
              15
  6
Continuous
 62
               7
100
AcDb2dPolyline
 66
               1
 10
0.0
 20
0.0
 30
0.0
 75
               5
  0
VERTEX
  5
3AB
100
AcDbEntity
  8
一般
370
              15
  6
Continuous
 62
               7
100
AcDbVertex
100
AcDb2dVertex
 10
-125.26645700170967
 20
-84.494271470666177
 30
0.0
  0
VERTEX
  5
3AC
100
AcDbEntity
  8
一般
370
              15
  6
Continuous
 62
               7
100
AcDbVertex
100
AcDb2dVertex
 10
-143.98035341394996
 20
-84.494271470666177
 30
0.0
  0
VERTEX
  5
3AD
100
AcDbEntity
  8
一般
370
              15
  6
Continuous
 62
               7
100
AcDbVertex
100
AcDb2dVertex
 10
-143.98035341394996
 20
-49.994271470666177
 30
0.0
  0
VERTEX
  5
3AE
100
AcDbEntity
  8
一般
370
              15
  6
Continuous
 62
               7
100
AcDbVertex
100
AcDb2dVertex
 10
-125.62265091063631
 20
-49.994271470666177
 30
0.0
  0
SEQEND
  5
3AF
100
AcDbEntity
  8
一般
370
              15
  6
Continuous
 62
               7
  0
CIRCLE
  5
3B0
100
AcDbEntity
  8
一般
370
              15
  6
Continuous
 62
               7
100
AcDbCircle
 10
-122.50263979792953
 20
-67.213897792296592
 30
0.0
 40
17.5
  0
ENDBLK
  5
3B1
100
AcDbEntity
  8
一般
100
AcDbBlockEnd
  0
BLOCK
  5
3B2
100
AcDbEntity
  8
一般
100
AcDbBlockBegin
  2
グループ-4
 70
               0
 10
0.0
 20
0.0
 30
0.0
  3
グループ-4
  1

  0
POLYLINE
  5
3B3
100
AcDbEntity
  8
一般
370
              15
  6
Continuous
 62
               8
100
AcDb2dPolyline
 66
               1
 10
0.0
 20
0.0
 30
0.0
 75
               5
  0
VERTEX
  5
3B4
100
AcDbEntity
  8
一般
370
              15
  6
Continuous
 62
               8
100
AcDbVertex
100
AcDb2dVertex
 10
-190.04596051883303
 20
-151.9208515026904
 30
0.0
  0
VERTEX
  5
3B5
100
AcDbEntity
  8
一般
370
              15
  6
Continuous
 62
               8
100
AcDbVertex
100
AcDb2dVertex
 10
-190.04596051883303
 20
-159.9208515026904
 30
0.0
  0
VERTEX
  5
3B6
100
AcDbEntity
  8
一般
370
              15
  6
Continuous
 62
               8
100
AcDbVertex
100
AcDb2dVertex
 10
-140.04596051883303
 20
-159.9208515026904
 30
0.0
  0
VERTEX
  5
3B7
100
AcDbEntity
  8
一般
370
              15
  6
Continuous
 62
               8
100
AcDbVertex
100
AcDb2dVertex
 10
-140.04596051883303
 20
-151.9208515026904
 30
0.0
  0
SEQEND
  5
3B8
100
AcDbEntity
  8
一般
370
              15
  6
Continuous
 62
               8
  0
LINE
  5
3B9
100
AcDbEntity
  8
一般
370
              15
  6
Continuous
 62
               8
100
AcDbLine
 10
-165.04596051883303
 20
-151.9208515026904
 30
0.0
 11
-165.04596051883303
 21
-159.9208515026904
 31
0.0
  0
MTEXT
  5
3BA
100
AcDbEntity
  8
一般
 62
               8
100
AcDbMText
 10
-191.18722679183321
 20
-147.61380438135188
 30
0.0
 40
3.2576822916666663
 41
10.0
 71
               1
 72
               1
  1
0
  7
ＭＳ ゴシック
 73
               1
 44
0.7828267384257843
  0
MTEXT
  5
3BB
100
AcDbEntity
  8
一般
 62
               8
100
AcDbMText
 10
-167.03784531039628
 20
-147.54270388562071
 30
0.0
 40
3.2576822916666663
 41
10.0
 71
               1
 72
               1
  1
25
  7
ＭＳ ゴシック
 73
               1
 44
0.7828267384257843
  0
MTEXT
  5
3BC
100
AcDbEntity
  8
一般
 62
               8
100
AcDbMText
 10
-142.21620864039974
 20
-148.05682921488523
 30
0.0
 40
3.2576822916666663
 41
10.0
 71
               1
 72
               1
  1
50mm
  7
ＭＳ ゴシック
 73
               1
 44
0.7828267384257843
  0
ENDBLK
  5
3BD
100
AcDbEntity
  8
一般
100
AcDbBlockEnd
  0
BLOCK
  5
3BE
100
AcDbEntity
  8
一般
100
AcDbBlockBegin
  2
グループ-5
 70
               0
 10
0.0
 20
0.0
 30
0.0
  3
グループ-5
  1

  0
POLYLINE
  5
3BF
100
AcDbEntity
  8
一般
370
              15
  6
Continuous
 62
               7
100
AcDb2dPolyline
 66
               1
 10
0.0
 20
0.0
 30
0.0
 75
               5
  0
VERTEX
  5
3C0
100
AcDbEntity
  8
一般
370
              15
  6
Continuous
 62
               7
100
AcDbVertex
100
AcDb2dVertex
 10
-139.8394801531056
 20
83.364940955440943
 30
0.0
  0
VERTEX
  5
3C1
100
AcDbEntity
  8
一般
370
              15
  6
Continuous
 62
               7
100
AcDbVertex
100
AcDb2dVertex
 10
-139.8394801531056
 20
116.46921102662756
 30
0.0
  0
VERTEX
  5
3C2
100
AcDbEntity
  8
一般
370
              15
  6
Continuous
 62
               7
100
AcDbVertex
100
AcDb2dVertex
 10
-105.3394801531056
 20
116.46921102662756
 30
0.0
  0
VERTEX
  5
3C3
100
AcDbEntity
  8
一般
370
              15
  6
Continuous
 62
               7
100
AcDbVertex
100
AcDb2dVertex
 10
-105.3394801531056
 20
45.469211026627562
 30
0.0
  0
VERTEX
  5
3C4
100
AcDbEntity
  8
一般
370
              15
  6
Continuous
 62
               7
100
AcDbVertex
100
AcDb2dVertex
 10
-139.8394801531056
 20
45.469211026627562
 30
0.0
  0
VERTEX
  5
3C5
100
AcDbEntity
  8
一般
370
              15
  6
Continuous
 62
               7
100
AcDbVertex
100
AcDb2dVertex
 10
-139.8394801531056
 20
49.364940955440943
 30
0.0
  0
SEQEND
  5
3C6
100
AcDbEntity
  8
一般
370
              15
  6
Continuous
 62
               7
  0
LWPOLYLINE
  5
3C7
100
AcDbEntity
  8
一般
370
              15
  6
Continuous
 62
               7
100
AcDbPolyline
 90
        8
 70
             129
 10
-140.09200211527414
 20
44.960523704295063
 42
-0.4142135623730992
 10
-139.59200211527414
 20
45.460523704295063
 10
-105.59200211527414
 20
45.460523704295063
 42
-0.414213562373095
 10
-105.09200211527414
 20
44.960523704295063
 10
-105.09200211527414
 20
43.960523704295063
 42
-0.414213562373095
 10
-105.59200211527414
 20
43.460523704295063
 10
-139.59200211527414
 20
43.460523704295063
 42
-0.414213562373095
 10
-140.09200211527414
 20
43.960523704295063
  0
LWPOLYLINE
  5
3C8
100
AcDbEntity
  8
一般
370
              15
  6
Continuous
 62
               7
100
AcDbPolyline
 90
        8
 70
             129
 10
-144.8118899135261
 20
83.364940955440943
 10
-139.8118899135261
 20
83.364940955440943
 10
-124.397676351153
 20
67.950727393067837
 42
-0.1989123673796554
 10
-123.8118899135261
 20
66.536513830694744
 10
-123.8118899135261
 20
66.193368080187156
 42
-0.198912367379668
 10
-124.397676351153
 20
64.779154517814064
 10
-139.8118899135261
 20
49.364940955440943
 10
-144.8118899135261
 20
49.364940955440943
  0
LWPOLYLINE
  5
3C9
100
AcDbEntity
  8
一般
370
              15
  6
Continuous
 62
               7
100
AcDbPolyline
 90
       15
 70
             129
 10
-144.95522965631523
 20
83.398769701837864
 10
-178.95522965631523
 20
83.398769701837864
 42
0.414213562373095
 10
-179.95522965631523
 20
82.398769701837864
 10
-179.95522965631523
 20
75.427737387969117
 42
0.414213562373095
 10
-178.95522965631523
 20
74.427737387969117
 10
-178.07914960019139
 20
74.427737387969117
 42
-0.1965244894217482
 10
-170.19765656715452
 20
77.650000000000077
 42
-0.414213562373095
 10
-158.94765656715452
 20
66.400000000000063
 42
-0.414213562373095
 10
-170.19765656715452
 20
55.150000000000055
 42
-0.1983462434079471
 10
-178.13525877719334
 20
58.427737387969117
 10
-178.95522965631523
 20
58.427737387969117
 42
0.414213562373095
 10
-179.95522965631523
 20
57.427737387969117
 10
-179.95522965631523
 20
50.398769701837864
 42
0.414213562373095
 10
-178.95522965631523
 20
49.398769701837864
 10
-144.95522965631523
 20
49.398769701837864
  0
ARC
  5
3CA
100
AcDbEntity
  8
一般
370
               5
  6
Continuous
 62
               7
100
AcDbCircle
 10
-168.95790985213105
 20
68.749860982782806
 30
0.0
 40
10.500000000000561
100
AcDbArc
 50
218.59389234262912
 51
342.68361614249801
  0
LINE
  5
3CB
100
AcDbEntity
  8
一般
370
              15
  6
STYLE_02
 62
               7
100
AcDbLine
 10
-178.95522965631523
 20
62.20000000000006
 30
0.0
 11
-177.17675417583143
 21
62.20000000000006
 31
0.0
  0
LINE
  5
3CC
100
AcDbEntity
  8
一般
370
              15
  6
STYLE_02
 62
               7
100
AcDbLine
 10
-179.95522965631523
 20
58.427737387969117
 30
0.0
 11
-179.95522965631523
 21
61.20000000000006
 31
0.0
  0
LINE
  5
3CD
100
AcDbEntity
  8
一般
370
              15
  6
STYLE_02
 62
               7
100
AcDbLine
 10
-178.11740403787522
 20
58.410000000000025
 30
0.0
 11
-177.18999999999997
 21
62.20000000000006
 31
0.0
  0
ARC
  5
3CE
100
AcDbEntity
  8
一般
370
              15
  6
STYLE_02
 62
               7
100
AcDbCircle
 10
-178.95522965631523
 20
61.20000000000006
 30
0.0
 40
1.0
100
AcDbArc
 50
90.0
 51
180.0
  0
ENDBLK
  5
3CF
100
AcDbEntity
  8
一般
100
AcDbBlockEnd
  0
BLOCK
  5
3D0
100
AcDbEntity
  8
一般
100
AcDbBlockBegin
  2
グループ-6
 70
               0
 10
0.0
 20
0.0
 30
0.0
  3
グループ-6
  1

  0
POLYLINE
  5
3D1
100
AcDbEntity
  8
一般
370
              15
  6
Continuous
 62
               7
100
AcDb2dPolyline
 66
               1
 10
0.0
 20
0.0
 30
0.0
 70
               1
 75
               5
  0
VERTEX
  5
3D2
100
AcDbEntity
  8
一般
370
              15
  6
Continuous
 62
               7
100
AcDbVertex
100
AcDb2dVertex
 10
-2.1672132544448459
 20
-49.948135820469133
 30
0.0
  0
VERTEX
  5
3D3
100
AcDbEntity
  8
一般
370
              15
  6
Continuous
 62
               7
100
AcDbVertex
100
AcDb2dVertex
 10
68.832786745554699
 20
-49.948135820469133
 30
0.0
  0
VERTEX
  5
3D4
100
AcDbEntity
  8
一般
370
              15
  6
Continuous
 62
               7
100
AcDbVertex
100
AcDb2dVertex
 10
68.832786745554699
 20
-84.448135820469574
 30
0.0
  0
VERTEX
  5
3D5
100
AcDbEntity
  8
一般
370
              15
  6
Continuous
 62
               7
100
AcDbVertex
100
AcDb2dVertex
 10
-2.1672132544448459
 20
-84.448135820469574
 30
0.0
  0
SEQEND
  5
3D6
100
AcDbEntity
  8
一般
370
              15
  6
Continuous
 62
               7
  0
LWPOLYLINE
  5
3D7
100
AcDbEntity
  8
一般
370
              15
  6
Continuous
 62
               7
100
AcDbPolyline
 90
        8
 70
             129
 10
69.341474067887191
 20
-84.700657782638118
 42
-0.4142135623730867
 10
68.841474067887191
 20
-84.200657782638118
 10
68.841474067887191
 20
-50.200657782637677
 42
-0.414213562373095
 10
69.341474067887191
 20
-49.700657782637677
 10
70.341474067887219
 20
-49.700657782637677
 42
-0.414213562373095
 10
70.841474067887219
 20
-50.200657782637677
 10
70.841474067887219
 20
-84.200657782638118
 42
-0.414213562373095
 10
70.341474067887219
 20
-84.700657782638118
  0
CIRCLE
  5
3D8
100
AcDbEntity
  8
一般
370
              15
  6
Continuous
 62
               7
100
AcDbCircle
 10
47.875899755125459
 20
-67.205351656703726
 30
0.0
 40
17.250000000000007
  0
LWPOLYLINE
  5
3D9
100
AcDbEntity
  8
一般
370
              15
  6
Continuous
 62
               7
100
AcDbPolyline
 90
        3
 70
             129
 10
54.437992075664951
 20
-83.202308276073467
 42
0.280303088942389
 10
65.058182946789827
 20
-68.753497260541195
 42
0.2803030889423888
 10
57.108346340737619
 20
-52.680019359390997
  0
LWPOLYLINE
  5
3DA
100
AcDbEntity
  8
一般
370
              15
  6
Continuous
 62
               7
100
AcDbPolyline
 90
        3
 70
             129
 10
41.162799967534013
 20
-51.359036470497017
 42
0.2778176012417732
 10
30.689465862624516
 20
-65.74662413574697
 42
0.2778176012417726
 10
38.505308109932699
 20
-81.7343073970424
  0
ENDBLK
  5
3DB
100
AcDbEntity
  8
一般
100
AcDbBlockEnd
  0
ENDSEC
  0
SECTION
  2
ENTITIES
  0
INSERT
  5
3DC
100
AcDbEntity
  8
一般
 62
               7
100
AcDbBlockReference
  2
グループ
 10
1450.0
 20
1020.0
 30
0.0
  0
LINE
  5
3DD
100
AcDbEntity
  8
一般
370
              30
  6
Continuous
 62
               7
100
AcDbLine
 10
1447.6450489984497
 20
1007.5259320897655
 30
0.0
 11
1447.6450489984497
 21
892.72593208976548
 31
0.0
  0
LINE
  5
3DE
100
AcDbEntity
  8
一般
370
              30
  6
Continuous
 62
               7
100
AcDbLine
 10
1259.1737600104636
 20
1136.4692110266276
 30
0.0
 11
1396.3737600104637
 21
1136.4692110266276
 31
0.0
  0
INSERT
  5
3DF
100
AcDbEntity
  8
一般
 62
               7
100
AcDbBlockReference
  2
グループ-1
 10
1450.0
 20
1020.0
 30
0.0
  0
INSERT
  5
3E0
100
AcDbEntity
  8
一般
 62
               7
100
AcDbBlockReference
  2
グループ-2
 10
1450.0
 20
1020.0
 30
0.0
  0
INSERT
  5
3E1
100
AcDbEntity
  8
一般
 62
               7
100
AcDbBlockReference
  2
グループ-3
 10
1450.0
 20
1020.0
 30
0.0
  0
MTEXT
  5
3E2
100
AcDbEntity
  8
一般
 62
               7
100
AcDbMText
 10
1449.0
 20
995.9087151404018
 30
0.0
 40
3.2576822916666663
 41
0.0
 71
               1
 72
               1
  1
←壁仕上面
  7
ＭＳ ゴシック
 73
               1
 44
0.7828267384257843
  0
MTEXT
  5
3E3
100
AcDbEntity
  8
一般
 62
               7
100
AcDbMText
 10
1378.0828762764147
 20
1135.0051338039382
 30
0.0
 40
3.2576822916666663
 41
0.0
 71
               1
 72
               1
  1
↑\P壁仕上面
  7
ＭＳ ゴシック
 73
               1
 44
0.7828267384257843
  0
INSERT
  5
3E4
100
AcDbEntity
  8
一般
 62
               8
100
AcDbBlockReference
  2
グループ-4
 10
1450.0
 20
1020.0
 30
0.0
  0
INSERT
  5
3E5
100
AcDbEntity
  8
一般
 62
               7
100
AcDbBlockReference
  2
グループ-5
 10
1450.0
 20
1020.0
 30
0.0
  0
INSERT
  5
3E6
100
AcDbEntity
  8
一般
 62
               7
100
AcDbBlockReference
  2
グループ-6
 10
1450.0
 20
1020.0
 30
0.0
  0
MTEXT
  5
3E7
100
AcDbEntity
  8
一般
 62
               7
100
AcDbMText
 10
1579.6145648669642
 20
1185.4122413501989
 30
0.0
 40
14.147858796296296
 41
0.0
 71
               1
 72
               1
  1
SP-SR66
  7
Arial
 73
               1
 44
0.9673603504928808
  0
ENDSEC
  0
SECTION
  2
OBJECTS
  0
DICTIONARY
  5
19
100
AcDbDictionary
280
               0
281
               1
  3
ACAD_GROUP
350
1A
  3
ACAD_MLINESTYLE
350
1B
  3
ACAD_LAYOUT
350
1E
  3
ACAD_PLOTSETTINGS
350
22
  3
ACAD_PLOTSTYLENAME
350
1F
  3
ACAD_WIPEOUT_VARS
350
23
  0
DICTIONARY
  5
1A
102
{ACAD_REACTORS
330
19
102
}
100
AcDbDictionary
280
               0
281
               1
  0
DICTIONARY
  5
1B
102
{ACAD_REACTORS
330
19
102
}
100
AcDbDictionary
280
               0
281
               1
  3
Standard
350
1C
  0
MLINESTYLE
  5
1C
102
{ACAD_REACTORS
330
1B
102
}
100
AcDbMlineStyle
  2
Standard
 70
               0
  3

 62
               0
 51
90.0
 52
90.0
 71
               2
 49
0.5
 62
             256
  6
ByLayer
 49
-0.5
 62
             256
  6
ByLayer
  0
ACDBDICTIONARYWDFLT
  5
1F
102
{ACAD_REACTORS
330
19
102
}
100
AcDbDictionary
281
               1
  3
Normal
350
1D
100
AcDbDictionaryWithDefault
340
1D
  0
ACDBPLACEHOLDER
  5
1D
102
{ACAD_REACTORS
330
1F
102
}
  0
LAYOUT
  5
20
102
{ACAD_REACTORS
330
1E
102
}
100
AcDbPlotSettings
  1

  2

  4

  6

 40
0.0
 41
0.0
 42
0.0
 43
0.0
 44
0.0
 45
0.0
 46
0.0
 47
0.0
 48
0.0
 49
0.0
140
0.0
141
0.0
142
1.0
143
1.0
 70
            1024
 72
               0
 73
               0
 74
               0
  7

 75
               0
147
1.0
148
0.0
149
0.0
100
AcDbLayout
  1
Model
 70
               0
 71
               0
 10
0.0
 20
0.0
 11
0.0
 21
0.0
 12
0.0
 22
0.0
 32
0.0
 14
0.0
 24
0.0
 34
0.0
 15
0.0
 25
0.0
 35
0.0
146
0.0
 13
0.0
 23
0.0
 33
0.0
 16
0.0
 26
0.0
 36
0.0
 17
0.0
 27
0.0
 37
0.0
 76
               0
330
A
331
0
345
0
346
0
  0
LAYOUT
  5
21
102
{ACAD_REACTORS
330
1E
102
}
100
AcDbPlotSettings
  1

  2

  4

  6

 40
0.0
 41
0.0
 42
0.0
 43
0.0
 44
0.0
 45
0.0
 46
0.0
 47
0.0
 48
0.0
 49
0.0
140
0.0
141
0.0
142
1.0
143
1.0
 70
               0
 72
               0
 73
               0
 74
               0
  7

 75
               0
147
1.0
148
0.0
149
0.0
100
AcDbLayout
  1
Layout1
 70
               0
 71
               0
 10
0.0
 20
0.0
 11
0.0
 21
0.0
 12
0.0
 22
0.0
 32
0.0
 14
0.0
 24
0.0
 34
0.0
 15
0.0
 25
0.0
 35
0.0
146
0.0
 13
0.0
 23
0.0
 33
0.0
 16
0.0
 26
0.0
 36
0.0
 17
0.0
 27
0.0
 37
0.0
 76
               0
330
B
331
0
345
0
346
0
  0
DICTIONARY
  5
1E
102
{ACAD_REACTORS
330
19
102
}
100
AcDbDictionary
280
               0
281
               1
  3
Layout1
350
21
  3
Model
350
20
  0
DICTIONARY
  5
22
102
{ACAD_REACTORS
330
19
102
}
100
AcDbDictionary
280
               0
281
               1
  0
WIPEOUTVARIABLES
  5
23
100
AcDbWipeoutVariables
 70
               0
  0
ENDSEC
  0
EOF
