  0
SECTION
  2
HEADER
  9
$ACADVER
  1
AC1015
  9
$ACADMAINTVER
 70
               6
  9
$DWGCODEPAGE
  3
ANSI_932
  9
$INSBASE
 10
0.0
 20
0.0
 30
0.0
  9
$EXTMIN
 10
339.94956075061168
 20
70.0
 30
-14.834305555555554
  9
$EXTMAX
 10
2560.0
 20
1867.6173284113374
 30
14.834305555555554
  9
$LIMMIN
 10
0.0
 20
0.0
  9
$LIMMAX
 10
0.0
 20
0.0
  9
$ORTHOMODE
 70
               0
  9
$REGENMODE
 70
               1
  9
$FILLMODE
 70
               1
  9
$QTEXTMODE
 70
               0
  9
$MIRRTEXT
 70
               1
  9
$LTSCALE
 40
50.799999999999997
  9
$ATTMODE
 70
               1
  9
$TEXTSIZE
 40
0.2
  9
$TRACEWID
 40
1.0
  9
$TEXTSTYLE
  7
Standard
  9
$CLAYER
  8
一般
  9
$CELTYPE
  6
Continuous
  9
$CECOLOR
 62
             256
  9
$CELTSCALE
 40
1.0
  9
$DISPSILH
 70
               0
  9
$DIMSCALE
 40
1.0
  9
$DIMASZ
 40
0.18
  9
$DIMEXO
 40
0.0625
  9
$DIMDLI
 40
0.38
  9
$DIMRND
 40
0.0
  9
$DIMDLE
 40
0.0
  9
$DIMEXE
 40
0.18
  9
$DIMTP
 40
0.0
  9
$DIMTM
 40
0.0
  9
$DIMTXT
 40
0.18
  9
$DIMCEN
 40
0.09
  9
$DIMTSZ
 40
0.0
  9
$DIMTOL
 70
               0
  9
$DIMLIM
 70
               0
  9
$DIMTIH
 70
               1
  9
$DIMTOH
 70
               1
  9
$DIMSE1
 70
               0
  9
$DIMSE2
 70
               0
  9
$DIMTAD
 70
               0
  9
$DIMZIN
 70
               0
  9
$DIMBLK
  1

  9
$DIMASO
 70
               1
  9
$DIMSHO
 70
               1
  9
$DIMPOST
  1

  9
$DIMAPOST
  1

  9
$DIMALT
 70
               0
  9
$DIMALTD
 70
               2
  9
$DIMALTF
 40
25.399999999999999
  9
$DIMLFAC
 40
1.0
  9
$DIMTOFL
 70
               0
  9
$DIMTVP
 40
0.0
  9
$DIMTIX
 70
               0
  9
$DIMSOXD
 70
               0
  9
$DIMSAH
 70
               0
  9
$DIMBLK1
  1

  9
$DIMBLK2
  1

  9
$DIMSTYLE
  2
Standard
  9
$DIMCLRD
 70
               0
  9
$DIMCLRE
 70
               0
  9
$DIMCLRT
 70
               0
  9
$DIMTFAC
 40
1.0
  9
$DIMGAP
 40
0.09
  9
$DIMJUST
 70
               0
  9
$DIMSD1
 70
               0
  9
$DIMSD2
 70
               0
  9
$DIMTOLJ
 70
               1
  9
$DIMTZIN
 70
               0
  9
$DIMALTZ
 70
               0
  9
$DIMALTTZ
 70
               0
  9
$DIMUPT
 70
               0
  9
$DIMDEC
 70
               4
  9
$DIMTDEC
 70
               4
  9
$DIMALTU
 70
               2
  9
$DIMALTTD
 70
               2
  9
$DIMTXSTY
  7
Standard
  9
$DIMAUNIT
 70
               0
  9
$DIMADEC
 70
               0
  9
$DIMALTRND
 40
0.0
  9
$DIMAZIN
 70
               0
  9
$DIMDSEP
 70
               0
  9
$DIMATFIT
 70
               3
  9
$DIMFRAC
 70
               0
  9
$DIMLDRBLK
  1

  9
$DIMLUNIT
 70
               2
  9
$DIMLWD
 70
               0
  9
$DIMLWE
 70
               0
  9
$DIMTMOVE
 70
               0
  9
$LUNITS
 70
               2
  9
$LUPREC
 70
               4
  9
$SKETCHINC
 40
0.1
  9
$FILLETRAD
 40
0.0
  9
$AUNITS
 70
               0
  9
$AUPREC
 70
               0
  9
$MENU
  1
acad
  9
$ELEVATION
 40
0.0
  9
$PELEVATION
 40
0.0
  9
$THICKNESS
 40
0.0
  9
$LIMCHECK
 70
               0
  9
$CHAMFERA
 40
0.0
  9
$CHAMFERB
 40
0.0
  9
$CHAMFERC
 40
0.0
  9
$CHAMFERD
 40
0.0
  9
$SKPOLY
 70
               0
  9
$TDCREATE
 40
2455656.484085648
  9
$TDUCREATE
 40
0.000000000
  9
$TDUPDATE
 40
2455656.484085648
  9
$TDUUPDATE
 40
0.000000000
  9
$TDINDWG
 40
0.0000000000
  9
$TDUSRTIMER
 40
0.0000000000
  9
$USRTIMER
 70
               1
  9
$ANGBASE
 50
0.0
  9
$ANGDIR
 70
               0
  9
$PDMODE
 70
               1
  9
$PDSIZE
 40
-2.0
  9
$PLINEWID
 40
0.0
  9
$SPLFRAME
 70
               0
  9
$SPLINETYPE
 70
               6
  9
$SPLINESEGS
 70
               8
  9
$HANDSEED
  5
216
  9
$SURFTAB1
 70
               6
  9
$SURFTAB2
 70
               6
  9
$SURFTYPE
 70
               6
  9
$SURFU
 70
               6
  9
$SURFV
 70
               6
  9
$UCSBASE
  2

  9
$UCSNAME
  2

  9
$UCSORG
 10
0.0
 20
0.0
 30
0.0
  9
$UCSXDIR
 10
1.0
 20
0.0
 30
0.0
  9
$UCSYDIR
 10
0.0
 20
1.0
 30
0.0
  9
$UCSORTHOREF
  2

  9
$UCSORTHOVIEW
 70
               0
  9
$UCSORGTOP
 10
0.0
 20
0.0
 30
0.0
  9
$UCSORGBOTTOM
 10
0.0
 20
0.0
 30
0.0
  9
$UCSORGLEFT
 10
0.0
 20
0.0
 30
0.0
  9
$UCSORGRIGHT
 10
0.0
 20
0.0
 30
0.0
  9
$UCSORGFRONT
 10
0.0
 20
0.0
 30
0.0
  9
$UCSORGBACK
 10
0.0
 20
0.0
 30
0.0
  9
$PUCSBASE
  2

  9
$PUCSNAME
  2

  9
$PUCSORG
 10
0.0
 20
0.0
 30
0.0
  9
$PUCSXDIR
 10
1.0
 20
0.0
 30
0.0
  9
$PUCSYDIR
 10
0.0
 20
1.0
 30
0.0
  9
$PUCSORTHOREF
  2

  9
$PUCSORTHOVIEW
 70
               0
  9
$PUCSORGTOP
 10
0.0
 20
0.0
 30
0.0
  9
$PUCSORGBOTTOM
 10
0.0
 20
0.0
 30
0.0
  9
$PUCSORGLEFT
 10
0.0
 20
0.0
 30
0.0
  9
$PUCSORGRIGHT
 10
0.0
 20
0.0
 30
0.0
  9
$PUCSORGFRONT
 10
0.0
 20
0.0
 30
0.0
  9
$PUCSORGBACK
 10
0.0
 20
0.0
 30
0.0
  9
$USERI1
 70
               0
  9
$USERI2
 70
               0
  9
$USERI3
 70
               0
  9
$USERI4
 70
               0
  9
$USERI5
 70
               0
  9
$USERR1
 40
0.0
  9
$USERR2
 40
0.0
  9
$USERR3
 40
0.0
  9
$USERR4
 40
0.0
  9
$USERR5
 40
0.0
  9
$WORLDVIEW
 70
               1
  9
$SHADEDGE
 70
               3
  9
$SHADEDIF
 70
              70
  9
$TILEMODE
 70
               1
  9
$MAXACTVP
 70
              64
  9
$PINSBASE
 10
0.0
 20
0.0
 30
0.0
  9
$PLIMCHECK
 70
               0
  9
$PEXTMIN
 10
1.0000000000000000E+20
 20
1.0000000000000000E+20
 30
1.0000000000000000E+20
  9
$PEXTMAX
 10
-1.0000000000000000E+20
 20
-1.0000000000000000E+20
 30
-1.0000000000000000E+20
  9
$PLIMMIN
 10
0.0
 20
0.0
  9
$PLIMMAX
 10
12.0
 20
9.0
  9
$UNITMODE
 70
               0
  9
$VISRETAIN
 70
               0
  9
$PLINEGEN
 70
               1
  9
$PSLTSCALE
 70
               0
  9
$TREEDEPTH
 70
            3020
  9
$CMLSTYLE
  2
Standard
  9
$CMLJUST
 70
               0
  9
$CMLSCALE
 40
1.0
  9
$PROXYGRAPHICS
 70
               0
  9
$MEASUREMENT
 70
               1
  9
$CELWEIGHT
370
               0
  9
$ENDCAPS
280
               0
  9
$JOINSTYLE
280
               0
  9
$LWDISPLAY
290
               1
  9
$INSUNITS
 70
               4
  9
$HYPERLINKBASE
  1

  9
$STYLESHEET
  1

  9
$XEDIT
290
               1
  9
$CEPSNTYPE
380
               0
  9
$PSTYLEMODE
290
               1
  9
$FINGERPRINTGUID
  2

  9
$VERSIONGUID
  2

  9
$EXTNAMES
290
               1
  9
$PSVPSCALE
 40
0.0
  0
ENDSEC
  0
SECTION
  2
CLASSES
  0
CLASS
  1
LWPOLYLINE
  2
AcDbPolyline
  3
AutoCAD 2000
 90
        0
280
               0
281
               1
  0
CLASS
  1
IMAGE
  2
AcDbRasterImage
  3
ISM
 90
    32895
280
               0
281
               1
  0
CLASS
  1
OLE2FRAME
  2
AcDbOle2Frame
  3
AutoCAD 2000
 90
    32768
280
               0
281
               1
  0
CLASS
  1
HATCH
  2
AcDbHatch
  3
AutoCAD 2000
 90
    32768
280
               0
281
               1
  0
CLASS
  1
DICTIONARYVAR
  2
AcDbDictionaryVar
  3
AutoCAD 2000
 90
    32768
280
               0
281
               0
  0
CLASS
  1
RASTERVARIABLES
  2
AcDbRasterVariables
  3
ISM
 90
    32768
280
               0
281
               0
  0
CLASS
  1
IMAGEDEF
  2
AcDbRasterImageDef
  3
ISM
 90
    32768
280
               0
281
               0
  0
CLASS
  1
IMAGEDEF_REACTOR
  2
AcDbRasterImageDefReactor
  3
ISM
 90
    32769
280
               0
281
               0
  0
CLASS
  1
IDBUFFER
  2
AcDbIdBuffer
  3
AutoCAD 2000
 90
    32768
280
               0
281
               0
  0
CLASS
  1
SPATIAL_FILTER
  2
AcDbSpatialFilter
  3
AutoCAD 2000
 90
    32768
280
               0
281
               0
  0
CLASS
  1
XRECORD
  2
AcDbXrecord
  3
AutoCAD 2000
 90
    32768
280
               0
281
               0
  0
CLASS
  1
SORTENTSTABLE
  2
AcDbSortentsTable
  3
AutoCAD 2000
 90
    32768
280
               0
281
               0
  0
CLASS
  1
LAYER_INDEX
  2
AcDbLayerIndex
  3
AutoCAD 2000
 90
    32768
280
               0
281
               0
  0
CLASS
  1
SPATIAL_INDEX
  2
AcDbSpatialIndex
  3
AutoCAD 2000
 90
    32768
280
               0
281
               0
  0
CLASS
  1
OBJECT_PTR
  2
CAseDLPNTableRecord
  3
"ASE-LPNTableRecord"
 90
    32769
280
               0
281
               0
  0
CLASS
  1
LAYOUT
  2
AcDbLayout
  3
AutoCAD 2000
 90
        0
280
               0
281
               0
  0
CLASS
  1
PLOTSETTINGS
  2
AcDbPlotSettings
  3
AutoCAD 2000
 90
    32768
280
               0
281
               0
  0
CLASS
  1
ACDBDICTIONARYWDFLT
  2
AcDbDictionaryWithDefault
  3
AutoCAD 2000
 90
        0
280
               0
281
               0
  0
CLASS
  1
ACDBPLACEHOLDER
  2
AcDbPlaceHolder
  3
AutoCAD 2000
 90
        0
280
               0
281
               0
  0
CLASS
  1
VBA_PROJECT
  2
AcDbVbaProject
  3
acadvba
 90
    32768
280
               0
281
               0
  0
CLASS
  1
WIPEOUT
  2
AcDbWipeout
  3
WipeOut|AutoCAD Express Tool|expresstools@autodesk.com
 90
    32895
280
               0
281
               1
  0
CLASS
  1
WIPEOUTVARIABLES
  2
AcDbWipeoutVariables
  3
WipeOut|AutoCAD Express Tool|expresstools@autodesk.com
 90
        0
280
               0
281
               0
  0
CLASS
  1
RTEXT
  2
RText
  3
RText|AutoCAD Express Tool|expresstools@autodesk.com
 90
    32768
280
               0
281
               1
  0
CLASS
  1
ARCALIGNEDTEXT
  2
AcDbArcAlignedText
  3
ATEXT|AutoCAD Express Tool|expresstools@autodesk.com
 90
    32768
280
               0
281
               1
  0
ENDSEC
  0
SECTION
  2
TABLES
  0
TABLE
  2
VPORT
  5
7
100
AcDbSymbolTable
 70
               1
  0
VPORT
  5
15
100
AcDbSymbolTableRecord
100
AcDbViewportTableRecord
  2
*ACTIVE
 70
               0
 10
0.0
 20
0.0
 11
1.0
 21
1.0
 12
1449.974780375306
 22
968.80866420566872
 13
0.0
 23
0.0
 14
1.0
 24
1.0
 15
0.0
 25
0.0
 16
0.0
 26
0.0
 36
1.0
 17
0.0
 27
0.0
 37
0.0
 40
1797.6173284113374
 41
0.688564
 42
50.0
 43
0.0
 44
0.0
 50
0.0
 51
0.0
 71
               0
 72
            2000
 73
               1
 74
               1
 75
               0
 76
               0
 77
               0
 78
               0
281
               0
 65
               0
110
0.0
120
0.0
130
0.0
111
1.0
121
0.0
131
0.0
112
0.0
122
1.0
132
0.0
345
0
346
0
 79
               0
146
0.0
  0
ENDTAB
  0
TABLE
  2
LTYPE
  5
4
100
AcDbSymbolTable
 70
              13
  0
LTYPE
  5
11
100
AcDbSymbolTableRecord
100
AcDbLinetypeTableRecord
  2
ByBlock
 70
              64
  3

 72
              65
 73
               0
 40
0.0
  0
LTYPE
  5
12
100
AcDbSymbolTableRecord
100
AcDbLinetypeTableRecord
  2
ByLayer
 70
              64
  3

 72
              65
 73
               0
 40
0.0
  0
LTYPE
  5
13
100
AcDbSymbolTableRecord
100
AcDbLinetypeTableRecord
  2
Continuous
 70
              64
  3
Solid line
 72
              65
 73
               0
 40
0.0
  0
LTYPE
  5
29
100
AcDbSymbolTableRecord
100
AcDbLinetypeTableRecord
  2
STYLE_01
 70
               0
  3

 72
              65
 73
               2
 40
0.41664
 49
0.20828
 74
               0
 49
-0.20836
 74
               0
  0
LTYPE
  5
2A
100
AcDbSymbolTableRecord
100
AcDbLinetypeTableRecord
  2
STYLE_02
 70
               0
  3

 72
              65
 73
               2
 40
0.6944250000000001
 49
0.48607
 74
               0
 49
-0.2083550000000001
 74
               0
  0
LTYPE
  5
2B
100
AcDbSymbolTableRecord
100
AcDbLinetypeTableRecord
  2
STYLE_03
 70
               0
  3

 72
              65
 73
               2
 40
1.25
 49
1.0416400000000001
 74
               0
 49
-0.2083599999999999
 74
               0
  0
LTYPE
  5
2C
100
AcDbSymbolTableRecord
100
AcDbLinetypeTableRecord
  2
STYLE_04
 70
               0
  3

 72
              65
 73
               2
 40
1.5277099999999999
 49
1.3194249999999998
 74
               0
 49
-0.208285
 74
               0
  0
LTYPE
  5
2D
100
AcDbSymbolTableRecord
100
AcDbLinetypeTableRecord
  2
STYLE_05
 70
               0
  3

 72
              65
 73
               2
 40
0.20828
 49
0.069425
 74
               0
 49
-0.138855
 74
               0
  0
LTYPE
  5
2E
100
AcDbSymbolTableRecord
100
AcDbLinetypeTableRecord
  2
STYLE_06
 70
               0
  3

 72
              65
 73
               4
 40
1.0416400000000001
 49
0.625
 74
               0
 49
-0.20828
 74
               0
 49
0.06943
 74
               0
 49
-0.13893
 74
               0
  0
LTYPE
  5
2F
100
AcDbSymbolTableRecord
100
AcDbLinetypeTableRecord
  2
STYLE_07
 70
               0
  3

 72
              65
 73
               6
 40
1.875
 49
0.625
 74
               0
 49
-0.20828
 74
               0
 49
0.6250000000000001
 74
               0
 49
-0.2083599999999999
 74
               0
 49
0.06943
 74
               0
 49
-0.1389299999999999
 74
               0
  0
LTYPE
  5
30
100
AcDbSymbolTableRecord
100
AcDbLinetypeTableRecord
  2
STYLE_08
 70
               0
  3

 72
              65
 73
               6
 40
1.25
 49
0.625
 74
               0
 49
-0.20828
 74
               0
 49
0.06943
 74
               0
 49
-0.13893
 74
               0
 49
0.0694299999999999
 74
               0
 49
-0.13893
 74
               0
  0
LTYPE
  5
31
100
AcDbSymbolTableRecord
100
AcDbLinetypeTableRecord
  2
STYLE_09
 70
               0
  3

 72
              65
 73
               4
 40
5.0
 49
3.75
 74
               0
 49
-0.2777849999999998
 74
               0
 49
0.6944300000000003
 74
               0
 49
-0.2777849999999998
 74
               0
  0
LTYPE
  5
32
100
AcDbSymbolTableRecord
100
AcDbLinetypeTableRecord
  2
STYLE_10
 70
               0
  3

 72
              65
 73
               6
 40
5.9375
 49
3.75
 74
               0
 49
-0.2777849999999998
 74
               0
 49
0.6944300000000003
 74
               0
 49
-0.2777849999999998
 74
               0
 49
0.625
 74
               0
 49
-0.3125
 74
               0
  0
ENDTAB
  0
TABLE
  2
LAYER
  5
2
100
AcDbSymbolTable
 70
               4
  0
LAYER
  5
14
100
AcDbSymbolTableRecord
100
AcDbLayerTableRecord
  2
0
 70
               0
 62
               7
  6
Continuous
290
               1
370
              15
390
1D
  0
LAYER
  5
33
100
AcDbSymbolTableRecord
100
AcDbLayerTableRecord
  2
一般
 70
               0
 62
               7
  6
Continuous
290
               1
370
               5
390
1D
  0
LAYER
  5
34
100
AcDbSymbolTableRecord
100
AcDbLayerTableRecord
  2
寸法
 70
               0
 62
               7
  6
Continuous
290
               1
370
               5
390
1D
  0
LAYER
  5
35
100
AcDbSymbolTableRecord
100
AcDbLayerTableRecord
  2
DEFAULT
 70
               0
 62
               7
  6
Continuous
290
               1
370
              15
390
1D
  0
ENDTAB
  0
TABLE
  2
STYLE
  5
3
100
AcDbSymbolTable
 70
               3
  0
STYLE
  5
17
100
AcDbSymbolTableRecord
100
AcDbTextStyleTableRecord
  2
Standard
 70
               0
 40
0.0
 41
1.0
 50
0.0
 71
               0
 42
0.0
  3
txt
  4
BIGFONT.SHX
  0
STYLE
  5
27
100
AcDbSymbolTableRecord
100
AcDbTextStyleTableRecord
  2
Arial
 70
               0
 40
0.0
 41
1.0
 50
0.0
 71
               0
 42
0.0
  3

  4
Arial
1001
ACAD
1000
Arial
1071
        0
  0
STYLE
  5
28
100
AcDbSymbolTableRecord
100
AcDbTextStyleTableRecord
  2
ＭＳ ゴシック
 70
               0
 40
0.0
 41
1.0
 50
0.0
 71
               0
 42
0.0
  3

  4
ＭＳ ゴシック
1001
ACAD
1000
ＭＳ ゴシック
1071
        0
  0
ENDTAB
  0
TABLE
  2
VIEW
  5
5
100
AcDbSymbolTable
 70
               0
  0
ENDTAB
  0
TABLE
  2
UCS
  5
6
100
AcDbSymbolTable
 70
               0
  0
ENDTAB
  0
TABLE
  2
APPID
  5
8
100
AcDbSymbolTable
 70
               1
  0
APPID
  5
16
100
AcDbSymbolTableRecord
100
AcDbRegAppTableRecord
  2
ACAD
 70
               0
  0
ENDTAB
  0
TABLE
  2
DIMSTYLE
  5
9
100
AcDbSymbolTable
 70
               1
100
AcDbDimStyleTable
 71
               0
  0
DIMSTYLE
105
18
100
AcDbSymbolTableRecord
100
AcDbDimStyleTableRecord
  2
Standard
 70
               0
  3

  4

 40
1.0
 41
0.18
 42
0.0625
 43
0.38
 44
0.18
 45
0.0
 46
0.0
 47
0.0
 48
0.0
 71
               0
 72
               0
 73
               1
 74
               1
 75
               0
 76
               0
 77
               0
 78
               0
 79
               0
140
0.18
141
0.09
142
0.0
143
25.399999999999999
144
1.0
145
0.0
146
1.0
147
0.09
148
0.0
170
               0
171
               2
172
               0
173
               0
174
               0
175
               0
176
               0
177
               0
178
               0
179
               0
271
               4
272
               4
273
               2
274
               2
275
               0
276
               0
277
               2
278
              46
279
               0
280
               0
281
               0
282
               0
283
               1
284
               0
285
               0
286
               0
288
               0
340
17
341
0
342
0
343
0
344
0
371
              -2
372
              -2
  0
ENDTAB
  0
TABLE
  2
BLOCK_RECORD
  5
1
100
AcDbSymbolTable
 70
               3
  0
BLOCK_RECORD
  5
A
100
AcDbSymbolTableRecord
100
AcDbBlockTableRecord
  2
*MODEL_SPACE
340
20
  0
BLOCK_RECORD
  5
B
100
AcDbSymbolTableRecord
100
AcDbBlockTableRecord
  2
*PAPER_SPACE
340
21
  0
BLOCK_RECORD
  5
24
100
AcDbSymbolTableRecord
100
AcDbBlockTableRecord
  2
グループ
340
0
102
{BLKREFS
331
54
102
}
  0
BLOCK_RECORD
  5
25
100
AcDbSymbolTableRecord
100
AcDbBlockTableRecord
  2
グループ-1
340
0
102
{BLKREFS
331
51
102
}
  0
BLOCK_RECORD
  5
26
100
AcDbSymbolTableRecord
100
AcDbBlockTableRecord
  2
グループ-2
340
0
102
{BLKREFS
331
1DD
102
}
  0
ENDTAB
  0
ENDSEC
  0
SECTION
  2
BLOCKS
  0
BLOCK
  5
D
100
AcDbEntity
  8
0
100
AcDbBlockBegin
  2
*MODEL_SPACE
 70
               0
 10
0.0
 20
0.0
 30
0.0
  3
*MODEL_SPACE
  1

  0
ENDBLK
  5
E
100
AcDbEntity
  8
0
100
AcDbBlockEnd
  0
BLOCK
  5
F
100
AcDbEntity
 67
               1
  8
0
100
AcDbBlockBegin
  2
*PAPER_SPACE
 70
               0
 10
0.0
 20
0.0
 30
0.0
  3
*PAPER_SPACE
  1

  0
ENDBLK
  5
10
100
AcDbEntity
 67
               1
  8
0
100
AcDbBlockEnd
  0
BLOCK
  5
36
100
AcDbEntity
  8
一般
100
AcDbBlockBegin
  2
グループ
 70
               0
 10
0.0
 20
0.0
 30
0.0
  3
グループ
  1

  0
POLYLINE
  5
37
100
AcDbEntity
  8
一般
370
              15
  6
Continuous
 62
               8
100
AcDb2dPolyline
 66
               1
 10
0.0
 20
0.0
 30
0.0
 75
               5
  0
VERTEX
  5
38
100
AcDbEntity
  8
一般
370
              15
  6
Continuous
 62
               8
100
AcDbVertex
100
AcDb2dVertex
 10
-216.0
 20
-182.0
 30
0.0
  0
VERTEX
  5
39
100
AcDbEntity
  8
一般
370
              15
  6
Continuous
 62
               8
100
AcDbVertex
100
AcDb2dVertex
 10
-216.0
 20
-190.0
 30
0.0
  0
VERTEX
  5
3A
100
AcDbEntity
  8
一般
370
              15
  6
Continuous
 62
               8
100
AcDbVertex
100
AcDb2dVertex
 10
-166.0
 20
-190.0
 30
0.0
  0
VERTEX
  5
3B
100
AcDbEntity
  8
一般
370
              15
  6
Continuous
 62
               8
100
AcDbVertex
100
AcDb2dVertex
 10
-166.0
 20
-182.0
 30
0.0
  0
SEQEND
  5
3C
100
AcDbEntity
  8
一般
370
              15
  6
Continuous
 62
               8
  0
LINE
  5
3D
100
AcDbEntity
  8
一般
370
              15
  6
Continuous
 62
               8
100
AcDbLine
 10
-191.0
 20
-182.0
 30
0.0
 11
-191.0
 21
-190.0
 31
0.0
  0
MTEXT
  5
3E
100
AcDbEntity
  8
一般
 62
               8
100
AcDbMText
 10
-217.14126627300018
 20
-177.69295287866149
 30
0.0
 40
3.2576822916666663
 41
10.0
 71
               1
 72
               1
  1
0
  7
ＭＳ ゴシック
 73
               1
 44
0.7828267384257843
  0
MTEXT
  5
3F
100
AcDbEntity
  8
一般
 62
               8
100
AcDbMText
 10
-192.99188479156325
 20
-177.62185238293034
 30
0.0
 40
3.2576822916666663
 41
10.0
 71
               1
 72
               1
  1
25
  7
ＭＳ ゴシック
 73
               1
 44
0.7828267384257843
  0
MTEXT
  5
40
100
AcDbEntity
  8
一般
 62
               8
100
AcDbMText
 10
-168.17024812156671
 20
-178.13597771219483
 30
0.0
 40
3.2576822916666663
 41
10.0
 71
               1
 72
               1
  1
50mm
  7
ＭＳ ゴシック
 73
               1
 44
0.7828267384257843
  0
ENDBLK
  5
41
100
AcDbEntity
  8
一般
100
AcDbBlockEnd
  0
BLOCK
  5
42
100
AcDbEntity
  8
一般
100
AcDbBlockBegin
  2
グループ-1
 70
               0
 10
0.0
 20
0.0
 30
0.0
  3
グループ-1
  1

  0
POLYLINE
  5
43
100
AcDbEntity
  8
一般
370
              15
  6
Continuous
 62
               7
100
AcDb2dPolyline
 66
               1
 10
0.0
 20
0.0
 30
0.0
 70
               1
 75
               5
  0
VERTEX
  5
44
100
AcDbEntity
  8
一般
370
              15
  6
Continuous
 62
               7
100
AcDbVertex
100
AcDb2dVertex
 10
-222.0
 20
-54.0
 30
0.0
  0
VERTEX
  5
45
100
AcDbEntity
  8
一般
370
              15
  6
Continuous
 62
               7
100
AcDbVertex
100
AcDb2dVertex
 10
-190.0
 20
-54.0
 30
0.0
  0
VERTEX
  5
46
100
AcDbEntity
  8
一般
370
              15
  6
Continuous
 62
               7
100
AcDbVertex
100
AcDb2dVertex
 10
-190.0
 20
-86.0
 30
0.0
  0
VERTEX
  5
47
100
AcDbEntity
  8
一般
370
              15
  6
Continuous
 62
               7
100
AcDbVertex
100
AcDb2dVertex
 10
-222.0
 20
-86.0
 30
0.0
  0
SEQEND
  5
48
100
AcDbEntity
  8
一般
370
              15
  6
Continuous
 62
               7
  0
POLYLINE
  5
49
100
AcDbEntity
  8
一般
370
              15
  6
Continuous
 62
               7
100
AcDb2dPolyline
 66
               1
 10
0.0
 20
0.0
 30
0.0
 70
               1
 75
               5
  0
VERTEX
  5
4A
100
AcDbEntity
  8
一般
370
              15
  6
Continuous
 62
               7
100
AcDbVertex
100
AcDb2dVertex
 10
-214.5
 20
-54.0
 30
0.0
  0
VERTEX
  5
4B
100
AcDbEntity
  8
一般
370
              15
  6
Continuous
 62
               7
100
AcDbVertex
100
AcDb2dVertex
 10
-197.5
 20
-54.0
 30
0.0
  0
VERTEX
  5
4C
100
AcDbEntity
  8
一般
370
              15
  6
Continuous
 62
               7
100
AcDbVertex
100
AcDb2dVertex
 10
-197.5
 20
-86.0
 30
0.0
  0
VERTEX
  5
4D
100
AcDbEntity
  8
一般
370
              15
  6
Continuous
 62
               7
100
AcDbVertex
100
AcDb2dVertex
 10
-214.5
 20
-86.0
 30
0.0
  0
SEQEND
  5
4E
100
AcDbEntity
  8
一般
370
              15
  6
Continuous
 62
               7
  0
ENDBLK
  5
4F
100
AcDbEntity
  8
一般
100
AcDbBlockEnd
  0
BLOCK
  5
50
100
AcDbEntity
  8
一般
100
AcDbBlockBegin
  2
グループ-2
 70
               0
 10
0.0
 20
0.0
 30
0.0
  3
グループ-2
  1

  0
INSERT
  5
51
100
AcDbEntity
  8
一般
 62
               7
100
AcDbBlockReference
  2
グループ-1
 10
0.0
 20
0.0
 30
0.0
  0
ENDBLK
  5
52
100
AcDbEntity
  8
一般
100
AcDbBlockEnd
  0
ENDSEC
  0
SECTION
  2
ENTITIES
  0
MTEXT
  5
53
100
AcDbEntity
  8
一般
 62
               7
100
AcDbMText
 10
1896.1324865405218
 20
1844.2678492446707
 30
0.0
 40
90.950520833333329
 41
663.86751345947823
 71
               1
 72
               1
  1
SP-SR75{\H0.5x;\l\P}
  7
Arial
 73
               1
 44
0.9673603504928806
  0
INSERT
  5
54
100
AcDbEntity
  8
一般
 62
               8
100
AcDbBlockReference
  2
グループ
 10
1450.0
 20
1020.0
 30
0.0
 41
5.0
 42
5.0
 43
5.0
  0
LINE
  5
55
100
AcDbEntity
  8
一般
370
               5
  6
Continuous
 62
               7
100
AcDbLine
 10
372.5
 20
1289.2651268436873
 30
0.0
 11
372.5
 21
1284.2653082857894
 31
0.0
  0
LINE
  5
56
100
AcDbEntity
  8
一般
370
               5
  6
Continuous
 62
               7
100
AcDbLine
 10
372.5
 20
1281.7651268436873
 30
0.0
 11
372.5
 21
1276.7653082857894
 31
0.0
  0
LINE
  5
57
100
AcDbEntity
  8
一般
370
               5
  6
Continuous
 62
               7
100
AcDbLine
 10
372.5
 20
1274.2651268436873
 30
0.0
 11
372.5
 21
1269.2653082857894
 31
0.0
  0
LINE
  5
58
100
AcDbEntity
  8
一般
370
               5
  6
Continuous
 62
               7
100
AcDbLine
 10
372.5
 20
1266.7651268436873
 30
0.0
 11
372.5
 21
1261.7653082857894
 31
0.0
  0
LINE
  5
59
100
AcDbEntity
  8
一般
370
               5
  6
Continuous
 62
               7
100
AcDbLine
 10
372.5
 20
1259.2651268436873
 30
0.0
 11
372.5
 21
1254.2653082857894
 31
0.0
  0
LINE
  5
5A
100
AcDbEntity
  8
一般
370
               5
  6
Continuous
 62
               7
100
AcDbLine
 10
372.5
 20
1251.7651268436873
 30
0.0
 11
372.5
 21
1246.7653082857894
 31
0.0
  0
LINE
  5
5B
100
AcDbEntity
  8
一般
370
               5
  6
Continuous
 62
               7
100
AcDbLine
 10
372.5
 20
1244.2651268436873
 30
0.0
 11
372.5
 21
1239.2653082857894
 31
0.0
  0
LINE
  5
5C
100
AcDbEntity
  8
一般
370
               5
  6
Continuous
 62
               7
100
AcDbLine
 10
372.5
 20
1236.7651268436873
 30
0.0
 11
372.5
 21
1231.7653082857894
 31
0.0
  0
LINE
  5
5D
100
AcDbEntity
  8
一般
370
               5
  6
Continuous
 62
               7
100
AcDbLine
 10
372.5
 20
1229.2651268436873
 30
0.0
 11
372.5
 21
1224.2653082857894
 31
0.0
  0
LINE
  5
5E
100
AcDbEntity
  8
一般
370
               5
  6
Continuous
 62
               7
100
AcDbLine
 10
372.5
 20
1221.7651268436873
 30
0.0
 11
372.5
 21
1216.1861379251213
 31
0.0
  0
LINE
  5
5F
100
AcDbEntity
  8
一般
370
               5
  6
Continuous
 62
               7
100
AcDbLine
 10
372.5
 20
1213.6859564830193
 30
0.0
 11
372.5
 21
1208.6861379251213
 31
0.0
  0
LINE
  5
60
100
AcDbEntity
  8
一般
370
               5
  6
Continuous
 62
               7
100
AcDbLine
 10
467.5
 20
1297.9097051569404
 30
0.0
 11
467.5
 21
1292.9098865990425
 31
0.0
  0
LINE
  5
61
100
AcDbEntity
  8
一般
370
               5
  6
Continuous
 62
               7
100
AcDbLine
 10
467.5
 20
1290.4097051569404
 30
0.0
 11
467.5
 21
1285.4098865990425
 31
0.0
  0
LINE
  5
62
100
AcDbEntity
  8
一般
370
               5
  6
Continuous
 62
               7
100
AcDbLine
 10
467.5
 20
1282.9097051569404
 30
0.0
 11
467.5
 21
1277.9098865990425
 31
0.0
  0
LINE
  5
63
100
AcDbEntity
  8
一般
370
               5
  6
Continuous
 62
               7
100
AcDbLine
 10
467.5
 20
1275.4097051569404
 30
0.0
 11
467.5
 21
1270.4098865990425
 31
0.0
  0
LINE
  5
64
100
AcDbEntity
  8
一般
370
               5
  6
Continuous
 62
               7
100
AcDbLine
 10
467.5
 20
1267.9097051569404
 30
0.0
 11
467.5
 21
1262.9098865990425
 31
0.0
  0
LINE
  5
65
100
AcDbEntity
  8
一般
370
               5
  6
Continuous
 62
               7
100
AcDbLine
 10
467.5
 20
1260.4097051569404
 30
0.0
 11
467.5
 21
1255.4098865990425
 31
0.0
  0
LINE
  5
66
100
AcDbEntity
  8
一般
370
               5
  6
Continuous
 62
               7
100
AcDbLine
 10
467.5
 20
1252.9097051569404
 30
0.0
 11
467.5
 21
1247.9098865990425
 31
0.0
  0
LINE
  5
67
100
AcDbEntity
  8
一般
370
               5
  6
Continuous
 62
               7
100
AcDbLine
 10
467.5
 20
1245.4097051569404
 30
0.0
 11
467.5
 21
1240.4098865990425
 31
0.0
  0
LINE
  5
68
100
AcDbEntity
  8
一般
370
               5
  6
Continuous
 62
               7
100
AcDbLine
 10
467.5
 20
1237.9097051569404
 30
0.0
 11
467.5
 21
1232.9098865990425
 31
0.0
  0
LINE
  5
69
100
AcDbEntity
  8
一般
370
               5
  6
Continuous
 62
               7
100
AcDbLine
 10
467.5
 20
1230.4097051569404
 30
0.0
 11
467.5
 21
1225.4098865990425
 31
0.0
  0
LINE
  5
6A
100
AcDbEntity
  8
一般
370
               5
  6
Continuous
 62
               7
100
AcDbLine
 10
467.5
 20
1222.9097051569404
 30
0.0
 11
467.5
 21
1217.3307162383744
 31
0.0
  0
LINE
  5
6B
100
AcDbEntity
  8
一般
370
               5
  6
Continuous
 62
               7
100
AcDbLine
 10
467.5
 20
1214.8305347962723
 30
0.0
 11
467.5
 21
1209.8307162383744
 31
0.0
  0
POLYLINE
  5
6C
100
AcDbEntity
  8
一般
370
               5
  6
Continuous
 62
               7
100
AcDb2dPolyline
 66
               1
 10
0.0
 20
0.0
 30
0.0
 75
               5
  0
VERTEX
  5
6D
100
AcDbEntity
  8
一般
370
               5
  6
Continuous
 62
               7
100
AcDbVertex
100
AcDb2dVertex
 10
467.5
 20
1207.3305347962723
 30
0.0
  0
VERTEX
  5
6E
100
AcDbEntity
  8
一般
370
               5
  6
Continuous
 62
               7
100
AcDbVertex
100
AcDb2dVertex
 10
467.5
 20
1200.0
 30
0.0
  0
VERTEX
  5
6F
100
AcDbEntity
  8
一般
370
               5
  6
Continuous
 62
               7
100
AcDbVertex
100
AcDb2dVertex
 10
372.5
 20
1200.0
 30
0.0
  0
VERTEX
  5
70
100
AcDbEntity
  8
一般
370
               5
  6
Continuous
 62
               7
100
AcDbVertex
100
AcDb2dVertex
 10
372.5
 20
1206.1859564830193
 30
0.0
  0
SEQEND
  5
71
100
AcDbEntity
  8
一般
370
               5
  6
Continuous
 62
               7
  0
POLYLINE
  5
72
100
AcDbEntity
  8
一般
370
               5
  6
Continuous
 62
               7
100
AcDb2dPolyline
 66
               1
 10
0.0
 20
0.0
 30
0.0
 75
               5
  0
VERTEX
  5
73
100
AcDbEntity
  8
一般
370
               5
  6
Continuous
 62
               7
100
AcDbVertex
100
AcDb2dVertex
 10
433.4794122794749
 20
1300.0
 30
0.0
  0
VERTEX
  5
74
100
AcDbEntity
  8
一般
370
               5
  6
Continuous
 62
               7
100
AcDbVertex
100
AcDb2dVertex
 10
372.5
 20
1300.0
 30
0.0
  0
VERTEX
  5
75
100
AcDbEntity
  8
一般
370
               5
  6
Continuous
 62
               7
100
AcDbVertex
100
AcDb2dVertex
 10
372.5
 20
1299.2653082857894
 30
0.0
  0
SEQEND
  5
76
100
AcDbEntity
  8
一般
370
               5
  6
Continuous
 62
               7
  0
LINE
  5
77
100
AcDbEntity
  8
一般
370
               5
  6
Continuous
 62
               7
100
AcDbLine
 10
372.5
 20
1291.7653082857894
 30
0.0
 11
372.5
 21
1296.7651268436873
 31
0.0
  0
POLYLINE
  5
78
100
AcDbEntity
  8
一般
370
               5
  6
Continuous
 62
               7
100
AcDb2dPolyline
 66
               1
 10
0.0
 20
0.0
 30
0.0
 70
               1
 75
               5
  0
VERTEX
  5
79
100
AcDbEntity
  8
一般
370
               5
  6
Continuous
 62
               7
100
AcDbVertex
100
AcDb2dVertex
 10
368.76496843355108
 20
1221.7201264633686
 30
0.0
  0
VERTEX
  5
7A
100
AcDbEntity
  8
一般
370
               5
  6
Continuous
 62
               7
100
AcDbVertex
100
AcDb2dVertex
 10
367.5
 20
1222.9549766008831
 30
0.0
  0
VERTEX
  5
7B
100
AcDbEntity
  8
一般
370
               5
  6
Continuous
 62
               7
100
AcDbVertex
100
AcDb2dVertex
 10
367.5
 20
1222.9549766008831
 30
0.0
  0
VERTEX
  5
7C
100
AcDbEntity
  8
一般
370
               5
  6
Continuous
 62
               7
100
AcDbVertex
100
AcDb2dVertex
 10
368.73485013751429
 20
1224.2199450344342
 30
0.0
  0
VERTEX
  5
7D
100
AcDbEntity
  8
一般
370
               5
  6
Continuous
 62
               7
100
AcDbVertex
100
AcDb2dVertex
 10
471.22741155119854
 20
1225.4547951719485
 30
0.0
  0
VERTEX
  5
7E
100
AcDbEntity
  8
一般
370
               5
  6
Continuous
 62
               7
100
AcDbVertex
100
AcDb2dVertex
 10
472.49237998474985
 20
1224.2199450344342
 30
0.0
  0
VERTEX
  5
7F
100
AcDbEntity
  8
一般
370
               5
  6
Continuous
 62
               7
100
AcDbVertex
100
AcDb2dVertex
 10
472.49237998474985
 20
1224.2199450344342
 30
0.0
  0
VERTEX
  5
80
100
AcDbEntity
  8
一般
370
               5
  6
Continuous
 62
               7
100
AcDbVertex
100
AcDb2dVertex
 10
471.25752984723567
 20
1222.9549766008831
 30
0.0
  0
SEQEND
  5
81
100
AcDbEntity
  8
一般
370
               5
  6
Continuous
 62
               7
  0
POLYLINE
  5
82
100
AcDbEntity
  8
一般
370
               5
  6
Continuous
 62
               7
100
AcDb2dPolyline
 66
               1
 10
0.0
 20
0.0
 30
0.0
 70
               1
 75
               5
  0
VERTEX
  5
83
100
AcDbEntity
  8
一般
370
               5
  6
Continuous
 62
               7
100
AcDbVertex
100
AcDb2dVertex
 10
368.76496843355108
 20
1229.2201264633686
 30
0.0
  0
VERTEX
  5
84
100
AcDbEntity
  8
一般
370
               5
  6
Continuous
 62
               7
100
AcDbVertex
100
AcDb2dVertex
 10
367.5
 20
1230.4549766008831
 30
0.0
  0
VERTEX
  5
85
100
AcDbEntity
  8
一般
370
               5
  6
Continuous
 62
               7
100
AcDbVertex
100
AcDb2dVertex
 10
367.5
 20
1230.4549766008831
 30
0.0
  0
VERTEX
  5
86
100
AcDbEntity
  8
一般
370
               5
  6
Continuous
 62
               7
100
AcDbVertex
100
AcDb2dVertex
 10
368.73485013751429
 20
1231.7199450344342
 30
0.0
  0
VERTEX
  5
87
100
AcDbEntity
  8
一般
370
               5
  6
Continuous
 62
               7
100
AcDbVertex
100
AcDb2dVertex
 10
471.22741155119854
 20
1232.9547951719485
 30
0.0
  0
VERTEX
  5
88
100
AcDbEntity
  8
一般
370
               5
  6
Continuous
 62
               7
100
AcDbVertex
100
AcDb2dVertex
 10
472.49237998474985
 20
1231.7199450344342
 30
0.0
  0
VERTEX
  5
89
100
AcDbEntity
  8
一般
370
               5
  6
Continuous
 62
               7
100
AcDbVertex
100
AcDb2dVertex
 10
472.49237998474985
 20
1231.7199450344342
 30
0.0
  0
VERTEX
  5
8A
100
AcDbEntity
  8
一般
370
               5
  6
Continuous
 62
               7
100
AcDbVertex
100
AcDb2dVertex
 10
471.25752984723567
 20
1230.4549766008831
 30
0.0
  0
SEQEND
  5
8B
100
AcDbEntity
  8
一般
370
               5
  6
Continuous
 62
               7
  0
POLYLINE
  5
8C
100
AcDbEntity
  8
一般
370
               5
  6
Continuous
 62
               7
100
AcDb2dPolyline
 66
               1
 10
0.0
 20
0.0
 30
0.0
 70
               1
 75
               5
  0
VERTEX
  5
8D
100
AcDbEntity
  8
一般
370
               5
  6
Continuous
 62
               7
100
AcDbVertex
100
AcDb2dVertex
 10
368.76496843355108
 20
1236.7201264633686
 30
0.0
  0
VERTEX
  5
8E
100
AcDbEntity
  8
一般
370
               5
  6
Continuous
 62
               7
100
AcDbVertex
100
AcDb2dVertex
 10
367.5
 20
1237.9549766008831
 30
0.0
  0
VERTEX
  5
8F
100
AcDbEntity
  8
一般
370
               5
  6
Continuous
 62
               7
100
AcDbVertex
100
AcDb2dVertex
 10
367.5
 20
1237.9549766008831
 30
0.0
  0
VERTEX
  5
90
100
AcDbEntity
  8
一般
370
               5
  6
Continuous
 62
               7
100
AcDbVertex
100
AcDb2dVertex
 10
368.73485013751429
 20
1239.2199450344342
 30
0.0
  0
VERTEX
  5
91
100
AcDbEntity
  8
一般
370
               5
  6
Continuous
 62
               7
100
AcDbVertex
100
AcDb2dVertex
 10
471.22741155119854
 20
1240.4547951719485
 30
0.0
  0
VERTEX
  5
92
100
AcDbEntity
  8
一般
370
               5
  6
Continuous
 62
               7
100
AcDbVertex
100
AcDb2dVertex
 10
472.49237998474985
 20
1239.2199450344342
 30
0.0
  0
VERTEX
  5
93
100
AcDbEntity
  8
一般
370
               5
  6
Continuous
 62
               7
100
AcDbVertex
100
AcDb2dVertex
 10
472.49237998474985
 20
1239.2199450344342
 30
0.0
  0
VERTEX
  5
94
100
AcDbEntity
  8
一般
370
               5
  6
Continuous
 62
               7
100
AcDbVertex
100
AcDb2dVertex
 10
471.25752984723567
 20
1237.9549766008831
 30
0.0
  0
SEQEND
  5
95
100
AcDbEntity
  8
一般
370
               5
  6
Continuous
 62
               7
  0
POLYLINE
  5
96
100
AcDbEntity
  8
一般
370
               5
  6
Continuous
 62
               7
100
AcDb2dPolyline
 66
               1
 10
0.0
 20
0.0
 30
0.0
 70
               1
 75
               5
  0
VERTEX
  5
97
100
AcDbEntity
  8
一般
370
               5
  6
Continuous
 62
               7
100
AcDbVertex
100
AcDb2dVertex
 10
368.76496843355108
 20
1244.2201264633686
 30
0.0
  0
VERTEX
  5
98
100
AcDbEntity
  8
一般
370
               5
  6
Continuous
 62
               7
100
AcDbVertex
100
AcDb2dVertex
 10
367.5
 20
1245.4549766008831
 30
0.0
  0
VERTEX
  5
99
100
AcDbEntity
  8
一般
370
               5
  6
Continuous
 62
               7
100
AcDbVertex
100
AcDb2dVertex
 10
367.5
 20
1245.4549766008831
 30
0.0
  0
VERTEX
  5
9A
100
AcDbEntity
  8
一般
370
               5
  6
Continuous
 62
               7
100
AcDbVertex
100
AcDb2dVertex
 10
368.73485013751429
 20
1246.7199450344342
 30
0.0
  0
VERTEX
  5
9B
100
AcDbEntity
  8
一般
370
               5
  6
Continuous
 62
               7
100
AcDbVertex
100
AcDb2dVertex
 10
471.22741155119854
 20
1247.9547951719485
 30
0.0
  0
VERTEX
  5
9C
100
AcDbEntity
  8
一般
370
               5
  6
Continuous
 62
               7
100
AcDbVertex
100
AcDb2dVertex
 10
472.49237998474985
 20
1246.7199450344342
 30
0.0
  0
VERTEX
  5
9D
100
AcDbEntity
  8
一般
370
               5
  6
Continuous
 62
               7
100
AcDbVertex
100
AcDb2dVertex
 10
472.49237998474985
 20
1246.7199450344342
 30
0.0
  0
VERTEX
  5
9E
100
AcDbEntity
  8
一般
370
               5
  6
Continuous
 62
               7
100
AcDbVertex
100
AcDb2dVertex
 10
471.25752984723567
 20
1245.4549766008831
 30
0.0
  0
SEQEND
  5
9F
100
AcDbEntity
  8
一般
370
               5
  6
Continuous
 62
               7
  0
POLYLINE
  5
A0
100
AcDbEntity
  8
一般
370
               5
  6
Continuous
 62
               7
100
AcDb2dPolyline
 66
               1
 10
0.0
 20
0.0
 30
0.0
 70
               1
 75
               5
  0
VERTEX
  5
A1
100
AcDbEntity
  8
一般
370
               5
  6
Continuous
 62
               7
100
AcDbVertex
100
AcDb2dVertex
 10
368.76496843355108
 20
1251.7201264633686
 30
0.0
  0
VERTEX
  5
A2
100
AcDbEntity
  8
一般
370
               5
  6
Continuous
 62
               7
100
AcDbVertex
100
AcDb2dVertex
 10
367.5
 20
1252.9549766008831
 30
0.0
  0
VERTEX
  5
A3
100
AcDbEntity
  8
一般
370
               5
  6
Continuous
 62
               7
100
AcDbVertex
100
AcDb2dVertex
 10
367.5
 20
1252.9549766008831
 30
0.0
  0
VERTEX
  5
A4
100
AcDbEntity
  8
一般
370
               5
  6
Continuous
 62
               7
100
AcDbVertex
100
AcDb2dVertex
 10
368.73485013751429
 20
1254.2199450344342
 30
0.0
  0
VERTEX
  5
A5
100
AcDbEntity
  8
一般
370
               5
  6
Continuous
 62
               7
100
AcDbVertex
100
AcDb2dVertex
 10
471.22741155119854
 20
1255.4547951719485
 30
0.0
  0
VERTEX
  5
A6
100
AcDbEntity
  8
一般
370
               5
  6
Continuous
 62
               7
100
AcDbVertex
100
AcDb2dVertex
 10
472.49237998474985
 20
1254.2199450344342
 30
0.0
  0
VERTEX
  5
A7
100
AcDbEntity
  8
一般
370
               5
  6
Continuous
 62
               7
100
AcDbVertex
100
AcDb2dVertex
 10
472.49237998474985
 20
1254.2199450344342
 30
0.0
  0
VERTEX
  5
A8
100
AcDbEntity
  8
一般
370
               5
  6
Continuous
 62
               7
100
AcDbVertex
100
AcDb2dVertex
 10
471.25752984723567
 20
1252.9549766008831
 30
0.0
  0
SEQEND
  5
A9
100
AcDbEntity
  8
一般
370
               5
  6
Continuous
 62
               7
  0
POLYLINE
  5
AA
100
AcDbEntity
  8
一般
370
               5
  6
Continuous
 62
               7
100
AcDb2dPolyline
 66
               1
 10
0.0
 20
0.0
 30
0.0
 70
               1
 75
               5
  0
VERTEX
  5
AB
100
AcDbEntity
  8
一般
370
               5
  6
Continuous
 62
               7
100
AcDbVertex
100
AcDb2dVertex
 10
368.76496843355108
 20
1259.2201264633686
 30
0.0
  0
VERTEX
  5
AC
100
AcDbEntity
  8
一般
370
               5
  6
Continuous
 62
               7
100
AcDbVertex
100
AcDb2dVertex
 10
367.5
 20
1260.4549766008831
 30
0.0
  0
VERTEX
  5
AD
100
AcDbEntity
  8
一般
370
               5
  6
Continuous
 62
               7
100
AcDbVertex
100
AcDb2dVertex
 10
367.5
 20
1260.4549766008831
 30
0.0
  0
VERTEX
  5
AE
100
AcDbEntity
  8
一般
370
               5
  6
Continuous
 62
               7
100
AcDbVertex
100
AcDb2dVertex
 10
368.73485013751429
 20
1261.7199450344342
 30
0.0
  0
VERTEX
  5
AF
100
AcDbEntity
  8
一般
370
               5
  6
Continuous
 62
               7
100
AcDbVertex
100
AcDb2dVertex
 10
471.22741155119854
 20
1262.9547951719485
 30
0.0
  0
VERTEX
  5
B0
100
AcDbEntity
  8
一般
370
               5
  6
Continuous
 62
               7
100
AcDbVertex
100
AcDb2dVertex
 10
472.49237998474985
 20
1261.7199450344342
 30
0.0
  0
VERTEX
  5
B1
100
AcDbEntity
  8
一般
370
               5
  6
Continuous
 62
               7
100
AcDbVertex
100
AcDb2dVertex
 10
472.49237998474985
 20
1261.7199450344342
 30
0.0
  0
VERTEX
  5
B2
100
AcDbEntity
  8
一般
370
               5
  6
Continuous
 62
               7
100
AcDbVertex
100
AcDb2dVertex
 10
471.25752984723567
 20
1260.4549766008831
 30
0.0
  0
SEQEND
  5
B3
100
AcDbEntity
  8
一般
370
               5
  6
Continuous
 62
               7
  0
POLYLINE
  5
B4
100
AcDbEntity
  8
一般
370
               5
  6
Continuous
 62
               7
100
AcDb2dPolyline
 66
               1
 10
0.0
 20
0.0
 30
0.0
 70
               1
 75
               5
  0
VERTEX
  5
B5
100
AcDbEntity
  8
一般
370
               5
  6
Continuous
 62
               7
100
AcDbVertex
100
AcDb2dVertex
 10
368.76496843355108
 20
1266.7201264633686
 30
0.0
  0
VERTEX
  5
B6
100
AcDbEntity
  8
一般
370
               5
  6
Continuous
 62
               7
100
AcDbVertex
100
AcDb2dVertex
 10
367.5
 20
1267.9549766008831
 30
0.0
  0
VERTEX
  5
B7
100
AcDbEntity
  8
一般
370
               5
  6
Continuous
 62
               7
100
AcDbVertex
100
AcDb2dVertex
 10
367.5
 20
1267.9549766008831
 30
0.0
  0
VERTEX
  5
B8
100
AcDbEntity
  8
一般
370
               5
  6
Continuous
 62
               7
100
AcDbVertex
100
AcDb2dVertex
 10
368.73485013751429
 20
1269.2199450344342
 30
0.0
  0
VERTEX
  5
B9
100
AcDbEntity
  8
一般
370
               5
  6
Continuous
 62
               7
100
AcDbVertex
100
AcDb2dVertex
 10
471.22741155119854
 20
1270.4547951719485
 30
0.0
  0
VERTEX
  5
BA
100
AcDbEntity
  8
一般
370
               5
  6
Continuous
 62
               7
100
AcDbVertex
100
AcDb2dVertex
 10
472.49237998474985
 20
1269.2199450344342
 30
0.0
  0
VERTEX
  5
BB
100
AcDbEntity
  8
一般
370
               5
  6
Continuous
 62
               7
100
AcDbVertex
100
AcDb2dVertex
 10
472.49237998474985
 20
1269.2199450344342
 30
0.0
  0
VERTEX
  5
BC
100
AcDbEntity
  8
一般
370
               5
  6
Continuous
 62
               7
100
AcDbVertex
100
AcDb2dVertex
 10
471.25752984723567
 20
1267.9549766008831
 30
0.0
  0
SEQEND
  5
BD
100
AcDbEntity
  8
一般
370
               5
  6
Continuous
 62
               7
  0
POLYLINE
  5
BE
100
AcDbEntity
  8
一般
370
               5
  6
Continuous
 62
               7
100
AcDb2dPolyline
 66
               1
 10
0.0
 20
0.0
 30
0.0
 70
               1
 75
               5
  0
VERTEX
  5
BF
100
AcDbEntity
  8
一般
370
               5
  6
Continuous
 62
               7
100
AcDbVertex
100
AcDb2dVertex
 10
368.76496843355108
 20
1274.2201264633686
 30
0.0
  0
VERTEX
  5
C0
100
AcDbEntity
  8
一般
370
               5
  6
Continuous
 62
               7
100
AcDbVertex
100
AcDb2dVertex
 10
367.5
 20
1275.4549766008831
 30
0.0
  0
VERTEX
  5
C1
100
AcDbEntity
  8
一般
370
               5
  6
Continuous
 62
               7
100
AcDbVertex
100
AcDb2dVertex
 10
367.5
 20
1275.4549766008831
 30
0.0
  0
VERTEX
  5
C2
100
AcDbEntity
  8
一般
370
               5
  6
Continuous
 62
               7
100
AcDbVertex
100
AcDb2dVertex
 10
368.73485013751429
 20
1276.7199450344342
 30
0.0
  0
VERTEX
  5
C3
100
AcDbEntity
  8
一般
370
               5
  6
Continuous
 62
               7
100
AcDbVertex
100
AcDb2dVertex
 10
471.22741155119854
 20
1277.9547951719485
 30
0.0
  0
VERTEX
  5
C4
100
AcDbEntity
  8
一般
370
               5
  6
Continuous
 62
               7
100
AcDbVertex
100
AcDb2dVertex
 10
472.49237998474985
 20
1276.7199450344342
 30
0.0
  0
VERTEX
  5
C5
100
AcDbEntity
  8
一般
370
               5
  6
Continuous
 62
               7
100
AcDbVertex
100
AcDb2dVertex
 10
472.49237998474985
 20
1276.7199450344342
 30
0.0
  0
VERTEX
  5
C6
100
AcDbEntity
  8
一般
370
               5
  6
Continuous
 62
               7
100
AcDbVertex
100
AcDb2dVertex
 10
471.25752984723567
 20
1275.4549766008831
 30
0.0
  0
SEQEND
  5
C7
100
AcDbEntity
  8
一般
370
               5
  6
Continuous
 62
               7
  0
POLYLINE
  5
C8
100
AcDbEntity
  8
一般
370
               5
  6
Continuous
 62
               7
100
AcDb2dPolyline
 66
               1
 10
0.0
 20
0.0
 30
0.0
 70
               1
 75
               5
  0
VERTEX
  5
C9
100
AcDbEntity
  8
一般
370
               5
  6
Continuous
 62
               7
100
AcDbVertex
100
AcDb2dVertex
 10
368.76496843355108
 20
1281.7201264633686
 30
0.0
  0
VERTEX
  5
CA
100
AcDbEntity
  8
一般
370
               5
  6
Continuous
 62
               7
100
AcDbVertex
100
AcDb2dVertex
 10
367.5
 20
1282.9549766008831
 30
0.0
  0
VERTEX
  5
CB
100
AcDbEntity
  8
一般
370
               5
  6
Continuous
 62
               7
100
AcDbVertex
100
AcDb2dVertex
 10
367.5
 20
1282.9549766008831
 30
0.0
  0
VERTEX
  5
CC
100
AcDbEntity
  8
一般
370
               5
  6
Continuous
 62
               7
100
AcDbVertex
100
AcDb2dVertex
 10
368.73485013751429
 20
1284.2199450344342
 30
0.0
  0
VERTEX
  5
CD
100
AcDbEntity
  8
一般
370
               5
  6
Continuous
 62
               7
100
AcDbVertex
100
AcDb2dVertex
 10
471.22741155119854
 20
1285.4547951719485
 30
0.0
  0
VERTEX
  5
CE
100
AcDbEntity
  8
一般
370
               5
  6
Continuous
 62
               7
100
AcDbVertex
100
AcDb2dVertex
 10
472.49237998474985
 20
1284.2199450344342
 30
0.0
  0
VERTEX
  5
CF
100
AcDbEntity
  8
一般
370
               5
  6
Continuous
 62
               7
100
AcDbVertex
100
AcDb2dVertex
 10
472.49237998474985
 20
1284.2199450344342
 30
0.0
  0
VERTEX
  5
D0
100
AcDbEntity
  8
一般
370
               5
  6
Continuous
 62
               7
100
AcDbVertex
100
AcDb2dVertex
 10
471.25752984723567
 20
1282.9549766008831
 30
0.0
  0
SEQEND
  5
D1
100
AcDbEntity
  8
一般
370
               5
  6
Continuous
 62
               7
  0
POLYLINE
  5
D2
100
AcDbEntity
  8
一般
370
               5
  6
Continuous
 62
               7
100
AcDb2dPolyline
 66
               1
 10
0.0
 20
0.0
 30
0.0
 70
               1
 75
               5
  0
VERTEX
  5
D3
100
AcDbEntity
  8
一般
370
               5
  6
Continuous
 62
               7
100
AcDbVertex
100
AcDb2dVertex
 10
368.76496843355108
 20
1289.2201264633686
 30
0.0
  0
VERTEX
  5
D4
100
AcDbEntity
  8
一般
370
               5
  6
Continuous
 62
               7
100
AcDbVertex
100
AcDb2dVertex
 10
367.5
 20
1290.4549766008831
 30
0.0
  0
VERTEX
  5
D5
100
AcDbEntity
  8
一般
370
               5
  6
Continuous
 62
               7
100
AcDbVertex
100
AcDb2dVertex
 10
367.5
 20
1290.4549766008831
 30
0.0
  0
VERTEX
  5
D6
100
AcDbEntity
  8
一般
370
               5
  6
Continuous
 62
               7
100
AcDbVertex
100
AcDb2dVertex
 10
368.73485013751429
 20
1291.7199450344342
 30
0.0
  0
VERTEX
  5
D7
100
AcDbEntity
  8
一般
370
               5
  6
Continuous
 62
               7
100
AcDbVertex
100
AcDb2dVertex
 10
471.22741155119854
 20
1292.9547951719485
 30
0.0
  0
VERTEX
  5
D8
100
AcDbEntity
  8
一般
370
               5
  6
Continuous
 62
               7
100
AcDbVertex
100
AcDb2dVertex
 10
472.49237998474985
 20
1291.7199450344342
 30
0.0
  0
VERTEX
  5
D9
100
AcDbEntity
  8
一般
370
               5
  6
Continuous
 62
               7
100
AcDbVertex
100
AcDb2dVertex
 10
472.49237998474985
 20
1291.7199450344342
 30
0.0
  0
VERTEX
  5
DA
100
AcDbEntity
  8
一般
370
               5
  6
Continuous
 62
               7
100
AcDbVertex
100
AcDb2dVertex
 10
471.25752984723567
 20
1290.4549766008831
 30
0.0
  0
SEQEND
  5
DB
100
AcDbEntity
  8
一般
370
               5
  6
Continuous
 62
               7
  0
POLYLINE
  5
DC
100
AcDbEntity
  8
一般
370
               5
  6
Continuous
 62
               7
100
AcDb2dPolyline
 66
               1
 10
0.0
 20
0.0
 30
0.0
 70
               1
 75
               5
  0
VERTEX
  5
DD
100
AcDbEntity
  8
一般
370
               5
  6
Continuous
 62
               7
100
AcDbVertex
100
AcDb2dVertex
 10
368.76496843355108
 20
1296.7201264633686
 30
0.0
  0
VERTEX
  5
DE
100
AcDbEntity
  8
一般
370
               5
  6
Continuous
 62
               7
100
AcDbVertex
100
AcDb2dVertex
 10
367.5
 20
1297.9549766008831
 30
0.0
  0
VERTEX
  5
DF
100
AcDbEntity
  8
一般
370
               5
  6
Continuous
 62
               7
100
AcDbVertex
100
AcDb2dVertex
 10
367.5
 20
1297.9549766008831
 30
0.0
  0
VERTEX
  5
E0
100
AcDbEntity
  8
一般
370
               5
  6
Continuous
 62
               7
100
AcDbVertex
100
AcDb2dVertex
 10
368.73485013751429
 20
1299.2199450344342
 30
0.0
  0
VERTEX
  5
E1
100
AcDbEntity
  8
一般
370
               5
  6
Continuous
 62
               7
100
AcDbVertex
100
AcDb2dVertex
 10
471.22741155119854
 20
1300.4547951719485
 30
0.0
  0
VERTEX
  5
E2
100
AcDbEntity
  8
一般
370
               5
  6
Continuous
 62
               7
100
AcDbVertex
100
AcDb2dVertex
 10
472.49237998474985
 20
1299.2199450344342
 30
0.0
  0
VERTEX
  5
E3
100
AcDbEntity
  8
一般
370
               5
  6
Continuous
 62
               7
100
AcDbVertex
100
AcDb2dVertex
 10
472.49237998474985
 20
1299.2199450344342
 30
0.0
  0
VERTEX
  5
E4
100
AcDbEntity
  8
一般
370
               5
  6
Continuous
 62
               7
100
AcDbVertex
100
AcDb2dVertex
 10
471.25752984723567
 20
1297.9549766008831
 30
0.0
  0
SEQEND
  5
E5
100
AcDbEntity
  8
一般
370
               5
  6
Continuous
 62
               7
  0
POLYLINE
  5
E6
100
AcDbEntity
  8
一般
370
               5
  6
Continuous
 62
               7
100
AcDb2dPolyline
 66
               1
 10
0.0
 20
0.0
 30
0.0
 70
               1
 75
               5
  0
VERTEX
  5
E7
100
AcDbEntity
  8
一般
370
               5
  6
Continuous
 62
               7
100
AcDbVertex
100
AcDb2dVertex
 10
368.95264203876673
 20
1206.1432172304744
 30
0.0
  0
VERTEX
  5
E8
100
AcDbEntity
  8
一般
370
               5
  6
Continuous
 62
               7
100
AcDbVertex
100
AcDb2dVertex
 10
367.68767360521565
 20
1207.3780673679887
 30
0.0
  0
VERTEX
  5
E9
100
AcDbEntity
  8
一般
370
               5
  6
Continuous
 62
               7
100
AcDbVertex
100
AcDb2dVertex
 10
367.68767360521565
 20
1207.3780673679887
 30
0.0
  0
VERTEX
  5
EA
100
AcDbEntity
  8
一般
370
               5
  6
Continuous
 62
               7
100
AcDbVertex
100
AcDb2dVertex
 10
368.92252374272994
 20
1208.6430358015398
 30
0.0
  0
VERTEX
  5
EB
100
AcDbEntity
  8
一般
370
               5
  6
Continuous
 62
               7
100
AcDbVertex
100
AcDb2dVertex
 10
471.41508515641419
 20
1209.8778859390543
 30
0.0
  0
VERTEX
  5
EC
100
AcDbEntity
  8
一般
370
               5
  6
Continuous
 62
               7
100
AcDbVertex
100
AcDb2dVertex
 10
472.6800535899655
 20
1208.6430358015398
 30
0.0
  0
VERTEX
  5
ED
100
AcDbEntity
  8
一般
370
               5
  6
Continuous
 62
               7
100
AcDbVertex
100
AcDb2dVertex
 10
472.6800535899655
 20
1208.6430358015398
 30
0.0
  0
VERTEX
  5
EE
100
AcDbEntity
  8
一般
370
               5
  6
Continuous
 62
               7
100
AcDbVertex
100
AcDb2dVertex
 10
471.44520345245132
 20
1207.3780673679887
 30
0.0
  0
SEQEND
  5
EF
100
AcDbEntity
  8
一般
370
               5
  6
Continuous
 62
               7
  0
POLYLINE
  5
F0
100
AcDbEntity
  8
一般
370
               5
  6
Continuous
 62
               7
100
AcDb2dPolyline
 66
               1
 10
0.0
 20
0.0
 30
0.0
 70
               1
 75
               5
  0
VERTEX
  5
F1
100
AcDbEntity
  8
一般
370
               5
  6
Continuous
 62
               7
100
AcDbVertex
100
AcDb2dVertex
 10
368.95264203876673
 20
1213.6432172304744
 30
0.0
  0
VERTEX
  5
F2
100
AcDbEntity
  8
一般
370
               5
  6
Continuous
 62
               7
100
AcDbVertex
100
AcDb2dVertex
 10
367.68767360521565
 20
1214.8780673679887
 30
0.0
  0
VERTEX
  5
F3
100
AcDbEntity
  8
一般
370
               5
  6
Continuous
 62
               7
100
AcDbVertex
100
AcDb2dVertex
 10
367.68767360521565
 20
1214.8780673679887
 30
0.0
  0
VERTEX
  5
F4
100
AcDbEntity
  8
一般
370
               5
  6
Continuous
 62
               7
100
AcDbVertex
100
AcDb2dVertex
 10
368.92252374272994
 20
1216.1430358015398
 30
0.0
  0
VERTEX
  5
F5
100
AcDbEntity
  8
一般
370
               5
  6
Continuous
 62
               7
100
AcDbVertex
100
AcDb2dVertex
 10
471.41508515641419
 20
1217.3778859390543
 30
0.0
  0
VERTEX
  5
F6
100
AcDbEntity
  8
一般
370
               5
  6
Continuous
 62
               7
100
AcDbVertex
100
AcDb2dVertex
 10
472.6800535899655
 20
1216.1430358015398
 30
0.0
  0
VERTEX
  5
F7
100
AcDbEntity
  8
一般
370
               5
  6
Continuous
 62
               7
100
AcDbVertex
100
AcDb2dVertex
 10
472.6800535899655
 20
1216.1430358015398
 30
0.0
  0
VERTEX
  5
F8
100
AcDbEntity
  8
一般
370
               5
  6
Continuous
 62
               7
100
AcDbVertex
100
AcDb2dVertex
 10
471.44520345245132
 20
1214.8780673679887
 30
0.0
  0
SEQEND
  5
F9
100
AcDbEntity
  8
一般
370
               5
  6
Continuous
 62
               7
  0
LWPOLYLINE
  5
FA
100
AcDbEntity
  8
一般
370
              15
  6
Continuous
 62
               7
100
AcDbPolyline
 90
       11
 70
             128
 10
462.5
 20
936.27016653792589
 42
0.4051859740559264
 10
460.02521962469416
 20
1016.2823423995658
 42
0.405185974055927
 10
379.97478037530573
 20
1016.2823423995658
 42
0.4051859740559264
 10
377.5
 20
936.27016653792589
 10
377.5
 20
925.0
 10
340.0
 20
925.0
 10
340.0
 20
1200.0
 10
500.0
 20
1200.0
 10
500.0
 20
925.0
 10
462.5
 20
925.0
 10
462.5
 20
938.59576936615747
  0
LINE
  5
FB
100
AcDbEntity
  8
一般
370
               5
  6
Continuous
 62
               7
100
AcDbLine
 10
1209.3759210664259
 20
717.5
 30
0.0
 11
1214.3757396243241
 21
717.5
 31
0.0
  0
LINE
  5
FC
100
AcDbEntity
  8
一般
370
               5
  6
Continuous
 62
               7
100
AcDbLine
 10
1216.8759210664259
 20
717.5
 30
0.0
 11
1222.4549099849919
 21
717.5
 31
0.0
  0
LINE
  5
FD
100
AcDbEntity
  8
一般
370
               5
  6
Continuous
 62
               7
100
AcDbLine
 10
1224.955091427094
 20
717.5
 30
0.0
 11
1229.9549099849919
 21
717.5
 31
0.0
  0
LINE
  5
FE
100
AcDbEntity
  8
一般
370
               5
  6
Continuous
 62
               7
100
AcDbLine
 10
1232.455091427094
 20
717.5
 30
0.0
 11
1237.4549099849919
 21
717.5
 31
0.0
  0
LINE
  5
FF
100
AcDbEntity
  8
一般
370
               5
  6
Continuous
 62
               7
100
AcDbLine
 10
1239.955091427094
 20
717.5
 30
0.0
 11
1244.9549099849919
 21
717.5
 31
0.0
  0
LINE
  5
100
100
AcDbEntity
  8
一般
370
               5
  6
Continuous
 62
               7
100
AcDbLine
 10
1247.455091427094
 20
717.5
 30
0.0
 11
1252.4549099849919
 21
717.5
 31
0.0
  0
LINE
  5
101
100
AcDbEntity
  8
一般
370
               5
  6
Continuous
 62
               7
100
AcDbLine
 10
1254.955091427094
 20
717.5
 30
0.0
 11
1259.9549099849919
 21
717.5
 31
0.0
  0
LINE
  5
102
100
AcDbEntity
  8
一般
370
               5
  6
Continuous
 62
               7
100
AcDbLine
 10
1262.455091427094
 20
717.5
 30
0.0
 11
1267.4549099849919
 21
717.5
 31
0.0
  0
LINE
  5
103
100
AcDbEntity
  8
一般
370
               5
  6
Continuous
 62
               7
100
AcDbLine
 10
1269.955091427094
 20
717.5
 30
0.0
 11
1274.9549099849919
 21
717.5
 31
0.0
  0
LINE
  5
104
100
AcDbEntity
  8
一般
370
               5
  6
Continuous
 62
               7
100
AcDbLine
 10
1277.455091427094
 20
717.5
 30
0.0
 11
1282.4549099849919
 21
717.5
 31
0.0
  0
LINE
  5
105
100
AcDbEntity
  8
一般
370
               5
  6
Continuous
 62
               7
100
AcDbLine
 10
1284.955091427094
 20
717.5
 30
0.0
 11
1289.9549099849919
 21
717.5
 31
0.0
  0
LINE
  5
106
100
AcDbEntity
  8
一般
370
               5
  6
Continuous
 62
               7
100
AcDbLine
 10
1292.455091427094
 20
717.5
 30
0.0
 11
1297.4549099849919
 21
717.5
 31
0.0
  0
POLYLINE
  5
107
100
AcDbEntity
  8
一般
370
               5
  6
Continuous
 62
               7
100
AcDb2dPolyline
 66
               1
 10
0.0
 20
0.0
 30
0.0
 75
               5
  0
VERTEX
  5
108
100
AcDbEntity
  8
一般
370
               5
  6
Continuous
 62
               7
100
AcDbVertex
100
AcDb2dVertex
 10
1298.8105131138409
 20
622.5
 30
0.0
  0
VERTEX
  5
109
100
AcDbEntity
  8
一般
370
               5
  6
Continuous
 62
               7
100
AcDbVertex
100
AcDb2dVertex
 10
1299.5452048280515
 20
622.5
 30
0.0
  0
VERTEX
  5
10A
100
AcDbEntity
  8
一般
370
               5
  6
Continuous
 62
               7
100
AcDbVertex
100
AcDb2dVertex
 10
1299.5452048280515
 20
683.47941227947558
 30
0.0
  0
SEQEND
  5
10B
100
AcDbEntity
  8
一般
370
               5
  6
Continuous
 62
               7
  0
LINE
  5
10C
100
AcDbEntity
  8
一般
370
               5
  6
Continuous
 62
               7
100
AcDbLine
 10
1296.3103316717388
 20
622.5
 30
0.0
 11
1291.3105131138409
 21
622.5
 31
0.0
  0
LINE
  5
10D
100
AcDbEntity
  8
一般
370
               5
  6
Continuous
 62
               7
100
AcDbLine
 10
1288.8103316717388
 20
622.5
 30
0.0
 11
1283.8105131138409
 21
622.5
 31
0.0
  0
LINE
  5
10E
100
AcDbEntity
  8
一般
370
               5
  6
Continuous
 62
               7
100
AcDbLine
 10
1281.3103316717388
 20
622.5
 30
0.0
 11
1276.3105131138409
 21
622.5
 31
0.0
  0
LINE
  5
10F
100
AcDbEntity
  8
一般
370
               5
  6
Continuous
 62
               7
100
AcDbLine
 10
1273.8103316717388
 20
622.5
 30
0.0
 11
1268.8105131138409
 21
622.5
 31
0.0
  0
LINE
  5
110
100
AcDbEntity
  8
一般
370
               5
  6
Continuous
 62
               7
100
AcDbLine
 10
1266.3103316717388
 20
622.5
 30
0.0
 11
1261.3105131138409
 21
622.5
 31
0.0
  0
LINE
  5
111
100
AcDbEntity
  8
一般
370
               5
  6
Continuous
 62
               7
100
AcDbLine
 10
1258.8103316717388
 20
622.5
 30
0.0
 11
1253.8105131138409
 21
622.5
 31
0.0
  0
LINE
  5
112
100
AcDbEntity
  8
一般
370
               5
  6
Continuous
 62
               7
100
AcDbLine
 10
1251.3103316717388
 20
622.5
 30
0.0
 11
1246.3105131138409
 21
622.5
 31
0.0
  0
LINE
  5
113
100
AcDbEntity
  8
一般
370
               5
  6
Continuous
 62
               7
100
AcDbLine
 10
1243.8103316717388
 20
622.5
 30
0.0
 11
1238.8105131138409
 21
622.5
 31
0.0
  0
LINE
  5
114
100
AcDbEntity
  8
一般
370
               5
  6
Continuous
 62
               7
100
AcDbLine
 10
1236.3103316717388
 20
622.5
 30
0.0
 11
1231.3105131138409
 21
622.5
 31
0.0
  0
LINE
  5
115
100
AcDbEntity
  8
一般
370
               5
  6
Continuous
 62
               7
100
AcDbLine
 10
1228.8103316717388
 20
622.5
 30
0.0
 11
1223.8105131138409
 21
622.5
 31
0.0
  0
LINE
  5
116
100
AcDbEntity
  8
一般
370
               5
  6
Continuous
 62
               7
100
AcDbLine
 10
1221.3103316717388
 20
622.5
 30
0.0
 11
1215.7313427531731
 21
622.5
 31
0.0
  0
LINE
  5
117
100
AcDbEntity
  8
一般
370
               5
  6
Continuous
 62
               7
100
AcDbLine
 10
1213.231161311071
 20
622.5
 30
0.0
 11
1208.2313427531731
 21
622.5
 31
0.0
  0
POLYLINE
  5
118
100
AcDbEntity
  8
一般
370
               5
  6
Continuous
 62
               7
100
AcDb2dPolyline
 66
               1
 10
0.0
 20
0.0
 30
0.0
 75
               5
  0
VERTEX
  5
119
100
AcDbEntity
  8
一般
370
               5
  6
Continuous
 62
               7
100
AcDbVertex
100
AcDb2dVertex
 10
1205.731161311071
 20
622.5
 30
0.0
  0
VERTEX
  5
11A
100
AcDbEntity
  8
一般
370
               5
  6
Continuous
 62
               7
100
AcDbVertex
100
AcDb2dVertex
 10
1199.5452048280515
 20
622.5
 30
0.0
  0
VERTEX
  5
11B
100
AcDbEntity
  8
一般
370
               5
  6
Continuous
 62
               7
100
AcDbVertex
100
AcDb2dVertex
 10
1199.5452048280515
 20
717.5
 30
0.0
  0
VERTEX
  5
11C
100
AcDbEntity
  8
一般
370
               5
  6
Continuous
 62
               7
100
AcDbVertex
100
AcDb2dVertex
 10
1206.8757396243241
 20
717.5
 30
0.0
  0
SEQEND
  5
11D
100
AcDbEntity
  8
一般
370
               5
  6
Continuous
 62
               7
  0
POLYLINE
  5
11E
100
AcDbEntity
  8
一般
370
               5
  6
Continuous
 62
               7
100
AcDb2dPolyline
 66
               1
 10
0.0
 20
0.0
 30
0.0
 70
               1
 75
               5
  0
VERTEX
  5
11F
100
AcDbEntity
  8
一般
370
               5
  6
Continuous
 62
               7
100
AcDbVertex
100
AcDb2dVertex
 10
1221.2653312914201
 20
618.76496843355108
 30
0.0
  0
VERTEX
  5
120
100
AcDbEntity
  8
一般
370
               5
  6
Continuous
 62
               7
100
AcDbVertex
100
AcDb2dVertex
 10
1222.5001814289344
 20
617.5
 30
0.0
  0
VERTEX
  5
121
100
AcDbEntity
  8
一般
370
               5
  6
Continuous
 62
               7
100
AcDbVertex
100
AcDb2dVertex
 10
1222.5001814289344
 20
617.5
 30
0.0
  0
VERTEX
  5
122
100
AcDbEntity
  8
一般
370
               5
  6
Continuous
 62
               7
100
AcDbVertex
100
AcDb2dVertex
 10
1223.7651498624857
 20
618.73485013751417
 30
0.0
  0
VERTEX
  5
123
100
AcDbEntity
  8
一般
370
               5
  6
Continuous
 62
               7
100
AcDbVertex
100
AcDb2dVertex
 10
1225.0
 20
721.22741155119854
 30
0.0
  0
VERTEX
  5
124
100
AcDbEntity
  8
一般
370
               5
  6
Continuous
 62
               7
100
AcDbVertex
100
AcDb2dVertex
 10
1223.7651498624857
 20
722.49237998474985
 30
0.0
  0
VERTEX
  5
125
100
AcDbEntity
  8
一般
370
               5
  6
Continuous
 62
               7
100
AcDbVertex
100
AcDb2dVertex
 10
1223.7651498624857
 20
722.49237998474985
 30
0.0
  0
VERTEX
  5
126
100
AcDbEntity
  8
一般
370
               5
  6
Continuous
 62
               7
100
AcDbVertex
100
AcDb2dVertex
 10
1222.5001814289344
 20
721.25752984723567
 30
0.0
  0
SEQEND
  5
127
100
AcDbEntity
  8
一般
370
               5
  6
Continuous
 62
               7
  0
POLYLINE
  5
128
100
AcDbEntity
  8
一般
370
               5
  6
Continuous
 62
               7
100
AcDb2dPolyline
 66
               1
 10
0.0
 20
0.0
 30
0.0
 70
               1
 75
               5
  0
VERTEX
  5
129
100
AcDbEntity
  8
一般
370
               5
  6
Continuous
 62
               7
100
AcDbVertex
100
AcDb2dVertex
 10
1228.7653312914201
 20
618.76496843355108
 30
0.0
  0
VERTEX
  5
12A
100
AcDbEntity
  8
一般
370
               5
  6
Continuous
 62
               7
100
AcDbVertex
100
AcDb2dVertex
 10
1230.0001814289344
 20
617.5
 30
0.0
  0
VERTEX
  5
12B
100
AcDbEntity
  8
一般
370
               5
  6
Continuous
 62
               7
100
AcDbVertex
100
AcDb2dVertex
 10
1230.0001814289344
 20
617.5
 30
0.0
  0
VERTEX
  5
12C
100
AcDbEntity
  8
一般
370
               5
  6
Continuous
 62
               7
100
AcDbVertex
100
AcDb2dVertex
 10
1231.2651498624857
 20
618.73485013751417
 30
0.0
  0
VERTEX
  5
12D
100
AcDbEntity
  8
一般
370
               5
  6
Continuous
 62
               7
100
AcDbVertex
100
AcDb2dVertex
 10
1232.5
 20
721.22741155119854
 30
0.0
  0
VERTEX
  5
12E
100
AcDbEntity
  8
一般
370
               5
  6
Continuous
 62
               7
100
AcDbVertex
100
AcDb2dVertex
 10
1231.2651498624857
 20
722.49237998474985
 30
0.0
  0
VERTEX
  5
12F
100
AcDbEntity
  8
一般
370
               5
  6
Continuous
 62
               7
100
AcDbVertex
100
AcDb2dVertex
 10
1231.2651498624857
 20
722.49237998474985
 30
0.0
  0
VERTEX
  5
130
100
AcDbEntity
  8
一般
370
               5
  6
Continuous
 62
               7
100
AcDbVertex
100
AcDb2dVertex
 10
1230.0001814289344
 20
721.25752984723567
 30
0.0
  0
SEQEND
  5
131
100
AcDbEntity
  8
一般
370
               5
  6
Continuous
 62
               7
  0
POLYLINE
  5
132
100
AcDbEntity
  8
一般
370
               5
  6
Continuous
 62
               7
100
AcDb2dPolyline
 66
               1
 10
0.0
 20
0.0
 30
0.0
 70
               1
 75
               5
  0
VERTEX
  5
133
100
AcDbEntity
  8
一般
370
               5
  6
Continuous
 62
               7
100
AcDbVertex
100
AcDb2dVertex
 10
1236.2653312914201
 20
618.76496843355108
 30
0.0
  0
VERTEX
  5
134
100
AcDbEntity
  8
一般
370
               5
  6
Continuous
 62
               7
100
AcDbVertex
100
AcDb2dVertex
 10
1237.5001814289344
 20
617.5
 30
0.0
  0
VERTEX
  5
135
100
AcDbEntity
  8
一般
370
               5
  6
Continuous
 62
               7
100
AcDbVertex
100
AcDb2dVertex
 10
1237.5001814289344
 20
617.5
 30
0.0
  0
VERTEX
  5
136
100
AcDbEntity
  8
一般
370
               5
  6
Continuous
 62
               7
100
AcDbVertex
100
AcDb2dVertex
 10
1238.7651498624857
 20
618.73485013751417
 30
0.0
  0
VERTEX
  5
137
100
AcDbEntity
  8
一般
370
               5
  6
Continuous
 62
               7
100
AcDbVertex
100
AcDb2dVertex
 10
1240.0
 20
721.22741155119854
 30
0.0
  0
VERTEX
  5
138
100
AcDbEntity
  8
一般
370
               5
  6
Continuous
 62
               7
100
AcDbVertex
100
AcDb2dVertex
 10
1238.7651498624857
 20
722.49237998474985
 30
0.0
  0
VERTEX
  5
139
100
AcDbEntity
  8
一般
370
               5
  6
Continuous
 62
               7
100
AcDbVertex
100
AcDb2dVertex
 10
1238.7651498624857
 20
722.49237998474985
 30
0.0
  0
VERTEX
  5
13A
100
AcDbEntity
  8
一般
370
               5
  6
Continuous
 62
               7
100
AcDbVertex
100
AcDb2dVertex
 10
1237.5001814289344
 20
721.25752984723567
 30
0.0
  0
SEQEND
  5
13B
100
AcDbEntity
  8
一般
370
               5
  6
Continuous
 62
               7
  0
POLYLINE
  5
13C
100
AcDbEntity
  8
一般
370
               5
  6
Continuous
 62
               7
100
AcDb2dPolyline
 66
               1
 10
0.0
 20
0.0
 30
0.0
 70
               1
 75
               5
  0
VERTEX
  5
13D
100
AcDbEntity
  8
一般
370
               5
  6
Continuous
 62
               7
100
AcDbVertex
100
AcDb2dVertex
 10
1243.7653312914201
 20
618.76496843355108
 30
0.0
  0
VERTEX
  5
13E
100
AcDbEntity
  8
一般
370
               5
  6
Continuous
 62
               7
100
AcDbVertex
100
AcDb2dVertex
 10
1245.0001814289344
 20
617.5
 30
0.0
  0
VERTEX
  5
13F
100
AcDbEntity
  8
一般
370
               5
  6
Continuous
 62
               7
100
AcDbVertex
100
AcDb2dVertex
 10
1245.0001814289344
 20
617.5
 30
0.0
  0
VERTEX
  5
140
100
AcDbEntity
  8
一般
370
               5
  6
Continuous
 62
               7
100
AcDbVertex
100
AcDb2dVertex
 10
1246.2651498624857
 20
618.73485013751417
 30
0.0
  0
VERTEX
  5
141
100
AcDbEntity
  8
一般
370
               5
  6
Continuous
 62
               7
100
AcDbVertex
100
AcDb2dVertex
 10
1247.5
 20
721.22741155119854
 30
0.0
  0
VERTEX
  5
142
100
AcDbEntity
  8
一般
370
               5
  6
Continuous
 62
               7
100
AcDbVertex
100
AcDb2dVertex
 10
1246.2651498624857
 20
722.49237998474985
 30
0.0
  0
VERTEX
  5
143
100
AcDbEntity
  8
一般
370
               5
  6
Continuous
 62
               7
100
AcDbVertex
100
AcDb2dVertex
 10
1246.2651498624857
 20
722.49237998474985
 30
0.0
  0
VERTEX
  5
144
100
AcDbEntity
  8
一般
370
               5
  6
Continuous
 62
               7
100
AcDbVertex
100
AcDb2dVertex
 10
1245.0001814289344
 20
721.25752984723567
 30
0.0
  0
SEQEND
  5
145
100
AcDbEntity
  8
一般
370
               5
  6
Continuous
 62
               7
  0
POLYLINE
  5
146
100
AcDbEntity
  8
一般
370
               5
  6
Continuous
 62
               7
100
AcDb2dPolyline
 66
               1
 10
0.0
 20
0.0
 30
0.0
 70
               1
 75
               5
  0
VERTEX
  5
147
100
AcDbEntity
  8
一般
370
               5
  6
Continuous
 62
               7
100
AcDbVertex
100
AcDb2dVertex
 10
1251.2653312914201
 20
618.76496843355108
 30
0.0
  0
VERTEX
  5
148
100
AcDbEntity
  8
一般
370
               5
  6
Continuous
 62
               7
100
AcDbVertex
100
AcDb2dVertex
 10
1252.5001814289344
 20
617.5
 30
0.0
  0
VERTEX
  5
149
100
AcDbEntity
  8
一般
370
               5
  6
Continuous
 62
               7
100
AcDbVertex
100
AcDb2dVertex
 10
1252.5001814289344
 20
617.5
 30
0.0
  0
VERTEX
  5
14A
100
AcDbEntity
  8
一般
370
               5
  6
Continuous
 62
               7
100
AcDbVertex
100
AcDb2dVertex
 10
1253.7651498624857
 20
618.73485013751417
 30
0.0
  0
VERTEX
  5
14B
100
AcDbEntity
  8
一般
370
               5
  6
Continuous
 62
               7
100
AcDbVertex
100
AcDb2dVertex
 10
1255.0
 20
721.22741155119854
 30
0.0
  0
VERTEX
  5
14C
100
AcDbEntity
  8
一般
370
               5
  6
Continuous
 62
               7
100
AcDbVertex
100
AcDb2dVertex
 10
1253.7651498624857
 20
722.49237998474985
 30
0.0
  0
VERTEX
  5
14D
100
AcDbEntity
  8
一般
370
               5
  6
Continuous
 62
               7
100
AcDbVertex
100
AcDb2dVertex
 10
1253.7651498624857
 20
722.49237998474985
 30
0.0
  0
VERTEX
  5
14E
100
AcDbEntity
  8
一般
370
               5
  6
Continuous
 62
               7
100
AcDbVertex
100
AcDb2dVertex
 10
1252.5001814289344
 20
721.25752984723567
 30
0.0
  0
SEQEND
  5
14F
100
AcDbEntity
  8
一般
370
               5
  6
Continuous
 62
               7
  0
POLYLINE
  5
150
100
AcDbEntity
  8
一般
370
               5
  6
Continuous
 62
               7
100
AcDb2dPolyline
 66
               1
 10
0.0
 20
0.0
 30
0.0
 70
               1
 75
               5
  0
VERTEX
  5
151
100
AcDbEntity
  8
一般
370
               5
  6
Continuous
 62
               7
100
AcDbVertex
100
AcDb2dVertex
 10
1258.7653312914201
 20
618.76496843355108
 30
0.0
  0
VERTEX
  5
152
100
AcDbEntity
  8
一般
370
               5
  6
Continuous
 62
               7
100
AcDbVertex
100
AcDb2dVertex
 10
1260.0001814289344
 20
617.5
 30
0.0
  0
VERTEX
  5
153
100
AcDbEntity
  8
一般
370
               5
  6
Continuous
 62
               7
100
AcDbVertex
100
AcDb2dVertex
 10
1260.0001814289344
 20
617.5
 30
0.0
  0
VERTEX
  5
154
100
AcDbEntity
  8
一般
370
               5
  6
Continuous
 62
               7
100
AcDbVertex
100
AcDb2dVertex
 10
1261.2651498624857
 20
618.73485013751417
 30
0.0
  0
VERTEX
  5
155
100
AcDbEntity
  8
一般
370
               5
  6
Continuous
 62
               7
100
AcDbVertex
100
AcDb2dVertex
 10
1262.5
 20
721.22741155119854
 30
0.0
  0
VERTEX
  5
156
100
AcDbEntity
  8
一般
370
               5
  6
Continuous
 62
               7
100
AcDbVertex
100
AcDb2dVertex
 10
1261.2651498624857
 20
722.49237998474985
 30
0.0
  0
VERTEX
  5
157
100
AcDbEntity
  8
一般
370
               5
  6
Continuous
 62
               7
100
AcDbVertex
100
AcDb2dVertex
 10
1261.2651498624857
 20
722.49237998474985
 30
0.0
  0
VERTEX
  5
158
100
AcDbEntity
  8
一般
370
               5
  6
Continuous
 62
               7
100
AcDbVertex
100
AcDb2dVertex
 10
1260.0001814289344
 20
721.25752984723567
 30
0.0
  0
SEQEND
  5
159
100
AcDbEntity
  8
一般
370
               5
  6
Continuous
 62
               7
  0
POLYLINE
  5
15A
100
AcDbEntity
  8
一般
370
               5
  6
Continuous
 62
               7
100
AcDb2dPolyline
 66
               1
 10
0.0
 20
0.0
 30
0.0
 70
               1
 75
               5
  0
VERTEX
  5
15B
100
AcDbEntity
  8
一般
370
               5
  6
Continuous
 62
               7
100
AcDbVertex
100
AcDb2dVertex
 10
1266.2653312914201
 20
618.76496843355108
 30
0.0
  0
VERTEX
  5
15C
100
AcDbEntity
  8
一般
370
               5
  6
Continuous
 62
               7
100
AcDbVertex
100
AcDb2dVertex
 10
1267.5001814289344
 20
617.5
 30
0.0
  0
VERTEX
  5
15D
100
AcDbEntity
  8
一般
370
               5
  6
Continuous
 62
               7
100
AcDbVertex
100
AcDb2dVertex
 10
1267.5001814289344
 20
617.5
 30
0.0
  0
VERTEX
  5
15E
100
AcDbEntity
  8
一般
370
               5
  6
Continuous
 62
               7
100
AcDbVertex
100
AcDb2dVertex
 10
1268.7651498624857
 20
618.73485013751417
 30
0.0
  0
VERTEX
  5
15F
100
AcDbEntity
  8
一般
370
               5
  6
Continuous
 62
               7
100
AcDbVertex
100
AcDb2dVertex
 10
1270.0
 20
721.22741155119854
 30
0.0
  0
VERTEX
  5
160
100
AcDbEntity
  8
一般
370
               5
  6
Continuous
 62
               7
100
AcDbVertex
100
AcDb2dVertex
 10
1268.7651498624857
 20
722.49237998474985
 30
0.0
  0
VERTEX
  5
161
100
AcDbEntity
  8
一般
370
               5
  6
Continuous
 62
               7
100
AcDbVertex
100
AcDb2dVertex
 10
1268.7651498624857
 20
722.49237998474985
 30
0.0
  0
VERTEX
  5
162
100
AcDbEntity
  8
一般
370
               5
  6
Continuous
 62
               7
100
AcDbVertex
100
AcDb2dVertex
 10
1267.5001814289344
 20
721.25752984723567
 30
0.0
  0
SEQEND
  5
163
100
AcDbEntity
  8
一般
370
               5
  6
Continuous
 62
               7
  0
POLYLINE
  5
164
100
AcDbEntity
  8
一般
370
               5
  6
Continuous
 62
               7
100
AcDb2dPolyline
 66
               1
 10
0.0
 20
0.0
 30
0.0
 70
               1
 75
               5
  0
VERTEX
  5
165
100
AcDbEntity
  8
一般
370
               5
  6
Continuous
 62
               7
100
AcDbVertex
100
AcDb2dVertex
 10
1273.7653312914201
 20
618.76496843355108
 30
0.0
  0
VERTEX
  5
166
100
AcDbEntity
  8
一般
370
               5
  6
Continuous
 62
               7
100
AcDbVertex
100
AcDb2dVertex
 10
1275.0001814289344
 20
617.5
 30
0.0
  0
VERTEX
  5
167
100
AcDbEntity
  8
一般
370
               5
  6
Continuous
 62
               7
100
AcDbVertex
100
AcDb2dVertex
 10
1275.0001814289344
 20
617.5
 30
0.0
  0
VERTEX
  5
168
100
AcDbEntity
  8
一般
370
               5
  6
Continuous
 62
               7
100
AcDbVertex
100
AcDb2dVertex
 10
1276.2651498624857
 20
618.73485013751417
 30
0.0
  0
VERTEX
  5
169
100
AcDbEntity
  8
一般
370
               5
  6
Continuous
 62
               7
100
AcDbVertex
100
AcDb2dVertex
 10
1277.5
 20
721.22741155119854
 30
0.0
  0
VERTEX
  5
16A
100
AcDbEntity
  8
一般
370
               5
  6
Continuous
 62
               7
100
AcDbVertex
100
AcDb2dVertex
 10
1276.2651498624857
 20
722.49237998474985
 30
0.0
  0
VERTEX
  5
16B
100
AcDbEntity
  8
一般
370
               5
  6
Continuous
 62
               7
100
AcDbVertex
100
AcDb2dVertex
 10
1276.2651498624857
 20
722.49237998474985
 30
0.0
  0
VERTEX
  5
16C
100
AcDbEntity
  8
一般
370
               5
  6
Continuous
 62
               7
100
AcDbVertex
100
AcDb2dVertex
 10
1275.0001814289344
 20
721.25752984723567
 30
0.0
  0
SEQEND
  5
16D
100
AcDbEntity
  8
一般
370
               5
  6
Continuous
 62
               7
  0
POLYLINE
  5
16E
100
AcDbEntity
  8
一般
370
               5
  6
Continuous
 62
               7
100
AcDb2dPolyline
 66
               1
 10
0.0
 20
0.0
 30
0.0
 70
               1
 75
               5
  0
VERTEX
  5
16F
100
AcDbEntity
  8
一般
370
               5
  6
Continuous
 62
               7
100
AcDbVertex
100
AcDb2dVertex
 10
1281.2653312914201
 20
618.76496843355108
 30
0.0
  0
VERTEX
  5
170
100
AcDbEntity
  8
一般
370
               5
  6
Continuous
 62
               7
100
AcDbVertex
100
AcDb2dVertex
 10
1282.5001814289344
 20
617.5
 30
0.0
  0
VERTEX
  5
171
100
AcDbEntity
  8
一般
370
               5
  6
Continuous
 62
               7
100
AcDbVertex
100
AcDb2dVertex
 10
1282.5001814289344
 20
617.5
 30
0.0
  0
VERTEX
  5
172
100
AcDbEntity
  8
一般
370
               5
  6
Continuous
 62
               7
100
AcDbVertex
100
AcDb2dVertex
 10
1283.7651498624857
 20
618.73485013751417
 30
0.0
  0
VERTEX
  5
173
100
AcDbEntity
  8
一般
370
               5
  6
Continuous
 62
               7
100
AcDbVertex
100
AcDb2dVertex
 10
1285.0
 20
721.22741155119854
 30
0.0
  0
VERTEX
  5
174
100
AcDbEntity
  8
一般
370
               5
  6
Continuous
 62
               7
100
AcDbVertex
100
AcDb2dVertex
 10
1283.7651498624857
 20
722.49237998474985
 30
0.0
  0
VERTEX
  5
175
100
AcDbEntity
  8
一般
370
               5
  6
Continuous
 62
               7
100
AcDbVertex
100
AcDb2dVertex
 10
1283.7651498624857
 20
722.49237998474985
 30
0.0
  0
VERTEX
  5
176
100
AcDbEntity
  8
一般
370
               5
  6
Continuous
 62
               7
100
AcDbVertex
100
AcDb2dVertex
 10
1282.5001814289344
 20
721.25752984723567
 30
0.0
  0
SEQEND
  5
177
100
AcDbEntity
  8
一般
370
               5
  6
Continuous
 62
               7
  0
POLYLINE
  5
178
100
AcDbEntity
  8
一般
370
               5
  6
Continuous
 62
               7
100
AcDb2dPolyline
 66
               1
 10
0.0
 20
0.0
 30
0.0
 70
               1
 75
               5
  0
VERTEX
  5
179
100
AcDbEntity
  8
一般
370
               5
  6
Continuous
 62
               7
100
AcDbVertex
100
AcDb2dVertex
 10
1288.7653312914201
 20
618.76496843355108
 30
0.0
  0
VERTEX
  5
17A
100
AcDbEntity
  8
一般
370
               5
  6
Continuous
 62
               7
100
AcDbVertex
100
AcDb2dVertex
 10
1290.0001814289344
 20
617.5
 30
0.0
  0
VERTEX
  5
17B
100
AcDbEntity
  8
一般
370
               5
  6
Continuous
 62
               7
100
AcDbVertex
100
AcDb2dVertex
 10
1290.0001814289344
 20
617.5
 30
0.0
  0
VERTEX
  5
17C
100
AcDbEntity
  8
一般
370
               5
  6
Continuous
 62
               7
100
AcDbVertex
100
AcDb2dVertex
 10
1291.2651498624857
 20
618.73485013751417
 30
0.0
  0
VERTEX
  5
17D
100
AcDbEntity
  8
一般
370
               5
  6
Continuous
 62
               7
100
AcDbVertex
100
AcDb2dVertex
 10
1292.5
 20
721.22741155119854
 30
0.0
  0
VERTEX
  5
17E
100
AcDbEntity
  8
一般
370
               5
  6
Continuous
 62
               7
100
AcDbVertex
100
AcDb2dVertex
 10
1291.2651498624857
 20
722.49237998474985
 30
0.0
  0
VERTEX
  5
17F
100
AcDbEntity
  8
一般
370
               5
  6
Continuous
 62
               7
100
AcDbVertex
100
AcDb2dVertex
 10
1291.2651498624857
 20
722.49237998474985
 30
0.0
  0
VERTEX
  5
180
100
AcDbEntity
  8
一般
370
               5
  6
Continuous
 62
               7
100
AcDbVertex
100
AcDb2dVertex
 10
1290.0001814289344
 20
721.25752984723567
 30
0.0
  0
SEQEND
  5
181
100
AcDbEntity
  8
一般
370
               5
  6
Continuous
 62
               7
  0
POLYLINE
  5
182
100
AcDbEntity
  8
一般
370
               5
  6
Continuous
 62
               7
100
AcDb2dPolyline
 66
               1
 10
0.0
 20
0.0
 30
0.0
 70
               1
 75
               5
  0
VERTEX
  5
183
100
AcDbEntity
  8
一般
370
               5
  6
Continuous
 62
               7
100
AcDbVertex
100
AcDb2dVertex
 10
1296.2653312914201
 20
618.76496843355108
 30
0.0
  0
VERTEX
  5
184
100
AcDbEntity
  8
一般
370
               5
  6
Continuous
 62
               7
100
AcDbVertex
100
AcDb2dVertex
 10
1297.5001814289344
 20
617.5
 30
0.0
  0
VERTEX
  5
185
100
AcDbEntity
  8
一般
370
               5
  6
Continuous
 62
               7
100
AcDbVertex
100
AcDb2dVertex
 10
1297.5001814289344
 20
617.5
 30
0.0
  0
VERTEX
  5
186
100
AcDbEntity
  8
一般
370
               5
  6
Continuous
 62
               7
100
AcDbVertex
100
AcDb2dVertex
 10
1298.7651498624857
 20
618.73485013751417
 30
0.0
  0
VERTEX
  5
187
100
AcDbEntity
  8
一般
370
               5
  6
Continuous
 62
               7
100
AcDbVertex
100
AcDb2dVertex
 10
1300.0
 20
721.22741155119854
 30
0.0
  0
VERTEX
  5
188
100
AcDbEntity
  8
一般
370
               5
  6
Continuous
 62
               7
100
AcDbVertex
100
AcDb2dVertex
 10
1298.7651498624857
 20
722.49237998474985
 30
0.0
  0
VERTEX
  5
189
100
AcDbEntity
  8
一般
370
               5
  6
Continuous
 62
               7
100
AcDbVertex
100
AcDb2dVertex
 10
1298.7651498624857
 20
722.49237998474985
 30
0.0
  0
VERTEX
  5
18A
100
AcDbEntity
  8
一般
370
               5
  6
Continuous
 62
               7
100
AcDbVertex
100
AcDb2dVertex
 10
1297.5001814289344
 20
721.25752984723567
 30
0.0
  0
SEQEND
  5
18B
100
AcDbEntity
  8
一般
370
               5
  6
Continuous
 62
               7
  0
POLYLINE
  5
18C
100
AcDbEntity
  8
一般
370
               5
  6
Continuous
 62
               7
100
AcDb2dPolyline
 66
               1
 10
0.0
 20
0.0
 30
0.0
 70
               1
 75
               5
  0
VERTEX
  5
18D
100
AcDbEntity
  8
一般
370
               5
  6
Continuous
 62
               7
100
AcDbVertex
100
AcDb2dVertex
 10
1205.6884220585259
 20
618.95264203876673
 30
0.0
  0
VERTEX
  5
18E
100
AcDbEntity
  8
一般
370
               5
  6
Continuous
 62
               7
100
AcDbVertex
100
AcDb2dVertex
 10
1206.9232721960402
 20
617.68767360521565
 30
0.0
  0
VERTEX
  5
18F
100
AcDbEntity
  8
一般
370
               5
  6
Continuous
 62
               7
100
AcDbVertex
100
AcDb2dVertex
 10
1206.9232721960402
 20
617.68767360521565
 30
0.0
  0
VERTEX
  5
190
100
AcDbEntity
  8
一般
370
               5
  6
Continuous
 62
               7
100
AcDbVertex
100
AcDb2dVertex
 10
1208.1882406295913
 20
618.92252374272982
 30
0.0
  0
VERTEX
  5
191
100
AcDbEntity
  8
一般
370
               5
  6
Continuous
 62
               7
100
AcDbVertex
100
AcDb2dVertex
 10
1209.4230907671058
 20
721.41508515641419
 30
0.0
  0
VERTEX
  5
192
100
AcDbEntity
  8
一般
370
               5
  6
Continuous
 62
               7
100
AcDbVertex
100
AcDb2dVertex
 10
1208.1882406295913
 20
722.6800535899655
 30
0.0
  0
VERTEX
  5
193
100
AcDbEntity
  8
一般
370
               5
  6
Continuous
 62
               7
100
AcDbVertex
100
AcDb2dVertex
 10
1208.1882406295913
 20
722.6800535899655
 30
0.0
  0
VERTEX
  5
194
100
AcDbEntity
  8
一般
370
               5
  6
Continuous
 62
               7
100
AcDbVertex
100
AcDb2dVertex
 10
1206.9232721960402
 20
721.44520345245132
 30
0.0
  0
SEQEND
  5
195
100
AcDbEntity
  8
一般
370
               5
  6
Continuous
 62
               7
  0
POLYLINE
  5
196
100
AcDbEntity
  8
一般
370
               5
  6
Continuous
 62
               7
100
AcDb2dPolyline
 66
               1
 10
0.0
 20
0.0
 30
0.0
 70
               1
 75
               5
  0
VERTEX
  5
197
100
AcDbEntity
  8
一般
370
               5
  6
Continuous
 62
               7
100
AcDbVertex
100
AcDb2dVertex
 10
1213.1884220585259
 20
618.95264203876673
 30
0.0
  0
VERTEX
  5
198
100
AcDbEntity
  8
一般
370
               5
  6
Continuous
 62
               7
100
AcDbVertex
100
AcDb2dVertex
 10
1214.4232721960402
 20
617.68767360521565
 30
0.0
  0
VERTEX
  5
199
100
AcDbEntity
  8
一般
370
               5
  6
Continuous
 62
               7
100
AcDbVertex
100
AcDb2dVertex
 10
1214.4232721960402
 20
617.68767360521565
 30
0.0
  0
VERTEX
  5
19A
100
AcDbEntity
  8
一般
370
               5
  6
Continuous
 62
               7
100
AcDbVertex
100
AcDb2dVertex
 10
1215.6882406295913
 20
618.92252374272982
 30
0.0
  0
VERTEX
  5
19B
100
AcDbEntity
  8
一般
370
               5
  6
Continuous
 62
               7
100
AcDbVertex
100
AcDb2dVertex
 10
1216.9230907671058
 20
721.41508515641419
 30
0.0
  0
VERTEX
  5
19C
100
AcDbEntity
  8
一般
370
               5
  6
Continuous
 62
               7
100
AcDbVertex
100
AcDb2dVertex
 10
1215.6882406295913
 20
722.6800535899655
 30
0.0
  0
VERTEX
  5
19D
100
AcDbEntity
  8
一般
370
               5
  6
Continuous
 62
               7
100
AcDbVertex
100
AcDb2dVertex
 10
1215.6882406295913
 20
722.6800535899655
 30
0.0
  0
VERTEX
  5
19E
100
AcDbEntity
  8
一般
370
               5
  6
Continuous
 62
               7
100
AcDbVertex
100
AcDb2dVertex
 10
1214.4232721960402
 20
721.44520345245132
 30
0.0
  0
SEQEND
  5
19F
100
AcDbEntity
  8
一般
370
               5
  6
Continuous
 62
               7
  0
POLYLINE
  5
1A0
100
AcDbEntity
  8
一般
370
              15
  6
Continuous
 62
               7
100
AcDb2dPolyline
 66
               1
 10
0.0
 20
0.0
 30
0.0
 70
               1
 75
               5
  0
VERTEX
  5
1A1
100
AcDbEntity
  8
一般
370
              15
  6
Continuous
 62
               7
100
AcDbVertex
100
AcDb2dVertex
 10
924.54520482805151
 20
750.0
 30
0.0
  0
VERTEX
  5
1A2
100
AcDbEntity
  8
一般
370
              15
  6
Continuous
 62
               7
100
AcDbVertex
100
AcDb2dVertex
 10
1199.5452048280515
 20
750.0
 30
0.0
  0
VERTEX
  5
1A3
100
AcDbEntity
  8
一般
370
              15
  6
Continuous
 62
               7
100
AcDbVertex
100
AcDb2dVertex
 10
1199.5452048280515
 20
590.0
 30
0.0
  0
VERTEX
  5
1A4
100
AcDbEntity
  8
一般
370
              15
  6
Continuous
 62
               7
100
AcDbVertex
100
AcDb2dVertex
 10
924.54520482805151
 20
590.0
 30
0.0
  0
SEQEND
  5
1A5
100
AcDbEntity
  8
一般
370
              15
  6
Continuous
 62
               7
  0
LINE
  5
1A6
100
AcDbEntity
  8
一般
370
               5
  6
Continuous
 62
               7
100
AcDbLine
 10
1049.5452048280515
 20
585.0
 30
0.0
 11
1049.5452048280515
 21
580.0
 31
0.0
  0
LINE
  5
1A7
100
AcDbEntity
  8
一般
370
               5
  6
Continuous
 62
               7
100
AcDbLine
 10
1049.5452048280515
 20
575.0
 30
0.0
 11
1049.5452048280515
 21
570.0
 31
0.0
  0
LINE
  5
1A8
100
AcDbEntity
  8
一般
370
               5
  6
Continuous
 62
               7
100
AcDbLine
 10
1149.5452048280515
 20
530.0
 30
0.0
 11
1149.5452048280515
 21
535.0
 31
0.0
  0
LINE
  5
1A9
100
AcDbEntity
  8
一般
370
               5
  6
Continuous
 62
               7
100
AcDbLine
 10
1149.5452048280515
 20
540.0
 30
0.0
 11
1149.5452048280515
 21
545.0
 31
0.0
  0
LINE
  5
1AA
100
AcDbEntity
  8
一般
370
               5
  6
Continuous
 62
               7
100
AcDbLine
 10
1149.5452048280515
 20
550.0
 30
0.0
 11
1149.5452048280515
 21
555.0
 31
0.0
  0
LINE
  5
1AB
100
AcDbEntity
  8
一般
370
               5
  6
Continuous
 62
               7
100
AcDbLine
 10
1149.5452048280515
 20
560.0
 30
0.0
 11
1149.5452048280515
 21
565.0
 31
0.0
  0
LINE
  5
1AC
100
AcDbEntity
  8
一般
370
               5
  6
Continuous
 62
               7
100
AcDbLine
 10
1149.5452048280515
 20
570.0
 30
0.0
 11
1149.5452048280515
 21
575.0
 31
0.0
  0
LINE
  5
1AD
100
AcDbEntity
  8
一般
370
               5
  6
Continuous
 62
               7
100
AcDbLine
 10
1149.5452048280515
 20
580.0
 30
0.0
 11
1149.5452048280515
 21
585.0
 31
0.0
  0
LINE
  5
1AE
100
AcDbEntity
  8
一般
370
               5
  6
Continuous
 62
               7
100
AcDbLine
 10
1049.5452048280515
 20
525.0
 30
0.0
 11
1149.5452048280515
 21
525.0
 31
0.0
  0
LINE
  5
1AF
100
AcDbEntity
  8
一般
370
               5
  6
Continuous
 62
               7
100
AcDbLine
 10
1049.5452048280515
 20
565.0
 30
0.0
 11
1049.5452048280515
 21
560.0
 31
0.0
  0
LINE
  5
1B0
100
AcDbEntity
  8
一般
370
               5
  6
Continuous
 62
               7
100
AcDbLine
 10
1049.5452048280515
 20
555.0
 30
0.0
 11
1049.5452048280515
 21
550.0
 31
0.0
  0
LINE
  5
1B1
100
AcDbEntity
  8
一般
370
               5
  6
Continuous
 62
               7
100
AcDbLine
 10
1049.5452048280515
 20
545.0
 30
0.0
 11
1049.5452048280515
 21
540.0
 31
0.0
  0
LINE
  5
1B2
100
AcDbEntity
  8
一般
370
               5
  6
Continuous
 62
               7
100
AcDbLine
 10
1049.5452048280515
 20
535.0
 30
0.0
 11
1049.5452048280515
 21
530.0
 31
0.0
  0
POLYLINE
  5
1B3
100
AcDbEntity
  8
一般
370
               5
  6
Continuous
 62
               7
100
AcDb2dPolyline
 66
               1
 10
0.0
 20
0.0
 30
0.0
 70
               1
 75
               5
  0
VERTEX
  5
1B4
100
AcDbEntity
  8
一般
370
               5
  6
Continuous
 62
               7
100
AcDbVertex
100
AcDb2dVertex
 10
1047.0452048280515
 20
530.0
 30
0.0
  0
VERTEX
  5
1B5
100
AcDbEntity
  8
一般
370
               5
  6
Continuous
 62
               7
100
AcDbVertex
100
AcDb2dVertex
 10
1152.0452048280515
 20
530.0
 30
0.0
  0
VERTEX
  5
1B6
100
AcDbEntity
  8
一般
370
               5
  6
Continuous
 62
               7
100
AcDbVertex
100
AcDb2dVertex
 10
1152.0452048280515
 20
525.0
 30
0.0
  0
VERTEX
  5
1B7
100
AcDbEntity
  8
一般
370
               5
  6
Continuous
 62
               7
100
AcDbVertex
100
AcDb2dVertex
 10
1047.0452048280515
 20
525.0
 30
0.0
  0
SEQEND
  5
1B8
100
AcDbEntity
  8
一般
370
               5
  6
Continuous
 62
               7
  0
POLYLINE
  5
1B9
100
AcDbEntity
  8
一般
370
               5
  6
Continuous
 62
               7
100
AcDb2dPolyline
 66
               1
 10
0.0
 20
0.0
 30
0.0
 70
               1
 75
               5
  0
VERTEX
  5
1BA
100
AcDbEntity
  8
一般
370
               5
  6
Continuous
 62
               7
100
AcDbVertex
100
AcDb2dVertex
 10
1047.0452048280515
 20
540.0
 30
0.0
  0
VERTEX
  5
1BB
100
AcDbEntity
  8
一般
370
               5
  6
Continuous
 62
               7
100
AcDbVertex
100
AcDb2dVertex
 10
1152.0452048280515
 20
540.0
 30
0.0
  0
VERTEX
  5
1BC
100
AcDbEntity
  8
一般
370
               5
  6
Continuous
 62
               7
100
AcDbVertex
100
AcDb2dVertex
 10
1152.0452048280515
 20
535.0
 30
0.0
  0
VERTEX
  5
1BD
100
AcDbEntity
  8
一般
370
               5
  6
Continuous
 62
               7
100
AcDbVertex
100
AcDb2dVertex
 10
1047.0452048280515
 20
535.0
 30
0.0
  0
SEQEND
  5
1BE
100
AcDbEntity
  8
一般
370
               5
  6
Continuous
 62
               7
  0
POLYLINE
  5
1BF
100
AcDbEntity
  8
一般
370
               5
  6
Continuous
 62
               7
100
AcDb2dPolyline
 66
               1
 10
0.0
 20
0.0
 30
0.0
 70
               1
 75
               5
  0
VERTEX
  5
1C0
100
AcDbEntity
  8
一般
370
               5
  6
Continuous
 62
               7
100
AcDbVertex
100
AcDb2dVertex
 10
1047.0452048280515
 20
550.0
 30
0.0
  0
VERTEX
  5
1C1
100
AcDbEntity
  8
一般
370
               5
  6
Continuous
 62
               7
100
AcDbVertex
100
AcDb2dVertex
 10
1152.0452048280515
 20
550.0
 30
0.0
  0
VERTEX
  5
1C2
100
AcDbEntity
  8
一般
370
               5
  6
Continuous
 62
               7
100
AcDbVertex
100
AcDb2dVertex
 10
1152.0452048280515
 20
545.0
 30
0.0
  0
VERTEX
  5
1C3
100
AcDbEntity
  8
一般
370
               5
  6
Continuous
 62
               7
100
AcDbVertex
100
AcDb2dVertex
 10
1047.0452048280515
 20
545.0
 30
0.0
  0
SEQEND
  5
1C4
100
AcDbEntity
  8
一般
370
               5
  6
Continuous
 62
               7
  0
POLYLINE
  5
1C5
100
AcDbEntity
  8
一般
370
               5
  6
Continuous
 62
               7
100
AcDb2dPolyline
 66
               1
 10
0.0
 20
0.0
 30
0.0
 70
               1
 75
               5
  0
VERTEX
  5
1C6
100
AcDbEntity
  8
一般
370
               5
  6
Continuous
 62
               7
100
AcDbVertex
100
AcDb2dVertex
 10
1047.0452048280515
 20
560.0
 30
0.0
  0
VERTEX
  5
1C7
100
AcDbEntity
  8
一般
370
               5
  6
Continuous
 62
               7
100
AcDbVertex
100
AcDb2dVertex
 10
1152.0452048280515
 20
560.0
 30
0.0
  0
VERTEX
  5
1C8
100
AcDbEntity
  8
一般
370
               5
  6
Continuous
 62
               7
100
AcDbVertex
100
AcDb2dVertex
 10
1152.0452048280515
 20
555.0
 30
0.0
  0
VERTEX
  5
1C9
100
AcDbEntity
  8
一般
370
               5
  6
Continuous
 62
               7
100
AcDbVertex
100
AcDb2dVertex
 10
1047.0452048280515
 20
555.0
 30
0.0
  0
SEQEND
  5
1CA
100
AcDbEntity
  8
一般
370
               5
  6
Continuous
 62
               7
  0
POLYLINE
  5
1CB
100
AcDbEntity
  8
一般
370
               5
  6
Continuous
 62
               7
100
AcDb2dPolyline
 66
               1
 10
0.0
 20
0.0
 30
0.0
 70
               1
 75
               5
  0
VERTEX
  5
1CC
100
AcDbEntity
  8
一般
370
               5
  6
Continuous
 62
               7
100
AcDbVertex
100
AcDb2dVertex
 10
1047.0452048280515
 20
570.0
 30
0.0
  0
VERTEX
  5
1CD
100
AcDbEntity
  8
一般
370
               5
  6
Continuous
 62
               7
100
AcDbVertex
100
AcDb2dVertex
 10
1152.0452048280515
 20
570.0
 30
0.0
  0
VERTEX
  5
1CE
100
AcDbEntity
  8
一般
370
               5
  6
Continuous
 62
               7
100
AcDbVertex
100
AcDb2dVertex
 10
1152.0452048280515
 20
565.0
 30
0.0
  0
VERTEX
  5
1CF
100
AcDbEntity
  8
一般
370
               5
  6
Continuous
 62
               7
100
AcDbVertex
100
AcDb2dVertex
 10
1047.0452048280515
 20
565.0
 30
0.0
  0
SEQEND
  5
1D0
100
AcDbEntity
  8
一般
370
               5
  6
Continuous
 62
               7
  0
POLYLINE
  5
1D1
100
AcDbEntity
  8
一般
370
               5
  6
Continuous
 62
               7
100
AcDb2dPolyline
 66
               1
 10
0.0
 20
0.0
 30
0.0
 70
               1
 75
               5
  0
VERTEX
  5
1D2
100
AcDbEntity
  8
一般
370
               5
  6
Continuous
 62
               7
100
AcDbVertex
100
AcDb2dVertex
 10
1047.0452048280515
 20
580.0
 30
0.0
  0
VERTEX
  5
1D3
100
AcDbEntity
  8
一般
370
               5
  6
Continuous
 62
               7
100
AcDbVertex
100
AcDb2dVertex
 10
1152.0452048280515
 20
580.0
 30
0.0
  0
VERTEX
  5
1D4
100
AcDbEntity
  8
一般
370
               5
  6
Continuous
 62
               7
100
AcDbVertex
100
AcDb2dVertex
 10
1152.0452048280515
 20
575.0
 30
0.0
  0
VERTEX
  5
1D5
100
AcDbEntity
  8
一般
370
               5
  6
Continuous
 62
               7
100
AcDbVertex
100
AcDb2dVertex
 10
1047.0452048280515
 20
575.0
 30
0.0
  0
SEQEND
  5
1D6
100
AcDbEntity
  8
一般
370
               5
  6
Continuous
 62
               7
  0
POLYLINE
  5
1D7
100
AcDbEntity
  8
一般
370
               5
  6
Continuous
 62
               7
100
AcDb2dPolyline
 66
               1
 10
0.0
 20
0.0
 30
0.0
 70
               1
 75
               5
  0
VERTEX
  5
1D8
100
AcDbEntity
  8
一般
370
               5
  6
Continuous
 62
               7
100
AcDbVertex
100
AcDb2dVertex
 10
1047.0452048280515
 20
590.0
 30
0.0
  0
VERTEX
  5
1D9
100
AcDbEntity
  8
一般
370
               5
  6
Continuous
 62
               7
100
AcDbVertex
100
AcDb2dVertex
 10
1152.0452048280515
 20
590.0
 30
0.0
  0
VERTEX
  5
1DA
100
AcDbEntity
  8
一般
370
               5
  6
Continuous
 62
               7
100
AcDbVertex
100
AcDb2dVertex
 10
1152.0452048280515
 20
585.0
 30
0.0
  0
VERTEX
  5
1DB
100
AcDbEntity
  8
一般
370
               5
  6
Continuous
 62
               7
100
AcDbVertex
100
AcDb2dVertex
 10
1047.0452048280515
 20
585.0
 30
0.0
  0
SEQEND
  5
1DC
100
AcDbEntity
  8
一般
370
               5
  6
Continuous
 62
               7
  0
INSERT
  5
1DD
100
AcDbEntity
  8
一般
 62
               7
100
AcDbBlockReference
  2
グループ-2
 10
1450.0
 20
1020.0
 30
0.0
 41
5.0
 42
5.0
 43
5.0
  0
LINE
  5
1DE
100
AcDbEntity
  8
一般
370
               5
  6
Continuous
 62
               7
100
AcDbLine
 10
370.0
 20
575.0
 30
0.0
 11
370.0
 21
570.0
 31
0.0
  0
LINE
  5
1DF
100
AcDbEntity
  8
一般
370
               5
  6
Continuous
 62
               7
100
AcDbLine
 10
370.0
 20
565.0
 30
0.0
 11
370.0
 21
560.0
 31
0.0
  0
LINE
  5
1E0
100
AcDbEntity
  8
一般
370
               5
  6
Continuous
 62
               7
100
AcDbLine
 10
370.0
 20
555.0
 30
0.0
 11
370.0
 21
550.0
 31
0.0
  0
LINE
  5
1E1
100
AcDbEntity
  8
一般
370
               5
  6
Continuous
 62
               7
100
AcDbLine
 10
370.0
 20
545.0
 30
0.0
 11
370.0
 21
540.0
 31
0.0
  0
LINE
  5
1E2
100
AcDbEntity
  8
一般
370
               5
  6
Continuous
 62
               7
100
AcDbLine
 10
470.0
 20
585.0
 30
0.0
 11
470.0
 21
580.0
 31
0.0
  0
LINE
  5
1E3
100
AcDbEntity
  8
一般
370
               5
  6
Continuous
 62
               7
100
AcDbLine
 10
470.0
 20
575.0
 30
0.0
 11
470.0
 21
570.0
 31
0.0
  0
LINE
  5
1E4
100
AcDbEntity
  8
一般
370
               5
  6
Continuous
 62
               7
100
AcDbLine
 10
470.0
 20
565.0
 30
0.0
 11
470.0
 21
560.0
 31
0.0
  0
LINE
  5
1E5
100
AcDbEntity
  8
一般
370
               5
  6
Continuous
 62
               7
100
AcDbLine
 10
470.0
 20
555.0
 30
0.0
 11
470.0
 21
550.0
 31
0.0
  0
LINE
  5
1E6
100
AcDbEntity
  8
一般
370
               5
  6
Continuous
 62
               7
100
AcDbLine
 10
470.0
 20
545.0
 30
0.0
 11
470.0
 21
540.0
 31
0.0
  0
LINE
  5
1E7
100
AcDbEntity
  8
一般
370
               5
  6
Continuous
 62
               7
100
AcDbLine
 10
370.0
 20
530.0
 30
0.0
 11
370.0
 21
535.0
 31
0.0
  0
LINE
  5
1E8
100
AcDbEntity
  8
一般
370
               5
  6
Continuous
 62
               7
100
AcDbLine
 10
470.0
 20
525.0
 30
0.0
 11
370.0
 21
525.0
 31
0.0
  0
LINE
  5
1E9
100
AcDbEntity
  8
一般
370
               5
  6
Continuous
 62
               7
100
AcDbLine
 10
470.0
 20
535.0
 30
0.0
 11
470.0
 21
530.0
 31
0.0
  0
LINE
  5
1EA
100
AcDbEntity
  8
一般
370
               5
  6
Continuous
 62
               7
100
AcDbLine
 10
462.5
 20
590.0
 30
0.0
 11
377.5
 21
590.0
 31
0.0
  0
LINE
  5
1EB
100
AcDbEntity
  8
一般
370
               5
  6
Continuous
 62
               7
100
AcDbLine
 10
370.0
 20
580.0
 30
0.0
 11
370.0
 21
585.0
 31
0.0
  0
POLYLINE
  5
1EC
100
AcDbEntity
  8
一般
370
               5
  6
Continuous
 62
               7
100
AcDb2dPolyline
 66
               1
 10
0.0
 20
0.0
 30
0.0
 70
               1
 75
               5
  0
VERTEX
  5
1ED
100
AcDbEntity
  8
一般
370
               5
  6
Continuous
 62
               7
100
AcDbVertex
100
AcDb2dVertex
 10
367.5
 20
530.0
 30
0.0
  0
VERTEX
  5
1EE
100
AcDbEntity
  8
一般
370
               5
  6
Continuous
 62
               7
100
AcDbVertex
100
AcDb2dVertex
 10
472.5
 20
530.0
 30
0.0
  0
VERTEX
  5
1EF
100
AcDbEntity
  8
一般
370
               5
  6
Continuous
 62
               7
100
AcDbVertex
100
AcDb2dVertex
 10
472.5
 20
525.0
 30
0.0
  0
VERTEX
  5
1F0
100
AcDbEntity
  8
一般
370
               5
  6
Continuous
 62
               7
100
AcDbVertex
100
AcDb2dVertex
 10
367.5
 20
525.0
 30
0.0
  0
SEQEND
  5
1F1
100
AcDbEntity
  8
一般
370
               5
  6
Continuous
 62
               7
  0
POLYLINE
  5
1F2
100
AcDbEntity
  8
一般
370
               5
  6
Continuous
 62
               7
100
AcDb2dPolyline
 66
               1
 10
0.0
 20
0.0
 30
0.0
 70
               1
 75
               5
  0
VERTEX
  5
1F3
100
AcDbEntity
  8
一般
370
               5
  6
Continuous
 62
               7
100
AcDbVertex
100
AcDb2dVertex
 10
367.5
 20
540.0
 30
0.0
  0
VERTEX
  5
1F4
100
AcDbEntity
  8
一般
370
               5
  6
Continuous
 62
               7
100
AcDbVertex
100
AcDb2dVertex
 10
472.5
 20
540.0
 30
0.0
  0
VERTEX
  5
1F5
100
AcDbEntity
  8
一般
370
               5
  6
Continuous
 62
               7
100
AcDbVertex
100
AcDb2dVertex
 10
472.5
 20
535.0
 30
0.0
  0
VERTEX
  5
1F6
100
AcDbEntity
  8
一般
370
               5
  6
Continuous
 62
               7
100
AcDbVertex
100
AcDb2dVertex
 10
367.5
 20
535.0
 30
0.0
  0
SEQEND
  5
1F7
100
AcDbEntity
  8
一般
370
               5
  6
Continuous
 62
               7
  0
POLYLINE
  5
1F8
100
AcDbEntity
  8
一般
370
               5
  6
Continuous
 62
               7
100
AcDb2dPolyline
 66
               1
 10
0.0
 20
0.0
 30
0.0
 70
               1
 75
               5
  0
VERTEX
  5
1F9
100
AcDbEntity
  8
一般
370
               5
  6
Continuous
 62
               7
100
AcDbVertex
100
AcDb2dVertex
 10
367.5
 20
550.0
 30
0.0
  0
VERTEX
  5
1FA
100
AcDbEntity
  8
一般
370
               5
  6
Continuous
 62
               7
100
AcDbVertex
100
AcDb2dVertex
 10
472.5
 20
550.0
 30
0.0
  0
VERTEX
  5
1FB
100
AcDbEntity
  8
一般
370
               5
  6
Continuous
 62
               7
100
AcDbVertex
100
AcDb2dVertex
 10
472.5
 20
545.0
 30
0.0
  0
VERTEX
  5
1FC
100
AcDbEntity
  8
一般
370
               5
  6
Continuous
 62
               7
100
AcDbVertex
100
AcDb2dVertex
 10
367.5
 20
545.0
 30
0.0
  0
SEQEND
  5
1FD
100
AcDbEntity
  8
一般
370
               5
  6
Continuous
 62
               7
  0
POLYLINE
  5
1FE
100
AcDbEntity
  8
一般
370
               5
  6
Continuous
 62
               7
100
AcDb2dPolyline
 66
               1
 10
0.0
 20
0.0
 30
0.0
 70
               1
 75
               5
  0
VERTEX
  5
1FF
100
AcDbEntity
  8
一般
370
               5
  6
Continuous
 62
               7
100
AcDbVertex
100
AcDb2dVertex
 10
367.5
 20
560.0
 30
0.0
  0
VERTEX
  5
200
100
AcDbEntity
  8
一般
370
               5
  6
Continuous
 62
               7
100
AcDbVertex
100
AcDb2dVertex
 10
472.5
 20
560.0
 30
0.0
  0
VERTEX
  5
201
100
AcDbEntity
  8
一般
370
               5
  6
Continuous
 62
               7
100
AcDbVertex
100
AcDb2dVertex
 10
472.5
 20
555.0
 30
0.0
  0
VERTEX
  5
202
100
AcDbEntity
  8
一般
370
               5
  6
Continuous
 62
               7
100
AcDbVertex
100
AcDb2dVertex
 10
367.5
 20
555.0
 30
0.0
  0
SEQEND
  5
203
100
AcDbEntity
  8
一般
370
               5
  6
Continuous
 62
               7
  0
POLYLINE
  5
204
100
AcDbEntity
  8
一般
370
               5
  6
Continuous
 62
               7
100
AcDb2dPolyline
 66
               1
 10
0.0
 20
0.0
 30
0.0
 70
               1
 75
               5
  0
VERTEX
  5
205
100
AcDbEntity
  8
一般
370
               5
  6
Continuous
 62
               7
100
AcDbVertex
100
AcDb2dVertex
 10
367.5
 20
570.0
 30
0.0
  0
VERTEX
  5
206
100
AcDbEntity
  8
一般
370
               5
  6
Continuous
 62
               7
100
AcDbVertex
100
AcDb2dVertex
 10
472.5
 20
570.0
 30
0.0
  0
VERTEX
  5
207
100
AcDbEntity
  8
一般
370
               5
  6
Continuous
 62
               7
100
AcDbVertex
100
AcDb2dVertex
 10
472.5
 20
565.0
 30
0.0
  0
VERTEX
  5
208
100
AcDbEntity
  8
一般
370
               5
  6
Continuous
 62
               7
100
AcDbVertex
100
AcDb2dVertex
 10
367.5
 20
565.0
 30
0.0
  0
SEQEND
  5
209
100
AcDbEntity
  8
一般
370
               5
  6
Continuous
 62
               7
  0
POLYLINE
  5
20A
100
AcDbEntity
  8
一般
370
               5
  6
Continuous
 62
               7
100
AcDb2dPolyline
 66
               1
 10
0.0
 20
0.0
 30
0.0
 70
               1
 75
               5
  0
VERTEX
  5
20B
100
AcDbEntity
  8
一般
370
               5
  6
Continuous
 62
               7
100
AcDbVertex
100
AcDb2dVertex
 10
367.5
 20
580.0
 30
0.0
  0
VERTEX
  5
20C
100
AcDbEntity
  8
一般
370
               5
  6
Continuous
 62
               7
100
AcDbVertex
100
AcDb2dVertex
 10
472.5
 20
580.0
 30
0.0
  0
VERTEX
  5
20D
100
AcDbEntity
  8
一般
370
               5
  6
Continuous
 62
               7
100
AcDbVertex
100
AcDb2dVertex
 10
472.5
 20
575.0
 30
0.0
  0
VERTEX
  5
20E
100
AcDbEntity
  8
一般
370
               5
  6
Continuous
 62
               7
100
AcDbVertex
100
AcDb2dVertex
 10
367.5
 20
575.0
 30
0.0
  0
SEQEND
  5
20F
100
AcDbEntity
  8
一般
370
               5
  6
Continuous
 62
               7
  0
POLYLINE
  5
210
100
AcDbEntity
  8
一般
370
               5
  6
Continuous
 62
               7
100
AcDb2dPolyline
 66
               1
 10
0.0
 20
0.0
 30
0.0
 70
               1
 75
               5
  0
VERTEX
  5
211
100
AcDbEntity
  8
一般
370
               5
  6
Continuous
 62
               7
100
AcDbVertex
100
AcDb2dVertex
 10
367.5
 20
590.0
 30
0.0
  0
VERTEX
  5
212
100
AcDbEntity
  8
一般
370
               5
  6
Continuous
 62
               7
100
AcDbVertex
100
AcDb2dVertex
 10
472.5
 20
590.0
 30
0.0
  0
VERTEX
  5
213
100
AcDbEntity
  8
一般
370
               5
  6
Continuous
 62
               7
100
AcDbVertex
100
AcDb2dVertex
 10
472.5
 20
585.0
 30
0.0
  0
VERTEX
  5
214
100
AcDbEntity
  8
一般
370
               5
  6
Continuous
 62
               7
100
AcDbVertex
100
AcDb2dVertex
 10
367.5
 20
585.0
 30
0.0
  0
SEQEND
  5
215
100
AcDbEntity
  8
一般
370
               5
  6
Continuous
 62
               7
  0
ENDSEC
  0
SECTION
  2
OBJECTS
  0
DICTIONARY
  5
19
100
AcDbDictionary
280
               0
281
               1
  3
ACAD_GROUP
350
1A
  3
ACAD_MLINESTYLE
350
1B
  3
ACAD_LAYOUT
350
1E
  3
ACAD_PLOTSETTINGS
350
22
  3
ACAD_PLOTSTYLENAME
350
1F
  3
ACAD_WIPEOUT_VARS
350
23
  0
DICTIONARY
  5
1A
102
{ACAD_REACTORS
330
19
102
}
100
AcDbDictionary
280
               0
281
               1
  0
DICTIONARY
  5
1B
102
{ACAD_REACTORS
330
19
102
}
100
AcDbDictionary
280
               0
281
               1
  3
Standard
350
1C
  0
MLINESTYLE
  5
1C
102
{ACAD_REACTORS
330
1B
102
}
100
AcDbMlineStyle
  2
Standard
 70
               0
  3

 62
               0
 51
90.0
 52
90.0
 71
               2
 49
0.5
 62
             256
  6
ByLayer
 49
-0.5
 62
             256
  6
ByLayer
  0
ACDBDICTIONARYWDFLT
  5
1F
102
{ACAD_REACTORS
330
19
102
}
100
AcDbDictionary
281
               1
  3
Normal
350
1D
100
AcDbDictionaryWithDefault
340
1D
  0
ACDBPLACEHOLDER
  5
1D
102
{ACAD_REACTORS
330
1F
102
}
  0
LAYOUT
  5
20
102
{ACAD_REACTORS
330
1E
102
}
100
AcDbPlotSettings
  1

  2

  4

  6

 40
0.0
 41
0.0
 42
0.0
 43
0.0
 44
0.0
 45
0.0
 46
0.0
 47
0.0
 48
0.0
 49
0.0
140
0.0
141
0.0
142
1.0
143
1.0
 70
            1024
 72
               0
 73
               0
 74
               0
  7

 75
               0
147
1.0
148
0.0
149
0.0
100
AcDbLayout
  1
Model
 70
               0
 71
               0
 10
0.0
 20
0.0
 11
0.0
 21
0.0
 12
0.0
 22
0.0
 32
0.0
 14
0.0
 24
0.0
 34
0.0
 15
0.0
 25
0.0
 35
0.0
146
0.0
 13
0.0
 23
0.0
 33
0.0
 16
0.0
 26
0.0
 36
0.0
 17
0.0
 27
0.0
 37
0.0
 76
               0
330
A
331
0
345
0
346
0
  0
LAYOUT
  5
21
102
{ACAD_REACTORS
330
1E
102
}
100
AcDbPlotSettings
  1

  2

  4

  6

 40
0.0
 41
0.0
 42
0.0
 43
0.0
 44
0.0
 45
0.0
 46
0.0
 47
0.0
 48
0.0
 49
0.0
140
0.0
141
0.0
142
1.0
143
1.0
 70
               0
 72
               0
 73
               0
 74
               0
  7

 75
               0
147
1.0
148
0.0
149
0.0
100
AcDbLayout
  1
Layout1
 70
               0
 71
               0
 10
0.0
 20
0.0
 11
0.0
 21
0.0
 12
0.0
 22
0.0
 32
0.0
 14
0.0
 24
0.0
 34
0.0
 15
0.0
 25
0.0
 35
0.0
146
0.0
 13
0.0
 23
0.0
 33
0.0
 16
0.0
 26
0.0
 36
0.0
 17
0.0
 27
0.0
 37
0.0
 76
               0
330
B
331
0
345
0
346
0
  0
DICTIONARY
  5
1E
102
{ACAD_REACTORS
330
19
102
}
100
AcDbDictionary
280
               0
281
               1
  3
Layout1
350
21
  3
Model
350
20
  0
DICTIONARY
  5
22
102
{ACAD_REACTORS
330
19
102
}
100
AcDbDictionary
280
               0
281
               1
  0
WIPEOUTVARIABLES
  5
23
100
AcDbWipeoutVariables
 70
               0
  0
ENDSEC
  0
EOF
