  0
SECTION
  2
HEADER
  9
$ACADVER
  1
AC1015
  9
$ACADMAINTVER
 70
               6
  9
$DWGCODEPAGE
  3
ANSI_932
  9
$INSBASE
 10
0.0
 20
0.0
 30
0.0
  9
$EXTMIN
 10
-1005.1818965061573
 20
-753.98874508339702
 30
-14.834305555555554
  9
$EXTMAX
 10
1430.0
 20
1025.6173284113374
 30
14.834305555555554
  9
$LIMMIN
 10
0.0
 20
0.0
  9
$LIMMAX
 10
0.0
 20
0.0
  9
$ORTHOMODE
 70
               0
  9
$REGENMODE
 70
               1
  9
$FILLMODE
 70
               1
  9
$QTEXTMODE
 70
               0
  9
$MIRRTEXT
 70
               1
  9
$LTSCALE
 40
127.0
  9
$ATTMODE
 70
               1
  9
$TEXTSIZE
 40
0.2
  9
$TRACEWID
 40
1.0
  9
$TEXTSTYLE
  7
Standard
  9
$CLAYER
  8
LAYER1
  9
$CELTYPE
  6
Continuous
  9
$CECOLOR
 62
             256
  9
$CELTSCALE
 40
1.0
  9
$DISPSILH
 70
               0
  9
$DIMSCALE
 40
1.0
  9
$DIMASZ
 40
0.18
  9
$DIMEXO
 40
0.0625
  9
$DIMDLI
 40
0.38
  9
$DIMRND
 40
0.0
  9
$DIMDLE
 40
0.0
  9
$DIMEXE
 40
0.18
  9
$DIMTP
 40
0.0
  9
$DIMTM
 40
0.0
  9
$DIMTXT
 40
0.18
  9
$DIMCEN
 40
0.09
  9
$DIMTSZ
 40
0.0
  9
$DIMTOL
 70
               0
  9
$DIMLIM
 70
               0
  9
$DIMTIH
 70
               1
  9
$DIMTOH
 70
               1
  9
$DIMSE1
 70
               0
  9
$DIMSE2
 70
               0
  9
$DIMTAD
 70
               0
  9
$DIMZIN
 70
               0
  9
$DIMBLK
  1

  9
$DIMASO
 70
               1
  9
$DIMSHO
 70
               1
  9
$DIMPOST
  1

  9
$DIMAPOST
  1

  9
$DIMALT
 70
               0
  9
$DIMALTD
 70
               2
  9
$DIMALTF
 40
25.399999999999999
  9
$DIMLFAC
 40
1.0
  9
$DIMTOFL
 70
               0
  9
$DIMTVP
 40
0.0
  9
$DIMTIX
 70
               0
  9
$DIMSOXD
 70
               0
  9
$DIMSAH
 70
               0
  9
$DIMBLK1
  1

  9
$DIMBLK2
  1

  9
$DIMSTYLE
  2
Standard
  9
$DIMCLRD
 70
               0
  9
$DIMCLRE
 70
               0
  9
$DIMCLRT
 70
               0
  9
$DIMTFAC
 40
1.0
  9
$DIMGAP
 40
0.09
  9
$DIMJUST
 70
               0
  9
$DIMSD1
 70
               0
  9
$DIMSD2
 70
               0
  9
$DIMTOLJ
 70
               1
  9
$DIMTZIN
 70
               0
  9
$DIMALTZ
 70
               0
  9
$DIMALTTZ
 70
               0
  9
$DIMUPT
 70
               0
  9
$DIMDEC
 70
               4
  9
$DIMTDEC
 70
               4
  9
$DIMALTU
 70
               2
  9
$DIMALTTD
 70
               2
  9
$DIMTXSTY
  7
Standard
  9
$DIMAUNIT
 70
               0
  9
$DIMADEC
 70
               0
  9
$DIMALTRND
 40
0.0
  9
$DIMAZIN
 70
               0
  9
$DIMDSEP
 70
               0
  9
$DIMATFIT
 70
               3
  9
$DIMFRAC
 70
               0
  9
$DIMLDRBLK
  1

  9
$DIMLUNIT
 70
               2
  9
$DIMLWD
 70
               0
  9
$DIMLWE
 70
               0
  9
$DIMTMOVE
 70
               0
  9
$LUNITS
 70
               2
  9
$LUPREC
 70
               4
  9
$SKETCHINC
 40
0.1
  9
$FILLETRAD
 40
0.0
  9
$AUNITS
 70
               0
  9
$AUPREC
 70
               0
  9
$MENU
  1
acad
  9
$ELEVATION
 40
0.0
  9
$PELEVATION
 40
0.0
  9
$THICKNESS
 40
0.0
  9
$LIMCHECK
 70
               0
  9
$CHAMFERA
 40
0.0
  9
$CHAMFERB
 40
0.0
  9
$CHAMFERC
 40
0.0
  9
$CHAMFERD
 40
0.0
  9
$SKPOLY
 70
               0
  9
$TDCREATE
 40
2457542.629270834
  9
$TDUCREATE
 40
0.000000000
  9
$TDUPDATE
 40
2457542.629270834
  9
$TDUUPDATE
 40
0.000000000
  9
$TDINDWG
 40
0.0000000000
  9
$TDUSRTIMER
 40
0.0000000000
  9
$USRTIMER
 70
               1
  9
$ANGBASE
 50
0.0
  9
$ANGDIR
 70
               0
  9
$PDMODE
 70
               1
  9
$PDSIZE
 40
-2.0
  9
$PLINEWID
 40
0.0
  9
$SPLFRAME
 70
               0
  9
$SPLINETYPE
 70
               6
  9
$SPLINESEGS
 70
               8
  9
$HANDSEED
  5
2FF
  9
$SURFTAB1
 70
               6
  9
$SURFTAB2
 70
               6
  9
$SURFTYPE
 70
               6
  9
$SURFU
 70
               6
  9
$SURFV
 70
               6
  9
$UCSBASE
  2

  9
$UCSNAME
  2

  9
$UCSORG
 10
0.0
 20
0.0
 30
0.0
  9
$UCSXDIR
 10
1.0
 20
0.0
 30
0.0
  9
$UCSYDIR
 10
0.0
 20
1.0
 30
0.0
  9
$UCSORTHOREF
  2

  9
$UCSORTHOVIEW
 70
               0
  9
$UCSORGTOP
 10
0.0
 20
0.0
 30
0.0
  9
$UCSORGBOTTOM
 10
0.0
 20
0.0
 30
0.0
  9
$UCSORGLEFT
 10
0.0
 20
0.0
 30
0.0
  9
$UCSORGRIGHT
 10
0.0
 20
0.0
 30
0.0
  9
$UCSORGFRONT
 10
0.0
 20
0.0
 30
0.0
  9
$UCSORGBACK
 10
0.0
 20
0.0
 30
0.0
  9
$PUCSBASE
  2

  9
$PUCSNAME
  2

  9
$PUCSORG
 10
0.0
 20
0.0
 30
0.0
  9
$PUCSXDIR
 10
1.0
 20
0.0
 30
0.0
  9
$PUCSYDIR
 10
0.0
 20
1.0
 30
0.0
  9
$PUCSORTHOREF
  2

  9
$PUCSORTHOVIEW
 70
               0
  9
$PUCSORGTOP
 10
0.0
 20
0.0
 30
0.0
  9
$PUCSORGBOTTOM
 10
0.0
 20
0.0
 30
0.0
  9
$PUCSORGLEFT
 10
0.0
 20
0.0
 30
0.0
  9
$PUCSORGRIGHT
 10
0.0
 20
0.0
 30
0.0
  9
$PUCSORGFRONT
 10
0.0
 20
0.0
 30
0.0
  9
$PUCSORGBACK
 10
0.0
 20
0.0
 30
0.0
  9
$USERI1
 70
               0
  9
$USERI2
 70
               0
  9
$USERI3
 70
               0
  9
$USERI4
 70
               0
  9
$USERI5
 70
               0
  9
$USERR1
 40
0.0
  9
$USERR2
 40
0.0
  9
$USERR3
 40
0.0
  9
$USERR4
 40
0.0
  9
$USERR5
 40
0.0
  9
$WORLDVIEW
 70
               1
  9
$SHADEDGE
 70
               3
  9
$SHADEDIF
 70
              70
  9
$TILEMODE
 70
               1
  9
$MAXACTVP
 70
              64
  9
$PINSBASE
 10
0.0
 20
0.0
 30
0.0
  9
$PLIMCHECK
 70
               0
  9
$PEXTMIN
 10
1.0000000000000000E+20
 20
1.0000000000000000E+20
 30
1.0000000000000000E+20
  9
$PEXTMAX
 10
-1.0000000000000000E+20
 20
-1.0000000000000000E+20
 30
-1.0000000000000000E+20
  9
$PLIMMIN
 10
0.0
 20
0.0
  9
$PLIMMAX
 10
12.0
 20
9.0
  9
$UNITMODE
 70
               0
  9
$VISRETAIN
 70
               0
  9
$PLINEGEN
 70
               1
  9
$PSLTSCALE
 70
               0
  9
$TREEDEPTH
 70
            3020
  9
$CMLSTYLE
  2
Standard
  9
$CMLJUST
 70
               0
  9
$CMLSCALE
 40
1.0
  9
$PROXYGRAPHICS
 70
               0
  9
$MEASUREMENT
 70
               1
  9
$CELWEIGHT
370
               0
  9
$ENDCAPS
280
               0
  9
$JOINSTYLE
280
               0
  9
$LWDISPLAY
290
               1
  9
$INSUNITS
 70
               4
  9
$HYPERLINKBASE
  1

  9
$STYLESHEET
  1

  9
$XEDIT
290
               1
  9
$CEPSNTYPE
380
               0
  9
$PSTYLEMODE
290
               1
  9
$FINGERPRINTGUID
  2

  9
$VERSIONGUID
  2

  9
$EXTNAMES
290
               1
  9
$PSVPSCALE
 40
0.0
  0
ENDSEC
  0
SECTION
  2
CLASSES
  0
CLASS
  1
LWPOLYLINE
  2
AcDbPolyline
  3
AutoCAD 2000
 90
        0
280
               0
281
               1
  0
CLASS
  1
IMAGE
  2
AcDbRasterImage
  3
ISM
 90
    32895
280
               0
281
               1
  0
CLASS
  1
OLE2FRAME
  2
AcDbOle2Frame
  3
AutoCAD 2000
 90
    32768
280
               0
281
               1
  0
CLASS
  1
HATCH
  2
AcDbHatch
  3
AutoCAD 2000
 90
    32768
280
               0
281
               1
  0
CLASS
  1
DICTIONARYVAR
  2
AcDbDictionaryVar
  3
AutoCAD 2000
 90
    32768
280
               0
281
               0
  0
CLASS
  1
RASTERVARIABLES
  2
AcDbRasterVariables
  3
ISM
 90
    32768
280
               0
281
               0
  0
CLASS
  1
IMAGEDEF
  2
AcDbRasterImageDef
  3
ISM
 90
    32768
280
               0
281
               0
  0
CLASS
  1
IMAGEDEF_REACTOR
  2
AcDbRasterImageDefReactor
  3
ISM
 90
    32769
280
               0
281
               0
  0
CLASS
  1
IDBUFFER
  2
AcDbIdBuffer
  3
AutoCAD 2000
 90
    32768
280
               0
281
               0
  0
CLASS
  1
SPATIAL_FILTER
  2
AcDbSpatialFilter
  3
AutoCAD 2000
 90
    32768
280
               0
281
               0
  0
CLASS
  1
XRECORD
  2
AcDbXrecord
  3
AutoCAD 2000
 90
    32768
280
               0
281
               0
  0
CLASS
  1
SORTENTSTABLE
  2
AcDbSortentsTable
  3
AutoCAD 2000
 90
    32768
280
               0
281
               0
  0
CLASS
  1
LAYER_INDEX
  2
AcDbLayerIndex
  3
AutoCAD 2000
 90
    32768
280
               0
281
               0
  0
CLASS
  1
SPATIAL_INDEX
  2
AcDbSpatialIndex
  3
AutoCAD 2000
 90
    32768
280
               0
281
               0
  0
CLASS
  1
OBJECT_PTR
  2
CAseDLPNTableRecord
  3
"ASE-LPNTableRecord"
 90
    32769
280
               0
281
               0
  0
CLASS
  1
LAYOUT
  2
AcDbLayout
  3
AutoCAD 2000
 90
        0
280
               0
281
               0
  0
CLASS
  1
PLOTSETTINGS
  2
AcDbPlotSettings
  3
AutoCAD 2000
 90
    32768
280
               0
281
               0
  0
CLASS
  1
ACDBDICTIONARYWDFLT
  2
AcDbDictionaryWithDefault
  3
AutoCAD 2000
 90
        0
280
               0
281
               0
  0
CLASS
  1
ACDBPLACEHOLDER
  2
AcDbPlaceHolder
  3
AutoCAD 2000
 90
        0
280
               0
281
               0
  0
CLASS
  1
VBA_PROJECT
  2
AcDbVbaProject
  3
acadvba
 90
    32768
280
               0
281
               0
  0
CLASS
  1
WIPEOUT
  2
AcDbWipeout
  3
WipeOut|AutoCAD Express Tool|expresstools@autodesk.com
 90
    32895
280
               0
281
               1
  0
CLASS
  1
WIPEOUTVARIABLES
  2
AcDbWipeoutVariables
  3
WipeOut|AutoCAD Express Tool|expresstools@autodesk.com
 90
        0
280
               0
281
               0
  0
CLASS
  1
RTEXT
  2
RText
  3
RText|AutoCAD Express Tool|expresstools@autodesk.com
 90
    32768
280
               0
281
               1
  0
CLASS
  1
ARCALIGNEDTEXT
  2
AcDbArcAlignedText
  3
ATEXT|AutoCAD Express Tool|expresstools@autodesk.com
 90
    32768
280
               0
281
               1
  0
ENDSEC
  0
SECTION
  2
TABLES
  0
TABLE
  2
VPORT
  5
7
100
AcDbSymbolTable
 70
               1
  0
VPORT
  5
15
100
AcDbSymbolTableRecord
100
AcDbViewportTableRecord
  2
*ACTIVE
 70
               0
 10
0.0
 20
0.0
 11
1.0
 21
1.0
 12
212.40905174692148
 22
135.81429166397027
 13
0.0
 23
0.0
 14
1.0
 24
1.0
 15
0.0
 25
0.0
 16
0.0
 26
0.0
 36
1.0
 17
0.0
 27
0.0
 37
0.0
 40
1779.6060734947346
 41
0.688564
 42
50.0
 43
0.0
 44
0.0
 50
0.0
 51
0.0
 71
               0
 72
            2000
 73
               1
 74
               1
 75
               0
 76
               0
 77
               0
 78
               0
281
               0
 65
               0
110
0.0
120
0.0
130
0.0
111
1.0
121
0.0
131
0.0
112
0.0
122
1.0
132
0.0
345
0
346
0
 79
               0
146
0.0
  0
ENDTAB
  0
TABLE
  2
LTYPE
  5
4
100
AcDbSymbolTable
 70
              14
  0
LTYPE
  5
11
100
AcDbSymbolTableRecord
100
AcDbLinetypeTableRecord
  2
ByBlock
 70
              64
  3

 72
              65
 73
               0
 40
0.0
  0
LTYPE
  5
12
100
AcDbSymbolTableRecord
100
AcDbLinetypeTableRecord
  2
ByLayer
 70
              64
  3

 72
              65
 73
               0
 40
0.0
  0
LTYPE
  5
13
100
AcDbSymbolTableRecord
100
AcDbLinetypeTableRecord
  2
Continuous
 70
              64
  3
Solid line
 72
              65
 73
               0
 40
0.0
  0
LTYPE
  5
2A
100
AcDbSymbolTableRecord
100
AcDbLinetypeTableRecord
  2
STYLE_01
 70
               0
  3

 72
              65
 73
               4
 40
1.125
 49
0.75
 74
               0
 49
-0.125
 74
               0
 49
0.125
 74
               0
 49
-0.125
 74
               0
  0
LTYPE
  5
2B
100
AcDbSymbolTableRecord
100
AcDbLinetypeTableRecord
  2
STYLE_02
 70
               0
  3

 72
              65
 73
               2
 40
0.27777
 49
0.194428
 74
               0
 49
-0.083342
 74
               0
  0
LTYPE
  5
2C
100
AcDbSymbolTableRecord
100
AcDbLinetypeTableRecord
  2
STYLE_03
 70
               0
  3

 72
              65
 73
               2
 40
0.5
 49
0.416656
 74
               0
 49
-0.083344
 74
               0
  0
LTYPE
  5
2D
100
AcDbSymbolTableRecord
100
AcDbLinetypeTableRecord
  2
STYLE_04
 70
               0
  3

 72
              65
 73
               2
 40
0.611084
 49
0.52777
 74
               0
 49
-0.083314
 74
               0
  0
LTYPE
  5
2E
100
AcDbSymbolTableRecord
100
AcDbLinetypeTableRecord
  2
STYLE_05
 70
               0
  3

 72
              65
 73
               2
 40
0.083312
 49
0.02777
 74
               0
 49
-0.055542
 74
               0
  0
LTYPE
  5
2F
100
AcDbSymbolTableRecord
100
AcDbLinetypeTableRecord
  2
STYLE_06
 70
               0
  3

 72
              65
 73
               4
 40
0.416656
 49
0.25
 74
               0
 49
-0.083312
 74
               0
 49
0.027772
 74
               0
 49
-0.055572
 74
               0
  0
LTYPE
  5
30
100
AcDbSymbolTableRecord
100
AcDbLinetypeTableRecord
  2
STYLE_07
 70
               0
  3

 72
              65
 73
               6
 40
0.75
 49
0.25
 74
               0
 49
-0.083312
 74
               0
 49
0.2500000000000001
 74
               0
 49
-0.083344
 74
               0
 49
0.027772
 74
               0
 49
-0.055572
 74
               0
  0
LTYPE
  5
31
100
AcDbSymbolTableRecord
100
AcDbLinetypeTableRecord
  2
STYLE_08
 70
               0
  3

 72
              65
 73
               6
 40
0.5
 49
0.25
 74
               0
 49
-0.083312
 74
               0
 49
0.027772
 74
               0
 49
-0.055572
 74
               0
 49
0.027772
 74
               0
 49
-0.055572
 74
               0
  0
LTYPE
  5
32
100
AcDbSymbolTableRecord
100
AcDbLinetypeTableRecord
  2
STYLE_09
 70
               0
  3

 72
              65
 73
               4
 40
2.0
 49
1.5
 74
               0
 49
-0.1111139999999999
 74
               0
 49
0.2777720000000001
 74
               0
 49
-0.1111139999999999
 74
               0
  0
LTYPE
  5
33
100
AcDbSymbolTableRecord
100
AcDbLinetypeTableRecord
  2
STYLE_10
 70
               0
  3

 72
              65
 73
               6
 40
2.375
 49
1.5
 74
               0
 49
-0.1111139999999999
 74
               0
 49
0.2777720000000001
 74
               0
 49
-0.1111139999999999
 74
               0
 49
0.25
 74
               0
 49
-0.125
 74
               0
  0
LTYPE
  5
34
100
AcDbSymbolTableRecord
100
AcDbLinetypeTableRecord
  2
STYLE_11
 70
               0
  3

 72
              65
 73
               2
 40
0.166656
 49
0.083312
 74
               0
 49
-0.083344
 74
               0
  0
ENDTAB
  0
TABLE
  2
LAYER
  5
2
100
AcDbSymbolTable
 70
               8
  0
LAYER
  5
14
100
AcDbSymbolTableRecord
100
AcDbLayerTableRecord
  2
0
 70
               0
 62
               7
  6
Continuous
290
               1
370
              15
390
1D
  0
LAYER
  5
35
100
AcDbSymbolTableRecord
100
AcDbLayerTableRecord
  2
一般
 70
               0
 62
               7
  6
Continuous
290
               1
370
               5
390
1D
  0
LAYER
  5
36
100
AcDbSymbolTableRecord
100
AcDbLayerTableRecord
  2
寸法
 70
               0
 62
               7
  6
Continuous
290
               1
370
               5
390
1D
  0
LAYER
  5
37
100
AcDbSymbolTableRecord
100
AcDbLayerTableRecord
  2
LAYER1
 70
               0
 62
               7
  6
Continuous
290
               1
370
              15
390
1D
  0
LAYER
  5
38
100
AcDbSymbolTableRecord
100
AcDbLayerTableRecord
  2
LAYER3
 70
               0
 62
               7
  6
Continuous
290
               1
370
              15
390
1D
  0
LAYER
  5
39
100
AcDbSymbolTableRecord
100
AcDbLayerTableRecord
  2
LAYER55
 70
               0
 62
               7
  6
Continuous
290
               1
370
              15
390
1D
  0
LAYER
  5
3A
100
AcDbSymbolTableRecord
100
AcDbLayerTableRecord
  2
DEFAULT
 70
               0
 62
               7
  6
Continuous
290
               1
370
              15
390
1D
  0
LAYER
  5
3B
100
AcDbSymbolTableRecord
100
AcDbLayerTableRecord
  2
_1-0_
 70
               0
 62
               7
  6
Continuous
290
               1
370
              15
390
1D
  0
ENDTAB
  0
TABLE
  2
STYLE
  5
3
100
AcDbSymbolTable
 70
               2
  0
STYLE
  5
17
100
AcDbSymbolTableRecord
100
AcDbTextStyleTableRecord
  2
Standard
 70
               0
 40
0.0
 41
1.0
 50
0.0
 71
               0
 42
0.0
  3
txt
  4
BIGFONT.SHX
  0
STYLE
  5
29
100
AcDbSymbolTableRecord
100
AcDbTextStyleTableRecord
  2
Arial
 70
               0
 40
0.0
 41
1.0
 50
0.0
 71
               0
 42
0.0
  3

  4
Arial
1001
ACAD
1000
Arial
1071
        0
  0
ENDTAB
  0
TABLE
  2
VIEW
  5
5
100
AcDbSymbolTable
 70
               0
  0
ENDTAB
  0
TABLE
  2
UCS
  5
6
100
AcDbSymbolTable
 70
               0
  0
ENDTAB
  0
TABLE
  2
APPID
  5
8
100
AcDbSymbolTable
 70
               1
  0
APPID
  5
16
100
AcDbSymbolTableRecord
100
AcDbRegAppTableRecord
  2
ACAD
 70
               0
  0
ENDTAB
  0
TABLE
  2
DIMSTYLE
  5
9
100
AcDbSymbolTable
 70
               1
100
AcDbDimStyleTable
 71
               0
  0
DIMSTYLE
105
18
100
AcDbSymbolTableRecord
100
AcDbDimStyleTableRecord
  2
Standard
 70
               0
  3

  4

 40
1.0
 41
0.18
 42
0.0625
 43
0.38
 44
0.18
 45
0.0
 46
0.0
 47
0.0
 48
0.0
 71
               0
 72
               0
 73
               1
 74
               1
 75
               0
 76
               0
 77
               0
 78
               0
 79
               0
140
0.18
141
0.09
142
0.0
143
25.399999999999999
144
1.0
145
0.0
146
1.0
147
0.09
148
0.0
170
               0
171
               2
172
               0
173
               0
174
               0
175
               0
176
               0
177
               0
178
               0
179
               0
271
               4
272
               4
273
               2
274
               2
275
               0
276
               0
277
               2
278
              46
279
               0
280
               0
281
               0
282
               0
283
               1
284
               0
285
               0
286
               0
288
               0
340
17
341
0
342
0
343
0
344
0
371
              -2
372
              -2
  0
ENDTAB
  0
TABLE
  2
BLOCK_RECORD
  5
1
100
AcDbSymbolTable
 70
               5
  0
BLOCK_RECORD
  5
A
100
AcDbSymbolTableRecord
100
AcDbBlockTableRecord
  2
*MODEL_SPACE
340
20
  0
BLOCK_RECORD
  5
B
100
AcDbSymbolTableRecord
100
AcDbBlockTableRecord
  2
*PAPER_SPACE
340
21
  0
BLOCK_RECORD
  5
24
100
AcDbSymbolTableRecord
100
AcDbBlockTableRecord
  2
グループ
340
0
102
{BLKREFS
331
2FB
102
}
  0
BLOCK_RECORD
  5
25
100
AcDbSymbolTableRecord
100
AcDbBlockTableRecord
  2
グループ-1
340
0
102
{BLKREFS
331
2FC
102
}
  0
BLOCK_RECORD
  5
26
100
AcDbSymbolTableRecord
100
AcDbBlockTableRecord
  2
グループ-2
340
0
102
{BLKREFS
331
2FD
102
}
  0
BLOCK_RECORD
  5
27
100
AcDbSymbolTableRecord
100
AcDbBlockTableRecord
  2
グループ-3
340
0
102
{BLKREFS
331
25F
102
}
  0
BLOCK_RECORD
  5
28
100
AcDbSymbolTableRecord
100
AcDbBlockTableRecord
  2
グループ-4
340
0
102
{BLKREFS
331
2FE
102
}
  0
ENDTAB
  0
ENDSEC
  0
SECTION
  2
BLOCKS
  0
BLOCK
  5
D
100
AcDbEntity
  8
0
100
AcDbBlockBegin
  2
*MODEL_SPACE
 70
               0
 10
0.0
 20
0.0
 30
0.0
  3
*MODEL_SPACE
  1

  0
ENDBLK
  5
E
100
AcDbEntity
  8
0
100
AcDbBlockEnd
  0
BLOCK
  5
F
100
AcDbEntity
 67
               1
  8
0
100
AcDbBlockBegin
  2
*PAPER_SPACE
 70
               0
 10
0.0
 20
0.0
 30
0.0
  3
*PAPER_SPACE
  1

  0
ENDBLK
  5
10
100
AcDbEntity
 67
               1
  8
0
100
AcDbBlockEnd
  0
BLOCK
  5
3C
100
AcDbEntity
  8
LAYER1
100
AcDbBlockBegin
  2
グループ
 70
               0
 10
0.0
 20
0.0
 30
0.0
  3
グループ
  1

  0
POLYLINE
  5
3D
100
AcDbEntity
  8
一般
370
              15
  6
Continuous
 62
               7
100
AcDb2dPolyline
 66
               1
 10
0.0
 20
0.0
 30
0.0
 75
               5
  0
VERTEX
  5
3E
100
AcDbEntity
  8
一般
370
              15
  6
Continuous
 62
               7
100
AcDbVertex
100
AcDb2dVertex
 10
-1039.3
 20
-171.94178113597945
 30
0.0
  0
VERTEX
  5
3F
100
AcDbEntity
  8
一般
370
              15
  6
Continuous
 62
               7
100
AcDbVertex
100
AcDb2dVertex
 10
-1048.3
 20
-171.94178113597945
 30
0.0
  0
VERTEX
  5
40
100
AcDbEntity
  8
一般
370
              15
  6
Continuous
 62
               7
100
AcDbVertex
100
AcDb2dVertex
 10
-1048.3
 20
-111.94178113597945
 30
0.0
  0
VERTEX
  5
41
100
AcDbEntity
  8
一般
370
              15
  6
Continuous
 62
               7
100
AcDbVertex
100
AcDb2dVertex
 10
-988.29999999999995
 20
-111.94178113597945
 30
0.0
  0
VERTEX
  5
42
100
AcDbEntity
  8
一般
370
              15
  6
Continuous
 62
               7
100
AcDbVertex
100
AcDb2dVertex
 10
-988.29999999999995
 20
-171.94178113597945
 30
0.0
  0
VERTEX
  5
43
100
AcDbEntity
  8
一般
370
              15
  6
Continuous
 62
               7
100
AcDbVertex
100
AcDb2dVertex
 10
-997.29999999999995
 20
-171.94178113597945
 30
0.0
  0
SEQEND
  5
44
100
AcDbEntity
  8
一般
370
              15
  6
Continuous
 62
               7
  0
POLYLINE
  5
45
100
AcDbEntity
  8
一般
370
              15
  6
Continuous
 62
               7
100
AcDb2dPolyline
 66
               1
 10
0.0
 20
0.0
 30
0.0
 70
               1
 75
               5
  0
VERTEX
  5
46
100
AcDbEntity
  8
一般
370
              15
  6
Continuous
 62
               7
100
AcDbVertex
100
AcDb2dVertex
 10
-1039.3
 20
-120.94178113597945
 30
0.0
  0
VERTEX
  5
47
100
AcDbEntity
  8
一般
370
              15
  6
Continuous
 62
               7
100
AcDbVertex
100
AcDb2dVertex
 10
-997.29999999999995
 20
-120.94178113597945
 30
0.0
  0
VERTEX
  5
48
100
AcDbEntity
  8
一般
370
              15
  6
Continuous
 62
               7
100
AcDbVertex
100
AcDb2dVertex
 10
-997.29999999999995
 20
-230.94178113597945
 30
0.0
  0
VERTEX
  5
49
100
AcDbEntity
  8
一般
370
              15
  6
Continuous
 62
               7
100
AcDbVertex
100
AcDb2dVertex
 10
-1039.3
 20
-230.94178113597945
 30
0.0
  0
SEQEND
  5
4A
100
AcDbEntity
  8
一般
370
              15
  6
Continuous
 62
               7
  0
POLYLINE
  5
4B
100
AcDbEntity
  8
一般
370
              15
  6
STYLE_05
 62
               7
100
AcDb2dPolyline
 66
               1
 10
0.0
 20
0.0
 30
0.0
 70
               1
 75
               5
  0
VERTEX
  5
4C
100
AcDbEntity
  8
一般
370
              15
  6
STYLE_05
 62
               7
100
AcDbVertex
100
AcDb2dVertex
 10
-1033.2001505756368
 20
-135.84193171161621
 30
0.0
  0
VERTEX
  5
4D
100
AcDbEntity
  8
一般
370
              15
  6
STYLE_05
 62
               7
100
AcDbVertex
100
AcDb2dVertex
 10
-1003.5016657658018
 20
-106.1434469017812
 30
0.0
  0
VERTEX
  5
4E
100
AcDbEntity
  8
一般
370
              15
  6
STYLE_05
 62
               7
100
AcDbVertex
100
AcDb2dVertex
 10
-925.71991983528142
 20
-183.92519283230149
 30
0.0
  0
VERTEX
  5
4F
100
AcDbEntity
  8
一般
370
              15
  6
STYLE_05
 62
               7
100
AcDbVertex
100
AcDb2dVertex
 10
-955.41840464511642
 20
-213.6236776421365
 30
0.0
  0
SEQEND
  5
50
100
AcDbEntity
  8
一般
370
              15
  6
STYLE_05
 62
               7
  0
POLYLINE
  5
51
100
AcDbEntity
  8
一般
370
              15
  6
STYLE_05
 62
               7
100
AcDb2dPolyline
 66
               1
 10
0.0
 20
0.0
 30
0.0
 70
               1
 75
               5
  0
VERTEX
  5
52
100
AcDbEntity
  8
一般
370
              15
  6
STYLE_05
 62
               7
100
AcDbVertex
100
AcDb2dVertex
 10
-1033.2001505756368
 20
-106.1434469017812
 30
0.0
  0
VERTEX
  5
53
100
AcDbEntity
  8
一般
370
              15
  6
STYLE_05
 62
               7
100
AcDbVertex
100
AcDb2dVertex
 10
-1003.5016657658018
 20
-135.84193171161621
 30
0.0
  0
VERTEX
  5
54
100
AcDbEntity
  8
一般
370
              15
  6
STYLE_05
 62
               7
100
AcDbVertex
100
AcDb2dVertex
 10
-1081.2834116963222
 20
-213.62367764213684
 30
0.0
  0
VERTEX
  5
55
100
AcDbEntity
  8
一般
370
              15
  6
STYLE_05
 62
               7
100
AcDbVertex
100
AcDb2dVertex
 10
-1110.9818965061572
 20
-183.92519283230183
 30
0.0
  0
SEQEND
  5
56
100
AcDbEntity
  8
一般
370
              15
  6
STYLE_05
 62
               7
  0
ENDBLK
  5
57
100
AcDbEntity
  8
LAYER1
100
AcDbBlockEnd
  0
BLOCK
  5
58
100
AcDbEntity
  8
LAYER1
100
AcDbBlockBegin
  2
グループ-1
 70
               0
 10
0.0
 20
0.0
 30
0.0
  3
グループ-1
  1

  0
POLYLINE
  5
59
100
AcDbEntity
  8
一般
370
              15
  6
Continuous
 62
               7
100
AcDb2dPolyline
 66
               1
 10
0.0
 20
0.0
 30
0.0
 75
               5
  0
VERTEX
  5
5A
100
AcDbEntity
  8
一般
370
              15
  6
Continuous
 62
               7
100
AcDbVertex
100
AcDb2dVertex
 10
-807.79999999999995
 20
-168.94178113597945
 30
0.0
  0
VERTEX
  5
5B
100
AcDbEntity
  8
一般
370
              15
  6
Continuous
 62
               7
100
AcDbVertex
100
AcDb2dVertex
 10
-780.78676427331118
 20
-168.94178113597945
 30
0.0
  0
VERTEX
  5
5C
100
AcDbEntity
  8
一般
370
              15
  6
Continuous
 62
               7
100
AcDbVertex
100
AcDb2dVertex
 10
-780.78676427331118
 20
-113.94178113597945
 30
0.0
  0
VERTEX
  5
5D
100
AcDbEntity
  8
一般
370
              15
  6
Continuous
 62
               7
100
AcDbVertex
100
AcDb2dVertex
 10
-798.29999999999995
 20
-113.94178113597945
 30
0.0
  0
SEQEND
  5
5E
100
AcDbEntity
  8
一般
370
              15
  6
Continuous
 62
               7
  0
POLYLINE
  5
5F
100
AcDbEntity
  8
一般
370
              15
  6
Continuous
 62
               7
100
AcDb2dPolyline
 66
               1
 10
0.0
 20
0.0
 30
0.0
 75
               5
  0
VERTEX
  5
60
100
AcDbEntity
  8
一般
370
              15
  6
Continuous
 62
               7
100
AcDbVertex
100
AcDb2dVertex
 10
-828.79999999999995
 20
-168.94178113597945
 30
0.0
  0
VERTEX
  5
61
100
AcDbEntity
  8
一般
370
              15
  6
Continuous
 62
               7
100
AcDbVertex
100
AcDb2dVertex
 10
-855.78676427331118
 20
-168.94178113597945
 30
0.0
  0
VERTEX
  5
62
100
AcDbEntity
  8
一般
370
              15
  6
Continuous
 62
               7
100
AcDbVertex
100
AcDb2dVertex
 10
-855.78676427331118
 20
-113.94178113597945
 30
0.0
  0
VERTEX
  5
63
100
AcDbEntity
  8
一般
370
              15
  6
Continuous
 62
               7
100
AcDbVertex
100
AcDb2dVertex
 10
-838.29999999999995
 20
-113.94178113597945
 30
0.0
  0
SEQEND
  5
64
100
AcDbEntity
  8
一般
370
              15
  6
Continuous
 62
               7
  0
LWPOLYLINE
  5
65
100
AcDbEntity
  8
一般
370
              15
  6
Continuous
 62
               7
100
AcDbPolyline
 90
        8
 70
             129
 10
-838.29999999999995
 20
-134.44178113597945
 42
-0.414213562373095
 10
-837.29999999999995
 20
-133.44178113597945
 10
-799.29999999999995
 20
-133.44178113597945
 42
-0.414213562373095
 10
-798.29999999999995
 20
-134.44178113597945
 10
-798.29999999999995
 20
-148.44178113597945
 42
-0.414213562373095
 10
-799.29999999999995
 20
-149.44178113597945
 10
-837.29999999999995
 20
-149.44178113597945
 42
-0.414213562373095
 10
-838.29999999999995
 20
-148.44178113597945
  0
ARC
  5
66
100
AcDbEntity
  8
一般
370
              15
  6
Continuous
 62
               7
100
AcDbCircle
 10
-808.75636317648616
 20
-134.41935490075289
 30
0.0
 40
1.0
100
AcDbArc
 50
90.0
 51
180.0
  0
ARC
  5
67
100
AcDbEntity
  8
一般
370
              15
  6
Continuous
 62
               7
100
AcDbCircle
 10
-808.75636317648616
 20
-148.41935490075289
 30
0.0
 40
1.0
100
AcDbArc
 50
180.0
 51
270.0
  0
ARC
  5
68
100
AcDbEntity
  8
一般
370
              15
  6
Continuous
 62
               7
100
AcDbCircle
 10
-827.71272635297282
 20
-134.44178113597945
 30
0.0
 40
1.0000000000000056
100
AcDbArc
 50
23.037197499239301
 51
89.999999999999986
  0
ARC
  5
69
100
AcDbEntity
  8
一般
370
              15
  6
Continuous
 62
               7
100
AcDbCircle
 10
-827.71272635297282
 20
-148.44178113597945
 30
0.0
 40
1.0
100
AcDbArc
 50
270.0
 51
0.0
  0
POLYLINE
  5
6A
100
AcDbEntity
  8
一般
370
              15
  6
Continuous
 62
               7
100
AcDb2dPolyline
 66
               1
 10
0.0
 20
0.0
 30
0.0
 70
               1
 75
               5
  0
VERTEX
  5
6B
100
AcDbEntity
  8
一般
370
              15
  6
Continuous
 62
               7
100
AcDbVertex
100
AcDb2dVertex
 10
-826.79999999999995
 20
-133.44178113597945
 30
0.0
  0
VERTEX
  5
6C
100
AcDbEntity
  8
一般
370
              15
  6
Continuous
 62
               7
100
AcDbVertex
100
AcDb2dVertex
 10
-809.79999999999995
 20
-133.44178113597945
 30
0.0
  0
VERTEX
  5
6D
100
AcDbEntity
  8
一般
370
              15
  6
Continuous
 62
               7
100
AcDbVertex
100
AcDb2dVertex
 10
-809.79999999999995
 20
-149.44178113597945
 30
0.0
  0
VERTEX
  5
6E
100
AcDbEntity
  8
一般
370
              15
  6
Continuous
 62
               7
100
AcDbVertex
100
AcDb2dVertex
 10
-826.79999999999995
 20
-149.44178113597945
 30
0.0
  0
SEQEND
  5
6F
100
AcDbEntity
  8
一般
370
              15
  6
Continuous
 62
               7
  0
POLYLINE
  5
70
100
AcDbEntity
  8
一般
370
               5
  6
Continuous
 62
               7
100
AcDb2dPolyline
 66
               1
 10
0.0
 20
0.0
 30
0.0
 70
               1
 75
               5
  0
VERTEX
  5
71
100
AcDbEntity
  8
一般
370
               5
  6
Continuous
 62
               7
100
AcDbVertex
100
AcDb2dVertex
 10
-828.29999999999995
 20
-165.44178113597945
 30
0.0
  0
VERTEX
  5
72
100
AcDbEntity
  8
一般
370
               5
  6
Continuous
 62
               7
100
AcDbVertex
100
AcDb2dVertex
 10
-808.29999999999995
 20
-165.44178113597945
 30
0.0
  0
VERTEX
  5
73
100
AcDbEntity
  8
一般
370
               5
  6
Continuous
 62
               7
100
AcDbVertex
100
AcDb2dVertex
 10
-808.29999999999995
 20
-175.44178113597945
 30
0.0
  0
VERTEX
  5
74
100
AcDbEntity
  8
一般
370
               5
  6
Continuous
 62
               7
100
AcDbVertex
100
AcDb2dVertex
 10
-828.29999999999995
 20
-175.44178113597945
 30
0.0
  0
SEQEND
  5
75
100
AcDbEntity
  8
一般
370
               5
  6
Continuous
 62
               7
  0
POLYLINE
  5
76
100
AcDbEntity
  8
一般
370
               5
  6
Continuous
 62
               7
100
AcDb2dPolyline
 66
               1
 10
0.0
 20
0.0
 30
0.0
 70
               1
 75
               5
  0
VERTEX
  5
77
100
AcDbEntity
  8
一般
370
               5
  6
Continuous
 62
               7
100
AcDbVertex
100
AcDb2dVertex
 10
-828.79999999999995
 20
-174.44178113597945
 30
0.0
  0
VERTEX
  5
78
100
AcDbEntity
  8
一般
370
               5
  6
Continuous
 62
               7
100
AcDbVertex
100
AcDb2dVertex
 10
-807.79999999999995
 20
-174.44178113597945
 30
0.0
  0
VERTEX
  5
79
100
AcDbEntity
  8
一般
370
               5
  6
Continuous
 62
               7
100
AcDbVertex
100
AcDb2dVertex
 10
-807.79999999999995
 20
-175.44178113597945
 30
0.0
  0
VERTEX
  5
7A
100
AcDbEntity
  8
一般
370
               5
  6
Continuous
 62
               7
100
AcDbVertex
100
AcDb2dVertex
 10
-828.79999999999995
 20
-175.44178113597945
 30
0.0
  0
SEQEND
  5
7B
100
AcDbEntity
  8
一般
370
               5
  6
Continuous
 62
               7
  0
POLYLINE
  5
7C
100
AcDbEntity
  8
一般
370
               5
  6
Continuous
 62
               7
100
AcDb2dPolyline
 66
               1
 10
0.0
 20
0.0
 30
0.0
 70
               1
 75
               5
  0
VERTEX
  5
7D
100
AcDbEntity
  8
一般
370
               5
  6
Continuous
 62
               7
100
AcDbVertex
100
AcDb2dVertex
 10
-828.79999999999995
 20
-172.44178113597945
 30
0.0
  0
VERTEX
  5
7E
100
AcDbEntity
  8
一般
370
               5
  6
Continuous
 62
               7
100
AcDbVertex
100
AcDb2dVertex
 10
-807.79999999999995
 20
-172.44178113597945
 30
0.0
  0
VERTEX
  5
7F
100
AcDbEntity
  8
一般
370
               5
  6
Continuous
 62
               7
100
AcDbVertex
100
AcDb2dVertex
 10
-807.79999999999995
 20
-173.44178113597945
 30
0.0
  0
VERTEX
  5
80
100
AcDbEntity
  8
一般
370
               5
  6
Continuous
 62
               7
100
AcDbVertex
100
AcDb2dVertex
 10
-828.79999999999995
 20
-173.44178113597945
 30
0.0
  0
SEQEND
  5
81
100
AcDbEntity
  8
一般
370
               5
  6
Continuous
 62
               7
  0
POLYLINE
  5
82
100
AcDbEntity
  8
一般
370
               5
  6
Continuous
 62
               7
100
AcDb2dPolyline
 66
               1
 10
0.0
 20
0.0
 30
0.0
 70
               1
 75
               5
  0
VERTEX
  5
83
100
AcDbEntity
  8
一般
370
               5
  6
Continuous
 62
               7
100
AcDbVertex
100
AcDb2dVertex
 10
-828.79999999999995
 20
-170.44178113597945
 30
0.0
  0
VERTEX
  5
84
100
AcDbEntity
  8
一般
370
               5
  6
Continuous
 62
               7
100
AcDbVertex
100
AcDb2dVertex
 10
-807.79999999999995
 20
-170.44178113597945
 30
0.0
  0
VERTEX
  5
85
100
AcDbEntity
  8
一般
370
               5
  6
Continuous
 62
               7
100
AcDbVertex
100
AcDb2dVertex
 10
-807.79999999999995
 20
-171.44178113597945
 30
0.0
  0
VERTEX
  5
86
100
AcDbEntity
  8
一般
370
               5
  6
Continuous
 62
               7
100
AcDbVertex
100
AcDb2dVertex
 10
-828.79999999999995
 20
-171.44178113597945
 30
0.0
  0
SEQEND
  5
87
100
AcDbEntity
  8
一般
370
               5
  6
Continuous
 62
               7
  0
POLYLINE
  5
88
100
AcDbEntity
  8
一般
370
               5
  6
Continuous
 62
               7
100
AcDb2dPolyline
 66
               1
 10
0.0
 20
0.0
 30
0.0
 70
               1
 75
               5
  0
VERTEX
  5
89
100
AcDbEntity
  8
一般
370
               5
  6
Continuous
 62
               7
100
AcDbVertex
100
AcDb2dVertex
 10
-828.79999999999995
 20
-168.44178113597945
 30
0.0
  0
VERTEX
  5
8A
100
AcDbEntity
  8
一般
370
               5
  6
Continuous
 62
               7
100
AcDbVertex
100
AcDb2dVertex
 10
-807.79999999999995
 20
-168.44178113597945
 30
0.0
  0
VERTEX
  5
8B
100
AcDbEntity
  8
一般
370
               5
  6
Continuous
 62
               7
100
AcDbVertex
100
AcDb2dVertex
 10
-807.79999999999995
 20
-169.44178113597945
 30
0.0
  0
VERTEX
  5
8C
100
AcDbEntity
  8
一般
370
               5
  6
Continuous
 62
               7
100
AcDbVertex
100
AcDb2dVertex
 10
-828.79999999999995
 20
-169.44178113597945
 30
0.0
  0
SEQEND
  5
8D
100
AcDbEntity
  8
一般
370
               5
  6
Continuous
 62
               7
  0
POLYLINE
  5
8E
100
AcDbEntity
  8
一般
370
               5
  6
Continuous
 62
               7
100
AcDb2dPolyline
 66
               1
 10
0.0
 20
0.0
 30
0.0
 70
               1
 75
               5
  0
VERTEX
  5
8F
100
AcDbEntity
  8
一般
370
               5
  6
Continuous
 62
               7
100
AcDbVertex
100
AcDb2dVertex
 10
-828.79999999999995
 20
-166.44178113597945
 30
0.0
  0
VERTEX
  5
90
100
AcDbEntity
  8
一般
370
               5
  6
Continuous
 62
               7
100
AcDbVertex
100
AcDb2dVertex
 10
-807.79999999999995
 20
-166.44178113597945
 30
0.0
  0
VERTEX
  5
91
100
AcDbEntity
  8
一般
370
               5
  6
Continuous
 62
               7
100
AcDbVertex
100
AcDb2dVertex
 10
-807.79999999999995
 20
-167.44178113597945
 30
0.0
  0
VERTEX
  5
92
100
AcDbEntity
  8
一般
370
               5
  6
Continuous
 62
               7
100
AcDbVertex
100
AcDb2dVertex
 10
-828.79999999999995
 20
-167.44178113597945
 30
0.0
  0
SEQEND
  5
93
100
AcDbEntity
  8
一般
370
               5
  6
Continuous
 62
               7
  0
POLYLINE
  5
94
100
AcDbEntity
  8
一般
370
               5
  6
Continuous
 62
               7
100
AcDb2dPolyline
 66
               1
 10
0.0
 20
0.0
 30
0.0
 70
               1
 75
               5
  0
VERTEX
  5
95
100
AcDbEntity
  8
一般
370
               5
  6
Continuous
 62
               7
100
AcDbVertex
100
AcDb2dVertex
 10
-828.29999999999995
 20
-149.44178113597945
 30
0.0
  0
VERTEX
  5
96
100
AcDbEntity
  8
一般
370
               5
  6
Continuous
 62
               7
100
AcDbVertex
100
AcDb2dVertex
 10
-808.29999999999995
 20
-149.44178113597945
 30
0.0
  0
VERTEX
  5
97
100
AcDbEntity
  8
一般
370
               5
  6
Continuous
 62
               7
100
AcDbVertex
100
AcDb2dVertex
 10
-808.29999999999995
 20
-165.44178113597945
 30
0.0
  0
VERTEX
  5
98
100
AcDbEntity
  8
一般
370
               5
  6
Continuous
 62
               7
100
AcDbVertex
100
AcDb2dVertex
 10
-828.29999999999995
 20
-165.44178113597945
 30
0.0
  0
SEQEND
  5
99
100
AcDbEntity
  8
一般
370
               5
  6
Continuous
 62
               7
  0
LWPOLYLINE
  5
9A
100
AcDbEntity
  8
一般
370
              15
  6
Continuous
 62
               7
100
AcDbPolyline
 90
        6
 70
             129
 10
-838.29999999999995
 20
60.558218864020546
 42
-0.414213562373095
 10
-837.29999999999995
 20
61.558218864020546
 10
-799.29999999999995
 20
61.558218864020546
 42
-0.414213562373095
 10
-798.29999999999995
 20
60.558218864020546
 10
-798.29999999999995
 20
-133.44178113597945
 10
-838.29999999999995
 20
-133.44178113597945
  0
POLYLINE
  5
9B
100
AcDbEntity
  8
一般
370
              15
  6
Continuous
 62
               7
100
AcDb2dPolyline
 66
               1
 10
0.0
 20
0.0
 30
0.0
 70
               1
 75
               5
  0
VERTEX
  5
9C
100
AcDbEntity
  8
一般
370
              15
  6
Continuous
 62
               7
100
AcDbVertex
100
AcDb2dVertex
 10
-838.54999999999995
 20
-131.44178113597945
 30
0.0
  0
VERTEX
  5
9D
100
AcDbEntity
  8
一般
370
              15
  6
Continuous
 62
               7
100
AcDbVertex
100
AcDb2dVertex
 10
-798.04999999999995
 20
-131.44178113597945
 30
0.0
  0
VERTEX
  5
9E
100
AcDbEntity
  8
一般
370
              15
  6
Continuous
 62
               7
100
AcDbVertex
100
AcDb2dVertex
 10
-798.04999999999995
 20
-133.44178113597945
 30
0.0
  0
VERTEX
  5
9F
100
AcDbEntity
  8
一般
370
              15
  6
Continuous
 62
               7
100
AcDbVertex
100
AcDb2dVertex
 10
-838.54999999999995
 20
-133.44178113597945
 30
0.0
  0
SEQEND
  5
A0
100
AcDbEntity
  8
一般
370
              15
  6
Continuous
 62
               7
  0
SPLINE
  5
A1
100
AcDbEntity
  8
一般
370
               5
  6
Continuous
 62
               7
100
AcDbSpline
210
0.0
220
0.0
230
1.0
 70
               8
 71
               2
 72
               6
 73
               3
 74
               0
 42
0.000001
 43
0.000001
 40
0.0
 40
0.0
 40
0.0
 40
1.0
 40
1.0
 40
1.0
 10
-826.29999999999995
 20
-133.44178113597945
 30
0.0
 10
-826.29999999999995
 20
-124.55951961094524
 30
0.0
 10
-822.29999999999995
 20
-119.72857099818566
 30
0.0
  0
SPLINE
  5
A2
100
AcDbEntity
  8
一般
370
               5
  6
Continuous
 62
               7
100
AcDbSpline
210
0.0
220
0.0
230
1.0
 70
               8
 71
               2
 72
               6
 73
               3
 74
               0
 42
0.000001
 43
0.000001
 40
0.0
 40
0.0
 40
0.0
 40
1.0
 40
1.0
 40
1.0
 10
-810.29999999999995
 20
-133.44178113597945
 30
0.0
 10
-810.29999999999995
 20
-124.115173076877
 30
0.0
 10
-814.29999999999995
 20
-119.37928113597945
 30
0.0
  0
POLYLINE
  5
A3
100
AcDbEntity
  8
一般
370
               5
  6
Continuous
 62
               7
100
AcDb2dPolyline
 66
               1
 10
0.0
 20
0.0
 30
0.0
 70
               1
 75
               5
  0
VERTEX
  5
A4
100
AcDbEntity
  8
一般
370
               5
  6
Continuous
 62
               7
100
AcDbVertex
100
AcDb2dVertex
 10
-833.04999999999995
 20
-0.9417811359794541
 30
0.0
  0
VERTEX
  5
A5
100
AcDbEntity
  8
一般
370
               5
  6
Continuous
 62
               7
100
AcDbVertex
100
AcDb2dVertex
 10
-829.54999999999995
 20
-0.9417811359794541
 30
0.0
  0
VERTEX
  5
A6
100
AcDbEntity
  8
一般
370
               5
  6
Continuous
 62
               7
100
AcDbVertex
100
AcDb2dVertex
 10
-829.54999999999995
 20
-4.4417811359794541
 30
0.0
  0
VERTEX
  5
A7
100
AcDbEntity
  8
一般
370
               5
  6
Continuous
 62
               7
100
AcDbVertex
100
AcDb2dVertex
 10
-833.04999999999995
 20
-4.4417811359794541
 30
0.0
  0
SEQEND
  5
A8
100
AcDbEntity
  8
一般
370
               5
  6
Continuous
 62
               7
  0
CIRCLE
  5
A9
100
AcDbEntity
  8
一般
370
              15
  6
Continuous
 62
               7
100
AcDbCircle
 10
-831.29999999999995
 20
-2.6917811359794541
 30
0.0
 40
0.6000000000000227
  0
LWPOLYLINE
  5
AA
100
AcDbEntity
  8
一般
370
              15
  6
Continuous
 62
               7
100
AcDbPolyline
 90
        8
 70
             129
 10
-832.79999999999995
 20
-1.4917811359794542
 42
-0.4142135623731395
 10
-832.5
 20
-1.1917811359794541
 10
-830.09999999999991
 20
-1.1917811359794541
 42
-0.414213562373095
 10
-829.79999999999995
 20
-1.4917811359794542
 10
-829.79999999999995
 20
-3.8917811359794543
 42
-0.4142135623731393
 10
-830.09999999999991
 20
-4.1917811359794541
 10
-832.5
 20
-4.1917811359794541
 42
-0.414213562373095
 10
-832.79999999999995
 20
-3.8917811359794543
  0
POLYLINE
  5
AB
100
AcDbEntity
  8
一般
370
               5
  6
Continuous
 62
               7
100
AcDb2dPolyline
 66
               1
 10
0.0
 20
0.0
 30
0.0
 70
               1
 75
               5
  0
VERTEX
  5
AC
100
AcDbEntity
  8
一般
370
               5
  6
Continuous
 62
               7
100
AcDbVertex
100
AcDb2dVertex
 10
-826.54999999999995
 20
-0.9417811359794541
 30
0.0
  0
VERTEX
  5
AD
100
AcDbEntity
  8
一般
370
               5
  6
Continuous
 62
               7
100
AcDbVertex
100
AcDb2dVertex
 10
-823.04999999999995
 20
-0.9417811359794541
 30
0.0
  0
VERTEX
  5
AE
100
AcDbEntity
  8
一般
370
               5
  6
Continuous
 62
               7
100
AcDbVertex
100
AcDb2dVertex
 10
-823.04999999999995
 20
-4.4417811359794541
 30
0.0
  0
VERTEX
  5
AF
100
AcDbEntity
  8
一般
370
               5
  6
Continuous
 62
               7
100
AcDbVertex
100
AcDb2dVertex
 10
-826.54999999999995
 20
-4.4417811359794541
 30
0.0
  0
SEQEND
  5
B0
100
AcDbEntity
  8
一般
370
               5
  6
Continuous
 62
               7
  0
CIRCLE
  5
B1
100
AcDbEntity
  8
一般
370
              15
  6
Continuous
 62
               7
100
AcDbCircle
 10
-824.79999999999995
 20
-2.6917811359794541
 30
0.0
 40
0.6000000000000227
  0
LWPOLYLINE
  5
B2
100
AcDbEntity
  8
一般
370
              15
  6
Continuous
 62
               7
100
AcDbPolyline
 90
        8
 70
             129
 10
-826.29999999999995
 20
-1.4917811359794542
 42
-0.4142135623731395
 10
-826.0
 20
-1.1917811359794541
 10
-823.59999999999991
 20
-1.1917811359794541
 42
-0.414213562373095
 10
-823.29999999999995
 20
-1.4917811359794542
 10
-823.29999999999995
 20
-3.8917811359794543
 42
-0.4142135623731393
 10
-823.59999999999991
 20
-4.1917811359794541
 10
-826.0
 20
-4.1917811359794541
 42
-0.414213562373095
 10
-826.29999999999995
 20
-3.8917811359794543
  0
POLYLINE
  5
B3
100
AcDbEntity
  8
一般
370
               5
  6
Continuous
 62
               7
100
AcDb2dPolyline
 66
               1
 10
0.0
 20
0.0
 30
0.0
 70
               1
 75
               5
  0
VERTEX
  5
B4
100
AcDbEntity
  8
一般
370
               5
  6
Continuous
 62
               7
100
AcDbVertex
100
AcDb2dVertex
 10
-820.04999999999995
 20
-0.9417811359794541
 30
0.0
  0
VERTEX
  5
B5
100
AcDbEntity
  8
一般
370
               5
  6
Continuous
 62
               7
100
AcDbVertex
100
AcDb2dVertex
 10
-816.54999999999995
 20
-0.9417811359794541
 30
0.0
  0
VERTEX
  5
B6
100
AcDbEntity
  8
一般
370
               5
  6
Continuous
 62
               7
100
AcDbVertex
100
AcDb2dVertex
 10
-816.54999999999995
 20
-4.4417811359794541
 30
0.0
  0
VERTEX
  5
B7
100
AcDbEntity
  8
一般
370
               5
  6
Continuous
 62
               7
100
AcDbVertex
100
AcDb2dVertex
 10
-820.04999999999995
 20
-4.4417811359794541
 30
0.0
  0
SEQEND
  5
B8
100
AcDbEntity
  8
一般
370
               5
  6
Continuous
 62
               7
  0
CIRCLE
  5
B9
100
AcDbEntity
  8
一般
370
              15
  6
Continuous
 62
               7
100
AcDbCircle
 10
-818.29999999999995
 20
-2.6917811359794541
 30
0.0
 40
0.6000000000000227
  0
LWPOLYLINE
  5
BA
100
AcDbEntity
  8
一般
370
              15
  6
Continuous
 62
               7
100
AcDbPolyline
 90
        8
 70
             129
 10
-819.79999999999995
 20
-1.4917811359794542
 42
-0.4142135623731395
 10
-819.5
 20
-1.1917811359794541
 10
-817.09999999999991
 20
-1.1917811359794541
 42
-0.414213562373095
 10
-816.79999999999995
 20
-1.4917811359794542
 10
-816.79999999999995
 20
-3.8917811359794543
 42
-0.4142135623731393
 10
-817.09999999999991
 20
-4.1917811359794541
 10
-819.5
 20
-4.1917811359794541
 42
-0.414213562373095
 10
-819.79999999999995
 20
-3.8917811359794543
  0
POLYLINE
  5
BB
100
AcDbEntity
  8
一般
370
               5
  6
Continuous
 62
               7
100
AcDb2dPolyline
 66
               1
 10
0.0
 20
0.0
 30
0.0
 70
               1
 75
               5
  0
VERTEX
  5
BC
100
AcDbEntity
  8
一般
370
               5
  6
Continuous
 62
               7
100
AcDbVertex
100
AcDb2dVertex
 10
-813.54999999999995
 20
-0.9417811359794541
 30
0.0
  0
VERTEX
  5
BD
100
AcDbEntity
  8
一般
370
               5
  6
Continuous
 62
               7
100
AcDbVertex
100
AcDb2dVertex
 10
-810.04999999999995
 20
-0.9417811359794541
 30
0.0
  0
VERTEX
  5
BE
100
AcDbEntity
  8
一般
370
               5
  6
Continuous
 62
               7
100
AcDbVertex
100
AcDb2dVertex
 10
-810.04999999999995
 20
-4.4417811359794541
 30
0.0
  0
VERTEX
  5
BF
100
AcDbEntity
  8
一般
370
               5
  6
Continuous
 62
               7
100
AcDbVertex
100
AcDb2dVertex
 10
-813.54999999999995
 20
-4.4417811359794541
 30
0.0
  0
SEQEND
  5
C0
100
AcDbEntity
  8
一般
370
               5
  6
Continuous
 62
               7
  0
CIRCLE
  5
C1
100
AcDbEntity
  8
一般
370
              15
  6
Continuous
 62
               7
100
AcDbCircle
 10
-811.79999999999995
 20
-2.6917811359794541
 30
0.0
 40
0.6000000000000227
  0
LWPOLYLINE
  5
C2
100
AcDbEntity
  8
一般
370
              15
  6
Continuous
 62
               7
100
AcDbPolyline
 90
        8
 70
             129
 10
-813.29999999999995
 20
-1.4917811359794542
 42
-0.4142135623731395
 10
-813.0
 20
-1.1917811359794541
 10
-810.59999999999991
 20
-1.1917811359794541
 42
-0.414213562373095
 10
-810.29999999999995
 20
-1.4917811359794542
 10
-810.29999999999995
 20
-3.8917811359794543
 42
-0.4142135623731393
 10
-810.59999999999991
 20
-4.1917811359794541
 10
-813.0
 20
-4.1917811359794541
 42
-0.414213562373095
 10
-813.29999999999995
 20
-3.8917811359794543
  0
POLYLINE
  5
C3
100
AcDbEntity
  8
一般
370
               5
  6
Continuous
 62
               7
100
AcDb2dPolyline
 66
               1
 10
0.0
 20
0.0
 30
0.0
 70
               1
 75
               5
  0
VERTEX
  5
C4
100
AcDbEntity
  8
一般
370
               5
  6
Continuous
 62
               7
100
AcDbVertex
100
AcDb2dVertex
 10
-807.04999999999995
 20
-0.9417811359794541
 30
0.0
  0
VERTEX
  5
C5
100
AcDbEntity
  8
一般
370
               5
  6
Continuous
 62
               7
100
AcDbVertex
100
AcDb2dVertex
 10
-803.54999999999995
 20
-0.9417811359794541
 30
0.0
  0
VERTEX
  5
C6
100
AcDbEntity
  8
一般
370
               5
  6
Continuous
 62
               7
100
AcDbVertex
100
AcDb2dVertex
 10
-803.54999999999995
 20
-4.4417811359794541
 30
0.0
  0
VERTEX
  5
C7
100
AcDbEntity
  8
一般
370
               5
  6
Continuous
 62
               7
100
AcDbVertex
100
AcDb2dVertex
 10
-807.04999999999995
 20
-4.4417811359794541
 30
0.0
  0
SEQEND
  5
C8
100
AcDbEntity
  8
一般
370
               5
  6
Continuous
 62
               7
  0
CIRCLE
  5
C9
100
AcDbEntity
  8
一般
370
              15
  6
Continuous
 62
               7
100
AcDbCircle
 10
-805.29999999999995
 20
-2.6917811359794541
 30
0.0
 40
0.6000000000000227
  0
LWPOLYLINE
  5
CA
100
AcDbEntity
  8
一般
370
              15
  6
Continuous
 62
               7
100
AcDbPolyline
 90
        8
 70
             129
 10
-806.79999999999995
 20
-1.4917811359794542
 42
-0.4142135623731395
 10
-806.5
 20
-1.1917811359794541
 10
-804.09999999999991
 20
-1.1917811359794541
 42
-0.414213562373095
 10
-803.79999999999995
 20
-1.4917811359794542
 10
-803.79999999999995
 20
-3.8917811359794543
 42
-0.4142135623731393
 10
-804.09999999999991
 20
-4.1917811359794541
 10
-806.5
 20
-4.1917811359794541
 42
-0.414213562373095
 10
-806.79999999999995
 20
-3.8917811359794543
  0
POLYLINE
  5
CB
100
AcDbEntity
  8
一般
370
               5
  6
Continuous
 62
               7
100
AcDb2dPolyline
 66
               1
 10
0.0
 20
0.0
 30
0.0
 70
               1
 75
               5
  0
VERTEX
  5
CC
100
AcDbEntity
  8
一般
370
               5
  6
Continuous
 62
               7
100
AcDbVertex
100
AcDb2dVertex
 10
-833.04999999999995
 20
5.5582188640205459
 30
0.0
  0
VERTEX
  5
CD
100
AcDbEntity
  8
一般
370
               5
  6
Continuous
 62
               7
100
AcDbVertex
100
AcDb2dVertex
 10
-829.54999999999995
 20
5.5582188640205459
 30
0.0
  0
VERTEX
  5
CE
100
AcDbEntity
  8
一般
370
               5
  6
Continuous
 62
               7
100
AcDbVertex
100
AcDb2dVertex
 10
-829.54999999999995
 20
2.0582188640205459
 30
0.0
  0
VERTEX
  5
CF
100
AcDbEntity
  8
一般
370
               5
  6
Continuous
 62
               7
100
AcDbVertex
100
AcDb2dVertex
 10
-833.04999999999995
 20
2.0582188640205459
 30
0.0
  0
SEQEND
  5
D0
100
AcDbEntity
  8
一般
370
               5
  6
Continuous
 62
               7
  0
CIRCLE
  5
D1
100
AcDbEntity
  8
一般
370
              15
  6
Continuous
 62
               7
100
AcDbCircle
 10
-831.29999999999995
 20
3.8082188640205459
 30
0.0
 40
0.6000000000000227
  0
LWPOLYLINE
  5
D2
100
AcDbEntity
  8
一般
370
              15
  6
Continuous
 62
               7
100
AcDbPolyline
 90
        8
 70
             129
 10
-832.79999999999995
 20
5.0082188640205461
 42
-0.4142135623731393
 10
-832.5
 20
5.3082188640205459
 10
-830.09999999999991
 20
5.3082188640205459
 42
-0.414213562373095
 10
-829.79999999999995
 20
5.0082188640205461
 10
-829.79999999999995
 20
2.6082188640205457
 42
-0.4142135623731393
 10
-830.09999999999991
 20
2.3082188640205459
 10
-832.5
 20
2.3082188640205459
 42
-0.414213562373095
 10
-832.79999999999995
 20
2.6082188640205457
  0
POLYLINE
  5
D3
100
AcDbEntity
  8
一般
370
               5
  6
Continuous
 62
               7
100
AcDb2dPolyline
 66
               1
 10
0.0
 20
0.0
 30
0.0
 70
               1
 75
               5
  0
VERTEX
  5
D4
100
AcDbEntity
  8
一般
370
               5
  6
Continuous
 62
               7
100
AcDbVertex
100
AcDb2dVertex
 10
-826.54999999999995
 20
5.5582188640205459
 30
0.0
  0
VERTEX
  5
D5
100
AcDbEntity
  8
一般
370
               5
  6
Continuous
 62
               7
100
AcDbVertex
100
AcDb2dVertex
 10
-823.04999999999995
 20
5.5582188640205459
 30
0.0
  0
VERTEX
  5
D6
100
AcDbEntity
  8
一般
370
               5
  6
Continuous
 62
               7
100
AcDbVertex
100
AcDb2dVertex
 10
-823.04999999999995
 20
2.0582188640205459
 30
0.0
  0
VERTEX
  5
D7
100
AcDbEntity
  8
一般
370
               5
  6
Continuous
 62
               7
100
AcDbVertex
100
AcDb2dVertex
 10
-826.54999999999995
 20
2.0582188640205459
 30
0.0
  0
SEQEND
  5
D8
100
AcDbEntity
  8
一般
370
               5
  6
Continuous
 62
               7
  0
CIRCLE
  5
D9
100
AcDbEntity
  8
一般
370
              15
  6
Continuous
 62
               7
100
AcDbCircle
 10
-824.79999999999995
 20
3.8082188640205459
 30
0.0
 40
0.6000000000000227
  0
LWPOLYLINE
  5
DA
100
AcDbEntity
  8
一般
370
              15
  6
Continuous
 62
               7
100
AcDbPolyline
 90
        8
 70
             129
 10
-826.29999999999995
 20
5.0082188640205461
 42
-0.4142135623731393
 10
-826.0
 20
5.3082188640205459
 10
-823.59999999999991
 20
5.3082188640205459
 42
-0.414213562373095
 10
-823.29999999999995
 20
5.0082188640205461
 10
-823.29999999999995
 20
2.6082188640205457
 42
-0.4142135623731393
 10
-823.59999999999991
 20
2.3082188640205459
 10
-826.0
 20
2.3082188640205459
 42
-0.414213562373095
 10
-826.29999999999995
 20
2.6082188640205457
  0
POLYLINE
  5
DB
100
AcDbEntity
  8
一般
370
               5
  6
Continuous
 62
               7
100
AcDb2dPolyline
 66
               1
 10
0.0
 20
0.0
 30
0.0
 70
               1
 75
               5
  0
VERTEX
  5
DC
100
AcDbEntity
  8
一般
370
               5
  6
Continuous
 62
               7
100
AcDbVertex
100
AcDb2dVertex
 10
-820.04999999999995
 20
5.5582188640205459
 30
0.0
  0
VERTEX
  5
DD
100
AcDbEntity
  8
一般
370
               5
  6
Continuous
 62
               7
100
AcDbVertex
100
AcDb2dVertex
 10
-816.54999999999995
 20
5.5582188640205459
 30
0.0
  0
VERTEX
  5
DE
100
AcDbEntity
  8
一般
370
               5
  6
Continuous
 62
               7
100
AcDbVertex
100
AcDb2dVertex
 10
-816.54999999999995
 20
2.0582188640205459
 30
0.0
  0
VERTEX
  5
DF
100
AcDbEntity
  8
一般
370
               5
  6
Continuous
 62
               7
100
AcDbVertex
100
AcDb2dVertex
 10
-820.04999999999995
 20
2.0582188640205459
 30
0.0
  0
SEQEND
  5
E0
100
AcDbEntity
  8
一般
370
               5
  6
Continuous
 62
               7
  0
CIRCLE
  5
E1
100
AcDbEntity
  8
一般
370
              15
  6
Continuous
 62
               7
100
AcDbCircle
 10
-818.29999999999995
 20
3.8082188640205459
 30
0.0
 40
0.6000000000000227
  0
LWPOLYLINE
  5
E2
100
AcDbEntity
  8
一般
370
              15
  6
Continuous
 62
               7
100
AcDbPolyline
 90
        8
 70
             129
 10
-819.79999999999995
 20
5.0082188640205461
 42
-0.4142135623731393
 10
-819.5
 20
5.3082188640205459
 10
-817.09999999999991
 20
5.3082188640205459
 42
-0.414213562373095
 10
-816.79999999999995
 20
5.0082188640205461
 10
-816.79999999999995
 20
2.6082188640205457
 42
-0.4142135623731393
 10
-817.09999999999991
 20
2.3082188640205459
 10
-819.5
 20
2.3082188640205459
 42
-0.414213562373095
 10
-819.79999999999995
 20
2.6082188640205457
  0
POLYLINE
  5
E3
100
AcDbEntity
  8
一般
370
               5
  6
Continuous
 62
               7
100
AcDb2dPolyline
 66
               1
 10
0.0
 20
0.0
 30
0.0
 70
               1
 75
               5
  0
VERTEX
  5
E4
100
AcDbEntity
  8
一般
370
               5
  6
Continuous
 62
               7
100
AcDbVertex
100
AcDb2dVertex
 10
-813.54999999999995
 20
5.5582188640205459
 30
0.0
  0
VERTEX
  5
E5
100
AcDbEntity
  8
一般
370
               5
  6
Continuous
 62
               7
100
AcDbVertex
100
AcDb2dVertex
 10
-810.04999999999995
 20
5.5582188640205459
 30
0.0
  0
VERTEX
  5
E6
100
AcDbEntity
  8
一般
370
               5
  6
Continuous
 62
               7
100
AcDbVertex
100
AcDb2dVertex
 10
-810.04999999999995
 20
2.0582188640205459
 30
0.0
  0
VERTEX
  5
E7
100
AcDbEntity
  8
一般
370
               5
  6
Continuous
 62
               7
100
AcDbVertex
100
AcDb2dVertex
 10
-813.54999999999995
 20
2.0582188640205459
 30
0.0
  0
SEQEND
  5
E8
100
AcDbEntity
  8
一般
370
               5
  6
Continuous
 62
               7
  0
CIRCLE
  5
E9
100
AcDbEntity
  8
一般
370
              15
  6
Continuous
 62
               7
100
AcDbCircle
 10
-811.79999999999995
 20
3.8082188640205459
 30
0.0
 40
0.6000000000000227
  0
LWPOLYLINE
  5
EA
100
AcDbEntity
  8
一般
370
              15
  6
Continuous
 62
               7
100
AcDbPolyline
 90
        8
 70
             129
 10
-813.29999999999995
 20
5.0082188640205461
 42
-0.4142135623731393
 10
-813.0
 20
5.3082188640205459
 10
-810.59999999999991
 20
5.3082188640205459
 42
-0.414213562373095
 10
-810.29999999999995
 20
5.0082188640205461
 10
-810.29999999999995
 20
2.6082188640205457
 42
-0.4142135623731393
 10
-810.59999999999991
 20
2.3082188640205459
 10
-813.0
 20
2.3082188640205459
 42
-0.414213562373095
 10
-813.29999999999995
 20
2.6082188640205457
  0
POLYLINE
  5
EB
100
AcDbEntity
  8
一般
370
               5
  6
Continuous
 62
               7
100
AcDb2dPolyline
 66
               1
 10
0.0
 20
0.0
 30
0.0
 70
               1
 75
               5
  0
VERTEX
  5
EC
100
AcDbEntity
  8
一般
370
               5
  6
Continuous
 62
               7
100
AcDbVertex
100
AcDb2dVertex
 10
-807.04999999999995
 20
5.5582188640205459
 30
0.0
  0
VERTEX
  5
ED
100
AcDbEntity
  8
一般
370
               5
  6
Continuous
 62
               7
100
AcDbVertex
100
AcDb2dVertex
 10
-803.54999999999995
 20
5.5582188640205459
 30
0.0
  0
VERTEX
  5
EE
100
AcDbEntity
  8
一般
370
               5
  6
Continuous
 62
               7
100
AcDbVertex
100
AcDb2dVertex
 10
-803.54999999999995
 20
2.0582188640205459
 30
0.0
  0
VERTEX
  5
EF
100
AcDbEntity
  8
一般
370
               5
  6
Continuous
 62
               7
100
AcDbVertex
100
AcDb2dVertex
 10
-807.04999999999995
 20
2.0582188640205459
 30
0.0
  0
SEQEND
  5
F0
100
AcDbEntity
  8
一般
370
               5
  6
Continuous
 62
               7
  0
CIRCLE
  5
F1
100
AcDbEntity
  8
一般
370
              15
  6
Continuous
 62
               7
100
AcDbCircle
 10
-805.29999999999995
 20
3.8082188640205459
 30
0.0
 40
0.6000000000000227
  0
LWPOLYLINE
  5
F2
100
AcDbEntity
  8
一般
370
              15
  6
Continuous
 62
               7
100
AcDbPolyline
 90
        8
 70
             129
 10
-806.79999999999995
 20
5.0082188640205461
 42
-0.4142135623731393
 10
-806.5
 20
5.3082188640205459
 10
-804.09999999999991
 20
5.3082188640205459
 42
-0.414213562373095
 10
-803.79999999999995
 20
5.0082188640205461
 10
-803.79999999999995
 20
2.6082188640205457
 42
-0.4142135623731393
 10
-804.09999999999991
 20
2.3082188640205459
 10
-806.5
 20
2.3082188640205459
 42
-0.414213562373095
 10
-806.79999999999995
 20
2.6082188640205457
  0
POLYLINE
  5
F3
100
AcDbEntity
  8
一般
370
               5
  6
Continuous
 62
               7
100
AcDb2dPolyline
 66
               1
 10
0.0
 20
0.0
 30
0.0
 70
               1
 75
               5
  0
VERTEX
  5
F4
100
AcDbEntity
  8
一般
370
               5
  6
Continuous
 62
               7
100
AcDbVertex
100
AcDb2dVertex
 10
-833.04999999999995
 20
12.058218864020546
 30
0.0
  0
VERTEX
  5
F5
100
AcDbEntity
  8
一般
370
               5
  6
Continuous
 62
               7
100
AcDbVertex
100
AcDb2dVertex
 10
-829.54999999999995
 20
12.058218864020546
 30
0.0
  0
VERTEX
  5
F6
100
AcDbEntity
  8
一般
370
               5
  6
Continuous
 62
               7
100
AcDbVertex
100
AcDb2dVertex
 10
-829.54999999999995
 20
8.5582188640205459
 30
0.0
  0
VERTEX
  5
F7
100
AcDbEntity
  8
一般
370
               5
  6
Continuous
 62
               7
100
AcDbVertex
100
AcDb2dVertex
 10
-833.04999999999995
 20
8.5582188640205459
 30
0.0
  0
SEQEND
  5
F8
100
AcDbEntity
  8
一般
370
               5
  6
Continuous
 62
               7
  0
CIRCLE
  5
F9
100
AcDbEntity
  8
一般
370
              15
  6
Continuous
 62
               7
100
AcDbCircle
 10
-831.29999999999995
 20
10.308218864020546
 30
0.0
 40
0.6000000000000227
  0
LWPOLYLINE
  5
FA
100
AcDbEntity
  8
一般
370
              15
  6
Continuous
 62
               7
100
AcDbPolyline
 90
        8
 70
             129
 10
-832.79999999999995
 20
11.508218864020545
 42
-0.4142135623731402
 10
-832.5
 20
11.808218864020546
 10
-830.09999999999991
 20
11.808218864020546
 42
-0.414213562373095
 10
-829.79999999999995
 20
11.508218864020545
 10
-829.79999999999995
 20
9.1082188640205466
 42
-0.4142135623731402
 10
-830.09999999999991
 20
8.8082188640205459
 10
-832.5
 20
8.8082188640205459
 42
-0.414213562373095
 10
-832.79999999999995
 20
9.1082188640205466
  0
POLYLINE
  5
FB
100
AcDbEntity
  8
一般
370
               5
  6
Continuous
 62
               7
100
AcDb2dPolyline
 66
               1
 10
0.0
 20
0.0
 30
0.0
 70
               1
 75
               5
  0
VERTEX
  5
FC
100
AcDbEntity
  8
一般
370
               5
  6
Continuous
 62
               7
100
AcDbVertex
100
AcDb2dVertex
 10
-826.54999999999995
 20
12.058218864020546
 30
0.0
  0
VERTEX
  5
FD
100
AcDbEntity
  8
一般
370
               5
  6
Continuous
 62
               7
100
AcDbVertex
100
AcDb2dVertex
 10
-823.04999999999995
 20
12.058218864020546
 30
0.0
  0
VERTEX
  5
FE
100
AcDbEntity
  8
一般
370
               5
  6
Continuous
 62
               7
100
AcDbVertex
100
AcDb2dVertex
 10
-823.04999999999995
 20
8.5582188640205459
 30
0.0
  0
VERTEX
  5
FF
100
AcDbEntity
  8
一般
370
               5
  6
Continuous
 62
               7
100
AcDbVertex
100
AcDb2dVertex
 10
-826.54999999999995
 20
8.5582188640205459
 30
0.0
  0
SEQEND
  5
100
100
AcDbEntity
  8
一般
370
               5
  6
Continuous
 62
               7
  0
CIRCLE
  5
101
100
AcDbEntity
  8
一般
370
              15
  6
Continuous
 62
               7
100
AcDbCircle
 10
-824.79999999999995
 20
10.308218864020546
 30
0.0
 40
0.6000000000000227
  0
LWPOLYLINE
  5
102
100
AcDbEntity
  8
一般
370
              15
  6
Continuous
 62
               7
100
AcDbPolyline
 90
        8
 70
             129
 10
-826.29999999999995
 20
11.508218864020545
 42
-0.4142135623731402
 10
-826.0
 20
11.808218864020546
 10
-823.59999999999991
 20
11.808218864020546
 42
-0.414213562373095
 10
-823.29999999999995
 20
11.508218864020545
 10
-823.29999999999995
 20
9.1082188640205466
 42
-0.4142135623731402
 10
-823.59999999999991
 20
8.8082188640205459
 10
-826.0
 20
8.8082188640205459
 42
-0.414213562373095
 10
-826.29999999999995
 20
9.1082188640205466
  0
POLYLINE
  5
103
100
AcDbEntity
  8
一般
370
               5
  6
Continuous
 62
               7
100
AcDb2dPolyline
 66
               1
 10
0.0
 20
0.0
 30
0.0
 70
               1
 75
               5
  0
VERTEX
  5
104
100
AcDbEntity
  8
一般
370
               5
  6
Continuous
 62
               7
100
AcDbVertex
100
AcDb2dVertex
 10
-820.04999999999995
 20
12.058218864020546
 30
0.0
  0
VERTEX
  5
105
100
AcDbEntity
  8
一般
370
               5
  6
Continuous
 62
               7
100
AcDbVertex
100
AcDb2dVertex
 10
-816.54999999999995
 20
12.058218864020546
 30
0.0
  0
VERTEX
  5
106
100
AcDbEntity
  8
一般
370
               5
  6
Continuous
 62
               7
100
AcDbVertex
100
AcDb2dVertex
 10
-816.54999999999995
 20
8.5582188640205459
 30
0.0
  0
VERTEX
  5
107
100
AcDbEntity
  8
一般
370
               5
  6
Continuous
 62
               7
100
AcDbVertex
100
AcDb2dVertex
 10
-820.04999999999995
 20
8.5582188640205459
 30
0.0
  0
SEQEND
  5
108
100
AcDbEntity
  8
一般
370
               5
  6
Continuous
 62
               7
  0
CIRCLE
  5
109
100
AcDbEntity
  8
一般
370
              15
  6
Continuous
 62
               7
100
AcDbCircle
 10
-818.29999999999995
 20
10.308218864020546
 30
0.0
 40
0.6000000000000227
  0
LWPOLYLINE
  5
10A
100
AcDbEntity
  8
一般
370
              15
  6
Continuous
 62
               7
100
AcDbPolyline
 90
        8
 70
             129
 10
-819.79999999999995
 20
11.508218864020545
 42
-0.4142135623731402
 10
-819.5
 20
11.808218864020546
 10
-817.09999999999991
 20
11.808218864020546
 42
-0.414213562373095
 10
-816.79999999999995
 20
11.508218864020545
 10
-816.79999999999995
 20
9.1082188640205466
 42
-0.4142135623731402
 10
-817.09999999999991
 20
8.8082188640205459
 10
-819.5
 20
8.8082188640205459
 42
-0.414213562373095
 10
-819.79999999999995
 20
9.1082188640205466
  0
POLYLINE
  5
10B
100
AcDbEntity
  8
一般
370
               5
  6
Continuous
 62
               7
100
AcDb2dPolyline
 66
               1
 10
0.0
 20
0.0
 30
0.0
 70
               1
 75
               5
  0
VERTEX
  5
10C
100
AcDbEntity
  8
一般
370
               5
  6
Continuous
 62
               7
100
AcDbVertex
100
AcDb2dVertex
 10
-813.54999999999995
 20
12.058218864020546
 30
0.0
  0
VERTEX
  5
10D
100
AcDbEntity
  8
一般
370
               5
  6
Continuous
 62
               7
100
AcDbVertex
100
AcDb2dVertex
 10
-810.04999999999995
 20
12.058218864020546
 30
0.0
  0
VERTEX
  5
10E
100
AcDbEntity
  8
一般
370
               5
  6
Continuous
 62
               7
100
AcDbVertex
100
AcDb2dVertex
 10
-810.04999999999995
 20
8.5582188640205459
 30
0.0
  0
VERTEX
  5
10F
100
AcDbEntity
  8
一般
370
               5
  6
Continuous
 62
               7
100
AcDbVertex
100
AcDb2dVertex
 10
-813.54999999999995
 20
8.5582188640205459
 30
0.0
  0
SEQEND
  5
110
100
AcDbEntity
  8
一般
370
               5
  6
Continuous
 62
               7
  0
CIRCLE
  5
111
100
AcDbEntity
  8
一般
370
              15
  6
Continuous
 62
               7
100
AcDbCircle
 10
-811.79999999999995
 20
10.308218864020546
 30
0.0
 40
0.6000000000000227
  0
LWPOLYLINE
  5
112
100
AcDbEntity
  8
一般
370
              15
  6
Continuous
 62
               7
100
AcDbPolyline
 90
        8
 70
             129
 10
-813.29999999999995
 20
11.508218864020545
 42
-0.4142135623731402
 10
-813.0
 20
11.808218864020546
 10
-810.59999999999991
 20
11.808218864020546
 42
-0.414213562373095
 10
-810.29999999999995
 20
11.508218864020545
 10
-810.29999999999995
 20
9.1082188640205466
 42
-0.4142135623731402
 10
-810.59999999999991
 20
8.8082188640205459
 10
-813.0
 20
8.8082188640205459
 42
-0.414213562373095
 10
-813.29999999999995
 20
9.1082188640205466
  0
POLYLINE
  5
113
100
AcDbEntity
  8
一般
370
               5
  6
Continuous
 62
               7
100
AcDb2dPolyline
 66
               1
 10
0.0
 20
0.0
 30
0.0
 70
               1
 75
               5
  0
VERTEX
  5
114
100
AcDbEntity
  8
一般
370
               5
  6
Continuous
 62
               7
100
AcDbVertex
100
AcDb2dVertex
 10
-807.04999999999995
 20
12.058218864020546
 30
0.0
  0
VERTEX
  5
115
100
AcDbEntity
  8
一般
370
               5
  6
Continuous
 62
               7
100
AcDbVertex
100
AcDb2dVertex
 10
-803.54999999999995
 20
12.058218864020546
 30
0.0
  0
VERTEX
  5
116
100
AcDbEntity
  8
一般
370
               5
  6
Continuous
 62
               7
100
AcDbVertex
100
AcDb2dVertex
 10
-803.54999999999995
 20
8.5582188640205459
 30
0.0
  0
VERTEX
  5
117
100
AcDbEntity
  8
一般
370
               5
  6
Continuous
 62
               7
100
AcDbVertex
100
AcDb2dVertex
 10
-807.04999999999995
 20
8.5582188640205459
 30
0.0
  0
SEQEND
  5
118
100
AcDbEntity
  8
一般
370
               5
  6
Continuous
 62
               7
  0
CIRCLE
  5
119
100
AcDbEntity
  8
一般
370
              15
  6
Continuous
 62
               7
100
AcDbCircle
 10
-805.29999999999995
 20
10.308218864020546
 30
0.0
 40
0.6000000000000227
  0
LWPOLYLINE
  5
11A
100
AcDbEntity
  8
一般
370
              15
  6
Continuous
 62
               7
100
AcDbPolyline
 90
        8
 70
             129
 10
-806.79999999999995
 20
11.508218864020545
 42
-0.4142135623731402
 10
-806.5
 20
11.808218864020546
 10
-804.09999999999991
 20
11.808218864020546
 42
-0.414213562373095
 10
-803.79999999999995
 20
11.508218864020545
 10
-803.79999999999995
 20
9.1082188640205466
 42
-0.4142135623731402
 10
-804.09999999999991
 20
8.8082188640205459
 10
-806.5
 20
8.8082188640205459
 42
-0.414213562373095
 10
-806.79999999999995
 20
9.1082188640205466
  0
POLYLINE
  5
11B
100
AcDbEntity
  8
一般
370
               5
  6
Continuous
 62
               7
100
AcDb2dPolyline
 66
               1
 10
0.0
 20
0.0
 30
0.0
 70
               1
 75
               5
  0
VERTEX
  5
11C
100
AcDbEntity
  8
一般
370
               5
  6
Continuous
 62
               7
100
AcDbVertex
100
AcDb2dVertex
 10
-833.04999999999995
 20
18.558218864020546
 30
0.0
  0
VERTEX
  5
11D
100
AcDbEntity
  8
一般
370
               5
  6
Continuous
 62
               7
100
AcDbVertex
100
AcDb2dVertex
 10
-829.54999999999995
 20
18.558218864020546
 30
0.0
  0
VERTEX
  5
11E
100
AcDbEntity
  8
一般
370
               5
  6
Continuous
 62
               7
100
AcDbVertex
100
AcDb2dVertex
 10
-829.54999999999995
 20
15.058218864020546
 30
0.0
  0
VERTEX
  5
11F
100
AcDbEntity
  8
一般
370
               5
  6
Continuous
 62
               7
100
AcDbVertex
100
AcDb2dVertex
 10
-833.04999999999995
 20
15.058218864020546
 30
0.0
  0
SEQEND
  5
120
100
AcDbEntity
  8
一般
370
               5
  6
Continuous
 62
               7
  0
CIRCLE
  5
121
100
AcDbEntity
  8
一般
370
              15
  6
Continuous
 62
               7
100
AcDbCircle
 10
-831.29999999999995
 20
16.808218864020546
 30
0.0
 40
0.6000000000000227
  0
LWPOLYLINE
  5
122
100
AcDbEntity
  8
一般
370
              15
  6
Continuous
 62
               7
100
AcDbPolyline
 90
        8
 70
             129
 10
-832.79999999999995
 20
18.008218864020545
 42
-0.4142135623731402
 10
-832.5
 20
18.308218864020546
 10
-830.09999999999991
 20
18.308218864020546
 42
-0.414213562373095
 10
-829.79999999999995
 20
18.008218864020545
 10
-829.79999999999995
 20
15.608218864020547
 42
-0.4142135623731402
 10
-830.09999999999991
 20
15.308218864020546
 10
-832.5
 20
15.308218864020546
 42
-0.414213562373095
 10
-832.79999999999995
 20
15.608218864020547
  0
POLYLINE
  5
123
100
AcDbEntity
  8
一般
370
               5
  6
Continuous
 62
               7
100
AcDb2dPolyline
 66
               1
 10
0.0
 20
0.0
 30
0.0
 70
               1
 75
               5
  0
VERTEX
  5
124
100
AcDbEntity
  8
一般
370
               5
  6
Continuous
 62
               7
100
AcDbVertex
100
AcDb2dVertex
 10
-826.54999999999995
 20
18.558218864020546
 30
0.0
  0
VERTEX
  5
125
100
AcDbEntity
  8
一般
370
               5
  6
Continuous
 62
               7
100
AcDbVertex
100
AcDb2dVertex
 10
-823.04999999999995
 20
18.558218864020546
 30
0.0
  0
VERTEX
  5
126
100
AcDbEntity
  8
一般
370
               5
  6
Continuous
 62
               7
100
AcDbVertex
100
AcDb2dVertex
 10
-823.04999999999995
 20
15.058218864020546
 30
0.0
  0
VERTEX
  5
127
100
AcDbEntity
  8
一般
370
               5
  6
Continuous
 62
               7
100
AcDbVertex
100
AcDb2dVertex
 10
-826.54999999999995
 20
15.058218864020546
 30
0.0
  0
SEQEND
  5
128
100
AcDbEntity
  8
一般
370
               5
  6
Continuous
 62
               7
  0
CIRCLE
  5
129
100
AcDbEntity
  8
一般
370
              15
  6
Continuous
 62
               7
100
AcDbCircle
 10
-824.79999999999995
 20
16.808218864020546
 30
0.0
 40
0.6000000000000227
  0
LWPOLYLINE
  5
12A
100
AcDbEntity
  8
一般
370
              15
  6
Continuous
 62
               7
100
AcDbPolyline
 90
        8
 70
             129
 10
-826.29999999999995
 20
18.008218864020545
 42
-0.4142135623731402
 10
-826.0
 20
18.308218864020546
 10
-823.59999999999991
 20
18.308218864020546
 42
-0.414213562373095
 10
-823.29999999999995
 20
18.008218864020545
 10
-823.29999999999995
 20
15.608218864020547
 42
-0.4142135623731402
 10
-823.59999999999991
 20
15.308218864020546
 10
-826.0
 20
15.308218864020546
 42
-0.414213562373095
 10
-826.29999999999995
 20
15.608218864020547
  0
POLYLINE
  5
12B
100
AcDbEntity
  8
一般
370
               5
  6
Continuous
 62
               7
100
AcDb2dPolyline
 66
               1
 10
0.0
 20
0.0
 30
0.0
 70
               1
 75
               5
  0
VERTEX
  5
12C
100
AcDbEntity
  8
一般
370
               5
  6
Continuous
 62
               7
100
AcDbVertex
100
AcDb2dVertex
 10
-820.04999999999995
 20
18.558218864020546
 30
0.0
  0
VERTEX
  5
12D
100
AcDbEntity
  8
一般
370
               5
  6
Continuous
 62
               7
100
AcDbVertex
100
AcDb2dVertex
 10
-816.54999999999995
 20
18.558218864020546
 30
0.0
  0
VERTEX
  5
12E
100
AcDbEntity
  8
一般
370
               5
  6
Continuous
 62
               7
100
AcDbVertex
100
AcDb2dVertex
 10
-816.54999999999995
 20
15.058218864020546
 30
0.0
  0
VERTEX
  5
12F
100
AcDbEntity
  8
一般
370
               5
  6
Continuous
 62
               7
100
AcDbVertex
100
AcDb2dVertex
 10
-820.04999999999995
 20
15.058218864020546
 30
0.0
  0
SEQEND
  5
130
100
AcDbEntity
  8
一般
370
               5
  6
Continuous
 62
               7
  0
CIRCLE
  5
131
100
AcDbEntity
  8
一般
370
              15
  6
Continuous
 62
               7
100
AcDbCircle
 10
-818.29999999999995
 20
16.808218864020546
 30
0.0
 40
0.6000000000000227
  0
LWPOLYLINE
  5
132
100
AcDbEntity
  8
一般
370
              15
  6
Continuous
 62
               7
100
AcDbPolyline
 90
        8
 70
             129
 10
-819.79999999999995
 20
18.008218864020545
 42
-0.4142135623731402
 10
-819.5
 20
18.308218864020546
 10
-817.09999999999991
 20
18.308218864020546
 42
-0.414213562373095
 10
-816.79999999999995
 20
18.008218864020545
 10
-816.79999999999995
 20
15.608218864020547
 42
-0.4142135623731402
 10
-817.09999999999991
 20
15.308218864020546
 10
-819.5
 20
15.308218864020546
 42
-0.414213562373095
 10
-819.79999999999995
 20
15.608218864020547
  0
POLYLINE
  5
133
100
AcDbEntity
  8
一般
370
               5
  6
Continuous
 62
               7
100
AcDb2dPolyline
 66
               1
 10
0.0
 20
0.0
 30
0.0
 70
               1
 75
               5
  0
VERTEX
  5
134
100
AcDbEntity
  8
一般
370
               5
  6
Continuous
 62
               7
100
AcDbVertex
100
AcDb2dVertex
 10
-813.54999999999995
 20
18.558218864020546
 30
0.0
  0
VERTEX
  5
135
100
AcDbEntity
  8
一般
370
               5
  6
Continuous
 62
               7
100
AcDbVertex
100
AcDb2dVertex
 10
-810.04999999999995
 20
18.558218864020546
 30
0.0
  0
VERTEX
  5
136
100
AcDbEntity
  8
一般
370
               5
  6
Continuous
 62
               7
100
AcDbVertex
100
AcDb2dVertex
 10
-810.04999999999995
 20
15.058218864020546
 30
0.0
  0
VERTEX
  5
137
100
AcDbEntity
  8
一般
370
               5
  6
Continuous
 62
               7
100
AcDbVertex
100
AcDb2dVertex
 10
-813.54999999999995
 20
15.058218864020546
 30
0.0
  0
SEQEND
  5
138
100
AcDbEntity
  8
一般
370
               5
  6
Continuous
 62
               7
  0
CIRCLE
  5
139
100
AcDbEntity
  8
一般
370
              15
  6
Continuous
 62
               7
100
AcDbCircle
 10
-811.79999999999995
 20
16.808218864020546
 30
0.0
 40
0.6000000000000227
  0
LWPOLYLINE
  5
13A
100
AcDbEntity
  8
一般
370
              15
  6
Continuous
 62
               7
100
AcDbPolyline
 90
        8
 70
             129
 10
-813.29999999999995
 20
18.008218864020545
 42
-0.4142135623731402
 10
-813.0
 20
18.308218864020546
 10
-810.59999999999991
 20
18.308218864020546
 42
-0.414213562373095
 10
-810.29999999999995
 20
18.008218864020545
 10
-810.29999999999995
 20
15.608218864020547
 42
-0.4142135623731402
 10
-810.59999999999991
 20
15.308218864020546
 10
-813.0
 20
15.308218864020546
 42
-0.414213562373095
 10
-813.29999999999995
 20
15.608218864020547
  0
POLYLINE
  5
13B
100
AcDbEntity
  8
一般
370
               5
  6
Continuous
 62
               7
100
AcDb2dPolyline
 66
               1
 10
0.0
 20
0.0
 30
0.0
 70
               1
 75
               5
  0
VERTEX
  5
13C
100
AcDbEntity
  8
一般
370
               5
  6
Continuous
 62
               7
100
AcDbVertex
100
AcDb2dVertex
 10
-807.04999999999995
 20
18.558218864020546
 30
0.0
  0
VERTEX
  5
13D
100
AcDbEntity
  8
一般
370
               5
  6
Continuous
 62
               7
100
AcDbVertex
100
AcDb2dVertex
 10
-803.54999999999995
 20
18.558218864020546
 30
0.0
  0
VERTEX
  5
13E
100
AcDbEntity
  8
一般
370
               5
  6
Continuous
 62
               7
100
AcDbVertex
100
AcDb2dVertex
 10
-803.54999999999995
 20
15.058218864020546
 30
0.0
  0
VERTEX
  5
13F
100
AcDbEntity
  8
一般
370
               5
  6
Continuous
 62
               7
100
AcDbVertex
100
AcDb2dVertex
 10
-807.04999999999995
 20
15.058218864020546
 30
0.0
  0
SEQEND
  5
140
100
AcDbEntity
  8
一般
370
               5
  6
Continuous
 62
               7
  0
CIRCLE
  5
141
100
AcDbEntity
  8
一般
370
              15
  6
Continuous
 62
               7
100
AcDbCircle
 10
-805.29999999999995
 20
16.808218864020546
 30
0.0
 40
0.6000000000000227
  0
LWPOLYLINE
  5
142
100
AcDbEntity
  8
一般
370
              15
  6
Continuous
 62
               7
100
AcDbPolyline
 90
        8
 70
             129
 10
-806.79999999999995
 20
18.008218864020545
 42
-0.4142135623731402
 10
-806.5
 20
18.308218864020546
 10
-804.09999999999991
 20
18.308218864020546
 42
-0.414213562373095
 10
-803.79999999999995
 20
18.008218864020545
 10
-803.79999999999995
 20
15.608218864020547
 42
-0.4142135623731402
 10
-804.09999999999991
 20
15.308218864020546
 10
-806.5
 20
15.308218864020546
 42
-0.414213562373095
 10
-806.79999999999995
 20
15.608218864020547
  0
POLYLINE
  5
143
100
AcDbEntity
  8
一般
370
               5
  6
Continuous
 62
               7
100
AcDb2dPolyline
 66
               1
 10
0.0
 20
0.0
 30
0.0
 70
               1
 75
               5
  0
VERTEX
  5
144
100
AcDbEntity
  8
一般
370
               5
  6
Continuous
 62
               7
100
AcDbVertex
100
AcDb2dVertex
 10
-833.04999999999995
 20
25.058218864020546
 30
0.0
  0
VERTEX
  5
145
100
AcDbEntity
  8
一般
370
               5
  6
Continuous
 62
               7
100
AcDbVertex
100
AcDb2dVertex
 10
-829.54999999999995
 20
25.058218864020546
 30
0.0
  0
VERTEX
  5
146
100
AcDbEntity
  8
一般
370
               5
  6
Continuous
 62
               7
100
AcDbVertex
100
AcDb2dVertex
 10
-829.54999999999995
 20
21.558218864020546
 30
0.0
  0
VERTEX
  5
147
100
AcDbEntity
  8
一般
370
               5
  6
Continuous
 62
               7
100
AcDbVertex
100
AcDb2dVertex
 10
-833.04999999999995
 20
21.558218864020546
 30
0.0
  0
SEQEND
  5
148
100
AcDbEntity
  8
一般
370
               5
  6
Continuous
 62
               7
  0
CIRCLE
  5
149
100
AcDbEntity
  8
一般
370
              15
  6
Continuous
 62
               7
100
AcDbCircle
 10
-831.29999999999995
 20
23.308218864020546
 30
0.0
 40
0.6000000000000227
  0
LWPOLYLINE
  5
14A
100
AcDbEntity
  8
一般
370
              15
  6
Continuous
 62
               7
100
AcDbPolyline
 90
        8
 70
             129
 10
-832.79999999999995
 20
24.508218864020545
 42
-0.4142135623731402
 10
-832.5
 20
24.808218864020546
 10
-830.09999999999991
 20
24.808218864020546
 42
-0.414213562373095
 10
-829.79999999999995
 20
24.508218864020545
 10
-829.79999999999995
 20
22.108218864020547
 42
-0.4142135623731402
 10
-830.09999999999991
 20
21.808218864020546
 10
-832.5
 20
21.808218864020546
 42
-0.414213562373095
 10
-832.79999999999995
 20
22.108218864020547
  0
POLYLINE
  5
14B
100
AcDbEntity
  8
一般
370
               5
  6
Continuous
 62
               7
100
AcDb2dPolyline
 66
               1
 10
0.0
 20
0.0
 30
0.0
 70
               1
 75
               5
  0
VERTEX
  5
14C
100
AcDbEntity
  8
一般
370
               5
  6
Continuous
 62
               7
100
AcDbVertex
100
AcDb2dVertex
 10
-826.54999999999995
 20
25.058218864020546
 30
0.0
  0
VERTEX
  5
14D
100
AcDbEntity
  8
一般
370
               5
  6
Continuous
 62
               7
100
AcDbVertex
100
AcDb2dVertex
 10
-823.04999999999995
 20
25.058218864020546
 30
0.0
  0
VERTEX
  5
14E
100
AcDbEntity
  8
一般
370
               5
  6
Continuous
 62
               7
100
AcDbVertex
100
AcDb2dVertex
 10
-823.04999999999995
 20
21.558218864020546
 30
0.0
  0
VERTEX
  5
14F
100
AcDbEntity
  8
一般
370
               5
  6
Continuous
 62
               7
100
AcDbVertex
100
AcDb2dVertex
 10
-826.54999999999995
 20
21.558218864020546
 30
0.0
  0
SEQEND
  5
150
100
AcDbEntity
  8
一般
370
               5
  6
Continuous
 62
               7
  0
CIRCLE
  5
151
100
AcDbEntity
  8
一般
370
              15
  6
Continuous
 62
               7
100
AcDbCircle
 10
-824.79999999999995
 20
23.308218864020546
 30
0.0
 40
0.6000000000000227
  0
LWPOLYLINE
  5
152
100
AcDbEntity
  8
一般
370
              15
  6
Continuous
 62
               7
100
AcDbPolyline
 90
        8
 70
             129
 10
-826.29999999999995
 20
24.508218864020545
 42
-0.4142135623731402
 10
-826.0
 20
24.808218864020546
 10
-823.59999999999991
 20
24.808218864020546
 42
-0.414213562373095
 10
-823.29999999999995
 20
24.508218864020545
 10
-823.29999999999995
 20
22.108218864020547
 42
-0.4142135623731402
 10
-823.59999999999991
 20
21.808218864020546
 10
-826.0
 20
21.808218864020546
 42
-0.414213562373095
 10
-826.29999999999995
 20
22.108218864020547
  0
POLYLINE
  5
153
100
AcDbEntity
  8
一般
370
               5
  6
Continuous
 62
               7
100
AcDb2dPolyline
 66
               1
 10
0.0
 20
0.0
 30
0.0
 70
               1
 75
               5
  0
VERTEX
  5
154
100
AcDbEntity
  8
一般
370
               5
  6
Continuous
 62
               7
100
AcDbVertex
100
AcDb2dVertex
 10
-820.04999999999995
 20
25.058218864020546
 30
0.0
  0
VERTEX
  5
155
100
AcDbEntity
  8
一般
370
               5
  6
Continuous
 62
               7
100
AcDbVertex
100
AcDb2dVertex
 10
-816.54999999999995
 20
25.058218864020546
 30
0.0
  0
VERTEX
  5
156
100
AcDbEntity
  8
一般
370
               5
  6
Continuous
 62
               7
100
AcDbVertex
100
AcDb2dVertex
 10
-816.54999999999995
 20
21.558218864020546
 30
0.0
  0
VERTEX
  5
157
100
AcDbEntity
  8
一般
370
               5
  6
Continuous
 62
               7
100
AcDbVertex
100
AcDb2dVertex
 10
-820.04999999999995
 20
21.558218864020546
 30
0.0
  0
SEQEND
  5
158
100
AcDbEntity
  8
一般
370
               5
  6
Continuous
 62
               7
  0
CIRCLE
  5
159
100
AcDbEntity
  8
一般
370
              15
  6
Continuous
 62
               7
100
AcDbCircle
 10
-818.29999999999995
 20
23.308218864020546
 30
0.0
 40
0.6000000000000227
  0
LWPOLYLINE
  5
15A
100
AcDbEntity
  8
一般
370
              15
  6
Continuous
 62
               7
100
AcDbPolyline
 90
        8
 70
             129
 10
-819.79999999999995
 20
24.508218864020545
 42
-0.4142135623731402
 10
-819.5
 20
24.808218864020546
 10
-817.09999999999991
 20
24.808218864020546
 42
-0.414213562373095
 10
-816.79999999999995
 20
24.508218864020545
 10
-816.79999999999995
 20
22.108218864020547
 42
-0.4142135623731402
 10
-817.09999999999991
 20
21.808218864020546
 10
-819.5
 20
21.808218864020546
 42
-0.414213562373095
 10
-819.79999999999995
 20
22.108218864020547
  0
POLYLINE
  5
15B
100
AcDbEntity
  8
一般
370
               5
  6
Continuous
 62
               7
100
AcDb2dPolyline
 66
               1
 10
0.0
 20
0.0
 30
0.0
 70
               1
 75
               5
  0
VERTEX
  5
15C
100
AcDbEntity
  8
一般
370
               5
  6
Continuous
 62
               7
100
AcDbVertex
100
AcDb2dVertex
 10
-813.54999999999995
 20
25.058218864020546
 30
0.0
  0
VERTEX
  5
15D
100
AcDbEntity
  8
一般
370
               5
  6
Continuous
 62
               7
100
AcDbVertex
100
AcDb2dVertex
 10
-810.04999999999995
 20
25.058218864020546
 30
0.0
  0
VERTEX
  5
15E
100
AcDbEntity
  8
一般
370
               5
  6
Continuous
 62
               7
100
AcDbVertex
100
AcDb2dVertex
 10
-810.04999999999995
 20
21.558218864020546
 30
0.0
  0
VERTEX
  5
15F
100
AcDbEntity
  8
一般
370
               5
  6
Continuous
 62
               7
100
AcDbVertex
100
AcDb2dVertex
 10
-813.54999999999995
 20
21.558218864020546
 30
0.0
  0
SEQEND
  5
160
100
AcDbEntity
  8
一般
370
               5
  6
Continuous
 62
               7
  0
CIRCLE
  5
161
100
AcDbEntity
  8
一般
370
              15
  6
Continuous
 62
               7
100
AcDbCircle
 10
-811.79999999999995
 20
23.308218864020546
 30
0.0
 40
0.6000000000000227
  0
LWPOLYLINE
  5
162
100
AcDbEntity
  8
一般
370
              15
  6
Continuous
 62
               7
100
AcDbPolyline
 90
        8
 70
             129
 10
-813.29999999999995
 20
24.508218864020545
 42
-0.4142135623731402
 10
-813.0
 20
24.808218864020546
 10
-810.59999999999991
 20
24.808218864020546
 42
-0.414213562373095
 10
-810.29999999999995
 20
24.508218864020545
 10
-810.29999999999995
 20
22.108218864020547
 42
-0.4142135623731402
 10
-810.59999999999991
 20
21.808218864020546
 10
-813.0
 20
21.808218864020546
 42
-0.414213562373095
 10
-813.29999999999995
 20
22.108218864020547
  0
POLYLINE
  5
163
100
AcDbEntity
  8
一般
370
               5
  6
Continuous
 62
               7
100
AcDb2dPolyline
 66
               1
 10
0.0
 20
0.0
 30
0.0
 70
               1
 75
               5
  0
VERTEX
  5
164
100
AcDbEntity
  8
一般
370
               5
  6
Continuous
 62
               7
100
AcDbVertex
100
AcDb2dVertex
 10
-807.04999999999995
 20
25.058218864020546
 30
0.0
  0
VERTEX
  5
165
100
AcDbEntity
  8
一般
370
               5
  6
Continuous
 62
               7
100
AcDbVertex
100
AcDb2dVertex
 10
-803.54999999999995
 20
25.058218864020546
 30
0.0
  0
VERTEX
  5
166
100
AcDbEntity
  8
一般
370
               5
  6
Continuous
 62
               7
100
AcDbVertex
100
AcDb2dVertex
 10
-803.54999999999995
 20
21.558218864020546
 30
0.0
  0
VERTEX
  5
167
100
AcDbEntity
  8
一般
370
               5
  6
Continuous
 62
               7
100
AcDbVertex
100
AcDb2dVertex
 10
-807.04999999999995
 20
21.558218864020546
 30
0.0
  0
SEQEND
  5
168
100
AcDbEntity
  8
一般
370
               5
  6
Continuous
 62
               7
  0
CIRCLE
  5
169
100
AcDbEntity
  8
一般
370
              15
  6
Continuous
 62
               7
100
AcDbCircle
 10
-805.29999999999995
 20
23.308218864020546
 30
0.0
 40
0.6000000000000227
  0
LWPOLYLINE
  5
16A
100
AcDbEntity
  8
一般
370
              15
  6
Continuous
 62
               7
100
AcDbPolyline
 90
        8
 70
             129
 10
-806.79999999999995
 20
24.508218864020545
 42
-0.4142135623731402
 10
-806.5
 20
24.808218864020546
 10
-804.09999999999991
 20
24.808218864020546
 42
-0.414213562373095
 10
-803.79999999999995
 20
24.508218864020545
 10
-803.79999999999995
 20
22.108218864020547
 42
-0.4142135623731402
 10
-804.09999999999991
 20
21.808218864020546
 10
-806.5
 20
21.808218864020546
 42
-0.414213562373095
 10
-806.79999999999995
 20
22.108218864020547
  0
POLYLINE
  5
16B
100
AcDbEntity
  8
一般
370
               5
  6
Continuous
 62
               7
100
AcDb2dPolyline
 66
               1
 10
0.0
 20
0.0
 30
0.0
 70
               1
 75
               5
  0
VERTEX
  5
16C
100
AcDbEntity
  8
一般
370
               5
  6
Continuous
 62
               7
100
AcDbVertex
100
AcDb2dVertex
 10
-833.04999999999995
 20
31.558218864020546
 30
0.0
  0
VERTEX
  5
16D
100
AcDbEntity
  8
一般
370
               5
  6
Continuous
 62
               7
100
AcDbVertex
100
AcDb2dVertex
 10
-829.54999999999995
 20
31.558218864020546
 30
0.0
  0
VERTEX
  5
16E
100
AcDbEntity
  8
一般
370
               5
  6
Continuous
 62
               7
100
AcDbVertex
100
AcDb2dVertex
 10
-829.54999999999995
 20
28.058218864020546
 30
0.0
  0
VERTEX
  5
16F
100
AcDbEntity
  8
一般
370
               5
  6
Continuous
 62
               7
100
AcDbVertex
100
AcDb2dVertex
 10
-833.04999999999995
 20
28.058218864020546
 30
0.0
  0
SEQEND
  5
170
100
AcDbEntity
  8
一般
370
               5
  6
Continuous
 62
               7
  0
CIRCLE
  5
171
100
AcDbEntity
  8
一般
370
              15
  6
Continuous
 62
               7
100
AcDbCircle
 10
-831.29999999999995
 20
29.808218864020546
 30
0.0
 40
0.6000000000000227
  0
LWPOLYLINE
  5
172
100
AcDbEntity
  8
一般
370
              15
  6
Continuous
 62
               7
100
AcDbPolyline
 90
        8
 70
             129
 10
-832.79999999999995
 20
31.008218864020545
 42
-0.4142135623731402
 10
-832.5
 20
31.308218864020546
 10
-830.09999999999991
 20
31.308218864020546
 42
-0.414213562373095
 10
-829.79999999999995
 20
31.008218864020545
 10
-829.79999999999995
 20
28.608218864020547
 42
-0.4142135623731402
 10
-830.09999999999991
 20
28.308218864020546
 10
-832.5
 20
28.308218864020546
 42
-0.414213562373095
 10
-832.79999999999995
 20
28.608218864020547
  0
POLYLINE
  5
173
100
AcDbEntity
  8
一般
370
               5
  6
Continuous
 62
               7
100
AcDb2dPolyline
 66
               1
 10
0.0
 20
0.0
 30
0.0
 70
               1
 75
               5
  0
VERTEX
  5
174
100
AcDbEntity
  8
一般
370
               5
  6
Continuous
 62
               7
100
AcDbVertex
100
AcDb2dVertex
 10
-826.54999999999995
 20
31.558218864020546
 30
0.0
  0
VERTEX
  5
175
100
AcDbEntity
  8
一般
370
               5
  6
Continuous
 62
               7
100
AcDbVertex
100
AcDb2dVertex
 10
-823.04999999999995
 20
31.558218864020546
 30
0.0
  0
VERTEX
  5
176
100
AcDbEntity
  8
一般
370
               5
  6
Continuous
 62
               7
100
AcDbVertex
100
AcDb2dVertex
 10
-823.04999999999995
 20
28.058218864020546
 30
0.0
  0
VERTEX
  5
177
100
AcDbEntity
  8
一般
370
               5
  6
Continuous
 62
               7
100
AcDbVertex
100
AcDb2dVertex
 10
-826.54999999999995
 20
28.058218864020546
 30
0.0
  0
SEQEND
  5
178
100
AcDbEntity
  8
一般
370
               5
  6
Continuous
 62
               7
  0
CIRCLE
  5
179
100
AcDbEntity
  8
一般
370
              15
  6
Continuous
 62
               7
100
AcDbCircle
 10
-824.79999999999995
 20
29.808218864020546
 30
0.0
 40
0.6000000000000227
  0
LWPOLYLINE
  5
17A
100
AcDbEntity
  8
一般
370
              15
  6
Continuous
 62
               7
100
AcDbPolyline
 90
        8
 70
             129
 10
-826.29999999999995
 20
31.008218864020545
 42
-0.4142135623731402
 10
-826.0
 20
31.308218864020546
 10
-823.59999999999991
 20
31.308218864020546
 42
-0.414213562373095
 10
-823.29999999999995
 20
31.008218864020545
 10
-823.29999999999995
 20
28.608218864020547
 42
-0.4142135623731402
 10
-823.59999999999991
 20
28.308218864020546
 10
-826.0
 20
28.308218864020546
 42
-0.414213562373095
 10
-826.29999999999995
 20
28.608218864020547
  0
POLYLINE
  5
17B
100
AcDbEntity
  8
一般
370
               5
  6
Continuous
 62
               7
100
AcDb2dPolyline
 66
               1
 10
0.0
 20
0.0
 30
0.0
 70
               1
 75
               5
  0
VERTEX
  5
17C
100
AcDbEntity
  8
一般
370
               5
  6
Continuous
 62
               7
100
AcDbVertex
100
AcDb2dVertex
 10
-820.04999999999995
 20
31.558218864020546
 30
0.0
  0
VERTEX
  5
17D
100
AcDbEntity
  8
一般
370
               5
  6
Continuous
 62
               7
100
AcDbVertex
100
AcDb2dVertex
 10
-816.54999999999995
 20
31.558218864020546
 30
0.0
  0
VERTEX
  5
17E
100
AcDbEntity
  8
一般
370
               5
  6
Continuous
 62
               7
100
AcDbVertex
100
AcDb2dVertex
 10
-816.54999999999995
 20
28.058218864020546
 30
0.0
  0
VERTEX
  5
17F
100
AcDbEntity
  8
一般
370
               5
  6
Continuous
 62
               7
100
AcDbVertex
100
AcDb2dVertex
 10
-820.04999999999995
 20
28.058218864020546
 30
0.0
  0
SEQEND
  5
180
100
AcDbEntity
  8
一般
370
               5
  6
Continuous
 62
               7
  0
CIRCLE
  5
181
100
AcDbEntity
  8
一般
370
              15
  6
Continuous
 62
               7
100
AcDbCircle
 10
-818.29999999999995
 20
29.808218864020546
 30
0.0
 40
0.6000000000000227
  0
LWPOLYLINE
  5
182
100
AcDbEntity
  8
一般
370
              15
  6
Continuous
 62
               7
100
AcDbPolyline
 90
        8
 70
             129
 10
-819.79999999999995
 20
31.008218864020545
 42
-0.4142135623731402
 10
-819.5
 20
31.308218864020546
 10
-817.09999999999991
 20
31.308218864020546
 42
-0.414213562373095
 10
-816.79999999999995
 20
31.008218864020545
 10
-816.79999999999995
 20
28.608218864020547
 42
-0.4142135623731402
 10
-817.09999999999991
 20
28.308218864020546
 10
-819.5
 20
28.308218864020546
 42
-0.414213562373095
 10
-819.79999999999995
 20
28.608218864020547
  0
POLYLINE
  5
183
100
AcDbEntity
  8
一般
370
               5
  6
Continuous
 62
               7
100
AcDb2dPolyline
 66
               1
 10
0.0
 20
0.0
 30
0.0
 70
               1
 75
               5
  0
VERTEX
  5
184
100
AcDbEntity
  8
一般
370
               5
  6
Continuous
 62
               7
100
AcDbVertex
100
AcDb2dVertex
 10
-813.54999999999995
 20
31.558218864020546
 30
0.0
  0
VERTEX
  5
185
100
AcDbEntity
  8
一般
370
               5
  6
Continuous
 62
               7
100
AcDbVertex
100
AcDb2dVertex
 10
-810.04999999999995
 20
31.558218864020546
 30
0.0
  0
VERTEX
  5
186
100
AcDbEntity
  8
一般
370
               5
  6
Continuous
 62
               7
100
AcDbVertex
100
AcDb2dVertex
 10
-810.04999999999995
 20
28.058218864020546
 30
0.0
  0
VERTEX
  5
187
100
AcDbEntity
  8
一般
370
               5
  6
Continuous
 62
               7
100
AcDbVertex
100
AcDb2dVertex
 10
-813.54999999999995
 20
28.058218864020546
 30
0.0
  0
SEQEND
  5
188
100
AcDbEntity
  8
一般
370
               5
  6
Continuous
 62
               7
  0
CIRCLE
  5
189
100
AcDbEntity
  8
一般
370
              15
  6
Continuous
 62
               7
100
AcDbCircle
 10
-811.79999999999995
 20
29.808218864020546
 30
0.0
 40
0.6000000000000227
  0
LWPOLYLINE
  5
18A
100
AcDbEntity
  8
一般
370
              15
  6
Continuous
 62
               7
100
AcDbPolyline
 90
        8
 70
             129
 10
-813.29999999999995
 20
31.008218864020545
 42
-0.4142135623731402
 10
-813.0
 20
31.308218864020546
 10
-810.59999999999991
 20
31.308218864020546
 42
-0.414213562373095
 10
-810.29999999999995
 20
31.008218864020545
 10
-810.29999999999995
 20
28.608218864020547
 42
-0.4142135623731402
 10
-810.59999999999991
 20
28.308218864020546
 10
-813.0
 20
28.308218864020546
 42
-0.414213562373095
 10
-813.29999999999995
 20
28.608218864020547
  0
POLYLINE
  5
18B
100
AcDbEntity
  8
一般
370
               5
  6
Continuous
 62
               7
100
AcDb2dPolyline
 66
               1
 10
0.0
 20
0.0
 30
0.0
 70
               1
 75
               5
  0
VERTEX
  5
18C
100
AcDbEntity
  8
一般
370
               5
  6
Continuous
 62
               7
100
AcDbVertex
100
AcDb2dVertex
 10
-807.04999999999995
 20
31.558218864020546
 30
0.0
  0
VERTEX
  5
18D
100
AcDbEntity
  8
一般
370
               5
  6
Continuous
 62
               7
100
AcDbVertex
100
AcDb2dVertex
 10
-803.54999999999995
 20
31.558218864020546
 30
0.0
  0
VERTEX
  5
18E
100
AcDbEntity
  8
一般
370
               5
  6
Continuous
 62
               7
100
AcDbVertex
100
AcDb2dVertex
 10
-803.54999999999995
 20
28.058218864020546
 30
0.0
  0
VERTEX
  5
18F
100
AcDbEntity
  8
一般
370
               5
  6
Continuous
 62
               7
100
AcDbVertex
100
AcDb2dVertex
 10
-807.04999999999995
 20
28.058218864020546
 30
0.0
  0
SEQEND
  5
190
100
AcDbEntity
  8
一般
370
               5
  6
Continuous
 62
               7
  0
CIRCLE
  5
191
100
AcDbEntity
  8
一般
370
              15
  6
Continuous
 62
               7
100
AcDbCircle
 10
-805.29999999999995
 20
29.808218864020546
 30
0.0
 40
0.6000000000000227
  0
LWPOLYLINE
  5
192
100
AcDbEntity
  8
一般
370
              15
  6
Continuous
 62
               7
100
AcDbPolyline
 90
        8
 70
             129
 10
-806.79999999999995
 20
31.008218864020545
 42
-0.4142135623731402
 10
-806.5
 20
31.308218864020546
 10
-804.09999999999991
 20
31.308218864020546
 42
-0.414213562373095
 10
-803.79999999999995
 20
31.008218864020545
 10
-803.79999999999995
 20
28.608218864020547
 42
-0.4142135623731402
 10
-804.09999999999991
 20
28.308218864020546
 10
-806.5
 20
28.308218864020546
 42
-0.414213562373095
 10
-806.79999999999995
 20
28.608218864020547
  0
POLYLINE
  5
193
100
AcDbEntity
  8
一般
370
               5
  6
Continuous
 62
               7
100
AcDb2dPolyline
 66
               1
 10
0.0
 20
0.0
 30
0.0
 70
               1
 75
               5
  0
VERTEX
  5
194
100
AcDbEntity
  8
一般
370
               5
  6
Continuous
 62
               7
100
AcDbVertex
100
AcDb2dVertex
 10
-833.04999999999995
 20
38.058218864020546
 30
0.0
  0
VERTEX
  5
195
100
AcDbEntity
  8
一般
370
               5
  6
Continuous
 62
               7
100
AcDbVertex
100
AcDb2dVertex
 10
-829.54999999999995
 20
38.058218864020546
 30
0.0
  0
VERTEX
  5
196
100
AcDbEntity
  8
一般
370
               5
  6
Continuous
 62
               7
100
AcDbVertex
100
AcDb2dVertex
 10
-829.54999999999995
 20
34.558218864020546
 30
0.0
  0
VERTEX
  5
197
100
AcDbEntity
  8
一般
370
               5
  6
Continuous
 62
               7
100
AcDbVertex
100
AcDb2dVertex
 10
-833.04999999999995
 20
34.558218864020546
 30
0.0
  0
SEQEND
  5
198
100
AcDbEntity
  8
一般
370
               5
  6
Continuous
 62
               7
  0
CIRCLE
  5
199
100
AcDbEntity
  8
一般
370
              15
  6
Continuous
 62
               7
100
AcDbCircle
 10
-831.29999999999995
 20
36.308218864020546
 30
0.0
 40
0.6000000000000227
  0
LWPOLYLINE
  5
19A
100
AcDbEntity
  8
一般
370
              15
  6
Continuous
 62
               7
100
AcDbPolyline
 90
        8
 70
             129
 10
-832.79999999999995
 20
37.508218864020549
 42
-0.4142135623731367
 10
-832.5
 20
37.808218864020546
 10
-830.09999999999991
 20
37.808218864020546
 42
-0.414213562373095
 10
-829.79999999999995
 20
37.508218864020549
 10
-829.79999999999995
 20
35.108218864020543
 42
-0.4142135623731367
 10
-830.09999999999991
 20
34.808218864020546
 10
-832.5
 20
34.808218864020546
 42
-0.414213562373095
 10
-832.79999999999995
 20
35.108218864020543
  0
POLYLINE
  5
19B
100
AcDbEntity
  8
一般
370
               5
  6
Continuous
 62
               7
100
AcDb2dPolyline
 66
               1
 10
0.0
 20
0.0
 30
0.0
 70
               1
 75
               5
  0
VERTEX
  5
19C
100
AcDbEntity
  8
一般
370
               5
  6
Continuous
 62
               7
100
AcDbVertex
100
AcDb2dVertex
 10
-826.54999999999995
 20
38.058218864020546
 30
0.0
  0
VERTEX
  5
19D
100
AcDbEntity
  8
一般
370
               5
  6
Continuous
 62
               7
100
AcDbVertex
100
AcDb2dVertex
 10
-823.04999999999995
 20
38.058218864020546
 30
0.0
  0
VERTEX
  5
19E
100
AcDbEntity
  8
一般
370
               5
  6
Continuous
 62
               7
100
AcDbVertex
100
AcDb2dVertex
 10
-823.04999999999995
 20
34.558218864020546
 30
0.0
  0
VERTEX
  5
19F
100
AcDbEntity
  8
一般
370
               5
  6
Continuous
 62
               7
100
AcDbVertex
100
AcDb2dVertex
 10
-826.54999999999995
 20
34.558218864020546
 30
0.0
  0
SEQEND
  5
1A0
100
AcDbEntity
  8
一般
370
               5
  6
Continuous
 62
               7
  0
CIRCLE
  5
1A1
100
AcDbEntity
  8
一般
370
              15
  6
Continuous
 62
               7
100
AcDbCircle
 10
-824.79999999999995
 20
36.308218864020546
 30
0.0
 40
0.6000000000000227
  0
LWPOLYLINE
  5
1A2
100
AcDbEntity
  8
一般
370
              15
  6
Continuous
 62
               7
100
AcDbPolyline
 90
        8
 70
             129
 10
-826.29999999999995
 20
37.508218864020549
 42
-0.4142135623731367
 10
-826.0
 20
37.808218864020546
 10
-823.59999999999991
 20
37.808218864020546
 42
-0.414213562373095
 10
-823.29999999999995
 20
37.508218864020549
 10
-823.29999999999995
 20
35.108218864020543
 42
-0.4142135623731367
 10
-823.59999999999991
 20
34.808218864020546
 10
-826.0
 20
34.808218864020546
 42
-0.414213562373095
 10
-826.29999999999995
 20
35.108218864020543
  0
POLYLINE
  5
1A3
100
AcDbEntity
  8
一般
370
               5
  6
Continuous
 62
               7
100
AcDb2dPolyline
 66
               1
 10
0.0
 20
0.0
 30
0.0
 70
               1
 75
               5
  0
VERTEX
  5
1A4
100
AcDbEntity
  8
一般
370
               5
  6
Continuous
 62
               7
100
AcDbVertex
100
AcDb2dVertex
 10
-820.04999999999995
 20
38.058218864020546
 30
0.0
  0
VERTEX
  5
1A5
100
AcDbEntity
  8
一般
370
               5
  6
Continuous
 62
               7
100
AcDbVertex
100
AcDb2dVertex
 10
-816.54999999999995
 20
38.058218864020546
 30
0.0
  0
VERTEX
  5
1A6
100
AcDbEntity
  8
一般
370
               5
  6
Continuous
 62
               7
100
AcDbVertex
100
AcDb2dVertex
 10
-816.54999999999995
 20
34.558218864020546
 30
0.0
  0
VERTEX
  5
1A7
100
AcDbEntity
  8
一般
370
               5
  6
Continuous
 62
               7
100
AcDbVertex
100
AcDb2dVertex
 10
-820.04999999999995
 20
34.558218864020546
 30
0.0
  0
SEQEND
  5
1A8
100
AcDbEntity
  8
一般
370
               5
  6
Continuous
 62
               7
  0
CIRCLE
  5
1A9
100
AcDbEntity
  8
一般
370
              15
  6
Continuous
 62
               7
100
AcDbCircle
 10
-818.29999999999995
 20
36.308218864020546
 30
0.0
 40
0.6000000000000227
  0
LWPOLYLINE
  5
1AA
100
AcDbEntity
  8
一般
370
              15
  6
Continuous
 62
               7
100
AcDbPolyline
 90
        8
 70
             129
 10
-819.79999999999995
 20
37.508218864020549
 42
-0.4142135623731367
 10
-819.5
 20
37.808218864020546
 10
-817.09999999999991
 20
37.808218864020546
 42
-0.414213562373095
 10
-816.79999999999995
 20
37.508218864020549
 10
-816.79999999999995
 20
35.108218864020543
 42
-0.4142135623731367
 10
-817.09999999999991
 20
34.808218864020546
 10
-819.5
 20
34.808218864020546
 42
-0.414213562373095
 10
-819.79999999999995
 20
35.108218864020543
  0
POLYLINE
  5
1AB
100
AcDbEntity
  8
一般
370
               5
  6
Continuous
 62
               7
100
AcDb2dPolyline
 66
               1
 10
0.0
 20
0.0
 30
0.0
 70
               1
 75
               5
  0
VERTEX
  5
1AC
100
AcDbEntity
  8
一般
370
               5
  6
Continuous
 62
               7
100
AcDbVertex
100
AcDb2dVertex
 10
-813.54999999999995
 20
38.058218864020546
 30
0.0
  0
VERTEX
  5
1AD
100
AcDbEntity
  8
一般
370
               5
  6
Continuous
 62
               7
100
AcDbVertex
100
AcDb2dVertex
 10
-810.04999999999995
 20
38.058218864020546
 30
0.0
  0
VERTEX
  5
1AE
100
AcDbEntity
  8
一般
370
               5
  6
Continuous
 62
               7
100
AcDbVertex
100
AcDb2dVertex
 10
-810.04999999999995
 20
34.558218864020546
 30
0.0
  0
VERTEX
  5
1AF
100
AcDbEntity
  8
一般
370
               5
  6
Continuous
 62
               7
100
AcDbVertex
100
AcDb2dVertex
 10
-813.54999999999995
 20
34.558218864020546
 30
0.0
  0
SEQEND
  5
1B0
100
AcDbEntity
  8
一般
370
               5
  6
Continuous
 62
               7
  0
CIRCLE
  5
1B1
100
AcDbEntity
  8
一般
370
              15
  6
Continuous
 62
               7
100
AcDbCircle
 10
-811.79999999999995
 20
36.308218864020546
 30
0.0
 40
0.6000000000000227
  0
LWPOLYLINE
  5
1B2
100
AcDbEntity
  8
一般
370
              15
  6
Continuous
 62
               7
100
AcDbPolyline
 90
        8
 70
             129
 10
-813.29999999999995
 20
37.508218864020549
 42
-0.4142135623731367
 10
-813.0
 20
37.808218864020546
 10
-810.59999999999991
 20
37.808218864020546
 42
-0.414213562373095
 10
-810.29999999999995
 20
37.508218864020549
 10
-810.29999999999995
 20
35.108218864020543
 42
-0.4142135623731367
 10
-810.59999999999991
 20
34.808218864020546
 10
-813.0
 20
34.808218864020546
 42
-0.414213562373095
 10
-813.29999999999995
 20
35.108218864020543
  0
POLYLINE
  5
1B3
100
AcDbEntity
  8
一般
370
               5
  6
Continuous
 62
               7
100
AcDb2dPolyline
 66
               1
 10
0.0
 20
0.0
 30
0.0
 70
               1
 75
               5
  0
VERTEX
  5
1B4
100
AcDbEntity
  8
一般
370
               5
  6
Continuous
 62
               7
100
AcDbVertex
100
AcDb2dVertex
 10
-807.04999999999995
 20
38.058218864020546
 30
0.0
  0
VERTEX
  5
1B5
100
AcDbEntity
  8
一般
370
               5
  6
Continuous
 62
               7
100
AcDbVertex
100
AcDb2dVertex
 10
-803.54999999999995
 20
38.058218864020546
 30
0.0
  0
VERTEX
  5
1B6
100
AcDbEntity
  8
一般
370
               5
  6
Continuous
 62
               7
100
AcDbVertex
100
AcDb2dVertex
 10
-803.54999999999995
 20
34.558218864020546
 30
0.0
  0
VERTEX
  5
1B7
100
AcDbEntity
  8
一般
370
               5
  6
Continuous
 62
               7
100
AcDbVertex
100
AcDb2dVertex
 10
-807.04999999999995
 20
34.558218864020546
 30
0.0
  0
SEQEND
  5
1B8
100
AcDbEntity
  8
一般
370
               5
  6
Continuous
 62
               7
  0
CIRCLE
  5
1B9
100
AcDbEntity
  8
一般
370
              15
  6
Continuous
 62
               7
100
AcDbCircle
 10
-805.29999999999995
 20
36.308218864020546
 30
0.0
 40
0.6000000000000227
  0
LWPOLYLINE
  5
1BA
100
AcDbEntity
  8
一般
370
              15
  6
Continuous
 62
               7
100
AcDbPolyline
 90
        8
 70
             129
 10
-806.79999999999995
 20
37.508218864020549
 42
-0.4142135623731367
 10
-806.5
 20
37.808218864020546
 10
-804.09999999999991
 20
37.808218864020546
 42
-0.414213562373095
 10
-803.79999999999995
 20
37.508218864020549
 10
-803.79999999999995
 20
35.108218864020543
 42
-0.4142135623731367
 10
-804.09999999999991
 20
34.808218864020546
 10
-806.5
 20
34.808218864020546
 42
-0.414213562373095
 10
-806.79999999999995
 20
35.108218864020543
  0
POLYLINE
  5
1BB
100
AcDbEntity
  8
一般
370
               5
  6
Continuous
 62
               7
100
AcDb2dPolyline
 66
               1
 10
0.0
 20
0.0
 30
0.0
 70
               1
 75
               5
  0
VERTEX
  5
1BC
100
AcDbEntity
  8
一般
370
               5
  6
Continuous
 62
               7
100
AcDbVertex
100
AcDb2dVertex
 10
-833.04999999999995
 20
44.558218864020546
 30
0.0
  0
VERTEX
  5
1BD
100
AcDbEntity
  8
一般
370
               5
  6
Continuous
 62
               7
100
AcDbVertex
100
AcDb2dVertex
 10
-829.54999999999995
 20
44.558218864020546
 30
0.0
  0
VERTEX
  5
1BE
100
AcDbEntity
  8
一般
370
               5
  6
Continuous
 62
               7
100
AcDbVertex
100
AcDb2dVertex
 10
-829.54999999999995
 20
41.058218864020546
 30
0.0
  0
VERTEX
  5
1BF
100
AcDbEntity
  8
一般
370
               5
  6
Continuous
 62
               7
100
AcDbVertex
100
AcDb2dVertex
 10
-833.04999999999995
 20
41.058218864020546
 30
0.0
  0
SEQEND
  5
1C0
100
AcDbEntity
  8
一般
370
               5
  6
Continuous
 62
               7
  0
CIRCLE
  5
1C1
100
AcDbEntity
  8
一般
370
              15
  6
Continuous
 62
               7
100
AcDbCircle
 10
-831.29999999999995
 20
42.808218864020546
 30
0.0
 40
0.6000000000000227
  0
LWPOLYLINE
  5
1C2
100
AcDbEntity
  8
一般
370
              15
  6
Continuous
 62
               7
100
AcDbPolyline
 90
        8
 70
             129
 10
-832.79999999999995
 20
44.008218864020549
 42
-0.4142135623731367
 10
-832.5
 20
44.308218864020546
 10
-830.09999999999991
 20
44.308218864020546
 42
-0.414213562373095
 10
-829.79999999999995
 20
44.008218864020549
 10
-829.79999999999995
 20
41.608218864020543
 42
-0.4142135623731367
 10
-830.09999999999991
 20
41.308218864020546
 10
-832.5
 20
41.308218864020546
 42
-0.414213562373095
 10
-832.79999999999995
 20
41.608218864020543
  0
POLYLINE
  5
1C3
100
AcDbEntity
  8
一般
370
               5
  6
Continuous
 62
               7
100
AcDb2dPolyline
 66
               1
 10
0.0
 20
0.0
 30
0.0
 70
               1
 75
               5
  0
VERTEX
  5
1C4
100
AcDbEntity
  8
一般
370
               5
  6
Continuous
 62
               7
100
AcDbVertex
100
AcDb2dVertex
 10
-826.54999999999995
 20
44.558218864020546
 30
0.0
  0
VERTEX
  5
1C5
100
AcDbEntity
  8
一般
370
               5
  6
Continuous
 62
               7
100
AcDbVertex
100
AcDb2dVertex
 10
-823.04999999999995
 20
44.558218864020546
 30
0.0
  0
VERTEX
  5
1C6
100
AcDbEntity
  8
一般
370
               5
  6
Continuous
 62
               7
100
AcDbVertex
100
AcDb2dVertex
 10
-823.04999999999995
 20
41.058218864020546
 30
0.0
  0
VERTEX
  5
1C7
100
AcDbEntity
  8
一般
370
               5
  6
Continuous
 62
               7
100
AcDbVertex
100
AcDb2dVertex
 10
-826.54999999999995
 20
41.058218864020546
 30
0.0
  0
SEQEND
  5
1C8
100
AcDbEntity
  8
一般
370
               5
  6
Continuous
 62
               7
  0
CIRCLE
  5
1C9
100
AcDbEntity
  8
一般
370
              15
  6
Continuous
 62
               7
100
AcDbCircle
 10
-824.79999999999995
 20
42.808218864020546
 30
0.0
 40
0.6000000000000227
  0
LWPOLYLINE
  5
1CA
100
AcDbEntity
  8
一般
370
              15
  6
Continuous
 62
               7
100
AcDbPolyline
 90
        8
 70
             129
 10
-826.29999999999995
 20
44.008218864020549
 42
-0.4142135623731367
 10
-826.0
 20
44.308218864020546
 10
-823.59999999999991
 20
44.308218864020546
 42
-0.414213562373095
 10
-823.29999999999995
 20
44.008218864020549
 10
-823.29999999999995
 20
41.608218864020543
 42
-0.4142135623731367
 10
-823.59999999999991
 20
41.308218864020546
 10
-826.0
 20
41.308218864020546
 42
-0.414213562373095
 10
-826.29999999999995
 20
41.608218864020543
  0
POLYLINE
  5
1CB
100
AcDbEntity
  8
一般
370
               5
  6
Continuous
 62
               7
100
AcDb2dPolyline
 66
               1
 10
0.0
 20
0.0
 30
0.0
 70
               1
 75
               5
  0
VERTEX
  5
1CC
100
AcDbEntity
  8
一般
370
               5
  6
Continuous
 62
               7
100
AcDbVertex
100
AcDb2dVertex
 10
-820.04999999999995
 20
44.558218864020546
 30
0.0
  0
VERTEX
  5
1CD
100
AcDbEntity
  8
一般
370
               5
  6
Continuous
 62
               7
100
AcDbVertex
100
AcDb2dVertex
 10
-816.54999999999995
 20
44.558218864020546
 30
0.0
  0
VERTEX
  5
1CE
100
AcDbEntity
  8
一般
370
               5
  6
Continuous
 62
               7
100
AcDbVertex
100
AcDb2dVertex
 10
-816.54999999999995
 20
41.058218864020546
 30
0.0
  0
VERTEX
  5
1CF
100
AcDbEntity
  8
一般
370
               5
  6
Continuous
 62
               7
100
AcDbVertex
100
AcDb2dVertex
 10
-820.04999999999995
 20
41.058218864020546
 30
0.0
  0
SEQEND
  5
1D0
100
AcDbEntity
  8
一般
370
               5
  6
Continuous
 62
               7
  0
CIRCLE
  5
1D1
100
AcDbEntity
  8
一般
370
              15
  6
Continuous
 62
               7
100
AcDbCircle
 10
-818.29999999999995
 20
42.808218864020546
 30
0.0
 40
0.6000000000000227
  0
LWPOLYLINE
  5
1D2
100
AcDbEntity
  8
一般
370
              15
  6
Continuous
 62
               7
100
AcDbPolyline
 90
        8
 70
             129
 10
-819.79999999999995
 20
44.008218864020549
 42
-0.4142135623731367
 10
-819.5
 20
44.308218864020546
 10
-817.09999999999991
 20
44.308218864020546
 42
-0.414213562373095
 10
-816.79999999999995
 20
44.008218864020549
 10
-816.79999999999995
 20
41.608218864020543
 42
-0.4142135623731367
 10
-817.09999999999991
 20
41.308218864020546
 10
-819.5
 20
41.308218864020546
 42
-0.414213562373095
 10
-819.79999999999995
 20
41.608218864020543
  0
POLYLINE
  5
1D3
100
AcDbEntity
  8
一般
370
               5
  6
Continuous
 62
               7
100
AcDb2dPolyline
 66
               1
 10
0.0
 20
0.0
 30
0.0
 70
               1
 75
               5
  0
VERTEX
  5
1D4
100
AcDbEntity
  8
一般
370
               5
  6
Continuous
 62
               7
100
AcDbVertex
100
AcDb2dVertex
 10
-813.54999999999995
 20
44.558218864020546
 30
0.0
  0
VERTEX
  5
1D5
100
AcDbEntity
  8
一般
370
               5
  6
Continuous
 62
               7
100
AcDbVertex
100
AcDb2dVertex
 10
-810.04999999999995
 20
44.558218864020546
 30
0.0
  0
VERTEX
  5
1D6
100
AcDbEntity
  8
一般
370
               5
  6
Continuous
 62
               7
100
AcDbVertex
100
AcDb2dVertex
 10
-810.04999999999995
 20
41.058218864020546
 30
0.0
  0
VERTEX
  5
1D7
100
AcDbEntity
  8
一般
370
               5
  6
Continuous
 62
               7
100
AcDbVertex
100
AcDb2dVertex
 10
-813.54999999999995
 20
41.058218864020546
 30
0.0
  0
SEQEND
  5
1D8
100
AcDbEntity
  8
一般
370
               5
  6
Continuous
 62
               7
  0
CIRCLE
  5
1D9
100
AcDbEntity
  8
一般
370
              15
  6
Continuous
 62
               7
100
AcDbCircle
 10
-811.79999999999995
 20
42.808218864020546
 30
0.0
 40
0.6000000000000227
  0
LWPOLYLINE
  5
1DA
100
AcDbEntity
  8
一般
370
              15
  6
Continuous
 62
               7
100
AcDbPolyline
 90
        8
 70
             129
 10
-813.29999999999995
 20
44.008218864020549
 42
-0.4142135623731367
 10
-813.0
 20
44.308218864020546
 10
-810.59999999999991
 20
44.308218864020546
 42
-0.414213562373095
 10
-810.29999999999995
 20
44.008218864020549
 10
-810.29999999999995
 20
41.608218864020543
 42
-0.4142135623731367
 10
-810.59999999999991
 20
41.308218864020546
 10
-813.0
 20
41.308218864020546
 42
-0.414213562373095
 10
-813.29999999999995
 20
41.608218864020543
  0
POLYLINE
  5
1DB
100
AcDbEntity
  8
一般
370
               5
  6
Continuous
 62
               7
100
AcDb2dPolyline
 66
               1
 10
0.0
 20
0.0
 30
0.0
 70
               1
 75
               5
  0
VERTEX
  5
1DC
100
AcDbEntity
  8
一般
370
               5
  6
Continuous
 62
               7
100
AcDbVertex
100
AcDb2dVertex
 10
-807.04999999999995
 20
44.558218864020546
 30
0.0
  0
VERTEX
  5
1DD
100
AcDbEntity
  8
一般
370
               5
  6
Continuous
 62
               7
100
AcDbVertex
100
AcDb2dVertex
 10
-803.54999999999995
 20
44.558218864020546
 30
0.0
  0
VERTEX
  5
1DE
100
AcDbEntity
  8
一般
370
               5
  6
Continuous
 62
               7
100
AcDbVertex
100
AcDb2dVertex
 10
-803.54999999999995
 20
41.058218864020546
 30
0.0
  0
VERTEX
  5
1DF
100
AcDbEntity
  8
一般
370
               5
  6
Continuous
 62
               7
100
AcDbVertex
100
AcDb2dVertex
 10
-807.04999999999995
 20
41.058218864020546
 30
0.0
  0
SEQEND
  5
1E0
100
AcDbEntity
  8
一般
370
               5
  6
Continuous
 62
               7
  0
CIRCLE
  5
1E1
100
AcDbEntity
  8
一般
370
              15
  6
Continuous
 62
               7
100
AcDbCircle
 10
-805.29999999999995
 20
42.808218864020546
 30
0.0
 40
0.6000000000000227
  0
LWPOLYLINE
  5
1E2
100
AcDbEntity
  8
一般
370
              15
  6
Continuous
 62
               7
100
AcDbPolyline
 90
        8
 70
             129
 10
-806.79999999999995
 20
44.008218864020549
 42
-0.4142135623731367
 10
-806.5
 20
44.308218864020546
 10
-804.09999999999991
 20
44.308218864020546
 42
-0.414213562373095
 10
-803.79999999999995
 20
44.008218864020549
 10
-803.79999999999995
 20
41.608218864020543
 42
-0.4142135623731367
 10
-804.09999999999991
 20
41.308218864020546
 10
-806.5
 20
41.308218864020546
 42
-0.414213562373095
 10
-806.79999999999995
 20
41.608218864020543
  0
LINE
  5
1E3
100
AcDbEntity
  8
一般
370
              15
  6
Continuous
 62
               7
100
AcDbLine
 10
-838.29999999999995
 20
59.558218864020546
 30
0.0
 11
-798.29999999999995
 21
59.558218864020546
 31
0.0
  0
LINE
  5
1E4
100
AcDbEntity
  8
LAYER1
370
               5
  6
STYLE_06
 62
               7
100
AcDbLine
 10
-818.29999999999995
 20
-175.44178113597945
 30
0.0
 11
-875.79999999999995
 21
-761.44178113597945
 31
0.0
  0
LINE
  5
1E5
100
AcDbEntity
  8
LAYER1
370
               5
  6
STYLE_06
 62
               7
100
AcDbLine
 10
-818.29999999999995
 20
-175.44178113597945
 30
0.0
 11
-760.79999999999995
 21
-761.44178113597945
 31
0.0
  0
ARC
  5
1E6
100
AcDbEntity
  8
LAYER1
370
               5
  6
STYLE_06
 62
               7
100
AcDbCircle
 10
-818.29999999999995
 20
-761.44178113597945
 30
0.0
 40
57.5
100
AcDbArc
 50
180.0
 51
0.0
  0
ENDBLK
  5
1E7
100
AcDbEntity
  8
LAYER1
100
AcDbBlockEnd
  0
BLOCK
  5
1E8
100
AcDbEntity
  8
LAYER1
100
AcDbBlockBegin
  2
グループ-2
 70
               0
 10
0.0
 20
0.0
 30
0.0
  3
グループ-2
  1

  0
POLYLINE
  5
1E9
100
AcDbEntity
  8
LAYER1
370
              15
  6
Continuous
 62
               7
100
AcDb2dPolyline
 66
               1
 10
0.0
 20
0.0
 30
0.0
 75
               5
  0
VERTEX
  5
1EA
100
AcDbEntity
  8
LAYER1
370
              15
  6
Continuous
 62
               7
100
AcDbVertex
100
AcDb2dVertex
 10
-293.80000000000001
 20
-162.44178113597945
 30
0.0
  0
VERTEX
  5
1EB
100
AcDbEntity
  8
LAYER1
370
              15
  6
Continuous
 62
               7
100
AcDbVertex
100
AcDb2dVertex
 10
-274.72878070143889
 20
-162.44178113597945
 30
0.0
  0
VERTEX
  5
1EC
100
AcDbEntity
  8
LAYER1
370
              15
  6
Continuous
 62
               7
100
AcDbVertex
100
AcDb2dVertex
 10
-274.72878070143889
 20
-120.44178113597945
 30
0.0
  0
VERTEX
  5
1ED
100
AcDbEntity
  8
LAYER1
370
              15
  6
Continuous
 62
               7
100
AcDbVertex
100
AcDb2dVertex
 10
-293.80000000000001
 20
-120.44178113597945
 30
0.0
  0
SEQEND
  5
1EE
100
AcDbEntity
  8
LAYER1
370
              15
  6
Continuous
 62
               7
  0
POLYLINE
  5
1EF
100
AcDbEntity
  8
LAYER1
370
              15
  6
Continuous
 62
               7
100
AcDb2dPolyline
 66
               1
 10
0.0
 20
0.0
 30
0.0
 75
               5
  0
VERTEX
  5
1F0
100
AcDbEntity
  8
LAYER1
370
              15
  6
Continuous
 62
               7
100
AcDbVertex
100
AcDb2dVertex
 10
-305.80000000000001
 20
-162.44178113597945
 30
0.0
  0
VERTEX
  5
1F1
100
AcDbEntity
  8
LAYER1
370
              15
  6
Continuous
 62
               7
100
AcDbVertex
100
AcDb2dVertex
 10
-314.72878070143889
 20
-162.44178113597945
 30
0.0
  0
VERTEX
  5
1F2
100
AcDbEntity
  8
LAYER1
370
              15
  6
Continuous
 62
               7
100
AcDbVertex
100
AcDb2dVertex
 10
-314.72878070143889
 20
-120.44178113597945
 30
0.0
  0
VERTEX
  5
1F3
100
AcDbEntity
  8
LAYER1
370
              15
  6
Continuous
 62
               7
100
AcDbVertex
100
AcDb2dVertex
 10
-305.80000000000001
 20
-120.44178113597945
 30
0.0
  0
SEQEND
  5
1F4
100
AcDbEntity
  8
LAYER1
370
              15
  6
Continuous
 62
               7
  0
SPLINE
  5
1F5
100
AcDbEntity
  8
0
370
              15
  6
Continuous
 62
               7
100
AcDbSpline
210
0.0
220
0.0
230
1.0
 70
               8
 71
               2
 72
              10
 73
               7
 74
               0
 42
0.000001
 43
0.000001
 40
0.0
 40
0.0
 40
0.0
 40
1.0
 40
1.0
 40
2.0
 40
2.0
 40
3.0
 40
3.0
 40
3.0
 10
-272.72898070590867
 20
-158.92506624986834
 30
0.0
 10
-273.67316441663735
 20
-158.94178113597945
 30
0.0
 10
-274.72878070143889
 20
-158.94178113597945
 30
0.0
 10
-274.72878070143889
 20
-141.44178113597945
 30
0.0
 10
-274.72878070143889
 20
-123.94178113597945
 30
0.0
 10
-266.12606616286473
 20
-123.94178113597945
 30
0.0
 10
-264.92402136751008
 20
-125.0518815974624
 30
0.0
  0
SPLINE
  5
1F6
100
AcDbEntity
  8
0
370
              15
  6
Continuous
 62
               7
100
AcDbSpline
210
0.0
220
0.0
230
1.0
 70
               8
 71
               2
 72
               6
 73
               3
 74
               0
 42
0.000001
 43
0.000001
 40
0.0
 40
0.0
 40
0.0
 40
1.0
 40
1.0
 40
1.0
 10
-265.47429592967546
 20
-158.14907759417417
 30
0.0
 10
-265.47427900467727
 20
-158.14907083487918
 30
0.0
 10
-265.47426208365761
 20
-158.14906407696208
 30
0.0
  0
POLYLINE
  5
1F7
100
AcDbEntity
  8
0
370
              15
  6
Continuous
 62
               7
100
AcDb2dPolyline
 66
               1
 10
0.0
 20
0.0
 30
0.0
 70
               1
 75
               5
  0
VERTEX
  5
1F8
100
AcDbEntity
  8
0
370
              15
  6
Continuous
 62
               7
100
AcDbVertex
100
AcDb2dVertex
 10
-272.72878070143889
 20
-141.44178113597945
 30
0.0
  0
VERTEX
  5
1F9
100
AcDbEntity
  8
0
370
              15
  6
Continuous
 62
               7
100
AcDbVertex
100
AcDb2dVertex
 10
-262.72878070143889
 20
-120.44178113597945
 30
0.0
  0
VERTEX
  5
1FA
100
AcDbEntity
  8
0
370
              15
  6
Continuous
 62
               7
100
AcDbVertex
100
AcDb2dVertex
 10
-244.72878070143889
 20
-120.44178113597945
 30
0.0
  0
VERTEX
  5
1FB
100
AcDbEntity
  8
0
370
              15
  6
Continuous
 62
               7
100
AcDbVertex
100
AcDb2dVertex
 10
-244.72878070143889
 20
-230.44178113597945
 30
0.0
  0
VERTEX
  5
1FC
100
AcDbEntity
  8
0
370
              15
  6
Continuous
 62
               7
100
AcDbVertex
100
AcDb2dVertex
 10
-247.72878070143889
 20
-230.44178113597945
 30
0.0
  0
VERTEX
  5
1FD
100
AcDbEntity
  8
0
370
              15
  6
Continuous
 62
               7
100
AcDbVertex
100
AcDb2dVertex
 10
-247.72878070143889
 20
-162.44178113597945
 30
0.0
  0
VERTEX
  5
1FE
100
AcDbEntity
  8
0
370
              15
  6
Continuous
 62
               7
100
AcDbVertex
100
AcDb2dVertex
 10
-272.72878070143889
 20
-162.44178113597945
 30
0.0
  0
SEQEND
  5
1FF
100
AcDbEntity
  8
0
370
              15
  6
Continuous
 62
               7
  0
POLYLINE
  5
200
100
AcDbEntity
  8
0
370
               5
  6
STYLE_05
 62
               7
100
AcDb2dPolyline
 66
               1
 10
0.0
 20
0.0
 30
0.0
 70
               1
 75
               5
  0
VERTEX
  5
201
100
AcDbEntity
  8
0
370
               5
  6
STYLE_05
 62
               7
100
AcDbVertex
100
AcDb2dVertex
 10
-272.72878070143889
 20
-141.44178113597945
 30
0.0
  0
VERTEX
  5
202
100
AcDbEntity
  8
0
370
               5
  6
STYLE_05
 62
               7
100
AcDbVertex
100
AcDb2dVertex
 10
-271.92014198307385
 20
-118.19643529163545
 30
0.0
  0
VERTEX
  5
203
100
AcDbEntity
  8
0
370
               5
  6
STYLE_05
 62
               7
100
AcDbVertex
100
AcDb2dVertex
 10
-255.40942904690434
 20
-111.02730993777232
 30
0.0
  0
VERTEX
  5
204
100
AcDbEntity
  8
0
370
               5
  6
STYLE_05
 62
               7
100
AcDbVertex
100
AcDb2dVertex
 10
-211.59810743996314
 20
-211.92611121436414
 30
0.0
  0
VERTEX
  5
205
100
AcDbEntity
  8
0
370
               5
  6
STYLE_05
 62
               7
100
AcDbVertex
100
AcDb2dVertex
 10
-214.34989292932477
 20
-213.12096544000804
 30
0.0
  0
VERTEX
  5
206
100
AcDbEntity
  8
0
370
               5
  6
STYLE_05
 62
               7
100
AcDbVertex
100
AcDb2dVertex
 10
-241.43325537725201
 20
-150.74716101447859
 30
0.0
  0
VERTEX
  5
207
100
AcDbEntity
  8
0
370
               5
  6
STYLE_05
 62
               7
100
AcDbVertex
100
AcDb2dVertex
 10
-264.36480112193198
 20
-160.70427956151059
 30
0.0
  0
SEQEND
  5
208
100
AcDbEntity
  8
0
370
               5
  6
STYLE_05
 62
               7
  0
POLYLINE
  5
209
100
AcDbEntity
  8
一般
370
              15
  6
Continuous
 62
               7
100
AcDb2dPolyline
 66
               1
 10
0.0
 20
0.0
 30
0.0
 70
               1
 75
               5
  0
VERTEX
  5
20A
100
AcDbEntity
  8
一般
370
              15
  6
Continuous
 62
               7
100
AcDbVertex
100
AcDb2dVertex
 10
-305.80000000000001
 20
-111.94178113597945
 30
0.0
  0
VERTEX
  5
20B
100
AcDbEntity
  8
一般
370
              15
  6
Continuous
 62
               7
100
AcDbVertex
100
AcDb2dVertex
 10
-293.80000000000001
 20
-111.94178113597945
 30
0.0
  0
VERTEX
  5
20C
100
AcDbEntity
  8
一般
370
              15
  6
Continuous
 62
               7
100
AcDbVertex
100
AcDb2dVertex
 10
-293.80000000000001
 20
-171.94178113597945
 30
0.0
  0
VERTEX
  5
20D
100
AcDbEntity
  8
一般
370
              15
  6
Continuous
 62
               7
100
AcDbVertex
100
AcDb2dVertex
 10
-305.80000000000001
 20
-171.94178113597945
 30
0.0
  0
SEQEND
  5
20E
100
AcDbEntity
  8
一般
370
              15
  6
Continuous
 62
               7
  0
LWPOLYLINE
  5
20F
100
AcDbEntity
  8
一般
370
               5
  6
Continuous
 62
               7
100
AcDbPolyline
 90
        8
 70
             128
 10
-341.72878070143884
 20
-163.44178113597945
 10
-346.72878070143884
 20
-163.44178113597945
 42
-0.414213562373095
 10
-347.72878070143884
 20
-162.44178113597945
 10
-347.72878070143884
 20
-120.44178113597945
 42
-0.414213562373095
 10
-346.72878070143884
 20
-119.44178113597945
 10
-314.72878070143889
 20
-119.44178113597945
 10
-314.72878070143889
 20
-163.44178113597945
 10
-320.72878070143889
 20
-163.44178113597945
  0
POLYLINE
  5
210
100
AcDbEntity
  8
一般
370
               5
  6
Continuous
 62
               7
100
AcDb2dPolyline
 66
               1
 10
0.0
 20
0.0
 30
0.0
 70
               1
 75
               5
  0
VERTEX
  5
211
100
AcDbEntity
  8
一般
370
               5
  6
Continuous
 62
               7
100
AcDbVertex
100
AcDb2dVertex
 10
-345.22878070143884
 20
-174.44178113597945
 30
0.0
  0
VERTEX
  5
212
100
AcDbEntity
  8
一般
370
               5
  6
Continuous
 62
               7
100
AcDbVertex
100
AcDb2dVertex
 10
-317.22878070143889
 20
-174.44178113597945
 30
0.0
  0
VERTEX
  5
213
100
AcDbEntity
  8
一般
370
               5
  6
Continuous
 62
               7
100
AcDbVertex
100
AcDb2dVertex
 10
-317.22878070143889
 20
-194.44178113597945
 30
0.0
  0
VERTEX
  5
214
100
AcDbEntity
  8
一般
370
               5
  6
Continuous
 62
               7
100
AcDbVertex
100
AcDb2dVertex
 10
-345.22878070143884
 20
-194.44178113597945
 30
0.0
  0
SEQEND
  5
215
100
AcDbEntity
  8
一般
370
               5
  6
Continuous
 62
               7
  0
POLYLINE
  5
216
100
AcDbEntity
  8
一般
370
               5
  6
Continuous
 62
               7
100
AcDb2dPolyline
 66
               1
 10
0.0
 20
0.0
 30
0.0
 70
               1
 75
               5
  0
VERTEX
  5
217
100
AcDbEntity
  8
一般
370
               5
  6
Continuous
 62
               7
100
AcDbVertex
100
AcDb2dVertex
 10
-317.22878070143889
 20
-174.44178113597945
 30
0.0
  0
VERTEX
  5
218
100
AcDbEntity
  8
一般
370
               5
  6
Continuous
 62
               7
100
AcDbVertex
100
AcDb2dVertex
 10
-320.72878070143889
 20
-164.44178113597945
 30
0.0
  0
VERTEX
  5
219
100
AcDbEntity
  8
一般
370
               5
  6
Continuous
 62
               7
100
AcDbVertex
100
AcDb2dVertex
 10
-341.72878070143884
 20
-164.44178113597945
 30
0.0
  0
VERTEX
  5
21A
100
AcDbEntity
  8
一般
370
               5
  6
Continuous
 62
               7
100
AcDbVertex
100
AcDb2dVertex
 10
-345.22878070143884
 20
-174.44178113597945
 30
0.0
  0
SEQEND
  5
21B
100
AcDbEntity
  8
一般
370
               5
  6
Continuous
 62
               7
  0
POLYLINE
  5
21C
100
AcDbEntity
  8
一般
370
               5
  6
Continuous
 62
               7
100
AcDb2dPolyline
 66
               1
 10
0.0
 20
0.0
 30
0.0
 75
               5
  0
VERTEX
  5
21D
100
AcDbEntity
  8
一般
370
               5
  6
Continuous
 62
               7
100
AcDbVertex
100
AcDb2dVertex
 10
-320.72878070143889
 20
-150.70191072470553
 30
0.0
  0
VERTEX
  5
21E
100
AcDbEntity
  8
一般
370
               5
  6
Continuous
 62
               7
100
AcDbVertex
100
AcDb2dVertex
 10
-320.72878070143889
 20
-164.44178113597945
 30
0.0
  0
VERTEX
  5
21F
100
AcDbEntity
  8
一般
370
               5
  6
Continuous
 62
               7
100
AcDbVertex
100
AcDb2dVertex
 10
-341.72878070143884
 20
-164.44178113597945
 30
0.0
  0
VERTEX
  5
220
100
AcDbEntity
  8
一般
370
               5
  6
Continuous
 62
               7
100
AcDbVertex
100
AcDb2dVertex
 10
-341.72878070143884
 20
-150.70191072470553
 30
0.0
  0
SEQEND
  5
221
100
AcDbEntity
  8
一般
370
               5
  6
Continuous
 62
               7
  0
CIRCLE
  5
222
100
AcDbEntity
  8
一般
370
               5
  6
Continuous
 62
               7
100
AcDbCircle
 10
-331.22878070143889
 20
-141.44178113597945
 30
0.0
 40
14.0
  0
CIRCLE
  5
223
100
AcDbEntity
  8
一般
370
               5
  6
Continuous
 62
               7
100
AcDbCircle
 10
-331.22878070143889
 20
-141.44178113597945
 30
0.0
 40
10.5
  0
POLYLINE
  5
224
100
AcDbEntity
  8
一般
370
               5
  6
Continuous
 62
               7
100
AcDb2dPolyline
 66
               1
 10
0.0
 20
0.0
 30
0.0
 70
               1
 75
               5
  0
VERTEX
  5
225
100
AcDbEntity
  8
一般
370
               5
  6
Continuous
 62
               7
100
AcDbVertex
100
AcDb2dVertex
 10
-355.83757499665467
 20
-147.94178113597945
 30
0.0
  0
VERTEX
  5
226
100
AcDbEntity
  8
一般
370
               5
  6
Continuous
 62
               7
100
AcDbVertex
100
AcDb2dVertex
 10
-347.83757499665467
 20
-147.94178113597945
 30
0.0
  0
VERTEX
  5
227
100
AcDbEntity
  8
一般
370
               5
  6
Continuous
 62
               7
100
AcDbVertex
100
AcDb2dVertex
 10
-347.83757499665467
 20
-157.94178113597945
 30
0.0
  0
VERTEX
  5
228
100
AcDbEntity
  8
一般
370
               5
  6
Continuous
 62
               7
100
AcDbVertex
100
AcDb2dVertex
 10
-355.83757499665467
 20
-157.94178113597945
 30
0.0
  0
SEQEND
  5
229
100
AcDbEntity
  8
一般
370
               5
  6
Continuous
 62
               7
  0
POLYLINE
  5
22A
100
AcDbEntity
  8
一般
370
               5
  6
Continuous
 62
               7
100
AcDb2dPolyline
 66
               1
 10
0.0
 20
0.0
 30
0.0
 70
               1
 75
               5
  0
VERTEX
  5
22B
100
AcDbEntity
  8
一般
370
               5
  6
Continuous
 62
               7
100
AcDbVertex
100
AcDb2dVertex
 10
-355.83757499665467
 20
-124.94178113597945
 30
0.0
  0
VERTEX
  5
22C
100
AcDbEntity
  8
一般
370
               5
  6
Continuous
 62
               7
100
AcDbVertex
100
AcDb2dVertex
 10
-347.83757499665467
 20
-124.94178113597945
 30
0.0
  0
VERTEX
  5
22D
100
AcDbEntity
  8
一般
370
               5
  6
Continuous
 62
               7
100
AcDbVertex
100
AcDb2dVertex
 10
-347.83757499665467
 20
-134.94178113597945
 30
0.0
  0
VERTEX
  5
22E
100
AcDbEntity
  8
一般
370
               5
  6
Continuous
 62
               7
100
AcDbVertex
100
AcDb2dVertex
 10
-355.83757499665467
 20
-134.94178113597945
 30
0.0
  0
SEQEND
  5
22F
100
AcDbEntity
  8
一般
370
               5
  6
Continuous
 62
               7
  0
ENDBLK
  5
230
100
AcDbEntity
  8
LAYER1
100
AcDbBlockEnd
  0
BLOCK
  5
231
100
AcDbEntity
  8
一般
100
AcDbBlockBegin
  2
グループ-3
 70
               0
 10
0.0
 20
0.0
 30
0.0
  3
グループ-3
  1

  0
POLYLINE
  5
232
100
AcDbEntity
  8
一般
370
               5
  6
Continuous
 62
               7
100
AcDb2dPolyline
 66
               1
 10
0.0
 20
0.0
 30
0.0
 70
               1
 75
               5
  0
VERTEX
  5
233
100
AcDbEntity
  8
一般
370
               5
  6
Continuous
 62
               7
100
AcDbVertex
100
AcDb2dVertex
 10
248.19999999999999
 20
-162.0
 30
0.0
  0
VERTEX
  5
234
100
AcDbEntity
  8
一般
370
               5
  6
Continuous
 62
               7
100
AcDbVertex
100
AcDb2dVertex
 10
268.19999999999999
 20
-162.0
 30
0.0
  0
VERTEX
  5
235
100
AcDbEntity
  8
一般
370
               5
  6
Continuous
 62
               7
100
AcDbVertex
100
AcDb2dVertex
 10
268.19999999999999
 20
-172.0
 30
0.0
  0
VERTEX
  5
236
100
AcDbEntity
  8
一般
370
               5
  6
Continuous
 62
               7
100
AcDbVertex
100
AcDb2dVertex
 10
248.19999999999999
 20
-172.0
 30
0.0
  0
SEQEND
  5
237
100
AcDbEntity
  8
一般
370
               5
  6
Continuous
 62
               7
  0
POLYLINE
  5
238
100
AcDbEntity
  8
一般
370
               5
  6
Continuous
 62
               7
100
AcDb2dPolyline
 66
               1
 10
0.0
 20
0.0
 30
0.0
 70
               1
 75
               5
  0
VERTEX
  5
239
100
AcDbEntity
  8
一般
370
               5
  6
Continuous
 62
               7
100
AcDbVertex
100
AcDb2dVertex
 10
247.69999999999999
 20
-171.0
 30
0.0
  0
VERTEX
  5
23A
100
AcDbEntity
  8
一般
370
               5
  6
Continuous
 62
               7
100
AcDbVertex
100
AcDb2dVertex
 10
268.69999999999999
 20
-171.0
 30
0.0
  0
VERTEX
  5
23B
100
AcDbEntity
  8
一般
370
               5
  6
Continuous
 62
               7
100
AcDbVertex
100
AcDb2dVertex
 10
268.69999999999999
 20
-172.0
 30
0.0
  0
VERTEX
  5
23C
100
AcDbEntity
  8
一般
370
               5
  6
Continuous
 62
               7
100
AcDbVertex
100
AcDb2dVertex
 10
247.69999999999999
 20
-172.0
 30
0.0
  0
SEQEND
  5
23D
100
AcDbEntity
  8
一般
370
               5
  6
Continuous
 62
               7
  0
POLYLINE
  5
23E
100
AcDbEntity
  8
一般
370
               5
  6
Continuous
 62
               7
100
AcDb2dPolyline
 66
               1
 10
0.0
 20
0.0
 30
0.0
 70
               1
 75
               5
  0
VERTEX
  5
23F
100
AcDbEntity
  8
一般
370
               5
  6
Continuous
 62
               7
100
AcDbVertex
100
AcDb2dVertex
 10
247.69999999999999
 20
-169.0
 30
0.0
  0
VERTEX
  5
240
100
AcDbEntity
  8
一般
370
               5
  6
Continuous
 62
               7
100
AcDbVertex
100
AcDb2dVertex
 10
268.69999999999999
 20
-169.0
 30
0.0
  0
VERTEX
  5
241
100
AcDbEntity
  8
一般
370
               5
  6
Continuous
 62
               7
100
AcDbVertex
100
AcDb2dVertex
 10
268.69999999999999
 20
-170.0
 30
0.0
  0
VERTEX
  5
242
100
AcDbEntity
  8
一般
370
               5
  6
Continuous
 62
               7
100
AcDbVertex
100
AcDb2dVertex
 10
247.69999999999999
 20
-170.0
 30
0.0
  0
SEQEND
  5
243
100
AcDbEntity
  8
一般
370
               5
  6
Continuous
 62
               7
  0
POLYLINE
  5
244
100
AcDbEntity
  8
一般
370
               5
  6
Continuous
 62
               7
100
AcDb2dPolyline
 66
               1
 10
0.0
 20
0.0
 30
0.0
 70
               1
 75
               5
  0
VERTEX
  5
245
100
AcDbEntity
  8
一般
370
               5
  6
Continuous
 62
               7
100
AcDbVertex
100
AcDb2dVertex
 10
247.69999999999999
 20
-167.0
 30
0.0
  0
VERTEX
  5
246
100
AcDbEntity
  8
一般
370
               5
  6
Continuous
 62
               7
100
AcDbVertex
100
AcDb2dVertex
 10
268.69999999999999
 20
-167.0
 30
0.0
  0
VERTEX
  5
247
100
AcDbEntity
  8
一般
370
               5
  6
Continuous
 62
               7
100
AcDbVertex
100
AcDb2dVertex
 10
268.69999999999999
 20
-168.0
 30
0.0
  0
VERTEX
  5
248
100
AcDbEntity
  8
一般
370
               5
  6
Continuous
 62
               7
100
AcDbVertex
100
AcDb2dVertex
 10
247.69999999999999
 20
-168.0
 30
0.0
  0
SEQEND
  5
249
100
AcDbEntity
  8
一般
370
               5
  6
Continuous
 62
               7
  0
POLYLINE
  5
24A
100
AcDbEntity
  8
一般
370
               5
  6
Continuous
 62
               7
100
AcDb2dPolyline
 66
               1
 10
0.0
 20
0.0
 30
0.0
 70
               1
 75
               5
  0
VERTEX
  5
24B
100
AcDbEntity
  8
一般
370
               5
  6
Continuous
 62
               7
100
AcDbVertex
100
AcDb2dVertex
 10
247.69999999999999
 20
-165.0
 30
0.0
  0
VERTEX
  5
24C
100
AcDbEntity
  8
一般
370
               5
  6
Continuous
 62
               7
100
AcDbVertex
100
AcDb2dVertex
 10
268.69999999999999
 20
-165.0
 30
0.0
  0
VERTEX
  5
24D
100
AcDbEntity
  8
一般
370
               5
  6
Continuous
 62
               7
100
AcDbVertex
100
AcDb2dVertex
 10
268.69999999999999
 20
-166.0
 30
0.0
  0
VERTEX
  5
24E
100
AcDbEntity
  8
一般
370
               5
  6
Continuous
 62
               7
100
AcDbVertex
100
AcDb2dVertex
 10
247.69999999999999
 20
-166.0
 30
0.0
  0
SEQEND
  5
24F
100
AcDbEntity
  8
一般
370
               5
  6
Continuous
 62
               7
  0
POLYLINE
  5
250
100
AcDbEntity
  8
一般
370
               5
  6
Continuous
 62
               7
100
AcDb2dPolyline
 66
               1
 10
0.0
 20
0.0
 30
0.0
 70
               1
 75
               5
  0
VERTEX
  5
251
100
AcDbEntity
  8
一般
370
               5
  6
Continuous
 62
               7
100
AcDbVertex
100
AcDb2dVertex
 10
247.69999999999999
 20
-163.0
 30
0.0
  0
VERTEX
  5
252
100
AcDbEntity
  8
一般
370
               5
  6
Continuous
 62
               7
100
AcDbVertex
100
AcDb2dVertex
 10
268.69999999999999
 20
-163.0
 30
0.0
  0
VERTEX
  5
253
100
AcDbEntity
  8
一般
370
               5
  6
Continuous
 62
               7
100
AcDbVertex
100
AcDb2dVertex
 10
268.69999999999999
 20
-164.0
 30
0.0
  0
VERTEX
  5
254
100
AcDbEntity
  8
一般
370
               5
  6
Continuous
 62
               7
100
AcDbVertex
100
AcDb2dVertex
 10
247.69999999999999
 20
-164.0
 30
0.0
  0
SEQEND
  5
255
100
AcDbEntity
  8
一般
370
               5
  6
Continuous
 62
               7
  0
ENDBLK
  5
256
100
AcDbEntity
  8
一般
100
AcDbBlockEnd
  0
BLOCK
  5
257
100
AcDbEntity
  8
LAYER1
100
AcDbBlockBegin
  2
グループ-4
 70
               0
 10
0.0
 20
0.0
 30
0.0
  3
グループ-4
  1

  0
LINE
  5
258
100
AcDbEntity
  8
一般
370
              50
  6
Continuous
 62
               7
100
AcDbLine
 10
216.32147830939061
 20
-347.99622616887126
 30
0.0
 11
216.32147830939061
 21
42.00377383112874
 31
0.0
  0
POLYLINE
  5
259
100
AcDbEntity
  8
一般
370
              15
  6
Continuous
 62
               7
100
AcDb2dPolyline
 66
               1
 10
0.0
 20
0.0
 30
0.0
 70
               1
 75
               5
  0
VERTEX
  5
25A
100
AcDbEntity
  8
一般
370
              15
  6
Continuous
 62
               7
100
AcDbVertex
100
AcDb2dVertex
 10
224.19999999999999
 20
-130.0
 30
0.0
  0
VERTEX
  5
25B
100
AcDbEntity
  8
一般
370
              15
  6
Continuous
 62
               7
100
AcDbVertex
100
AcDb2dVertex
 10
300.19999999999999
 20
-130.0
 30
0.0
  0
VERTEX
  5
25C
100
AcDbEntity
  8
一般
370
              15
  6
Continuous
 62
               7
100
AcDbVertex
100
AcDb2dVertex
 10
300.19999999999999
 20
-146.0
 30
0.0
  0
VERTEX
  5
25D
100
AcDbEntity
  8
一般
370
              15
  6
Continuous
 62
               7
100
AcDbVertex
100
AcDb2dVertex
 10
224.19999999999999
 20
-146.0
 30
0.0
  0
SEQEND
  5
25E
100
AcDbEntity
  8
一般
370
              15
  6
Continuous
 62
               7
  0
INSERT
  5
25F
100
AcDbEntity
  8
一般
 62
               7
100
AcDbBlockReference
  2
グループ-3
 10
0.0
 20
0.0
 30
0.0
  0
POLYLINE
  5
260
100
AcDbEntity
  8
一般
370
               5
  6
Continuous
 62
               7
100
AcDb2dPolyline
 66
               1
 10
0.0
 20
0.0
 30
0.0
 70
               1
 75
               5
  0
VERTEX
  5
261
100
AcDbEntity
  8
一般
370
               5
  6
Continuous
 62
               7
100
AcDbVertex
100
AcDb2dVertex
 10
248.19999999999999
 20
-146.0
 30
0.0
  0
VERTEX
  5
262
100
AcDbEntity
  8
一般
370
               5
  6
Continuous
 62
               7
100
AcDbVertex
100
AcDb2dVertex
 10
268.19999999999999
 20
-146.0
 30
0.0
  0
VERTEX
  5
263
100
AcDbEntity
  8
一般
370
               5
  6
Continuous
 62
               7
100
AcDbVertex
100
AcDb2dVertex
 10
268.19999999999999
 20
-162.0
 30
0.0
  0
VERTEX
  5
264
100
AcDbEntity
  8
一般
370
               5
  6
Continuous
 62
               7
100
AcDbVertex
100
AcDb2dVertex
 10
248.19999999999999
 20
-162.0
 30
0.0
  0
SEQEND
  5
265
100
AcDbEntity
  8
一般
370
               5
  6
Continuous
 62
               7
  0
POLYLINE
  5
266
100
AcDbEntity
  8
一般
370
               5
  6
Continuous
 62
               7
100
AcDb2dPolyline
 66
               1
 10
0.0
 20
0.0
 30
0.0
 75
               5
  0
VERTEX
  5
267
100
AcDbEntity
  8
一般
370
               5
  6
Continuous
 62
               7
100
AcDbVertex
100
AcDb2dVertex
 10
216.32147830939061
 20
-147.5
 30
0.0
  0
VERTEX
  5
268
100
AcDbEntity
  8
一般
370
               5
  6
Continuous
 62
               7
100
AcDbVertex
100
AcDb2dVertex
 10
205.22874400191048
 20
-147.5
 30
0.0
  0
VERTEX
  5
269
100
AcDbEntity
  8
一般
370
               5
  6
Continuous
 62
               7
100
AcDbVertex
100
AcDb2dVertex
 10
205.22874400191048
 20
-128.5
 30
0.0
  0
VERTEX
  5
26A
100
AcDbEntity
  8
一般
370
               5
  6
Continuous
 62
               7
100
AcDbVertex
100
AcDb2dVertex
 10
216.32147830939061
 20
-128.5
 30
0.0
  0
SEQEND
  5
26B
100
AcDbEntity
  8
一般
370
               5
  6
Continuous
 62
               7
  0
POLYLINE
  5
26C
100
AcDbEntity
  8
一般
370
               5
  6
Continuous
 62
               7
100
AcDb2dPolyline
 66
               1
 10
0.0
 20
0.0
 30
0.0
 70
               1
 75
               5
  0
VERTEX
  5
26D
100
AcDbEntity
  8
一般
370
               5
  6
Continuous
 62
               7
100
AcDbVertex
100
AcDb2dVertex
 10
215.39830466741475
 20
-127.75299368671023
 30
0.0
  0
VERTEX
  5
26E
100
AcDbEntity
  8
一般
370
               5
  6
Continuous
 62
               7
100
AcDbVertex
100
AcDb2dVertex
 10
215.13819869640943
 20
-127.5
 30
0.0
  0
VERTEX
  5
26F
100
AcDbEntity
  8
一般
370
               5
  6
Continuous
 62
               7
100
AcDbVertex
100
AcDb2dVertex
 10
215.13819869640943
 20
-127.5
 30
0.0
  0
VERTEX
  5
270
100
AcDbEntity
  8
一般
370
               5
  6
Continuous
 62
               7
100
AcDbVertex
100
AcDb2dVertex
 10
214.87174867733083
 20
-127.74697002750281
 30
0.0
  0
VERTEX
  5
271
100
AcDbEntity
  8
一般
370
               5
  6
Continuous
 62
               7
100
AcDbVertex
100
AcDb2dVertex
 10
214.61164270632557
 20
-148.24548231023971
 30
0.0
  0
VERTEX
  5
272
100
AcDbEntity
  8
一般
370
               5
  6
Continuous
 62
               7
100
AcDbVertex
100
AcDb2dVertex
 10
214.87174867733083
 20
-148.49847599694999
 30
0.0
  0
VERTEX
  5
273
100
AcDbEntity
  8
一般
370
               5
  6
Continuous
 62
               7
100
AcDbVertex
100
AcDb2dVertex
 10
214.87174867733083
 20
-148.49847599694999
 30
0.0
  0
VERTEX
  5
274
100
AcDbEntity
  8
一般
370
               5
  6
Continuous
 62
               7
100
AcDbVertex
100
AcDb2dVertex
 10
215.13819869640943
 20
-148.25150596944712
 30
0.0
  0
SEQEND
  5
275
100
AcDbEntity
  8
一般
370
               5
  6
Continuous
 62
               7
  0
POLYLINE
  5
276
100
AcDbEntity
  8
一般
370
               5
  6
Continuous
 62
               7
100
AcDb2dPolyline
 66
               1
 10
0.0
 20
0.0
 30
0.0
 70
               1
 75
               5
  0
VERTEX
  5
277
100
AcDbEntity
  8
一般
370
               5
  6
Continuous
 62
               7
100
AcDbVertex
100
AcDb2dVertex
 10
213.81852204985231
 20
-127.75299368671023
 30
0.0
  0
VERTEX
  5
278
100
AcDbEntity
  8
一般
370
               5
  6
Continuous
 62
               7
100
AcDbVertex
100
AcDb2dVertex
 10
213.55841607884699
 20
-127.5
 30
0.0
  0
VERTEX
  5
279
100
AcDbEntity
  8
一般
370
               5
  6
Continuous
 62
               7
100
AcDbVertex
100
AcDb2dVertex
 10
213.55841607884699
 20
-127.5
 30
0.0
  0
VERTEX
  5
27A
100
AcDbEntity
  8
一般
370
               5
  6
Continuous
 62
               7
100
AcDbVertex
100
AcDb2dVertex
 10
213.29196605976844
 20
-127.74697002750281
 30
0.0
  0
VERTEX
  5
27B
100
AcDbEntity
  8
一般
370
               5
  6
Continuous
 62
               7
100
AcDbVertex
100
AcDb2dVertex
 10
213.03186008876318
 20
-148.24548231023971
 30
0.0
  0
VERTEX
  5
27C
100
AcDbEntity
  8
一般
370
               5
  6
Continuous
 62
               7
100
AcDbVertex
100
AcDb2dVertex
 10
213.29196605976844
 20
-148.49847599694999
 30
0.0
  0
VERTEX
  5
27D
100
AcDbEntity
  8
一般
370
               5
  6
Continuous
 62
               7
100
AcDbVertex
100
AcDb2dVertex
 10
213.29196605976844
 20
-148.49847599694999
 30
0.0
  0
VERTEX
  5
27E
100
AcDbEntity
  8
一般
370
               5
  6
Continuous
 62
               7
100
AcDbVertex
100
AcDb2dVertex
 10
213.55841607884699
 20
-148.25150596944712
 30
0.0
  0
SEQEND
  5
27F
100
AcDbEntity
  8
一般
370
               5
  6
Continuous
 62
               7
  0
POLYLINE
  5
280
100
AcDbEntity
  8
一般
370
               5
  6
Continuous
 62
               7
100
AcDb2dPolyline
 66
               1
 10
0.0
 20
0.0
 30
0.0
 70
               1
 75
               5
  0
VERTEX
  5
281
100
AcDbEntity
  8
一般
370
               5
  6
Continuous
 62
               7
100
AcDbVertex
100
AcDb2dVertex
 10
212.23873943228992
 20
-127.75299368671023
 30
0.0
  0
VERTEX
  5
282
100
AcDbEntity
  8
一般
370
               5
  6
Continuous
 62
               7
100
AcDbVertex
100
AcDb2dVertex
 10
211.9786334612846
 20
-127.5
 30
0.0
  0
VERTEX
  5
283
100
AcDbEntity
  8
一般
370
               5
  6
Continuous
 62
               7
100
AcDbVertex
100
AcDb2dVertex
 10
211.9786334612846
 20
-127.5
 30
0.0
  0
VERTEX
  5
284
100
AcDbEntity
  8
一般
370
               5
  6
Continuous
 62
               7
100
AcDbVertex
100
AcDb2dVertex
 10
211.71218344220605
 20
-127.74697002750281
 30
0.0
  0
VERTEX
  5
285
100
AcDbEntity
  8
一般
370
               5
  6
Continuous
 62
               7
100
AcDbVertex
100
AcDb2dVertex
 10
211.45207747120079
 20
-148.24548231023971
 30
0.0
  0
VERTEX
  5
286
100
AcDbEntity
  8
一般
370
               5
  6
Continuous
 62
               7
100
AcDbVertex
100
AcDb2dVertex
 10
211.71218344220605
 20
-148.49847599694999
 30
0.0
  0
VERTEX
  5
287
100
AcDbEntity
  8
一般
370
               5
  6
Continuous
 62
               7
100
AcDbVertex
100
AcDb2dVertex
 10
211.71218344220605
 20
-148.49847599694999
 30
0.0
  0
VERTEX
  5
288
100
AcDbEntity
  8
一般
370
               5
  6
Continuous
 62
               7
100
AcDbVertex
100
AcDb2dVertex
 10
211.9786334612846
 20
-148.25150596944712
 30
0.0
  0
SEQEND
  5
289
100
AcDbEntity
  8
一般
370
               5
  6
Continuous
 62
               7
  0
POLYLINE
  5
28A
100
AcDbEntity
  8
一般
370
               5
  6
Continuous
 62
               7
100
AcDb2dPolyline
 66
               1
 10
0.0
 20
0.0
 30
0.0
 70
               1
 75
               5
  0
VERTEX
  5
28B
100
AcDbEntity
  8
一般
370
               5
  6
Continuous
 62
               7
100
AcDbVertex
100
AcDb2dVertex
 10
210.65895681472747
 20
-127.75299368671023
 30
0.0
  0
VERTEX
  5
28C
100
AcDbEntity
  8
一般
370
               5
  6
Continuous
 62
               7
100
AcDbVertex
100
AcDb2dVertex
 10
210.39885084372222
 20
-127.5
 30
0.0
  0
VERTEX
  5
28D
100
AcDbEntity
  8
一般
370
               5
  6
Continuous
 62
               7
100
AcDbVertex
100
AcDb2dVertex
 10
210.39885084372222
 20
-127.5
 30
0.0
  0
VERTEX
  5
28E
100
AcDbEntity
  8
一般
370
               5
  6
Continuous
 62
               7
100
AcDbVertex
100
AcDb2dVertex
 10
210.13240082464367
 20
-127.74697002750281
 30
0.0
  0
VERTEX
  5
28F
100
AcDbEntity
  8
一般
370
               5
  6
Continuous
 62
               7
100
AcDbVertex
100
AcDb2dVertex
 10
209.87229485363835
 20
-148.24548231023971
 30
0.0
  0
VERTEX
  5
290
100
AcDbEntity
  8
一般
370
               5
  6
Continuous
 62
               7
100
AcDbVertex
100
AcDb2dVertex
 10
210.13240082464367
 20
-148.49847599694999
 30
0.0
  0
VERTEX
  5
291
100
AcDbEntity
  8
一般
370
               5
  6
Continuous
 62
               7
100
AcDbVertex
100
AcDb2dVertex
 10
210.13240082464367
 20
-148.49847599694999
 30
0.0
  0
VERTEX
  5
292
100
AcDbEntity
  8
一般
370
               5
  6
Continuous
 62
               7
100
AcDbVertex
100
AcDb2dVertex
 10
210.39885084372222
 20
-148.25150596944712
 30
0.0
  0
SEQEND
  5
293
100
AcDbEntity
  8
一般
370
               5
  6
Continuous
 62
               7
  0
POLYLINE
  5
294
100
AcDbEntity
  8
一般
370
               5
  6
Continuous
 62
               7
100
AcDb2dPolyline
 66
               1
 10
0.0
 20
0.0
 30
0.0
 70
               1
 75
               5
  0
VERTEX
  5
295
100
AcDbEntity
  8
一般
370
               5
  6
Continuous
 62
               7
100
AcDbVertex
100
AcDb2dVertex
 10
209.07917419716509
 20
-127.75299368671023
 30
0.0
  0
VERTEX
  5
296
100
AcDbEntity
  8
一般
370
               5
  6
Continuous
 62
               7
100
AcDbVertex
100
AcDb2dVertex
 10
208.81906822615983
 20
-127.5
 30
0.0
  0
VERTEX
  5
297
100
AcDbEntity
  8
一般
370
               5
  6
Continuous
 62
               7
100
AcDbVertex
100
AcDb2dVertex
 10
208.81906822615983
 20
-127.5
 30
0.0
  0
VERTEX
  5
298
100
AcDbEntity
  8
一般
370
               5
  6
Continuous
 62
               7
100
AcDbVertex
100
AcDb2dVertex
 10
208.55261820708128
 20
-127.74697002750281
 30
0.0
  0
VERTEX
  5
299
100
AcDbEntity
  8
一般
370
               5
  6
Continuous
 62
               7
100
AcDbVertex
100
AcDb2dVertex
 10
208.29251223607591
 20
-148.24548231023971
 30
0.0
  0
VERTEX
  5
29A
100
AcDbEntity
  8
一般
370
               5
  6
Continuous
 62
               7
100
AcDbVertex
100
AcDb2dVertex
 10
208.55261820708128
 20
-148.49847599694999
 30
0.0
  0
VERTEX
  5
29B
100
AcDbEntity
  8
一般
370
               5
  6
Continuous
 62
               7
100
AcDbVertex
100
AcDb2dVertex
 10
208.55261820708128
 20
-148.49847599694999
 30
0.0
  0
VERTEX
  5
29C
100
AcDbEntity
  8
一般
370
               5
  6
Continuous
 62
               7
100
AcDbVertex
100
AcDb2dVertex
 10
208.81906822615983
 20
-148.25150596944712
 30
0.0
  0
SEQEND
  5
29D
100
AcDbEntity
  8
一般
370
               5
  6
Continuous
 62
               7
  0
POLYLINE
  5
29E
100
AcDbEntity
  8
一般
370
               5
  6
Continuous
 62
               7
100
AcDb2dPolyline
 66
               1
 10
0.0
 20
0.0
 30
0.0
 70
               1
 75
               5
  0
VERTEX
  5
29F
100
AcDbEntity
  8
一般
370
               5
  6
Continuous
 62
               7
100
AcDbVertex
100
AcDb2dVertex
 10
207.49939157960264
 20
-127.75299368671023
 30
0.0
  0
VERTEX
  5
2A0
100
AcDbEntity
  8
一般
370
               5
  6
Continuous
 62
               7
100
AcDbVertex
100
AcDb2dVertex
 10
207.23928560859733
 20
-127.5
 30
0.0
  0
VERTEX
  5
2A1
100
AcDbEntity
  8
一般
370
               5
  6
Continuous
 62
               7
100
AcDbVertex
100
AcDb2dVertex
 10
207.23928560859733
 20
-127.5
 30
0.0
  0
VERTEX
  5
2A2
100
AcDbEntity
  8
一般
370
               5
  6
Continuous
 62
               7
100
AcDbVertex
100
AcDb2dVertex
 10
206.97283558951878
 20
-127.74697002750281
 30
0.0
  0
VERTEX
  5
2A3
100
AcDbEntity
  8
一般
370
               5
  6
Continuous
 62
               7
100
AcDbVertex
100
AcDb2dVertex
 10
206.71272961851352
 20
-148.24548231023971
 30
0.0
  0
VERTEX
  5
2A4
100
AcDbEntity
  8
一般
370
               5
  6
Continuous
 62
               7
100
AcDbVertex
100
AcDb2dVertex
 10
206.97283558951878
 20
-148.49847599694999
 30
0.0
  0
VERTEX
  5
2A5
100
AcDbEntity
  8
一般
370
               5
  6
Continuous
 62
               7
100
AcDbVertex
100
AcDb2dVertex
 10
206.97283558951878
 20
-148.49847599694999
 30
0.0
  0
VERTEX
  5
2A6
100
AcDbEntity
  8
一般
370
               5
  6
Continuous
 62
               7
100
AcDbVertex
100
AcDb2dVertex
 10
207.23928560859733
 20
-148.25150596944712
 30
0.0
  0
SEQEND
  5
2A7
100
AcDbEntity
  8
一般
370
               5
  6
Continuous
 62
               7
  0
POLYLINE
  5
2A8
100
AcDbEntity
  8
一般
370
               5
  6
Continuous
 62
               7
100
AcDb2dPolyline
 66
               1
 10
0.0
 20
0.0
 30
0.0
 70
               1
 75
               5
  0
VERTEX
  5
2A9
100
AcDbEntity
  8
一般
370
               5
  6
Continuous
 62
               7
100
AcDbVertex
100
AcDb2dVertex
 10
205.9196089620402
 20
-127.75299368671023
 30
0.0
  0
VERTEX
  5
2AA
100
AcDbEntity
  8
一般
370
               5
  6
Continuous
 62
               7
100
AcDbVertex
100
AcDb2dVertex
 10
205.65950299103494
 20
-127.5
 30
0.0
  0
VERTEX
  5
2AB
100
AcDbEntity
  8
一般
370
               5
  6
Continuous
 62
               7
100
AcDbVertex
100
AcDb2dVertex
 10
205.65950299103494
 20
-127.5
 30
0.0
  0
VERTEX
  5
2AC
100
AcDbEntity
  8
一般
370
               5
  6
Continuous
 62
               7
100
AcDbVertex
100
AcDb2dVertex
 10
205.39305297195639
 20
-127.74697002750281
 30
0.0
  0
VERTEX
  5
2AD
100
AcDbEntity
  8
一般
370
               5
  6
Continuous
 62
               7
100
AcDbVertex
100
AcDb2dVertex
 10
205.13294700095108
 20
-148.24548231023971
 30
0.0
  0
VERTEX
  5
2AE
100
AcDbEntity
  8
一般
370
               5
  6
Continuous
 62
               7
100
AcDbVertex
100
AcDb2dVertex
 10
205.39305297195639
 20
-148.49847599694999
 30
0.0
  0
VERTEX
  5
2AF
100
AcDbEntity
  8
一般
370
               5
  6
Continuous
 62
               7
100
AcDbVertex
100
AcDb2dVertex
 10
205.39305297195639
 20
-148.49847599694999
 30
0.0
  0
VERTEX
  5
2B0
100
AcDbEntity
  8
一般
370
               5
  6
Continuous
 62
               7
100
AcDbVertex
100
AcDb2dVertex
 10
205.65950299103494
 20
-148.25150596944712
 30
0.0
  0
SEQEND
  5
2B1
100
AcDbEntity
  8
一般
370
               5
  6
Continuous
 62
               7
  0
POLYLINE
  5
2B2
100
AcDbEntity
  8
一般
370
              15
  6
Continuous
 62
               7
100
AcDb2dPolyline
 66
               1
 10
0.0
 20
0.0
 30
0.0
 70
               1
 75
               5
  0
VERTEX
  5
2B3
100
AcDbEntity
  8
一般
370
              15
  6
Continuous
 62
               7
100
AcDbVertex
100
AcDb2dVertex
 10
216.19999999999996
 20
-110.5
 30
0.0
  0
VERTEX
  5
2B4
100
AcDbEntity
  8
一般
370
              15
  6
Continuous
 62
               7
100
AcDbVertex
100
AcDb2dVertex
 10
224.19999999999999
 20
-110.5
 30
0.0
  0
VERTEX
  5
2B5
100
AcDbEntity
  8
一般
370
              15
  6
Continuous
 62
               7
100
AcDbVertex
100
AcDb2dVertex
 10
224.19999999999999
 20
-165.5
 30
0.0
  0
VERTEX
  5
2B6
100
AcDbEntity
  8
一般
370
              15
  6
Continuous
 62
               7
100
AcDbVertex
100
AcDb2dVertex
 10
216.19999999999996
 20
-165.5
 30
0.0
  0
SEQEND
  5
2B7
100
AcDbEntity
  8
一般
370
              15
  6
Continuous
 62
               7
  0
POLYLINE
  5
2B8
100
AcDbEntity
  8
一般
370
               5
  6
Continuous
 62
               7
100
AcDb2dPolyline
 66
               1
 10
0.0
 20
0.0
 30
0.0
 70
               1
 75
               5
  0
VERTEX
  5
2B9
100
AcDbEntity
  8
一般
370
               5
  6
Continuous
 62
               7
100
AcDbVertex
100
AcDb2dVertex
 10
303.71547333709384
 20
48.0
 30
0.0
  0
VERTEX
  5
2BA
100
AcDbEntity
  8
一般
370
               5
  6
Continuous
 62
               7
100
AcDbVertex
100
AcDb2dVertex
 10
304.21547333709384
 20
48.0
 30
0.0
  0
VERTEX
  5
2BB
100
AcDbEntity
  8
一般
370
               5
  6
Continuous
 62
               7
100
AcDbVertex
100
AcDb2dVertex
 10
304.21547333709384
 20
44.5
 30
0.0
  0
VERTEX
  5
2BC
100
AcDbEntity
  8
一般
370
               5
  6
Continuous
 62
               7
100
AcDbVertex
100
AcDb2dVertex
 10
303.71547333709384
 20
44.5
 30
0.0
  0
SEQEND
  5
2BD
100
AcDbEntity
  8
一般
370
               5
  6
Continuous
 62
               7
  0
POLYLINE
  5
2BE
100
AcDbEntity
  8
一般
370
               5
  6
Continuous
 62
               7
100
AcDb2dPolyline
 66
               1
 10
0.0
 20
0.0
 30
0.0
 70
               1
 75
               5
  0
VERTEX
  5
2BF
100
AcDbEntity
  8
一般
370
               5
  6
Continuous
 62
               7
100
AcDbVertex
100
AcDb2dVertex
 10
303.71547333709384
 20
41.5
 30
0.0
  0
VERTEX
  5
2C0
100
AcDbEntity
  8
一般
370
               5
  6
Continuous
 62
               7
100
AcDbVertex
100
AcDb2dVertex
 10
304.21547333709384
 20
41.5
 30
0.0
  0
VERTEX
  5
2C1
100
AcDbEntity
  8
一般
370
               5
  6
Continuous
 62
               7
100
AcDbVertex
100
AcDb2dVertex
 10
304.21547333709384
 20
38.0
 30
0.0
  0
VERTEX
  5
2C2
100
AcDbEntity
  8
一般
370
               5
  6
Continuous
 62
               7
100
AcDbVertex
100
AcDb2dVertex
 10
303.71547333709384
 20
38.0
 30
0.0
  0
SEQEND
  5
2C3
100
AcDbEntity
  8
一般
370
               5
  6
Continuous
 62
               7
  0
POLYLINE
  5
2C4
100
AcDbEntity
  8
一般
370
               5
  6
Continuous
 62
               7
100
AcDb2dPolyline
 66
               1
 10
0.0
 20
0.0
 30
0.0
 70
               1
 75
               5
  0
VERTEX
  5
2C5
100
AcDbEntity
  8
一般
370
               5
  6
Continuous
 62
               7
100
AcDbVertex
100
AcDb2dVertex
 10
303.71547333709384
 20
35.0
 30
0.0
  0
VERTEX
  5
2C6
100
AcDbEntity
  8
一般
370
               5
  6
Continuous
 62
               7
100
AcDbVertex
100
AcDb2dVertex
 10
304.21547333709384
 20
35.0
 30
0.0
  0
VERTEX
  5
2C7
100
AcDbEntity
  8
一般
370
               5
  6
Continuous
 62
               7
100
AcDbVertex
100
AcDb2dVertex
 10
304.21547333709384
 20
31.5
 30
0.0
  0
VERTEX
  5
2C8
100
AcDbEntity
  8
一般
370
               5
  6
Continuous
 62
               7
100
AcDbVertex
100
AcDb2dVertex
 10
303.71547333709384
 20
31.5
 30
0.0
  0
SEQEND
  5
2C9
100
AcDbEntity
  8
一般
370
               5
  6
Continuous
 62
               7
  0
POLYLINE
  5
2CA
100
AcDbEntity
  8
一般
370
               5
  6
Continuous
 62
               7
100
AcDb2dPolyline
 66
               1
 10
0.0
 20
0.0
 30
0.0
 70
               1
 75
               5
  0
VERTEX
  5
2CB
100
AcDbEntity
  8
一般
370
               5
  6
Continuous
 62
               7
100
AcDbVertex
100
AcDb2dVertex
 10
303.71547333709384
 20
28.5
 30
0.0
  0
VERTEX
  5
2CC
100
AcDbEntity
  8
一般
370
               5
  6
Continuous
 62
               7
100
AcDbVertex
100
AcDb2dVertex
 10
304.21547333709384
 20
28.5
 30
0.0
  0
VERTEX
  5
2CD
100
AcDbEntity
  8
一般
370
               5
  6
Continuous
 62
               7
100
AcDbVertex
100
AcDb2dVertex
 10
304.21547333709384
 20
25.0
 30
0.0
  0
VERTEX
  5
2CE
100
AcDbEntity
  8
一般
370
               5
  6
Continuous
 62
               7
100
AcDbVertex
100
AcDb2dVertex
 10
303.71547333709384
 20
25.0
 30
0.0
  0
SEQEND
  5
2CF
100
AcDbEntity
  8
一般
370
               5
  6
Continuous
 62
               7
  0
POLYLINE
  5
2D0
100
AcDbEntity
  8
一般
370
               5
  6
Continuous
 62
               7
100
AcDb2dPolyline
 66
               1
 10
0.0
 20
0.0
 30
0.0
 70
               1
 75
               5
  0
VERTEX
  5
2D1
100
AcDbEntity
  8
一般
370
               5
  6
Continuous
 62
               7
100
AcDbVertex
100
AcDb2dVertex
 10
303.71547333709384
 20
22.0
 30
0.0
  0
VERTEX
  5
2D2
100
AcDbEntity
  8
一般
370
               5
  6
Continuous
 62
               7
100
AcDbVertex
100
AcDb2dVertex
 10
304.21547333709384
 20
22.0
 30
0.0
  0
VERTEX
  5
2D3
100
AcDbEntity
  8
一般
370
               5
  6
Continuous
 62
               7
100
AcDbVertex
100
AcDb2dVertex
 10
304.21547333709384
 20
18.5
 30
0.0
  0
VERTEX
  5
2D4
100
AcDbEntity
  8
一般
370
               5
  6
Continuous
 62
               7
100
AcDbVertex
100
AcDb2dVertex
 10
303.71547333709384
 20
18.5
 30
0.0
  0
SEQEND
  5
2D5
100
AcDbEntity
  8
一般
370
               5
  6
Continuous
 62
               7
  0
POLYLINE
  5
2D6
100
AcDbEntity
  8
一般
370
               5
  6
Continuous
 62
               7
100
AcDb2dPolyline
 66
               1
 10
0.0
 20
0.0
 30
0.0
 70
               1
 75
               5
  0
VERTEX
  5
2D7
100
AcDbEntity
  8
一般
370
               5
  6
Continuous
 62
               7
100
AcDbVertex
100
AcDb2dVertex
 10
303.71547333709384
 20
15.5
 30
0.0
  0
VERTEX
  5
2D8
100
AcDbEntity
  8
一般
370
               5
  6
Continuous
 62
               7
100
AcDbVertex
100
AcDb2dVertex
 10
304.21547333709384
 20
15.5
 30
0.0
  0
VERTEX
  5
2D9
100
AcDbEntity
  8
一般
370
               5
  6
Continuous
 62
               7
100
AcDbVertex
100
AcDb2dVertex
 10
304.21547333709384
 20
12.0
 30
0.0
  0
VERTEX
  5
2DA
100
AcDbEntity
  8
一般
370
               5
  6
Continuous
 62
               7
100
AcDbVertex
100
AcDb2dVertex
 10
303.71547333709384
 20
12.0
 30
0.0
  0
SEQEND
  5
2DB
100
AcDbEntity
  8
一般
370
               5
  6
Continuous
 62
               7
  0
POLYLINE
  5
2DC
100
AcDbEntity
  8
一般
370
               5
  6
Continuous
 62
               7
100
AcDb2dPolyline
 66
               1
 10
0.0
 20
0.0
 30
0.0
 70
               1
 75
               5
  0
VERTEX
  5
2DD
100
AcDbEntity
  8
一般
370
               5
  6
Continuous
 62
               7
100
AcDbVertex
100
AcDb2dVertex
 10
303.71547333709384
 20
9.0
 30
0.0
  0
VERTEX
  5
2DE
100
AcDbEntity
  8
一般
370
               5
  6
Continuous
 62
               7
100
AcDbVertex
100
AcDb2dVertex
 10
304.21547333709384
 20
9.0
 30
0.0
  0
VERTEX
  5
2DF
100
AcDbEntity
  8
一般
370
               5
  6
Continuous
 62
               7
100
AcDbVertex
100
AcDb2dVertex
 10
304.21547333709384
 20
5.5
 30
0.0
  0
VERTEX
  5
2E0
100
AcDbEntity
  8
一般
370
               5
  6
Continuous
 62
               7
100
AcDbVertex
100
AcDb2dVertex
 10
303.71547333709384
 20
5.5
 30
0.0
  0
SEQEND
  5
2E1
100
AcDbEntity
  8
一般
370
               5
  6
Continuous
 62
               7
  0
POLYLINE
  5
2E2
100
AcDbEntity
  8
一般
370
               5
  6
Continuous
 62
               7
100
AcDb2dPolyline
 66
               1
 10
0.0
 20
0.0
 30
0.0
 70
               1
 75
               5
  0
VERTEX
  5
2E3
100
AcDbEntity
  8
一般
370
               5
  6
Continuous
 62
               7
100
AcDbVertex
100
AcDb2dVertex
 10
303.71547333709384
 20
2.5
 30
0.0
  0
VERTEX
  5
2E4
100
AcDbEntity
  8
一般
370
               5
  6
Continuous
 62
               7
100
AcDbVertex
100
AcDb2dVertex
 10
304.21547333709384
 20
2.5
 30
0.0
  0
VERTEX
  5
2E5
100
AcDbEntity
  8
一般
370
               5
  6
Continuous
 62
               7
100
AcDbVertex
100
AcDb2dVertex
 10
304.21547333709384
 20
-1.0
 30
0.0
  0
VERTEX
  5
2E6
100
AcDbEntity
  8
一般
370
               5
  6
Continuous
 62
               7
100
AcDbVertex
100
AcDb2dVertex
 10
303.71547333709384
 20
-1.0
 30
0.0
  0
SEQEND
  5
2E7
100
AcDbEntity
  8
一般
370
               5
  6
Continuous
 62
               7
  0
LWPOLYLINE
  5
2E8
100
AcDbEntity
  8
一般
370
              15
  6
Continuous
 62
               7
100
AcDbPolyline
 90
        8
 70
             129
 10
281.46547333709373
 20
-130.0
 10
283.71547333709373
 20
-115.0
 10
283.71547333709373
 20
64.0
 42
-0.414213562373095
 10
284.71547333709373
 20
65.0
 10
302.71547333709384
 20
65.0
 42
-0.414213562373095
 10
303.71547333709384
 20
64.0
 10
303.71547333709384
 20
-115.0
 10
305.9654733370939
 20
-130.0
  0
LINE
  5
2E9
100
AcDbEntity
  8
一般
370
              15
  6
Continuous
 62
               7
100
AcDbLine
 10
283.71547333709373
 20
63.0
 30
0.0
 11
303.71547333709384
 21
63.0
 31
0.0
  0
POLYLINE
  5
2EA
100
AcDbEntity
  8
一般
370
              15
  6
Continuous
 62
               7
100
AcDb2dPolyline
 66
               1
 10
0.0
 20
0.0
 30
0.0
 70
               1
 75
               5
  0
VERTEX
  5
2EB
100
AcDbEntity
  8
一般
370
              15
  6
Continuous
 62
               7
100
AcDbVertex
100
AcDb2dVertex
 10
281.46547333709373
 20
-128.0
 30
0.0
  0
VERTEX
  5
2EC
100
AcDbEntity
  8
一般
370
              15
  6
Continuous
 62
               7
100
AcDbVertex
100
AcDb2dVertex
 10
305.9654733370939
 20
-128.0
 30
0.0
  0
VERTEX
  5
2ED
100
AcDbEntity
  8
一般
370
              15
  6
Continuous
 62
               7
100
AcDbVertex
100
AcDb2dVertex
 10
305.9654733370939
 20
-130.0
 30
0.0
  0
VERTEX
  5
2EE
100
AcDbEntity
  8
一般
370
              15
  6
Continuous
 62
               7
100
AcDbVertex
100
AcDb2dVertex
 10
281.46547333709373
 20
-130.0
 30
0.0
  0
SEQEND
  5
2EF
100
AcDbEntity
  8
一般
370
              15
  6
Continuous
 62
               7
  0
LINE
  5
2F0
100
AcDbEntity
  8
一般
370
               5
  6
Continuous
 62
               7
100
AcDbLine
 10
283.71547333709373
 20
-115.0
 30
0.0
 11
283.71547333709373
 21
-130.0
 31
0.0
  0
LINE
  5
2F1
100
AcDbEntity
  8
一般
370
               5
  6
Continuous
 62
               7
100
AcDbLine
 10
303.71547333709384
 20
-115.0
 30
0.0
 11
303.71547333709384
 21
-130.0
 31
0.0
  0
LINE
  5
2F2
100
AcDbEntity
  8
一般
370
               5
  6
Continuous
 62
               7
100
AcDbLine
 10
283.71547333709373
 20
-115.0
 30
0.0
 11
283.71547333709373
 21
-130.0
 31
0.0
  0
LINE
  5
2F3
100
AcDbEntity
  8
一般
370
               5
  6
Continuous
 62
               7
100
AcDbLine
 10
303.71547333709384
 20
-115.0
 30
0.0
 11
303.71547333709384
 21
-130.0
 31
0.0
  0
LWPOLYLINE
  5
2F4
100
AcDbEntity
  8
DEFAULT
370
               5
  6
STYLE_06
 62
               7
100
AcDbPolyline
 90
        5
 70
             128
 10
258.19999999999999
 20
-185.39525715909878
 10
258.19999999999999
 20
-785.02742449797142
 42
0.414213562373095
 10
275.95773666854689
 20
-802.78516116651826
 42
0.4149182598200312
 10
293.67275913172438
 20
-785.02747587011447
 10
292.13564714976354
 20
-145.99999999999994
  0
ENDBLK
  5
2F5
100
AcDbEntity
  8
LAYER1
100
AcDbBlockEnd
  0
ENDSEC
  0
SECTION
  2
ENTITIES
  0
MTEXT
  5
2F6
100
AcDbEntity
  8
一般
 62
               7
100
AcDbMText
 10
551.93248654052172
 20
1007.456622392819
 30
0.0
 40
70.739293981481481
 41
878.06751345947828
 71
               1
 72
               1
  1
CS1-5{\H0.9659x;\l8}01
  7
Arial
 73
               1
 44
0.9673603504928806
  0
LINE
  5
2F7
100
AcDbEntity
  8
一般
370
              50
  6
Continuous
 62
               7
100
AcDbLine
 10
-200.0
 20
-753.98874508339702
 30
0.0
 11
-200.0
 21
-329.0
 31
0.0
  0
LINE
  5
2F8
100
AcDbEntity
  8
一般
370
              50
  6
Continuous
 62
               7
100
AcDbLine
 10
-200.0
 20
-529.0
 30
0.0
 11
-200.0
 21
690.0
 31
0.0
  0
LINE
  5
2F9
100
AcDbEntity
  8
LAYER1
370
               5
  6
Continuous
 62
             250
100
AcDbLine
 10
-6.5582188640205032
 20
6.5582188640205459
 30
0.0
 11
223.44178113597951
 21
6.5582188640205459
 31
0.0
  0
SOLID
  5
2FA
100
AcDbEntity
  8
LAYER1
370
               5
 62
             250
100
AcDbTrace
 10
-6.5582188640205032
 20
6.5582188640205459
 30
0.0
 11
25.191781135979497
 21
15.0656057237087
 31
0.0
 12
25.191781135979497
 22
-1.949167995667608
 32
0.0
 13
25.191781135979497
 23
-1.949167995667608
 33
0.0
  0
INSERT
  5
2FB
100
AcDbEntity
  8
LAYER1
 62
               7
100
AcDbBlockReference
  2
グループ
 10
105.8
 20
148.0
 30
0.0
  0
INSERT
  5
2FC
100
AcDbEntity
  8
LAYER1
 62
               7
100
AcDbBlockReference
  2
グループ-1
 10
105.8
 20
148.0
 30
0.0
  0
INSERT
  5
2FD
100
AcDbEntity
  8
LAYER1
 62
               7
100
AcDbBlockReference
  2
グループ-2
 10
105.8
 20
148.0
 30
0.0
  0
INSERT
  5
2FE
100
AcDbEntity
  8
LAYER1
 62
               7
100
AcDbBlockReference
  2
グループ-4
 10
105.8
 20
148.0
 30
0.0
  0
ENDSEC
  0
SECTION
  2
OBJECTS
  0
DICTIONARY
  5
19
100
AcDbDictionary
280
               0
281
               1
  3
ACAD_GROUP
350
1A
  3
ACAD_MLINESTYLE
350
1B
  3
ACAD_LAYOUT
350
1E
  3
ACAD_PLOTSETTINGS
350
22
  3
ACAD_PLOTSTYLENAME
350
1F
  3
ACAD_WIPEOUT_VARS
350
23
  0
DICTIONARY
  5
1A
102
{ACAD_REACTORS
330
19
102
}
100
AcDbDictionary
280
               0
281
               1
  0
DICTIONARY
  5
1B
102
{ACAD_REACTORS
330
19
102
}
100
AcDbDictionary
280
               0
281
               1
  3
Standard
350
1C
  0
MLINESTYLE
  5
1C
102
{ACAD_REACTORS
330
1B
102
}
100
AcDbMlineStyle
  2
Standard
 70
               0
  3

 62
               0
 51
90.0
 52
90.0
 71
               2
 49
0.5
 62
             256
  6
ByLayer
 49
-0.5
 62
             256
  6
ByLayer
  0
ACDBDICTIONARYWDFLT
  5
1F
102
{ACAD_REACTORS
330
19
102
}
100
AcDbDictionary
281
               1
  3
Normal
350
1D
100
AcDbDictionaryWithDefault
340
1D
  0
ACDBPLACEHOLDER
  5
1D
102
{ACAD_REACTORS
330
1F
102
}
  0
LAYOUT
  5
20
102
{ACAD_REACTORS
330
1E
102
}
100
AcDbPlotSettings
  1

  2

  4

  6

 40
0.0
 41
0.0
 42
0.0
 43
0.0
 44
0.0
 45
0.0
 46
0.0
 47
0.0
 48
0.0
 49
0.0
140
0.0
141
0.0
142
1.0
143
1.0
 70
            1024
 72
               0
 73
               0
 74
               0
  7

 75
               0
147
1.0
148
0.0
149
0.0
100
AcDbLayout
  1
Model
 70
               0
 71
               0
 10
0.0
 20
0.0
 11
0.0
 21
0.0
 12
0.0
 22
0.0
 32
0.0
 14
0.0
 24
0.0
 34
0.0
 15
0.0
 25
0.0
 35
0.0
146
0.0
 13
0.0
 23
0.0
 33
0.0
 16
0.0
 26
0.0
 36
0.0
 17
0.0
 27
0.0
 37
0.0
 76
               0
330
A
331
0
345
0
346
0
  0
LAYOUT
  5
21
102
{ACAD_REACTORS
330
1E
102
}
100
AcDbPlotSettings
  1

  2

  4

  6

 40
0.0
 41
0.0
 42
0.0
 43
0.0
 44
0.0
 45
0.0
 46
0.0
 47
0.0
 48
0.0
 49
0.0
140
0.0
141
0.0
142
1.0
143
1.0
 70
               0
 72
               0
 73
               0
 74
               0
  7

 75
               0
147
1.0
148
0.0
149
0.0
100
AcDbLayout
  1
Layout1
 70
               0
 71
               0
 10
0.0
 20
0.0
 11
0.0
 21
0.0
 12
0.0
 22
0.0
 32
0.0
 14
0.0
 24
0.0
 34
0.0
 15
0.0
 25
0.0
 35
0.0
146
0.0
 13
0.0
 23
0.0
 33
0.0
 16
0.0
 26
0.0
 36
0.0
 17
0.0
 27
0.0
 37
0.0
 76
               0
330
B
331
0
345
0
346
0
  0
DICTIONARY
  5
1E
102
{ACAD_REACTORS
330
19
102
}
100
AcDbDictionary
280
               0
281
               1
  3
Layout1
350
21
  3
Model
350
20
  0
DICTIONARY
  5
22
102
{ACAD_REACTORS
330
19
102
}
100
AcDbDictionary
280
               0
281
               1
  0
WIPEOUTVARIABLES
  5
23
100
AcDbWipeoutVariables
 70
               0
  0
ENDSEC
  0
EOF
