  0
SECTION
  2
HEADER
  9
$ACADVER
  1
AC1015
  9
$ACADMAINTVER
 70
               6
  9
$DWGCODEPAGE
  3
ANSI_932
  9
$INSBASE
 10
0.0
 20
0.0
 30
0.0
  9
$EXTMIN
 10
-1299.2631920637168
 20
-759.55847043501171
 30
-14.834305555555554
  9
$EXTMAX
 10
998.40803348333861
 20
1091.5260193387958
 30
14.834305555555554
  9
$LIMMIN
 10
0.0
 20
0.0
  9
$LIMMAX
 10
0.0
 20
0.0
  9
$ORTHOMODE
 70
               0
  9
$REGENMODE
 70
               1
  9
$FILLMODE
 70
               1
  9
$QTEXTMODE
 70
               0
  9
$MIRRTEXT
 70
               1
  9
$LTSCALE
 40
50.799999999999997
  9
$ATTMODE
 70
               1
  9
$TEXTSIZE
 40
0.2
  9
$TRACEWID
 40
1.0
  9
$TEXTSTYLE
  7
Standard
  9
$CLAYER
  8
DEFAULT
  9
$CELTYPE
  6
Continuous
  9
$CECOLOR
 62
             256
  9
$CELTSCALE
 40
1.0
  9
$DISPSILH
 70
               0
  9
$DIMSCALE
 40
1.0
  9
$DIMASZ
 40
0.18
  9
$DIMEXO
 40
0.0625
  9
$DIMDLI
 40
0.38
  9
$DIMRND
 40
0.0
  9
$DIMDLE
 40
0.0
  9
$DIMEXE
 40
0.18
  9
$DIMTP
 40
0.0
  9
$DIMTM
 40
0.0
  9
$DIMTXT
 40
0.18
  9
$DIMCEN
 40
0.09
  9
$DIMTSZ
 40
0.0
  9
$DIMTOL
 70
               0
  9
$DIMLIM
 70
               0
  9
$DIMTIH
 70
               1
  9
$DIMTOH
 70
               1
  9
$DIMSE1
 70
               0
  9
$DIMSE2
 70
               0
  9
$DIMTAD
 70
               0
  9
$DIMZIN
 70
               0
  9
$DIMBLK
  1

  9
$DIMASO
 70
               1
  9
$DIMSHO
 70
               1
  9
$DIMPOST
  1

  9
$DIMAPOST
  1

  9
$DIMALT
 70
               0
  9
$DIMALTD
 70
               2
  9
$DIMALTF
 40
25.399999999999999
  9
$DIMLFAC
 40
1.0
  9
$DIMTOFL
 70
               0
  9
$DIMTVP
 40
0.0
  9
$DIMTIX
 70
               0
  9
$DIMSOXD
 70
               0
  9
$DIMSAH
 70
               0
  9
$DIMBLK1
  1

  9
$DIMBLK2
  1

  9
$DIMSTYLE
  2
Standard
  9
$DIMCLRD
 70
               0
  9
$DIMCLRE
 70
               0
  9
$DIMCLRT
 70
               0
  9
$DIMTFAC
 40
1.0
  9
$DIMGAP
 40
0.09
  9
$DIMJUST
 70
               0
  9
$DIMSD1
 70
               0
  9
$DIMSD2
 70
               0
  9
$DIMTOLJ
 70
               1
  9
$DIMTZIN
 70
               0
  9
$DIMALTZ
 70
               0
  9
$DIMALTTZ
 70
               0
  9
$DIMUPT
 70
               0
  9
$DIMDEC
 70
               4
  9
$DIMTDEC
 70
               4
  9
$DIMALTU
 70
               2
  9
$DIMALTTD
 70
               2
  9
$DIMTXSTY
  7
Standard
  9
$DIMAUNIT
 70
               0
  9
$DIMADEC
 70
               0
  9
$DIMALTRND
 40
0.0
  9
$DIMAZIN
 70
               0
  9
$DIMDSEP
 70
               0
  9
$DIMATFIT
 70
               3
  9
$DIMFRAC
 70
               0
  9
$DIMLDRBLK
  1

  9
$DIMLUNIT
 70
               2
  9
$DIMLWD
 70
               0
  9
$DIMLWE
 70
               0
  9
$DIMTMOVE
 70
               0
  9
$LUNITS
 70
               2
  9
$LUPREC
 70
               4
  9
$SKETCHINC
 40
0.1
  9
$FILLETRAD
 40
0.0
  9
$AUNITS
 70
               0
  9
$AUPREC
 70
               0
  9
$MENU
  1
acad
  9
$ELEVATION
 40
0.0
  9
$PELEVATION
 40
0.0
  9
$THICKNESS
 40
0.0
  9
$LIMCHECK
 70
               0
  9
$CHAMFERA
 40
0.0
  9
$CHAMFERB
 40
0.0
  9
$CHAMFERC
 40
0.0
  9
$CHAMFERD
 40
0.0
  9
$SKPOLY
 70
               0
  9
$TDCREATE
 40
2457546.459120370
  9
$TDUCREATE
 40
0.000000000
  9
$TDUPDATE
 40
2457546.459120370
  9
$TDUUPDATE
 40
0.000000000
  9
$TDINDWG
 40
0.0000000000
  9
$TDUSRTIMER
 40
0.0000000000
  9
$USRTIMER
 70
               1
  9
$ANGBASE
 50
0.0
  9
$ANGDIR
 70
               0
  9
$PDMODE
 70
               1
  9
$PDSIZE
 40
-2.0
  9
$PLINEWID
 40
0.0
  9
$SPLFRAME
 70
               0
  9
$SPLINETYPE
 70
               6
  9
$SPLINESEGS
 70
               8
  9
$HANDSEED
  5
2C9
  9
$SURFTAB1
 70
               6
  9
$SURFTAB2
 70
               6
  9
$SURFTYPE
 70
               6
  9
$SURFU
 70
               6
  9
$SURFV
 70
               6
  9
$UCSBASE
  2

  9
$UCSNAME
  2

  9
$UCSORG
 10
0.0
 20
0.0
 30
0.0
  9
$UCSXDIR
 10
1.0
 20
0.0
 30
0.0
  9
$UCSYDIR
 10
0.0
 20
1.0
 30
0.0
  9
$UCSORTHOREF
  2

  9
$UCSORTHOVIEW
 70
               0
  9
$UCSORGTOP
 10
0.0
 20
0.0
 30
0.0
  9
$UCSORGBOTTOM
 10
0.0
 20
0.0
 30
0.0
  9
$UCSORGLEFT
 10
0.0
 20
0.0
 30
0.0
  9
$UCSORGRIGHT
 10
0.0
 20
0.0
 30
0.0
  9
$UCSORGFRONT
 10
0.0
 20
0.0
 30
0.0
  9
$UCSORGBACK
 10
0.0
 20
0.0
 30
0.0
  9
$PUCSBASE
  2

  9
$PUCSNAME
  2

  9
$PUCSORG
 10
0.0
 20
0.0
 30
0.0
  9
$PUCSXDIR
 10
1.0
 20
0.0
 30
0.0
  9
$PUCSYDIR
 10
0.0
 20
1.0
 30
0.0
  9
$PUCSORTHOREF
  2

  9
$PUCSORTHOVIEW
 70
               0
  9
$PUCSORGTOP
 10
0.0
 20
0.0
 30
0.0
  9
$PUCSORGBOTTOM
 10
0.0
 20
0.0
 30
0.0
  9
$PUCSORGLEFT
 10
0.0
 20
0.0
 30
0.0
  9
$PUCSORGRIGHT
 10
0.0
 20
0.0
 30
0.0
  9
$PUCSORGFRONT
 10
0.0
 20
0.0
 30
0.0
  9
$PUCSORGBACK
 10
0.0
 20
0.0
 30
0.0
  9
$USERI1
 70
               0
  9
$USERI2
 70
               0
  9
$USERI3
 70
               0
  9
$USERI4
 70
               0
  9
$USERI5
 70
               0
  9
$USERR1
 40
0.0
  9
$USERR2
 40
0.0
  9
$USERR3
 40
0.0
  9
$USERR4
 40
0.0
  9
$USERR5
 40
0.0
  9
$WORLDVIEW
 70
               1
  9
$SHADEDGE
 70
               3
  9
$SHADEDIF
 70
              70
  9
$TILEMODE
 70
               1
  9
$MAXACTVP
 70
              64
  9
$PINSBASE
 10
0.0
 20
0.0
 30
0.0
  9
$PLIMCHECK
 70
               0
  9
$PEXTMIN
 10
1.0000000000000000E+20
 20
1.0000000000000000E+20
 30
1.0000000000000000E+20
  9
$PEXTMAX
 10
-1.0000000000000000E+20
 20
-1.0000000000000000E+20
 30
-1.0000000000000000E+20
  9
$PLIMMIN
 10
0.0
 20
0.0
  9
$PLIMMAX
 10
12.0
 20
9.0
  9
$UNITMODE
 70
               0
  9
$VISRETAIN
 70
               0
  9
$PLINEGEN
 70
               1
  9
$PSLTSCALE
 70
               0
  9
$TREEDEPTH
 70
            3020
  9
$CMLSTYLE
  2
Standard
  9
$CMLJUST
 70
               0
  9
$CMLSCALE
 40
1.0
  9
$PROXYGRAPHICS
 70
               0
  9
$MEASUREMENT
 70
               1
  9
$CELWEIGHT
370
               0
  9
$ENDCAPS
280
               0
  9
$JOINSTYLE
280
               0
  9
$LWDISPLAY
290
               1
  9
$INSUNITS
 70
               4
  9
$HYPERLINKBASE
  1

  9
$STYLESHEET
  1

  9
$XEDIT
290
               1
  9
$CEPSNTYPE
380
               0
  9
$PSTYLEMODE
290
               1
  9
$FINGERPRINTGUID
  2

  9
$VERSIONGUID
  2

  9
$EXTNAMES
290
               1
  9
$PSVPSCALE
 40
0.0
  0
ENDSEC
  0
SECTION
  2
CLASSES
  0
CLASS
  1
LWPOLYLINE
  2
AcDbPolyline
  3
AutoCAD 2000
 90
        0
280
               0
281
               1
  0
CLASS
  1
IMAGE
  2
AcDbRasterImage
  3
ISM
 90
    32895
280
               0
281
               1
  0
CLASS
  1
OLE2FRAME
  2
AcDbOle2Frame
  3
AutoCAD 2000
 90
    32768
280
               0
281
               1
  0
CLASS
  1
HATCH
  2
AcDbHatch
  3
AutoCAD 2000
 90
    32768
280
               0
281
               1
  0
CLASS
  1
DICTIONARYVAR
  2
AcDbDictionaryVar
  3
AutoCAD 2000
 90
    32768
280
               0
281
               0
  0
CLASS
  1
RASTERVARIABLES
  2
AcDbRasterVariables
  3
ISM
 90
    32768
280
               0
281
               0
  0
CLASS
  1
IMAGEDEF
  2
AcDbRasterImageDef
  3
ISM
 90
    32768
280
               0
281
               0
  0
CLASS
  1
IMAGEDEF_REACTOR
  2
AcDbRasterImageDefReactor
  3
ISM
 90
    32769
280
               0
281
               0
  0
CLASS
  1
IDBUFFER
  2
AcDbIdBuffer
  3
AutoCAD 2000
 90
    32768
280
               0
281
               0
  0
CLASS
  1
SPATIAL_FILTER
  2
AcDbSpatialFilter
  3
AutoCAD 2000
 90
    32768
280
               0
281
               0
  0
CLASS
  1
XRECORD
  2
AcDbXrecord
  3
AutoCAD 2000
 90
    32768
280
               0
281
               0
  0
CLASS
  1
SORTENTSTABLE
  2
AcDbSortentsTable
  3
AutoCAD 2000
 90
    32768
280
               0
281
               0
  0
CLASS
  1
LAYER_INDEX
  2
AcDbLayerIndex
  3
AutoCAD 2000
 90
    32768
280
               0
281
               0
  0
CLASS
  1
SPATIAL_INDEX
  2
AcDbSpatialIndex
  3
AutoCAD 2000
 90
    32768
280
               0
281
               0
  0
CLASS
  1
OBJECT_PTR
  2
CAseDLPNTableRecord
  3
"ASE-LPNTableRecord"
 90
    32769
280
               0
281
               0
  0
CLASS
  1
LAYOUT
  2
AcDbLayout
  3
AutoCAD 2000
 90
        0
280
               0
281
               0
  0
CLASS
  1
PLOTSETTINGS
  2
AcDbPlotSettings
  3
AutoCAD 2000
 90
    32768
280
               0
281
               0
  0
CLASS
  1
ACDBDICTIONARYWDFLT
  2
AcDbDictionaryWithDefault
  3
AutoCAD 2000
 90
        0
280
               0
281
               0
  0
CLASS
  1
ACDBPLACEHOLDER
  2
AcDbPlaceHolder
  3
AutoCAD 2000
 90
        0
280
               0
281
               0
  0
CLASS
  1
VBA_PROJECT
  2
AcDbVbaProject
  3
acadvba
 90
    32768
280
               0
281
               0
  0
CLASS
  1
WIPEOUT
  2
AcDbWipeout
  3
WipeOut|AutoCAD Express Tool|expresstools@autodesk.com
 90
    32895
280
               0
281
               1
  0
CLASS
  1
WIPEOUTVARIABLES
  2
AcDbWipeoutVariables
  3
WipeOut|AutoCAD Express Tool|expresstools@autodesk.com
 90
        0
280
               0
281
               0
  0
CLASS
  1
RTEXT
  2
RText
  3
RText|AutoCAD Express Tool|expresstools@autodesk.com
 90
    32768
280
               0
281
               1
  0
CLASS
  1
ARCALIGNEDTEXT
  2
AcDbArcAlignedText
  3
ATEXT|AutoCAD Express Tool|expresstools@autodesk.com
 90
    32768
280
               0
281
               1
  0
ENDSEC
  0
SECTION
  2
TABLES
  0
TABLE
  2
VPORT
  5
7
100
AcDbSymbolTable
 70
               1
  0
VPORT
  5
15
100
AcDbSymbolTableRecord
100
AcDbViewportTableRecord
  2
*ACTIVE
 70
               0
 10
0.0
 20
0.0
 11
1.0
 21
1.0
 12
-150.42757929018899
 22
165.98377445189203
 13
0.0
 23
0.0
 14
1.0
 24
1.0
 15
0.0
 25
0.0
 16
0.0
 26
0.0
 36
1.0
 17
0.0
 27
0.0
 37
0.0
 40
1851.0844897738075
 41
0.688564
 42
50.0
 43
0.0
 44
0.0
 50
0.0
 51
0.0
 71
               0
 72
            2000
 73
               1
 74
               1
 75
               0
 76
               0
 77
               0
 78
               0
281
               0
 65
               0
110
0.0
120
0.0
130
0.0
111
1.0
121
0.0
131
0.0
112
0.0
122
1.0
132
0.0
345
0
346
0
 79
               0
146
0.0
  0
ENDTAB
  0
TABLE
  2
LTYPE
  5
4
100
AcDbSymbolTable
 70
              16
  0
LTYPE
  5
11
100
AcDbSymbolTableRecord
100
AcDbLinetypeTableRecord
  2
ByBlock
 70
              64
  3

 72
              65
 73
               0
 40
0.0
  0
LTYPE
  5
12
100
AcDbSymbolTableRecord
100
AcDbLinetypeTableRecord
  2
ByLayer
 70
              64
  3

 72
              65
 73
               0
 40
0.0
  0
LTYPE
  5
13
100
AcDbSymbolTableRecord
100
AcDbLinetypeTableRecord
  2
Continuous
 70
              64
  3
Solid line
 72
              65
 73
               0
 40
0.0
  0
LTYPE
  5
2F
100
AcDbSymbolTableRecord
100
AcDbLinetypeTableRecord
  2
STYLE_01
 70
               0
  3

 72
              65
 73
               4
 40
2.8125
 49
1.875
 74
               0
 49
-0.3125
 74
               0
 49
0.3125
 74
               0
 49
-0.3125
 74
               0
  0
LTYPE
  5
30
100
AcDbSymbolTableRecord
100
AcDbLinetypeTableRecord
  2
STYLE_02
 70
               0
  3

 72
              65
 73
               2
 40
0.6944250000000001
 49
0.48607
 74
               0
 49
-0.2083550000000001
 74
               0
  0
LTYPE
  5
31
100
AcDbSymbolTableRecord
100
AcDbLinetypeTableRecord
  2
STYLE_03
 70
               0
  3

 72
              65
 73
               2
 40
1.25
 49
1.0416400000000001
 74
               0
 49
-0.2083599999999999
 74
               0
  0
LTYPE
  5
32
100
AcDbSymbolTableRecord
100
AcDbLinetypeTableRecord
  2
STYLE_04
 70
               0
  3

 72
              65
 73
               2
 40
1.5277099999999999
 49
1.3194249999999998
 74
               0
 49
-0.208285
 74
               0
  0
LTYPE
  5
33
100
AcDbSymbolTableRecord
100
AcDbLinetypeTableRecord
  2
STYLE_05
 70
               0
  3

 72
              65
 73
               2
 40
0.20828
 49
0.069425
 74
               0
 49
-0.138855
 74
               0
  0
LTYPE
  5
34
100
AcDbSymbolTableRecord
100
AcDbLinetypeTableRecord
  2
STYLE_06
 70
               0
  3

 72
              65
 73
               4
 40
1.0416400000000001
 49
0.625
 74
               0
 49
-0.20828
 74
               0
 49
0.06943
 74
               0
 49
-0.13893
 74
               0
  0
LTYPE
  5
35
100
AcDbSymbolTableRecord
100
AcDbLinetypeTableRecord
  2
STYLE_07
 70
               0
  3

 72
              65
 73
               6
 40
1.875
 49
0.625
 74
               0
 49
-0.20828
 74
               0
 49
0.6250000000000001
 74
               0
 49
-0.2083599999999999
 74
               0
 49
0.06943
 74
               0
 49
-0.1389299999999999
 74
               0
  0
LTYPE
  5
36
100
AcDbSymbolTableRecord
100
AcDbLinetypeTableRecord
  2
STYLE_08
 70
               0
  3

 72
              65
 73
               6
 40
1.25
 49
0.625
 74
               0
 49
-0.20828
 74
               0
 49
0.06943
 74
               0
 49
-0.13893
 74
               0
 49
0.0694299999999999
 74
               0
 49
-0.13893
 74
               0
  0
LTYPE
  5
37
100
AcDbSymbolTableRecord
100
AcDbLinetypeTableRecord
  2
STYLE_09
 70
               0
  3

 72
              65
 73
               4
 40
5.0
 49
3.75
 74
               0
 49
-0.2777849999999998
 74
               0
 49
0.6944300000000003
 74
               0
 49
-0.2777849999999998
 74
               0
  0
LTYPE
  5
38
100
AcDbSymbolTableRecord
100
AcDbLinetypeTableRecord
  2
STYLE_10
 70
               0
  3

 72
              65
 73
               6
 40
5.9375
 49
3.75
 74
               0
 49
-0.2777849999999998
 74
               0
 49
0.6944300000000003
 74
               0
 49
-0.2777849999999998
 74
               0
 49
0.625
 74
               0
 49
-0.3125
 74
               0
  0
LTYPE
  5
39
100
AcDbSymbolTableRecord
100
AcDbLinetypeTableRecord
  2
STYLE_11
 70
               0
  3

 72
              65
 73
               2
 40
0.41664
 49
0.20828
 74
               0
 49
-0.20836
 74
               0
  0
LTYPE
  5
3A
100
AcDbSymbolTableRecord
100
AcDbLinetypeTableRecord
  2
STYLE_12
 70
               0
  3

 72
              65
 73
               4
 40
0.9646653543307084
 49
0.6029158464566929
 74
               0
 49
-0.1205831692913385
 74
               0
 49
0.1205831692913385
 74
               0
 49
-0.1205831692913385
 74
               0
  0
LTYPE
  5
3B
100
AcDbSymbolTableRecord
100
AcDbLinetypeTableRecord
  2
STYLE_13
 70
               0
  3

 72
              65
 73
               4
 40
0.3858661417322835
 49
0.2411663385826772
 74
               0
 49
-0.0482332677165354
 74
               0
 49
0.0482332677165355
 74
               0
 49
-0.0482332677165354
 74
               0
  0
ENDTAB
  0
TABLE
  2
LAYER
  5
2
100
AcDbSymbolTable
 70
              11
  0
LAYER
  5
14
100
AcDbSymbolTableRecord
100
AcDbLayerTableRecord
  2
0
 70
               0
 62
               7
  6
Continuous
290
               1
370
              15
390
1D
  0
LAYER
  5
3C
100
AcDbSymbolTableRecord
100
AcDbLayerTableRecord
  2
一般
 70
               0
 62
               7
  6
Continuous
290
               1
370
               5
390
1D
  0
LAYER
  5
3D
100
AcDbSymbolTableRecord
100
AcDbLayerTableRecord
  2
寸法
 70
               0
 62
               7
  6
Continuous
290
               1
370
               5
390
1D
  0
LAYER
  5
3E
100
AcDbSymbolTableRecord
100
AcDbLayerTableRecord
  2
KIKI
 70
               0
 62
               1
  6
Continuous
290
               1
370
              15
390
1D
  0
LAYER
  5
3F
100
AcDbSymbolTableRecord
100
AcDbLayerTableRecord
  2
1
 70
               0
 62
               7
  6
Continuous
290
               1
370
              15
390
1D
  0
LAYER
  5
40
100
AcDbSymbolTableRecord
100
AcDbLayerTableRecord
  2
dim
 70
               0
 62
               3
  6
Continuous
290
               1
370
              15
390
1D
  0
LAYER
  5
41
100
AcDbSymbolTableRecord
100
AcDbLayerTableRecord
  2
LAYER1
 70
               0
 62
               7
  6
Continuous
290
               1
370
              15
390
1D
  0
LAYER
  5
42
100
AcDbSymbolTableRecord
100
AcDbLayerTableRecord
  2
LAYER3
 70
               0
 62
               7
  6
Continuous
290
               1
370
              15
390
1D
  0
LAYER
  5
43
100
AcDbSymbolTableRecord
100
AcDbLayerTableRecord
  2
LAYER55
 70
               0
 62
               7
  6
Continuous
290
               1
370
              15
390
1D
  0
LAYER
  5
44
100
AcDbSymbolTableRecord
100
AcDbLayerTableRecord
  2
DEFAULT
 70
               0
 62
               7
  6
Continuous
290
               1
370
              15
390
1D
  0
LAYER
  5
45
100
AcDbSymbolTableRecord
100
AcDbLayerTableRecord
  2
DEFAULT_1
 70
               0
 62
               7
  6
STYLE_12
290
               1
370
              15
390
1D
  0
ENDTAB
  0
TABLE
  2
STYLE
  5
3
100
AcDbSymbolTable
 70
               2
  0
STYLE
  5
17
100
AcDbSymbolTableRecord
100
AcDbTextStyleTableRecord
  2
Standard
 70
               0
 40
0.0
 41
1.0
 50
0.0
 71
               0
 42
0.0
  3
txt
  4
BIGFONT.SHX
  0
STYLE
  5
2E
100
AcDbSymbolTableRecord
100
AcDbTextStyleTableRecord
  2
Arial
 70
               0
 40
0.0
 41
1.0
 50
0.0
 71
               0
 42
0.0
  3

  4
Arial
1001
ACAD
1000
Arial
1071
        0
  0
ENDTAB
  0
TABLE
  2
VIEW
  5
5
100
AcDbSymbolTable
 70
               0
  0
ENDTAB
  0
TABLE
  2
UCS
  5
6
100
AcDbSymbolTable
 70
               0
  0
ENDTAB
  0
TABLE
  2
APPID
  5
8
100
AcDbSymbolTable
 70
               1
  0
APPID
  5
16
100
AcDbSymbolTableRecord
100
AcDbRegAppTableRecord
  2
ACAD
 70
               0
  0
ENDTAB
  0
TABLE
  2
DIMSTYLE
  5
9
100
AcDbSymbolTable
 70
               1
100
AcDbDimStyleTable
 71
               0
  0
DIMSTYLE
105
18
100
AcDbSymbolTableRecord
100
AcDbDimStyleTableRecord
  2
Standard
 70
               0
  3

  4

 40
1.0
 41
0.18
 42
0.0625
 43
0.38
 44
0.18
 45
0.0
 46
0.0
 47
0.0
 48
0.0
 71
               0
 72
               0
 73
               1
 74
               1
 75
               0
 76
               0
 77
               0
 78
               0
 79
               0
140
0.18
141
0.09
142
0.0
143
25.399999999999999
144
1.0
145
0.0
146
1.0
147
0.09
148
0.0
170
               0
171
               2
172
               0
173
               0
174
               0
175
               0
176
               0
177
               0
178
               0
179
               0
271
               4
272
               4
273
               2
274
               2
275
               0
276
               0
277
               2
278
              46
279
               0
280
               0
281
               0
282
               0
283
               1
284
               0
285
               0
286
               0
288
               0
340
17
341
0
342
0
343
0
344
0
371
              -2
372
              -2
  0
ENDTAB
  0
TABLE
  2
BLOCK_RECORD
  5
1
100
AcDbSymbolTable
 70
              10
  0
BLOCK_RECORD
  5
A
100
AcDbSymbolTableRecord
100
AcDbBlockTableRecord
  2
*MODEL_SPACE
340
20
  0
BLOCK_RECORD
  5
B
100
AcDbSymbolTableRecord
100
AcDbBlockTableRecord
  2
*PAPER_SPACE
340
21
  0
BLOCK_RECORD
  5
24
100
AcDbSymbolTableRecord
100
AcDbBlockTableRecord
  2
グループ
340
0
102
{BLKREFS
331
10D
102
}
  0
BLOCK_RECORD
  5
25
100
AcDbSymbolTableRecord
100
AcDbBlockTableRecord
  2
グループ-1
340
0
102
{BLKREFS
331
10E
102
}
  0
BLOCK_RECORD
  5
26
100
AcDbSymbolTableRecord
100
AcDbBlockTableRecord
  2
グループ-2
340
0
102
{BLKREFS
331
10F
102
}
  0
BLOCK_RECORD
  5
27
100
AcDbSymbolTableRecord
100
AcDbBlockTableRecord
  2
グループ-3
340
0
102
{BLKREFS
331
2C7
102
}
  0
BLOCK_RECORD
  5
28
100
AcDbSymbolTableRecord
100
AcDbBlockTableRecord
  2
グループ-4
340
0
102
{BLKREFS
331
2C2
102
}
  0
BLOCK_RECORD
  5
29
100
AcDbSymbolTableRecord
100
AcDbBlockTableRecord
  2
グループ-5
340
0
102
{BLKREFS
331
2A0
102
}
  0
BLOCK_RECORD
  5
2A
100
AcDbSymbolTableRecord
100
AcDbBlockTableRecord
  2
グループ-6
340
0
102
{BLKREFS
331
2A1
102
}
  0
BLOCK_RECORD
  5
2B
100
AcDbSymbolTableRecord
100
AcDbBlockTableRecord
  2
グループ-7
340
0
102
{BLKREFS
331
2C3
102
}
  0
BLOCK_RECORD
  5
2C
100
AcDbSymbolTableRecord
100
AcDbBlockTableRecord
  2
グループ-8
340
0
102
{BLKREFS
331
2C4
102
}
  0
BLOCK_RECORD
  5
2D
100
AcDbSymbolTableRecord
100
AcDbBlockTableRecord
  2
グループ-9
340
0
102
{BLKREFS
331
2C8
102
}
  0
ENDTAB
  0
ENDSEC
  0
SECTION
  2
BLOCKS
  0
BLOCK
  5
D
100
AcDbEntity
  8
0
100
AcDbBlockBegin
  2
*MODEL_SPACE
 70
               0
 10
0.0
 20
0.0
 30
0.0
  3
*MODEL_SPACE
  1

  0
ENDBLK
  5
E
100
AcDbEntity
  8
0
100
AcDbBlockEnd
  0
BLOCK
  5
F
100
AcDbEntity
 67
               1
  8
0
100
AcDbBlockBegin
  2
*PAPER_SPACE
 70
               0
 10
0.0
 20
0.0
 30
0.0
  3
*PAPER_SPACE
  1

  0
ENDBLK
  5
10
100
AcDbEntity
 67
               1
  8
0
100
AcDbBlockEnd
  0
BLOCK
  5
46
100
AcDbEntity
  8
DEFAULT
100
AcDbBlockBegin
  2
グループ
 70
               0
 10
0.0
 20
0.0
 30
0.0
  3
グループ
  1

  0
ARC
  5
47
100
AcDbEntity
  8
一般
370
              15
  6
Continuous
 62
               7
100
AcDbCircle
 10
-965.25989120481984
 20
22.0
 30
0.0
 40
37.000000000000007
100
AcDbArc
 50
278.07396349465489
 51
262.54087019606328
  0
POLYLINE
  5
48
100
AcDbEntity
  8
一般
370
              15
  6
Continuous
 62
               7
100
AcDb2dPolyline
 66
               1
 10
0.0
 20
0.0
 30
0.0
 75
               5
  0
VERTEX
  5
49
100
AcDbEntity
  8
一般
370
              15
  6
Continuous
 62
               7
100
AcDbVertex
100
AcDb2dVertex
 10
-960.06319206371893
 20
-2.2766900475100975
 30
0.0
  0
VERTEX
  5
4A
100
AcDbEntity
  8
一般
370
              15
  6
Continuous
 62
               7
100
AcDbVertex
100
AcDb2dVertex
 10
-960.06319206371893
 20
-73.803300858899092
 30
0.0
  0
VERTEX
  5
4B
100
AcDbEntity
  8
一般
370
              15
  6
Continuous
 62
               7
100
AcDbVertex
100
AcDb2dVertex
 10
-970.06319206371893
 20
-73.803300858899092
 30
0.0
  0
VERTEX
  5
4C
100
AcDbEntity
  8
一般
370
              15
  6
Continuous
 62
               7
100
AcDbVertex
100
AcDb2dVertex
 10
-970.06319206371893
 20
-2.2766900475101011
 30
0.0
  0
SEQEND
  5
4D
100
AcDbEntity
  8
一般
370
              15
  6
Continuous
 62
               7
  0
CIRCLE
  5
4E
100
AcDbEntity
  8
一般
370
              15
  6
Continuous
 62
               7
100
AcDbCircle
 10
-965.06319206371893
 20
21.196699141100908
 30
0.0
 40
24.0
  0
ENDBLK
  5
4F
100
AcDbEntity
  8
DEFAULT
100
AcDbBlockEnd
  0
BLOCK
  5
50
100
AcDbEntity
  8
DEFAULT
100
AcDbBlockBegin
  2
グループ-1
 70
               0
 10
0.0
 20
0.0
 30
0.0
  3
グループ-1
  1

  0
POLYLINE
  5
51
100
AcDbEntity
  8
KIKI
370
               5
  6
STYLE_05
 62
               7
100
AcDb2dPolyline
 66
               1
 10
0.0
 20
0.0
 30
0.0
 70
               1
 75
               5
  0
VERTEX
  5
52
100
AcDbEntity
  8
KIKI
370
               5
  6
STYLE_05
 62
               7
100
AcDbVertex
100
AcDb2dVertex
 10
-1283.2598912048177
 20
-778.0
 30
0.0
  0
VERTEX
  5
53
100
AcDbEntity
  8
KIKI
370
               5
  6
STYLE_05
 62
               7
100
AcDbVertex
100
AcDb2dVertex
 10
-1247.2598912048177
 20
-778.0
 30
0.0
  0
VERTEX
  5
54
100
AcDbEntity
  8
KIKI
370
               5
  6
STYLE_05
 62
               7
100
AcDbVertex
100
AcDb2dVertex
 10
-1247.2598912048177
 20
-789.0
 30
0.0
  0
VERTEX
  5
55
100
AcDbEntity
  8
KIKI
370
               5
  6
STYLE_05
 62
               7
100
AcDbVertex
100
AcDb2dVertex
 10
-1283.2598912048177
 20
-789.0
 30
0.0
  0
SEQEND
  5
56
100
AcDbEntity
  8
KIKI
370
               5
  6
STYLE_05
 62
               7
  0
LINE
  5
57
100
AcDbEntity
  8
KIKI
370
               5
  6
STYLE_05
 62
               7
100
AcDbLine
 10
-1274.2598912048177
 20
-778.0
 30
0.0
 11
-1274.2598912048177
 21
-789.0
 31
0.0
  0
LINE
  5
58
100
AcDbEntity
  8
KIKI
370
               5
  6
STYLE_05
 62
               7
100
AcDbLine
 10
-1256.2598912048177
 20
-778.0
 30
0.0
 11
-1256.2598912048177
 21
-789.0
 31
0.0
  0
POLYLINE
  5
59
100
AcDbEntity
  8
KIKI
370
               5
  6
STYLE_05
 62
               7
100
AcDb2dPolyline
 66
               1
 10
0.0
 20
0.0
 30
0.0
 70
               1
 75
               5
  0
VERTEX
  5
5A
100
AcDbEntity
  8
KIKI
370
               5
  6
STYLE_05
 62
               7
100
AcDbVertex
100
AcDb2dVertex
 10
-1277.7598912048177
 20
-789.0
 30
0.0
  0
VERTEX
  5
5B
100
AcDbEntity
  8
KIKI
370
               5
  6
STYLE_05
 62
               7
100
AcDbVertex
100
AcDb2dVertex
 10
-1252.7598912048177
 20
-789.0
 30
0.0
  0
VERTEX
  5
5C
100
AcDbEntity
  8
KIKI
370
               5
  6
STYLE_05
 62
               7
100
AcDbVertex
100
AcDb2dVertex
 10
-1252.7598912048177
 20
-807.0
 30
0.0
  0
VERTEX
  5
5D
100
AcDbEntity
  8
KIKI
370
               5
  6
STYLE_05
 62
               7
100
AcDbVertex
100
AcDb2dVertex
 10
-1277.7598912048177
 20
-807.0
 30
0.0
  0
SEQEND
  5
5E
100
AcDbEntity
  8
KIKI
370
               5
  6
STYLE_05
 62
               7
  0
POLYLINE
  5
5F
100
AcDbEntity
  8
KIKI
370
               5
  6
STYLE_05
 62
               7
100
AcDb2dPolyline
 66
               1
 10
0.0
 20
0.0
 30
0.0
 70
               1
 75
               5
  0
VERTEX
  5
60
100
AcDbEntity
  8
KIKI
370
               5
  6
STYLE_05
 62
               7
100
AcDbVertex
100
AcDb2dVertex
 10
-1278.4712160702227
 20
-806.5
 30
0.0
  0
VERTEX
  5
61
100
AcDbEntity
  8
KIKI
370
               5
  6
STYLE_05
 62
               7
100
AcDbVertex
100
AcDb2dVertex
 10
-1251.4712160702227
 20
-806.5
 30
0.0
  0
VERTEX
  5
62
100
AcDbEntity
  8
KIKI
370
               5
  6
STYLE_05
 62
               7
100
AcDbVertex
100
AcDb2dVertex
 10
-1251.4712160702227
 20
-807.0
 30
0.0
  0
VERTEX
  5
63
100
AcDbEntity
  8
KIKI
370
               5
  6
STYLE_05
 62
               7
100
AcDbVertex
100
AcDb2dVertex
 10
-1278.4712160702227
 20
-807.0
 30
0.0
  0
SEQEND
  5
64
100
AcDbEntity
  8
KIKI
370
               5
  6
STYLE_05
 62
               7
  0
POLYLINE
  5
65
100
AcDbEntity
  8
KIKI
370
               5
  6
STYLE_05
 62
               7
100
AcDb2dPolyline
 66
               1
 10
0.0
 20
0.0
 30
0.0
 70
               1
 75
               5
  0
VERTEX
  5
66
100
AcDbEntity
  8
KIKI
370
               5
  6
STYLE_05
 62
               7
100
AcDbVertex
100
AcDb2dVertex
 10
-1278.4712160702227
 20
-805.51681799809296
 30
0.0
  0
VERTEX
  5
67
100
AcDbEntity
  8
KIKI
370
               5
  6
STYLE_05
 62
               7
100
AcDbVertex
100
AcDb2dVertex
 10
-1251.4712160702227
 20
-805.51681799809296
 30
0.0
  0
VERTEX
  5
68
100
AcDbEntity
  8
KIKI
370
               5
  6
STYLE_05
 62
               7
100
AcDbVertex
100
AcDb2dVertex
 10
-1251.4712160702227
 20
-806.01681799809296
 30
0.0
  0
VERTEX
  5
69
100
AcDbEntity
  8
KIKI
370
               5
  6
STYLE_05
 62
               7
100
AcDbVertex
100
AcDb2dVertex
 10
-1278.4712160702227
 20
-806.01681799809296
 30
0.0
  0
SEQEND
  5
6A
100
AcDbEntity
  8
KIKI
370
               5
  6
STYLE_05
 62
               7
  0
POLYLINE
  5
6B
100
AcDbEntity
  8
KIKI
370
               5
  6
STYLE_05
 62
               7
100
AcDb2dPolyline
 66
               1
 10
0.0
 20
0.0
 30
0.0
 70
               1
 75
               5
  0
VERTEX
  5
6C
100
AcDbEntity
  8
KIKI
370
               5
  6
STYLE_05
 62
               7
100
AcDbVertex
100
AcDb2dVertex
 10
-1278.4712160702227
 20
-804.53363599618592
 30
0.0
  0
VERTEX
  5
6D
100
AcDbEntity
  8
KIKI
370
               5
  6
STYLE_05
 62
               7
100
AcDbVertex
100
AcDb2dVertex
 10
-1251.4712160702227
 20
-804.53363599618592
 30
0.0
  0
VERTEX
  5
6E
100
AcDbEntity
  8
KIKI
370
               5
  6
STYLE_05
 62
               7
100
AcDbVertex
100
AcDb2dVertex
 10
-1251.4712160702227
 20
-805.03363599618592
 30
0.0
  0
VERTEX
  5
6F
100
AcDbEntity
  8
KIKI
370
               5
  6
STYLE_05
 62
               7
100
AcDbVertex
100
AcDb2dVertex
 10
-1278.4712160702227
 20
-805.03363599618592
 30
0.0
  0
SEQEND
  5
70
100
AcDbEntity
  8
KIKI
370
               5
  6
STYLE_05
 62
               7
  0
POLYLINE
  5
71
100
AcDbEntity
  8
KIKI
370
               5
  6
STYLE_05
 62
               7
100
AcDb2dPolyline
 66
               1
 10
0.0
 20
0.0
 30
0.0
 70
               1
 75
               5
  0
VERTEX
  5
72
100
AcDbEntity
  8
KIKI
370
               5
  6
STYLE_05
 62
               7
100
AcDbVertex
100
AcDb2dVertex
 10
-1278.4712160702227
 20
-803.55045399427888
 30
0.0
  0
VERTEX
  5
73
100
AcDbEntity
  8
KIKI
370
               5
  6
STYLE_05
 62
               7
100
AcDbVertex
100
AcDb2dVertex
 10
-1251.4712160702227
 20
-803.55045399427888
 30
0.0
  0
VERTEX
  5
74
100
AcDbEntity
  8
KIKI
370
               5
  6
STYLE_05
 62
               7
100
AcDbVertex
100
AcDb2dVertex
 10
-1251.4712160702227
 20
-804.05045399427888
 30
0.0
  0
VERTEX
  5
75
100
AcDbEntity
  8
KIKI
370
               5
  6
STYLE_05
 62
               7
100
AcDbVertex
100
AcDb2dVertex
 10
-1278.4712160702227
 20
-804.05045399427888
 30
0.0
  0
SEQEND
  5
76
100
AcDbEntity
  8
KIKI
370
               5
  6
STYLE_05
 62
               7
  0
POLYLINE
  5
77
100
AcDbEntity
  8
KIKI
370
               5
  6
STYLE_05
 62
               7
100
AcDb2dPolyline
 66
               1
 10
0.0
 20
0.0
 30
0.0
 70
               1
 75
               5
  0
VERTEX
  5
78
100
AcDbEntity
  8
KIKI
370
               5
  6
STYLE_05
 62
               7
100
AcDbVertex
100
AcDb2dVertex
 10
-1278.4712160702227
 20
-802.56727199237184
 30
0.0
  0
VERTEX
  5
79
100
AcDbEntity
  8
KIKI
370
               5
  6
STYLE_05
 62
               7
100
AcDbVertex
100
AcDb2dVertex
 10
-1251.4712160702227
 20
-802.56727199237184
 30
0.0
  0
VERTEX
  5
7A
100
AcDbEntity
  8
KIKI
370
               5
  6
STYLE_05
 62
               7
100
AcDbVertex
100
AcDb2dVertex
 10
-1251.4712160702227
 20
-803.06727199237184
 30
0.0
  0
VERTEX
  5
7B
100
AcDbEntity
  8
KIKI
370
               5
  6
STYLE_05
 62
               7
100
AcDbVertex
100
AcDb2dVertex
 10
-1278.4712160702227
 20
-803.06727199237184
 30
0.0
  0
SEQEND
  5
7C
100
AcDbEntity
  8
KIKI
370
               5
  6
STYLE_05
 62
               7
  0
POLYLINE
  5
7D
100
AcDbEntity
  8
KIKI
370
               5
  6
STYLE_05
 62
               7
100
AcDb2dPolyline
 66
               1
 10
0.0
 20
0.0
 30
0.0
 70
               1
 75
               5
  0
VERTEX
  5
7E
100
AcDbEntity
  8
KIKI
370
               5
  6
STYLE_05
 62
               7
100
AcDbVertex
100
AcDb2dVertex
 10
-1278.4712160702227
 20
-801.5840899904648
 30
0.0
  0
VERTEX
  5
7F
100
AcDbEntity
  8
KIKI
370
               5
  6
STYLE_05
 62
               7
100
AcDbVertex
100
AcDb2dVertex
 10
-1251.4712160702227
 20
-801.5840899904648
 30
0.0
  0
VERTEX
  5
80
100
AcDbEntity
  8
KIKI
370
               5
  6
STYLE_05
 62
               7
100
AcDbVertex
100
AcDb2dVertex
 10
-1251.4712160702227
 20
-802.0840899904648
 30
0.0
  0
VERTEX
  5
81
100
AcDbEntity
  8
KIKI
370
               5
  6
STYLE_05
 62
               7
100
AcDbVertex
100
AcDb2dVertex
 10
-1278.4712160702227
 20
-802.0840899904648
 30
0.0
  0
SEQEND
  5
82
100
AcDbEntity
  8
KIKI
370
               5
  6
STYLE_05
 62
               7
  0
POLYLINE
  5
83
100
AcDbEntity
  8
KIKI
370
               5
  6
STYLE_05
 62
               7
100
AcDb2dPolyline
 66
               1
 10
0.0
 20
0.0
 30
0.0
 70
               1
 75
               5
  0
VERTEX
  5
84
100
AcDbEntity
  8
KIKI
370
               5
  6
STYLE_05
 62
               7
100
AcDbVertex
100
AcDb2dVertex
 10
-1278.4712160702227
 20
-800.60090798855776
 30
0.0
  0
VERTEX
  5
85
100
AcDbEntity
  8
KIKI
370
               5
  6
STYLE_05
 62
               7
100
AcDbVertex
100
AcDb2dVertex
 10
-1251.4712160702227
 20
-800.60090798855776
 30
0.0
  0
VERTEX
  5
86
100
AcDbEntity
  8
KIKI
370
               5
  6
STYLE_05
 62
               7
100
AcDbVertex
100
AcDb2dVertex
 10
-1251.4712160702227
 20
-801.10090798855776
 30
0.0
  0
VERTEX
  5
87
100
AcDbEntity
  8
KIKI
370
               5
  6
STYLE_05
 62
               7
100
AcDbVertex
100
AcDb2dVertex
 10
-1278.4712160702227
 20
-801.10090798855776
 30
0.0
  0
SEQEND
  5
88
100
AcDbEntity
  8
KIKI
370
               5
  6
STYLE_05
 62
               7
  0
POLYLINE
  5
89
100
AcDbEntity
  8
KIKI
370
               5
  6
STYLE_05
 62
               7
100
AcDb2dPolyline
 66
               1
 10
0.0
 20
0.0
 30
0.0
 70
               1
 75
               5
  0
VERTEX
  5
8A
100
AcDbEntity
  8
KIKI
370
               5
  6
STYLE_05
 62
               7
100
AcDbVertex
100
AcDb2dVertex
 10
-1278.4712160702227
 20
-799.61772598665073
 30
0.0
  0
VERTEX
  5
8B
100
AcDbEntity
  8
KIKI
370
               5
  6
STYLE_05
 62
               7
100
AcDbVertex
100
AcDb2dVertex
 10
-1251.4712160702227
 20
-799.61772598665073
 30
0.0
  0
VERTEX
  5
8C
100
AcDbEntity
  8
KIKI
370
               5
  6
STYLE_05
 62
               7
100
AcDbVertex
100
AcDb2dVertex
 10
-1251.4712160702227
 20
-800.11772598665073
 30
0.0
  0
VERTEX
  5
8D
100
AcDbEntity
  8
KIKI
370
               5
  6
STYLE_05
 62
               7
100
AcDbVertex
100
AcDb2dVertex
 10
-1278.4712160702227
 20
-800.11772598665073
 30
0.0
  0
SEQEND
  5
8E
100
AcDbEntity
  8
KIKI
370
               5
  6
STYLE_05
 62
               7
  0
POLYLINE
  5
8F
100
AcDbEntity
  8
KIKI
370
               5
  6
STYLE_05
 62
               7
100
AcDb2dPolyline
 66
               1
 10
0.0
 20
0.0
 30
0.0
 70
               1
 75
               5
  0
VERTEX
  5
90
100
AcDbEntity
  8
KIKI
370
               5
  6
STYLE_05
 62
               7
100
AcDbVertex
100
AcDb2dVertex
 10
-1278.4712160702227
 20
-798.63454398474369
 30
0.0
  0
VERTEX
  5
91
100
AcDbEntity
  8
KIKI
370
               5
  6
STYLE_05
 62
               7
100
AcDbVertex
100
AcDb2dVertex
 10
-1251.4712160702227
 20
-798.63454398474369
 30
0.0
  0
VERTEX
  5
92
100
AcDbEntity
  8
KIKI
370
               5
  6
STYLE_05
 62
               7
100
AcDbVertex
100
AcDb2dVertex
 10
-1251.4712160702227
 20
-799.13454398474369
 30
0.0
  0
VERTEX
  5
93
100
AcDbEntity
  8
KIKI
370
               5
  6
STYLE_05
 62
               7
100
AcDbVertex
100
AcDb2dVertex
 10
-1278.4712160702227
 20
-799.13454398474369
 30
0.0
  0
SEQEND
  5
94
100
AcDbEntity
  8
KIKI
370
               5
  6
STYLE_05
 62
               7
  0
POLYLINE
  5
95
100
AcDbEntity
  8
KIKI
370
               5
  6
STYLE_05
 62
               7
100
AcDb2dPolyline
 66
               1
 10
0.0
 20
0.0
 30
0.0
 70
               1
 75
               5
  0
VERTEX
  5
96
100
AcDbEntity
  8
KIKI
370
               5
  6
STYLE_05
 62
               7
100
AcDbVertex
100
AcDb2dVertex
 10
-1278.4712160702227
 20
-797.65136198283665
 30
0.0
  0
VERTEX
  5
97
100
AcDbEntity
  8
KIKI
370
               5
  6
STYLE_05
 62
               7
100
AcDbVertex
100
AcDb2dVertex
 10
-1251.4712160702227
 20
-797.65136198283665
 30
0.0
  0
VERTEX
  5
98
100
AcDbEntity
  8
KIKI
370
               5
  6
STYLE_05
 62
               7
100
AcDbVertex
100
AcDb2dVertex
 10
-1251.4712160702227
 20
-798.15136198283665
 30
0.0
  0
VERTEX
  5
99
100
AcDbEntity
  8
KIKI
370
               5
  6
STYLE_05
 62
               7
100
AcDbVertex
100
AcDb2dVertex
 10
-1278.4712160702227
 20
-798.15136198283665
 30
0.0
  0
SEQEND
  5
9A
100
AcDbEntity
  8
KIKI
370
               5
  6
STYLE_05
 62
               7
  0
POLYLINE
  5
9B
100
AcDbEntity
  8
KIKI
370
               5
  6
STYLE_05
 62
               7
100
AcDb2dPolyline
 66
               1
 10
0.0
 20
0.0
 30
0.0
 70
               1
 75
               5
  0
VERTEX
  5
9C
100
AcDbEntity
  8
KIKI
370
               5
  6
STYLE_05
 62
               7
100
AcDbVertex
100
AcDb2dVertex
 10
-1278.4712160702227
 20
-796.66817998092961
 30
0.0
  0
VERTEX
  5
9D
100
AcDbEntity
  8
KIKI
370
               5
  6
STYLE_05
 62
               7
100
AcDbVertex
100
AcDb2dVertex
 10
-1251.4712160702227
 20
-796.66817998092961
 30
0.0
  0
VERTEX
  5
9E
100
AcDbEntity
  8
KIKI
370
               5
  6
STYLE_05
 62
               7
100
AcDbVertex
100
AcDb2dVertex
 10
-1251.4712160702227
 20
-797.16817998092961
 30
0.0
  0
VERTEX
  5
9F
100
AcDbEntity
  8
KIKI
370
               5
  6
STYLE_05
 62
               7
100
AcDbVertex
100
AcDb2dVertex
 10
-1278.4712160702227
 20
-797.16817998092961
 30
0.0
  0
SEQEND
  5
A0
100
AcDbEntity
  8
KIKI
370
               5
  6
STYLE_05
 62
               7
  0
POLYLINE
  5
A1
100
AcDbEntity
  8
KIKI
370
               5
  6
STYLE_05
 62
               7
100
AcDb2dPolyline
 66
               1
 10
0.0
 20
0.0
 30
0.0
 70
               1
 75
               5
  0
VERTEX
  5
A2
100
AcDbEntity
  8
KIKI
370
               5
  6
STYLE_05
 62
               7
100
AcDbVertex
100
AcDb2dVertex
 10
-1278.4712160702227
 20
-795.68499797902257
 30
0.0
  0
VERTEX
  5
A3
100
AcDbEntity
  8
KIKI
370
               5
  6
STYLE_05
 62
               7
100
AcDbVertex
100
AcDb2dVertex
 10
-1251.4712160702227
 20
-795.68499797902257
 30
0.0
  0
VERTEX
  5
A4
100
AcDbEntity
  8
KIKI
370
               5
  6
STYLE_05
 62
               7
100
AcDbVertex
100
AcDb2dVertex
 10
-1251.4712160702227
 20
-796.18499797902257
 30
0.0
  0
VERTEX
  5
A5
100
AcDbEntity
  8
KIKI
370
               5
  6
STYLE_05
 62
               7
100
AcDbVertex
100
AcDb2dVertex
 10
-1278.4712160702227
 20
-796.18499797902257
 30
0.0
  0
SEQEND
  5
A6
100
AcDbEntity
  8
KIKI
370
               5
  6
STYLE_05
 62
               7
  0
POLYLINE
  5
A7
100
AcDbEntity
  8
KIKI
370
               5
  6
STYLE_05
 62
               7
100
AcDb2dPolyline
 66
               1
 10
0.0
 20
0.0
 30
0.0
 70
               1
 75
               5
  0
VERTEX
  5
A8
100
AcDbEntity
  8
KIKI
370
               5
  6
STYLE_05
 62
               7
100
AcDbVertex
100
AcDb2dVertex
 10
-1278.4712160702227
 20
-794.70181597711553
 30
0.0
  0
VERTEX
  5
A9
100
AcDbEntity
  8
KIKI
370
               5
  6
STYLE_05
 62
               7
100
AcDbVertex
100
AcDb2dVertex
 10
-1251.4712160702227
 20
-794.70181597711553
 30
0.0
  0
VERTEX
  5
AA
100
AcDbEntity
  8
KIKI
370
               5
  6
STYLE_05
 62
               7
100
AcDbVertex
100
AcDb2dVertex
 10
-1251.4712160702227
 20
-795.20181597711553
 30
0.0
  0
VERTEX
  5
AB
100
AcDbEntity
  8
KIKI
370
               5
  6
STYLE_05
 62
               7
100
AcDbVertex
100
AcDb2dVertex
 10
-1278.4712160702227
 20
-795.20181597711553
 30
0.0
  0
SEQEND
  5
AC
100
AcDbEntity
  8
KIKI
370
               5
  6
STYLE_05
 62
               7
  0
POLYLINE
  5
AD
100
AcDbEntity
  8
KIKI
370
               5
  6
STYLE_05
 62
               7
100
AcDb2dPolyline
 66
               1
 10
0.0
 20
0.0
 30
0.0
 70
               1
 75
               5
  0
VERTEX
  5
AE
100
AcDbEntity
  8
KIKI
370
               5
  6
STYLE_05
 62
               7
100
AcDbVertex
100
AcDb2dVertex
 10
-1278.4712160702227
 20
-793.71863397520849
 30
0.0
  0
VERTEX
  5
AF
100
AcDbEntity
  8
KIKI
370
               5
  6
STYLE_05
 62
               7
100
AcDbVertex
100
AcDb2dVertex
 10
-1251.4712160702227
 20
-793.71863397520849
 30
0.0
  0
VERTEX
  5
B0
100
AcDbEntity
  8
KIKI
370
               5
  6
STYLE_05
 62
               7
100
AcDbVertex
100
AcDb2dVertex
 10
-1251.4712160702227
 20
-794.21863397520849
 30
0.0
  0
VERTEX
  5
B1
100
AcDbEntity
  8
KIKI
370
               5
  6
STYLE_05
 62
               7
100
AcDbVertex
100
AcDb2dVertex
 10
-1278.4712160702227
 20
-794.21863397520849
 30
0.0
  0
SEQEND
  5
B2
100
AcDbEntity
  8
KIKI
370
               5
  6
STYLE_05
 62
               7
  0
POLYLINE
  5
B3
100
AcDbEntity
  8
KIKI
370
               5
  6
STYLE_05
 62
               7
100
AcDb2dPolyline
 66
               1
 10
0.0
 20
0.0
 30
0.0
 70
               1
 75
               5
  0
VERTEX
  5
B4
100
AcDbEntity
  8
KIKI
370
               5
  6
STYLE_05
 62
               7
100
AcDbVertex
100
AcDb2dVertex
 10
-1278.4712160702227
 20
-792.73545197330145
 30
0.0
  0
VERTEX
  5
B5
100
AcDbEntity
  8
KIKI
370
               5
  6
STYLE_05
 62
               7
100
AcDbVertex
100
AcDb2dVertex
 10
-1251.4712160702227
 20
-792.73545197330145
 30
0.0
  0
VERTEX
  5
B6
100
AcDbEntity
  8
KIKI
370
               5
  6
STYLE_05
 62
               7
100
AcDbVertex
100
AcDb2dVertex
 10
-1251.4712160702227
 20
-793.23545197330145
 30
0.0
  0
VERTEX
  5
B7
100
AcDbEntity
  8
KIKI
370
               5
  6
STYLE_05
 62
               7
100
AcDbVertex
100
AcDb2dVertex
 10
-1278.4712160702227
 20
-793.23545197330145
 30
0.0
  0
SEQEND
  5
B8
100
AcDbEntity
  8
KIKI
370
               5
  6
STYLE_05
 62
               7
  0
POLYLINE
  5
B9
100
AcDbEntity
  8
KIKI
370
               5
  6
STYLE_05
 62
               7
100
AcDb2dPolyline
 66
               1
 10
0.0
 20
0.0
 30
0.0
 70
               1
 75
               5
  0
VERTEX
  5
BA
100
AcDbEntity
  8
KIKI
370
               5
  6
STYLE_05
 62
               7
100
AcDbVertex
100
AcDb2dVertex
 10
-1278.4712160702227
 20
-791.75226997139441
 30
0.0
  0
VERTEX
  5
BB
100
AcDbEntity
  8
KIKI
370
               5
  6
STYLE_05
 62
               7
100
AcDbVertex
100
AcDb2dVertex
 10
-1251.4712160702227
 20
-791.75226997139441
 30
0.0
  0
VERTEX
  5
BC
100
AcDbEntity
  8
KIKI
370
               5
  6
STYLE_05
 62
               7
100
AcDbVertex
100
AcDb2dVertex
 10
-1251.4712160702227
 20
-792.25226997139441
 30
0.0
  0
VERTEX
  5
BD
100
AcDbEntity
  8
KIKI
370
               5
  6
STYLE_05
 62
               7
100
AcDbVertex
100
AcDb2dVertex
 10
-1278.4712160702227
 20
-792.25226997139441
 30
0.0
  0
SEQEND
  5
BE
100
AcDbEntity
  8
KIKI
370
               5
  6
STYLE_05
 62
               7
  0
POLYLINE
  5
BF
100
AcDbEntity
  8
KIKI
370
               5
  6
STYLE_05
 62
               7
100
AcDb2dPolyline
 66
               1
 10
0.0
 20
0.0
 30
0.0
 70
               1
 75
               5
  0
VERTEX
  5
C0
100
AcDbEntity
  8
KIKI
370
               5
  6
STYLE_05
 62
               7
100
AcDbVertex
100
AcDb2dVertex
 10
-1278.4712160702227
 20
-790.76908796948737
 30
0.0
  0
VERTEX
  5
C1
100
AcDbEntity
  8
KIKI
370
               5
  6
STYLE_05
 62
               7
100
AcDbVertex
100
AcDb2dVertex
 10
-1251.4712160702227
 20
-790.76908796948737
 30
0.0
  0
VERTEX
  5
C2
100
AcDbEntity
  8
KIKI
370
               5
  6
STYLE_05
 62
               7
100
AcDbVertex
100
AcDb2dVertex
 10
-1251.4712160702227
 20
-791.26908796948737
 30
0.0
  0
VERTEX
  5
C3
100
AcDbEntity
  8
KIKI
370
               5
  6
STYLE_05
 62
               7
100
AcDbVertex
100
AcDb2dVertex
 10
-1278.4712160702227
 20
-791.26908796948737
 30
0.0
  0
SEQEND
  5
C4
100
AcDbEntity
  8
KIKI
370
               5
  6
STYLE_05
 62
               7
  0
POLYLINE
  5
C5
100
AcDbEntity
  8
KIKI
370
               5
  6
STYLE_05
 62
               7
100
AcDb2dPolyline
 66
               1
 10
0.0
 20
0.0
 30
0.0
 70
               1
 75
               5
  0
VERTEX
  5
C6
100
AcDbEntity
  8
KIKI
370
               5
  6
STYLE_05
 62
               7
100
AcDbVertex
100
AcDb2dVertex
 10
-1278.4712160702227
 20
-789.78590596758033
 30
0.0
  0
VERTEX
  5
C7
100
AcDbEntity
  8
KIKI
370
               5
  6
STYLE_05
 62
               7
100
AcDbVertex
100
AcDb2dVertex
 10
-1251.4712160702227
 20
-789.78590596758033
 30
0.0
  0
VERTEX
  5
C8
100
AcDbEntity
  8
KIKI
370
               5
  6
STYLE_05
 62
               7
100
AcDbVertex
100
AcDb2dVertex
 10
-1251.4712160702227
 20
-790.28590596758033
 30
0.0
  0
VERTEX
  5
C9
100
AcDbEntity
  8
KIKI
370
               5
  6
STYLE_05
 62
               7
100
AcDbVertex
100
AcDb2dVertex
 10
-1278.4712160702227
 20
-790.28590596758033
 30
0.0
  0
SEQEND
  5
CA
100
AcDbEntity
  8
KIKI
370
               5
  6
STYLE_05
 62
               7
  0
LINE
  5
CB
100
AcDbEntity
  8
一般
370
              15
  6
Continuous
 62
               7
100
AcDbLine
 10
-1280.2598912048177
 20
52.89147286822697
 30
0.0
 11
-1280.2598912048177
 21
-717.0
 31
0.0
  0
LINE
  5
CC
100
AcDbEntity
  8
一般
370
              15
  6
Continuous
 62
               7
100
AcDbLine
 10
-1255.2598912048177
 20
-778.0
 30
0.0
 11
-1275.2598912048177
 21
-778.0
 31
0.0
  0
LWPOLYLINE
  5
CD
100
AcDbEntity
  8
一般
370
              15
  6
Continuous
 62
               7
100
AcDbPolyline
 90
       10
 70
             128
 10
-1250.2598912048177
 20
-717.0
 10
-1250.2598912048177
 20
52.891472868423989
 42
-0.319620876204156
 10
-1223.8422300943823
 20
89.864874753643363
 42
-0.3196208762041592
 10
-1180.2598912048177
 20
76.999999999999602
 10
-1171.2598912048177
 20
65.0
 10
-1027.2598912048197
 20
-127.0
 10
-1003.2598912048198
 20
-109.0
 10
-1160.2598912048177
 20
100.33333333333343
 42
0.3077772197940084
 10
-1236.6923883078573
 20
116.96459050869589
 42
0.3077772197940114
 10
-1280.2598912048177
 20
52.0
 42
0.3077772197940114
  0
POLYLINE
  5
CE
100
AcDbEntity
  8
一般
370
              15
  6
Continuous
 62
               7
100
AcDb2dPolyline
 66
               1
 10
0.0
 20
0.0
 30
0.0
 75
               5
  0
VERTEX
  5
CF
100
AcDbEntity
  8
一般
370
              15
  6
Continuous
 62
               7
100
AcDbVertex
100
AcDb2dVertex
 10
-1247.7598912048177
 20
-768.0
 30
0.0
  0
VERTEX
  5
D0
100
AcDbEntity
  8
一般
370
              15
  6
Continuous
 62
               7
100
AcDbVertex
100
AcDb2dVertex
 10
-1247.7598912048177
 20
-717.0
 30
0.0
  0
VERTEX
  5
D1
100
AcDbEntity
  8
一般
370
              15
  6
Continuous
 62
               7
100
AcDbVertex
100
AcDb2dVertex
 10
-1282.7598912048177
 20
-717.0
 30
0.0
  0
VERTEX
  5
D2
100
AcDbEntity
  8
一般
370
              15
  6
Continuous
 62
               7
100
AcDbVertex
100
AcDb2dVertex
 10
-1282.7598912048177
 20
-768.0
 30
0.0
  0
SEQEND
  5
D3
100
AcDbEntity
  8
一般
370
              15
  6
Continuous
 62
               7
  0
LINE
  5
D4
100
AcDbEntity
  8
一般
370
              15
  6
Continuous
 62
               7
100
AcDbLine
 10
-1255.2598912048177
 20
-778.0
 30
0.0
 11
-1280.2598912048177
 21
-778.0
 31
0.0
  0
POLYLINE
  5
D5
100
AcDbEntity
  8
一般
370
              15
  6
Continuous
 62
               7
100
AcDb2dPolyline
 66
               1
 10
0.0
 20
0.0
 30
0.0
 70
               1
 75
               5
  0
VERTEX
  5
D6
100
AcDbEntity
  8
一般
370
              15
  6
Continuous
 62
               7
100
AcDbVertex
100
AcDb2dVertex
 10
-1290.2598912048177
 20
-768.0
 30
0.0
  0
VERTEX
  5
D7
100
AcDbEntity
  8
一般
370
              15
  6
Continuous
 62
               7
100
AcDbVertex
100
AcDb2dVertex
 10
-1240.2598912048177
 20
-768.0
 30
0.0
  0
VERTEX
  5
D8
100
AcDbEntity
  8
一般
370
              15
  6
Continuous
 62
               7
100
AcDbVertex
100
AcDb2dVertex
 10
-1240.2598912048177
 20
-778.0
 30
0.0
  0
VERTEX
  5
D9
100
AcDbEntity
  8
一般
370
              15
  6
Continuous
 62
               7
100
AcDbVertex
100
AcDb2dVertex
 10
-1290.2598912048177
 20
-778.0
 30
0.0
  0
SEQEND
  5
DA
100
AcDbEntity
  8
一般
370
              15
  6
Continuous
 62
               7
  0
SPLINE
  5
DB
100
AcDbEntity
  8
KIKI
370
               5
  6
STYLE_05
 62
               7
100
AcDbSpline
210
0.0
220
0.0
230
1.0
 70
               8
 71
               2
 72
               6
 73
               3
 74
               0
 42
0.000001
 43
0.000001
 40
0.0
 40
0.0
 40
0.0
 40
1.0
 40
1.0
 40
1.0
 10
-1249.9712160702227
 20
-846.16817998092961
 30
0.0
 10
-1264.9712160702227
 20
-846.16817998092961
 30
0.0
 10
-1264.9712160702227
 20
-842.16817998092961
 30
0.0
  0
POLYLINE
  5
DC
100
AcDbEntity
  8
KIKI
370
               5
  6
STYLE_05
 62
               7
100
AcDb2dPolyline
 66
               1
 10
0.0
 20
0.0
 30
0.0
 70
               1
 75
               5
  0
VERTEX
  5
DD
100
AcDbEntity
  8
KIKI
370
               5
  6
STYLE_05
 62
               7
100
AcDbVertex
100
AcDb2dVertex
 10
-1281.9712160702227
 20
-797.16817998092961
 30
0.0
  0
VERTEX
  5
DE
100
AcDbEntity
  8
KIKI
370
               5
  6
STYLE_05
 62
               7
100
AcDbVertex
100
AcDb2dVertex
 10
-1247.9712160702227
 20
-797.16817998092961
 30
0.0
  0
VERTEX
  5
DF
100
AcDbEntity
  8
KIKI
370
               5
  6
STYLE_05
 62
               7
100
AcDbVertex
100
AcDb2dVertex
 10
-1247.9712160702227
 20
-822.16817998092961
 30
0.0
  0
VERTEX
  5
E0
100
AcDbEntity
  8
KIKI
370
               5
  6
STYLE_05
 62
               7
100
AcDbVertex
100
AcDb2dVertex
 10
-1281.9712160702227
 20
-822.16817998092961
 30
0.0
  0
SEQEND
  5
E1
100
AcDbEntity
  8
KIKI
370
               5
  6
STYLE_05
 62
               7
  0
POLYLINE
  5
E2
100
AcDbEntity
  8
KIKI
370
               5
  6
STYLE_05
 62
               7
100
AcDb2dPolyline
 66
               1
 10
0.0
 20
0.0
 30
0.0
 70
               1
 75
               5
  0
VERTEX
  5
E3
100
AcDbEntity
  8
KIKI
370
               5
  6
STYLE_05
 62
               7
100
AcDbVertex
100
AcDb2dVertex
 10
-1314.9712160702227
 20
-823.16817998092961
 30
0.0
  0
VERTEX
  5
E4
100
AcDbEntity
  8
KIKI
370
               5
  6
STYLE_05
 62
               7
100
AcDbVertex
100
AcDb2dVertex
 10
-1294.9712160702227
 20
-823.16817998092961
 30
0.0
  0
VERTEX
  5
E5
100
AcDbEntity
  8
KIKI
370
               5
  6
STYLE_05
 62
               7
100
AcDbVertex
100
AcDb2dVertex
 10
-1294.9712160702227
 20
-851.16817998092961
 30
0.0
  0
VERTEX
  5
E6
100
AcDbEntity
  8
KIKI
370
               5
  6
STYLE_05
 62
               7
100
AcDbVertex
100
AcDb2dVertex
 10
-1314.9712160702227
 20
-851.16817998092961
 30
0.0
  0
SEQEND
  5
E7
100
AcDbEntity
  8
KIKI
370
               5
  6
STYLE_05
 62
               7
  0
LINE
  5
E8
100
AcDbEntity
  8
KIKI
370
               5
  6
STYLE_05
 62
               7
100
AcDbLine
 10
-1278.9712160702227
 20
-822.16817998092961
 30
0.0
 11
-1250.9712160702227
 21
-822.16817998092961
 31
0.0
  0
LINE
  5
E9
100
AcDbEntity
  8
KIKI
370
               5
  6
STYLE_05
 62
               7
100
AcDbLine
 10
-1294.9712160702227
 20
-849.16817998092961
 30
0.0
 11
-1294.9712160702227
 21
-825.16817998092961
 31
0.0
  0
SPLINE
  5
EA
100
AcDbEntity
  8
KIKI
370
               5
  6
STYLE_05
 62
               7
100
AcDbSpline
210
0.0
220
0.0
230
1.0
 70
               8
 71
               2
 72
               6
 73
               3
 74
               0
 42
0.000001
 43
0.000001
 40
0.0
 40
0.0
 40
0.0
 40
1.0
 40
1.0
 40
1.0
 10
-1278.9712160702227
 20
-822.16817998092961
 30
0.0
 10
-1278.9712160702227
 20
-825.16817998092961
 30
0.0
 10
-1294.9712160702227
 20
-825.16817998092961
 30
0.0
  0
SPLINE
  5
EB
100
AcDbEntity
  8
KIKI
370
               5
  6
STYLE_05
 62
               7
100
AcDbSpline
210
0.0
220
0.0
230
1.0
 70
               8
 71
               2
 72
               6
 73
               3
 74
               0
 42
0.000001
 43
0.000001
 40
0.0
 40
0.0
 40
0.0
 40
1.0
 40
1.0
 40
1.0
 10
-1250.9712160702227
 20
-822.16817998092961
 30
0.0
 10
-1250.9712160702227
 20
-849.16817998092961
 30
0.0
 10
-1294.9712160702227
 20
-849.16817998092961
 30
0.0
  0
POLYLINE
  5
EC
100
AcDbEntity
  8
KIKI
370
               5
  6
STYLE_05
 62
               7
100
AcDb2dPolyline
 66
               1
 10
0.0
 20
0.0
 30
0.0
 75
               5
  0
VERTEX
  5
ED
100
AcDbEntity
  8
KIKI
370
               5
  6
STYLE_05
 62
               7
100
AcDbVertex
100
AcDb2dVertex
 10
-1254.9712160702227
 20
-846.16817998092961
 30
0.0
  0
VERTEX
  5
EE
100
AcDbEntity
  8
KIKI
370
               5
  6
STYLE_05
 62
               7
100
AcDbVertex
100
AcDb2dVertex
 10
-1249.9712160702227
 20
-846.16817998092961
 30
0.0
  0
VERTEX
  5
EF
100
AcDbEntity
  8
KIKI
370
               5
  6
STYLE_05
 62
               7
100
AcDbVertex
100
AcDb2dVertex
 10
-1249.9712160702227
 20
-851.16817998092961
 30
0.0
  0
VERTEX
  5
F0
100
AcDbEntity
  8
KIKI
370
               5
  6
STYLE_05
 62
               7
100
AcDbVertex
100
AcDb2dVertex
 10
-1279.9712160702227
 20
-851.16817998092961
 30
0.0
  0
VERTEX
  5
F1
100
AcDbEntity
  8
KIKI
370
               5
  6
STYLE_05
 62
               7
100
AcDbVertex
100
AcDb2dVertex
 10
-1279.9712160702227
 20
-846.16817998092961
 30
0.0
  0
VERTEX
  5
F2
100
AcDbEntity
  8
KIKI
370
               5
  6
STYLE_05
 62
               7
100
AcDbVertex
100
AcDb2dVertex
 10
-1270.3622513777161
 20
-846.16817998092961
 30
0.0
  0
SEQEND
  5
F3
100
AcDbEntity
  8
KIKI
370
               5
  6
STYLE_05
 62
               7
  0
ENDBLK
  5
F4
100
AcDbEntity
  8
DEFAULT
100
AcDbBlockEnd
  0
BLOCK
  5
F5
100
AcDbEntity
  8
DEFAULT
100
AcDbBlockBegin
  2
グループ-2
 70
               0
 10
0.0
 20
0.0
 30
0.0
  3
グループ-2
  1

  0
LINE
  5
F6
100
AcDbEntity
  8
一般
370
              15
  6
Continuous
 62
               8
100
AcDbLine
 10
-1047.1568693583336
 20
-768.0
 30
0.0
 11
-1041.7284098621619
 21
-768.0
 31
0.0
  0
ARC
  5
F7
100
AcDbEntity
  8
一般
370
              15
  6
Continuous
 62
               8
100
AcDbCircle
 10
-1047.1568693583338
 20
-728.00000000000182
 30
0.0
 40
39.999999999996717
100
AcDbArc
 50
188.82037955201903
 51
270.00000000000034
  0
POLYLINE
  5
F8
100
AcDbEntity
  8
一般
370
              15
  6
Continuous
 62
               8
100
AcDb2dPolyline
 66
               1
 10
0.0
 20
0.0
 30
0.0
 75
               5
  0
VERTEX
  5
F9
100
AcDbEntity
  8
一般
370
              15
  6
Continuous
 62
               8
100
AcDbVertex
100
AcDb2dVertex
 10
-1170.891779472594
 20
-191.46001198938006
 30
0.0
  0
VERTEX
  5
FA
100
AcDbEntity
  8
一般
370
              15
  6
Continuous
 62
               8
100
AcDbVertex
100
AcDb2dVertex
 10
-1086.6838254926984
 20
-734.13349319326198
 30
0.0
  0
VERTEX
  5
FB
100
AcDbEntity
  8
一般
370
              15
  6
Continuous
 62
               8
100
AcDbVertex
100
AcDb2dVertex
 10
-1086.6838254926984
 20
-734.13349319326198
 30
0.0
  0
VERTEX
  5
FC
100
AcDbEntity
  8
一般
370
              15
  6
Continuous
 62
               8
100
AcDbVertex
100
AcDb2dVertex
 10
-1086.6838254926984
 20
-734.13349319326198
 30
0.0
  0
VERTEX
  5
FD
100
AcDbEntity
  8
一般
370
              15
  6
Continuous
 62
               8
100
AcDbVertex
100
AcDb2dVertex
 10
-1086.6838254926984
 20
-734.13349319326198
 30
0.0
  0
VERTEX
  5
FE
100
AcDbEntity
  8
一般
370
              15
  6
Continuous
 62
               8
100
AcDbVertex
100
AcDb2dVertex
 10
-1086.6838254926984
 20
-734.13349319326198
 30
0.0
  0
VERTEX
  5
FF
100
AcDbEntity
  8
一般
370
              15
  6
Continuous
 62
               8
100
AcDbVertex
100
AcDb2dVertex
 10
-1086.6838254926979
 20
-734.13349319326358
 30
0.0
  0
VERTEX
  5
100
100
AcDbEntity
  8
一般
370
              15
  6
Continuous
 62
               8
100
AcDbVertex
100
AcDb2dVertex
 10
-1086.6838254926979
 20
-734.13349319326358
 30
0.0
  0
VERTEX
  5
101
100
AcDbEntity
  8
一般
370
              15
  6
Continuous
 62
               8
100
AcDbVertex
100
AcDb2dVertex
 10
-1086.6838254926979
 20
-734.1334931932638
 30
0.0
  0
SEQEND
  5
102
100
AcDbEntity
  8
一般
370
              15
  6
Continuous
 62
               8
  0
ARC
  5
103
100
AcDbEntity
  8
一般
370
              15
  6
Continuous
 62
               8
100
AcDbCircle
 10
-1167.9272577625163
 20
-190.9999999998854
 30
0.0
 40
3.0
100
AcDbArc
 50
90.0
 51
188.82037955201832
  0
POLYLINE
  5
104
100
AcDbEntity
  8
一般
370
              15
  6
Continuous
 62
               8
100
AcDb2dPolyline
 66
               1
 10
0.0
 20
0.0
 30
0.0
 75
               5
  0
VERTEX
  5
105
100
AcDbEntity
  8
一般
370
              15
  6
Continuous
 62
               8
100
AcDbVertex
100
AcDb2dVertex
 10
-538.02105456719846
 20
-187.9999999998854
 30
0.0
  0
VERTEX
  5
106
100
AcDbEntity
  8
一般
370
              15
  6
Continuous
 62
               8
100
AcDbVertex
100
AcDb2dVertex
 10
-1167.9272577625163
 20
-187.9999999998854
 30
0.0
  0
VERTEX
  5
107
100
AcDbEntity
  8
一般
370
              15
  6
Continuous
 62
               8
100
AcDbVertex
100
AcDb2dVertex
 10
-1167.9272577625163
 20
-187.9999999998854
 30
0.0
  0
SEQEND
  5
108
100
AcDbEntity
  8
一般
370
              15
  6
Continuous
 62
               8
  0
LINE
  5
109
100
AcDbEntity
  8
DEFAULT
370
               5
  6
Continuous
 62
               8
100
AcDbLine
 10
-1041.7284098621619
 20
-768.0
 30
0.0
 11
-538.02105456719846
 21
-768.0
 31
0.0
  0
ENDBLK
  5
10A
100
AcDbEntity
  8
DEFAULT
100
AcDbBlockEnd
  0
BLOCK
  5
10B
100
AcDbEntity
  8
DEFAULT
100
AcDbBlockBegin
  2
グループ-3
 70
               0
 10
0.0
 20
0.0
 30
0.0
  3
グループ-3
  1

  0
LINE
  5
10C
100
AcDbEntity
  8
0
370
              30
  6
Continuous
 62
               7
100
AcDbLine
 10
-1405.0631920637168
 20
-778.0
 30
0.0
 11
-415.80000000000001
 21
-778.0
 31
0.0
  0
INSERT
  5
10D
100
AcDbEntity
  8
DEFAULT
 62
               7
100
AcDbBlockReference
  2
グループ
 10
0.0
 20
0.0
 30
0.0
  0
INSERT
  5
10E
100
AcDbEntity
  8
DEFAULT
 62
               7
100
AcDbBlockReference
  2
グループ-1
 10
0.0
 20
0.0
 30
0.0
  0
INSERT
  5
10F
100
AcDbEntity
  8
DEFAULT
 62
               7
100
AcDbBlockReference
  2
グループ-2
 10
0.0
 20
0.0
 30
0.0
  0
ENDBLK
  5
110
100
AcDbEntity
  8
DEFAULT
100
AcDbBlockEnd
  0
BLOCK
  5
111
100
AcDbEntity
  8
DEFAULT
100
AcDbBlockBegin
  2
グループ-4
 70
               0
 10
0.0
 20
0.0
 30
0.0
  3
グループ-4
  1

  0
LINE
  5
112
100
AcDbEntity
  8
寸法
100
AcDbLine
 10
-187.19991694829517
 20
27.0
 30
0.0
 11
-187.19991694829517
 21
105.50000000000051
 31
0.0
  0
POLYLINE
  5
113
100
AcDbEntity
  8
一般
370
              15
  6
Continuous
 62
               7
100
AcDb2dPolyline
 66
               1
 10
0.0
 20
0.0
 30
0.0
 75
               5
  0
VERTEX
  5
114
100
AcDbEntity
  8
一般
370
              15
  6
Continuous
 62
               7
100
AcDbVertex
100
AcDb2dVertex
 10
-240.599916948295
 20
21.162034738853382
 30
0.0
  0
VERTEX
  5
115
100
AcDbEntity
  8
一般
370
              15
  6
Continuous
 62
               7
100
AcDbVertex
100
AcDb2dVertex
 10
-240.599916948295
 20
67.162032954692108
 30
0.0
  0
VERTEX
  5
116
100
AcDbEntity
  8
一般
370
              15
  6
Continuous
 62
               7
100
AcDbVertex
100
AcDb2dVertex
 10
-212.59991694829512
 20
67.162032954692108
 30
0.0
  0
VERTEX
  5
117
100
AcDbEntity
  8
一般
370
              15
  6
Continuous
 62
               7
100
AcDbVertex
100
AcDb2dVertex
 10
-212.59991694829512
 20
33.162032954692108
 30
0.0
  0
SEQEND
  5
118
100
AcDbEntity
  8
一般
370
              15
  6
Continuous
 62
               7
  0
POLYLINE
  5
119
100
AcDbEntity
  8
一般
370
              15
  6
Continuous
 62
               7
100
AcDb2dPolyline
 66
               1
 10
0.0
 20
0.0
 30
0.0
 75
               5
  0
VERTEX
  5
11A
100
AcDbEntity
  8
一般
370
              15
  6
Continuous
 62
               7
100
AcDbVertex
100
AcDb2dVertex
 10
-178.19991694829514
 20
-3.8379670453078916
 30
0.0
  0
VERTEX
  5
11B
100
AcDbEntity
  8
一般
370
              15
  6
Continuous
 62
               7
100
AcDbVertex
100
AcDb2dVertex
 10
-157.59991694829512
 20
-3.8379670453078916
 30
0.0
  0
VERTEX
  5
11C
100
AcDbEntity
  8
一般
370
              15
  6
Continuous
 62
               7
100
AcDbVertex
100
AcDb2dVertex
 10
-157.59991694829512
 20
44.162032954692108
 30
0.0
  0
VERTEX
  5
11D
100
AcDbEntity
  8
一般
370
              15
  6
Continuous
 62
               7
100
AcDbVertex
100
AcDb2dVertex
 10
-178.19991694829514
 20
44.162032954692108
 30
0.0
  0
SEQEND
  5
11E
100
AcDbEntity
  8
一般
370
              15
  6
Continuous
 62
               7
  0
POLYLINE
  5
11F
100
AcDbEntity
  8
一般
370
              15
  6
Continuous
 62
               7
100
AcDb2dPolyline
 66
               1
 10
0.0
 20
0.0
 30
0.0
 75
               5
  0
VERTEX
  5
120
100
AcDbEntity
  8
一般
370
              15
  6
Continuous
 62
               7
100
AcDbVertex
100
AcDb2dVertex
 10
-187.19991694829514
 20
-3.8379670453078916
 30
0.0
  0
VERTEX
  5
121
100
AcDbEntity
  8
一般
370
              15
  6
Continuous
 62
               7
100
AcDbVertex
100
AcDb2dVertex
 10
-202.59991694829512
 20
-3.8379670453078916
 30
0.0
  0
VERTEX
  5
122
100
AcDbEntity
  8
一般
370
              15
  6
Continuous
 62
               7
100
AcDbVertex
100
AcDb2dVertex
 10
-202.59991694829512
 20
44.162032954692108
 30
0.0
  0
VERTEX
  5
123
100
AcDbEntity
  8
一般
370
              15
  6
Continuous
 62
               7
100
AcDbVertex
100
AcDb2dVertex
 10
-187.19991694829514
 20
44.162032954692108
 30
0.0
  0
SEQEND
  5
124
100
AcDbEntity
  8
一般
370
              15
  6
Continuous
 62
               7
  0
POLYLINE
  5
125
100
AcDbEntity
  8
一般
370
              15
  6
Continuous
 62
               7
100
AcDb2dPolyline
 66
               1
 10
0.0
 20
0.0
 30
0.0
 70
               1
 75
               5
  0
VERTEX
  5
126
100
AcDbEntity
  8
一般
370
              15
  6
Continuous
 62
               7
100
AcDbVertex
100
AcDb2dVertex
 10
-202.59991694829512
 20
44.162032954692108
 30
0.0
  0
VERTEX
  5
127
100
AcDbEntity
  8
一般
370
              15
  6
Continuous
 62
               7
100
AcDbVertex
100
AcDb2dVertex
 10
-199.59991694829512
 20
44.162032954692108
 30
0.0
  0
VERTEX
  5
128
100
AcDbEntity
  8
一般
370
              15
  6
Continuous
 62
               7
100
AcDbVertex
100
AcDb2dVertex
 10
-199.59991694829512
 20
-3.8379670453078916
 30
0.0
  0
VERTEX
  5
129
100
AcDbEntity
  8
一般
370
              15
  6
Continuous
 62
               7
100
AcDbVertex
100
AcDb2dVertex
 10
-202.59991694829512
 20
-3.8379670453078916
 30
0.0
  0
SEQEND
  5
12A
100
AcDbEntity
  8
一般
370
              15
  6
Continuous
 62
               7
  0
LINE
  5
12B
100
AcDbEntity
  8
一般
370
              15
  6
Continuous
 62
               7
100
AcDbLine
 10
-145.59991694829512
 20
2.6620329546921084
 30
0.0
 11
-145.59991694829512
 21
5.8237097332906274
 31
0.0
  0
ARC
  5
12C
100
AcDbEntity
  8
一般
370
              15
  6
Continuous
 62
               7
100
AcDbCircle
 10
-157.59991694829512
 20
21.662032954692108
 30
0.0
 40
19.999999999999989
100
AcDbArc
 50
63.078912747289507
 51
90.0
  0
ARC
  5
12D
100
AcDbEntity
  8
一般
370
              15
  6
Continuous
 62
               7
100
AcDbCircle
 10
-157.59991694829512
 20
18.662032954692108
 30
0.0
 40
20.0
100
AcDbArc
 50
270.0
 51
272.86598398259895
  0
POLYLINE
  5
12E
100
AcDbEntity
  8
一般
370
              15
  6
Continuous
 62
               7
100
AcDb2dPolyline
 66
               1
 10
0.0
 20
0.0
 30
0.0
 75
               5
  0
VERTEX
  5
12F
100
AcDbEntity
  8
一般
370
              15
  6
Continuous
 62
               7
100
AcDbVertex
100
AcDb2dVertex
 10
-219.38881439736758
 20
9.1620329546921084
 30
0.0
  0
VERTEX
  5
130
100
AcDbEntity
  8
一般
370
              15
  6
Continuous
 62
               7
100
AcDbVertex
100
AcDb2dVertex
 10
-202.59991694829512
 20
9.1620329546921084
 30
0.0
  0
VERTEX
  5
131
100
AcDbEntity
  8
一般
370
              15
  6
Continuous
 62
               7
100
AcDbVertex
100
AcDb2dVertex
 10
-202.59991694829512
 20
33.162032954692108
 30
0.0
  0
VERTEX
  5
132
100
AcDbEntity
  8
一般
370
              15
  6
Continuous
 62
               7
100
AcDbVertex
100
AcDb2dVertex
 10
-219.38881439736758
 20
33.162032954692108
 30
0.0
  0
SEQEND
  5
133
100
AcDbEntity
  8
一般
370
              15
  6
Continuous
 62
               7
  0
CIRCLE
  5
134
100
AcDbEntity
  8
一般
370
              15
  6
Continuous
 62
               7
100
AcDbCircle
 10
-226.59991694829512
 20
21.162032954692108
 30
0.0
 40
14.0
  0
CIRCLE
  5
135
100
AcDbEntity
  8
一般
370
              15
  6
Continuous
 62
               7
100
AcDbCircle
 10
-226.59991694829512
 20
21.162032954692108
 30
0.0
 40
9.5
  0
POLYLINE
  5
136
100
AcDbEntity
  8
一般
370
              15
  6
Continuous
 62
               7
100
AcDb2dPolyline
 66
               1
 10
0.0
 20
0.0
 30
0.0
 75
               5
  0
VERTEX
  5
137
100
AcDbEntity
  8
一般
370
              15
  6
Continuous
 62
               7
100
AcDbVertex
100
AcDb2dVertex
 10
-212.23426152179377
 20
33.509867015803479
 30
0.0
  0
VERTEX
  5
138
100
AcDbEntity
  8
一般
370
              15
  6
Continuous
 62
               7
100
AcDbVertex
100
AcDb2dVertex
 10
-212.97097162309137
 20
32.527586880739932
 30
0.0
  0
VERTEX
  5
139
100
AcDbEntity
  8
一般
370
              15
  6
Continuous
 62
               7
100
AcDbVertex
100
AcDb2dVertex
 10
-212.97097162309137
 20
32.282016846974102
 30
0.0
  0
VERTEX
  5
13A
100
AcDbEntity
  8
一般
370
              15
  6
Continuous
 62
               7
100
AcDbVertex
100
AcDb2dVertex
 10
-212.97097162309137
 20
32.036446813208215
 30
0.0
  0
VERTEX
  5
13B
100
AcDbEntity
  8
一般
370
              15
  6
Continuous
 62
               7
100
AcDbVertex
100
AcDb2dVertex
 10
-212.97097162309137
 20
31.790876779442328
 30
0.0
  0
VERTEX
  5
13C
100
AcDbEntity
  8
一般
370
              15
  6
Continuous
 62
               7
100
AcDbVertex
100
AcDb2dVertex
 10
-212.97097162309137
 20
31.299736711910612
 30
0.0
  0
VERTEX
  5
13D
100
AcDbEntity
  8
一般
370
              15
  6
Continuous
 62
               7
100
AcDbVertex
100
AcDb2dVertex
 10
-212.97097162309137
 20
30.808596644378838
 30
0.0
  0
VERTEX
  5
13E
100
AcDbEntity
  8
一般
370
              15
  6
Continuous
 62
               7
100
AcDbVertex
100
AcDb2dVertex
 10
-212.97097162309137
 20
30.563026610612951
 30
0.0
  0
VERTEX
  5
13F
100
AcDbEntity
  8
一般
370
              15
  6
Continuous
 62
               7
100
AcDbVertex
100
AcDb2dVertex
 10
-212.97097162309137
 20
30.317456576847121
 30
0.0
  0
VERTEX
  5
140
100
AcDbEntity
  8
一般
370
              15
  6
Continuous
 62
               7
100
AcDbVertex
100
AcDb2dVertex
 10
-212.97097162309137
 20
30.071886543081234
 30
0.0
  0
VERTEX
  5
141
100
AcDbEntity
  8
一般
370
              15
  6
Continuous
 62
               7
100
AcDbVertex
100
AcDb2dVertex
 10
-212.97097162309137
 20
29.826316509315348
 30
0.0
  0
VERTEX
  5
142
100
AcDbEntity
  8
一般
370
              15
  6
Continuous
 62
               7
100
AcDbVertex
100
AcDb2dVertex
 10
-212.97097162309137
 20
29.580746475549461
 30
0.0
  0
VERTEX
  5
143
100
AcDbEntity
  8
一般
370
              15
  6
Continuous
 62
               7
100
AcDbVertex
100
AcDb2dVertex
 10
-212.97097162309137
 20
29.335176441783574
 30
0.0
  0
VERTEX
  5
144
100
AcDbEntity
  8
一般
370
              15
  6
Continuous
 62
               7
100
AcDbVertex
100
AcDb2dVertex
 10
-212.97097162309137
 20
29.089606408017744
 30
0.0
  0
VERTEX
  5
145
100
AcDbEntity
  8
一般
370
              15
  6
Continuous
 62
               7
100
AcDbVertex
100
AcDb2dVertex
 10
-212.97097162309137
 20
28.844036374251857
 30
0.0
  0
VERTEX
  5
146
100
AcDbEntity
  8
一般
370
              15
  6
Continuous
 62
               7
100
AcDbVertex
100
AcDb2dVertex
 10
-212.97097162309137
 20
28.59846634048597
 30
0.0
  0
VERTEX
  5
147
100
AcDbEntity
  8
一般
370
              15
  6
Continuous
 62
               7
100
AcDbVertex
100
AcDb2dVertex
 10
-212.97097162309137
 20
28.352896306720083
 30
0.0
  0
VERTEX
  5
148
100
AcDbEntity
  8
一般
370
              15
  6
Continuous
 62
               7
100
AcDbVertex
100
AcDb2dVertex
 10
-212.97097162309137
 20
28.107326272954197
 30
0.0
  0
VERTEX
  5
149
100
AcDbEntity
  8
一般
370
              15
  6
Continuous
 62
               7
100
AcDbVertex
100
AcDb2dVertex
 10
-212.97097162309137
 20
27.861756239188367
 30
0.0
  0
VERTEX
  5
14A
100
AcDbEntity
  8
一般
370
              15
  6
Continuous
 62
               7
100
AcDbVertex
100
AcDb2dVertex
 10
-212.97097162309137
 20
27.61618620542248
 30
0.0
  0
VERTEX
  5
14B
100
AcDbEntity
  8
一般
370
              15
  6
Continuous
 62
               7
100
AcDbVertex
100
AcDb2dVertex
 10
-212.72540158932554
 20
27.61618620542248
 30
0.0
  0
VERTEX
  5
14C
100
AcDbEntity
  8
一般
370
              15
  6
Continuous
 62
               7
100
AcDbVertex
100
AcDb2dVertex
 10
-212.72540158932554
 20
27.370616171656593
 30
0.0
  0
VERTEX
  5
14D
100
AcDbEntity
  8
一般
370
              15
  6
Continuous
 62
               7
100
AcDbVertex
100
AcDb2dVertex
 10
-212.72540158932554
 20
27.125046137890706
 30
0.0
  0
VERTEX
  5
14E
100
AcDbEntity
  8
一般
370
              15
  6
Continuous
 62
               7
100
AcDbVertex
100
AcDb2dVertex
 10
-212.47983155555971
 20
27.125046137890706
 30
0.0
  0
VERTEX
  5
14F
100
AcDbEntity
  8
一般
370
              15
  6
Continuous
 62
               7
100
AcDbVertex
100
AcDb2dVertex
 10
-212.47983155555971
 20
26.879476104124819
 30
0.0
  0
VERTEX
  5
150
100
AcDbEntity
  8
一般
370
              15
  6
Continuous
 62
               7
100
AcDbVertex
100
AcDb2dVertex
 10
-212.23426152179377
 20
26.633906070358989
 30
0.0
  0
VERTEX
  5
151
100
AcDbEntity
  8
一般
370
              15
  6
Continuous
 62
               7
100
AcDbVertex
100
AcDb2dVertex
 10
-211.98869148802794
 20
26.388336036593103
 30
0.0
  0
VERTEX
  5
152
100
AcDbEntity
  8
一般
370
              15
  6
Continuous
 62
               7
100
AcDbVertex
100
AcDb2dVertex
 10
-211.74312145426211
 20
26.142766002827216
 30
0.0
  0
VERTEX
  5
153
100
AcDbEntity
  8
一般
370
              15
  6
Continuous
 62
               7
100
AcDbVertex
100
AcDb2dVertex
 10
-211.74312145426211
 20
25.897195969061329
 30
0.0
  0
VERTEX
  5
154
100
AcDbEntity
  8
一般
370
              15
  6
Continuous
 62
               7
100
AcDbVertex
100
AcDb2dVertex
 10
-211.74312145426211
 20
25.651625935295442
 30
0.0
  0
VERTEX
  5
155
100
AcDbEntity
  8
一般
370
              15
  6
Continuous
 62
               7
100
AcDbVertex
100
AcDb2dVertex
 10
-211.74312145426211
 20
25.406055901529612
 30
0.0
  0
VERTEX
  5
156
100
AcDbEntity
  8
一般
370
              15
  6
Continuous
 62
               7
100
AcDbVertex
100
AcDb2dVertex
 10
-211.74312145426211
 20
25.160485867763725
 30
0.0
  0
VERTEX
  5
157
100
AcDbEntity
  8
一般
370
              15
  6
Continuous
 62
               7
100
AcDbVertex
100
AcDb2dVertex
 10
-211.74312145426211
 20
24.914915833997838
 30
0.0
  0
VERTEX
  5
158
100
AcDbEntity
  8
一般
370
              15
  6
Continuous
 62
               7
100
AcDbVertex
100
AcDb2dVertex
 10
-211.74312145426211
 20
24.669345800232009
 30
0.0
  0
VERTEX
  5
159
100
AcDbEntity
  8
一般
370
              15
  6
Continuous
 62
               7
100
AcDbVertex
100
AcDb2dVertex
 10
-211.74312145426211
 20
24.423775766466122
 30
0.0
  0
VERTEX
  5
15A
100
AcDbEntity
  8
一般
370
              15
  6
Continuous
 62
               7
100
AcDbVertex
100
AcDb2dVertex
 10
-211.74312145426211
 20
24.178205732700235
 30
0.0
  0
VERTEX
  5
15B
100
AcDbEntity
  8
一般
370
              15
  6
Continuous
 62
               7
100
AcDbVertex
100
AcDb2dVertex
 10
-211.74312145426211
 20
23.932635698934348
 30
0.0
  0
VERTEX
  5
15C
100
AcDbEntity
  8
一般
370
              15
  6
Continuous
 62
               7
100
AcDbVertex
100
AcDb2dVertex
 10
-211.74312145426211
 20
23.687065665168461
 30
0.0
  0
VERTEX
  5
15D
100
AcDbEntity
  8
一般
370
              15
  6
Continuous
 62
               7
100
AcDbVertex
100
AcDb2dVertex
 10
-211.74312145426211
 20
23.441495631402631
 30
0.0
  0
VERTEX
  5
15E
100
AcDbEntity
  8
一般
370
              15
  6
Continuous
 62
               7
100
AcDbVertex
100
AcDb2dVertex
 10
-211.74312145426211
 20
23.195925597636744
 30
0.0
  0
VERTEX
  5
15F
100
AcDbEntity
  8
一般
370
              15
  6
Continuous
 62
               7
100
AcDbVertex
100
AcDb2dVertex
 10
-211.74312145426211
 20
22.950355563870858
 30
0.0
  0
VERTEX
  5
160
100
AcDbEntity
  8
一般
370
              15
  6
Continuous
 62
               7
100
AcDbVertex
100
AcDb2dVertex
 10
-211.74312145426211
 20
22.704785530104971
 30
0.0
  0
VERTEX
  5
161
100
AcDbEntity
  8
一般
370
              15
  6
Continuous
 62
               7
100
AcDbVertex
100
AcDb2dVertex
 10
-211.74312145426211
 20
22.459215496339084
 30
0.0
  0
VERTEX
  5
162
100
AcDbEntity
  8
一般
370
              15
  6
Continuous
 62
               7
100
AcDbVertex
100
AcDb2dVertex
 10
-211.74312145426211
 20
22.213645462573254
 30
0.0
  0
VERTEX
  5
163
100
AcDbEntity
  8
一般
370
              15
  6
Continuous
 62
               7
100
AcDbVertex
100
AcDb2dVertex
 10
-211.74312145426211
 20
21.96807542880731
 30
0.0
  0
VERTEX
  5
164
100
AcDbEntity
  8
一般
370
              15
  6
Continuous
 62
               7
100
AcDbVertex
100
AcDb2dVertex
 10
-211.74312145426211
 20
21.72250539504148
 30
0.0
  0
VERTEX
  5
165
100
AcDbEntity
  8
一般
370
              15
  6
Continuous
 62
               7
100
AcDbVertex
100
AcDb2dVertex
 10
-211.74312145426211
 20
21.476935361275594
 30
0.0
  0
VERTEX
  5
166
100
AcDbEntity
  8
一般
370
              15
  6
Continuous
 62
               7
100
AcDbVertex
100
AcDb2dVertex
 10
-211.74312145426211
 20
21.231365327509707
 30
0.0
  0
VERTEX
  5
167
100
AcDbEntity
  8
一般
370
              15
  6
Continuous
 62
               7
100
AcDbVertex
100
AcDb2dVertex
 10
-211.74312145426211
 20
20.985795293743877
 30
0.0
  0
VERTEX
  5
168
100
AcDbEntity
  8
一般
370
              15
  6
Continuous
 62
               7
100
AcDbVertex
100
AcDb2dVertex
 10
-211.74312145426211
 20
20.74022525997799
 30
0.0
  0
VERTEX
  5
169
100
AcDbEntity
  8
一般
370
              15
  6
Continuous
 62
               7
100
AcDbVertex
100
AcDb2dVertex
 10
-211.74312145426211
 20
20.494655226212103
 30
0.0
  0
VERTEX
  5
16A
100
AcDbEntity
  8
一般
370
              15
  6
Continuous
 62
               7
100
AcDbVertex
100
AcDb2dVertex
 10
-211.74312145426211
 20
20.249085192446216
 30
0.0
  0
VERTEX
  5
16B
100
AcDbEntity
  8
一般
370
              15
  6
Continuous
 62
               7
100
AcDbVertex
100
AcDb2dVertex
 10
-211.74312145426211
 20
20.003515158680329
 30
0.0
  0
VERTEX
  5
16C
100
AcDbEntity
  8
一般
370
              15
  6
Continuous
 62
               7
100
AcDbVertex
100
AcDb2dVertex
 10
-211.98869148802794
 20
19.7579451249145
 30
0.0
  0
VERTEX
  5
16D
100
AcDbEntity
  8
一般
370
              15
  6
Continuous
 62
               7
100
AcDbVertex
100
AcDb2dVertex
 10
-211.98869148802794
 20
19.512375091148613
 30
0.0
  0
VERTEX
  5
16E
100
AcDbEntity
  8
一般
370
              15
  6
Continuous
 62
               7
100
AcDbVertex
100
AcDb2dVertex
 10
-212.23426152179377
 20
19.512375091148613
 30
0.0
  0
VERTEX
  5
16F
100
AcDbEntity
  8
一般
370
              15
  6
Continuous
 62
               7
100
AcDbVertex
100
AcDb2dVertex
 10
-212.47983155555971
 20
19.512375091148613
 30
0.0
  0
VERTEX
  5
170
100
AcDbEntity
  8
一般
370
              15
  6
Continuous
 62
               7
100
AcDbVertex
100
AcDb2dVertex
 10
-212.47983155555971
 20
19.266805057382726
 30
0.0
  0
VERTEX
  5
171
100
AcDbEntity
  8
一般
370
              15
  6
Continuous
 62
               7
100
AcDbVertex
100
AcDb2dVertex
 10
-212.72540158932554
 20
19.266805057382726
 30
0.0
  0
VERTEX
  5
172
100
AcDbEntity
  8
一般
370
              15
  6
Continuous
 62
               7
100
AcDbVertex
100
AcDb2dVertex
 10
-212.72540158932554
 20
19.021235023616839
 30
0.0
  0
SEQEND
  5
173
100
AcDbEntity
  8
一般
370
              15
  6
Continuous
 62
               7
  0
LWPOLYLINE
  5
174
100
AcDbEntity
  8
一般
370
              15
  6
Continuous
 62
               7
100
AcDbPolyline
 90
        7
 70
             129
 10
-145.93325028162846
 20
44.162032954692108
 42
0.3027756377319881
 10
-146.85632720470539
 20
43.546648339307495
 10
-156.52299387137205
 20
20.346648339307503
 42
0.0990195135927611
 10
-156.59991694829512
 20
19.96203295469212
 10
-156.59991694829512
 20
-3.8379670453078916
 10
-126.59991694829512
 20
-3.8379670453078916
 10
-126.59991694829512
 20
44.162032954692108
  0
LWPOLYLINE
  5
175
100
AcDbEntity
  8
一般
370
              15
  6
Continuous
 62
               7
100
AcDbPolyline
 90
        5
 70
             128
 10
-137.19991694829503
 20
-73.837967045307892
 10
-146.59991694829512
 20
-73.837967045307892
 10
-146.59991694829512
 20
-3.8379670453078916
 10
-136.59991694829512
 20
-3.8379670453078916
 10
-136.59991694829512
 20
-45.03796704530788
  0
LINE
  5
176
100
AcDbEntity
  8
一般
370
              15
  6
Continuous
 62
               7
100
AcDbLine
 10
-136.59991694829512
 20
-73.837967045307892
 30
0.0
 11
-137.19991694829503
 21
-73.837967045307892
 31
0.0
  0
LINE
  5
177
100
AcDbEntity
  8
一般
370
              15
  6
Continuous
 62
               7
100
AcDbLine
 10
-136.59991694829512
 20
-73.526105898283618
 30
0.0
 11
-136.59991694829512
 21
-73.837967045307892
 31
0.0
  0
LINE
  5
178
100
AcDbEntity
  8
一般
370
              15
  6
Continuous
 62
               7
100
AcDbLine
 10
-136.59991694829512
 20
-45.03796704530788
 30
0.0
 11
-136.59991694829512
 21
-73.526105898283618
 31
0.0
  0
ARC
  5
179
100
AcDbEntity
  8
一般
370
              15
  6
Continuous
 62
               7
100
AcDbCircle
 10
-141.59991694829512
 20
-12.498221083152202
 30
0.0
 40
9.9999999999999343
100
AcDbArc
 50
59.999999999999794
 51
120.00000000000023
  0
POLYLINE
  5
17A
100
AcDbEntity
  8
一般
370
              15
  6
Continuous
 62
               7
100
AcDb2dPolyline
 66
               1
 10
0.0
 20
0.0
 30
0.0
 70
               1
 75
               5
  0
VERTEX
  5
17B
100
AcDbEntity
  8
一般
370
              15
  6
Continuous
 62
               7
100
AcDbVertex
100
AcDb2dVertex
 10
-187.19991694829514
 20
58.696699141100908
 30
0.0
  0
VERTEX
  5
17C
100
AcDbEntity
  8
一般
370
              15
  6
Continuous
 62
               7
100
AcDbVertex
100
AcDb2dVertex
 10
-178.19991694829514
 20
58.696699141100908
 30
0.0
  0
VERTEX
  5
17D
100
AcDbEntity
  8
一般
370
              15
  6
Continuous
 62
               7
100
AcDbVertex
100
AcDb2dVertex
 10
-178.19991694829514
 20
-16.303300858899092
 30
0.0
  0
VERTEX
  5
17E
100
AcDbEntity
  8
一般
370
              15
  6
Continuous
 62
               7
100
AcDbVertex
100
AcDb2dVertex
 10
-187.19991694829514
 20
-16.303300858899092
 30
0.0
  0
SEQEND
  5
17F
100
AcDbEntity
  8
一般
370
              15
  6
Continuous
 62
               7
  0
LWPOLYLINE
  5
180
100
AcDbEntity
  8
一般
370
              15
  6
STYLE_05
 62
               7
100
AcDbPolyline
 90
        7
 70
             129
 10
-154.63022793021113
 20
50.418697578383139
 42
0.3027756377319773
 10
-155.20665584966841
 20
49.470805134885786
 10
-154.16047375815475
 20
24.359255053780789
 42
0.0990195135927526
 10
-154.06760762714475
 20
23.978174963042132
 10
-144.00721975225861
 20
2.4090165231111769
 10
-116.81920491200947
 20
15.090177709942452
 10
-137.10906281093958
 20
58.591001454340983
  0
POLYLINE
  5
181
100
AcDbEntity
  8
一般
370
              15
  6
STYLE_05
 62
               7
100
AcDb2dPolyline
 66
               1
 10
0.0
 20
0.0
 30
0.0
 70
               1
 75
               5
  0
VERTEX
  5
182
100
AcDbEntity
  8
一般
370
              15
  6
STYLE_05
 62
               7
100
AcDbVertex
100
AcDb2dVertex
 10
-134.94454813884226
 20
6.6360702520549353
 30
0.0
  0
VERTEX
  5
183
100
AcDbEntity
  8
一般
370
              15
  6
STYLE_05
 62
               7
100
AcDbVertex
100
AcDb2dVertex
 10
-125.88187652542581
 20
10.863123980998694
 30
0.0
  0
VERTEX
  5
184
100
AcDbEntity
  8
一般
370
              15
  6
STYLE_05
 62
               7
100
AcDbVertex
100
AcDb2dVertex
 10
-96.29250042281933
 20
-52.575577312915811
 30
0.0
  0
VERTEX
  5
185
100
AcDbEntity
  8
一般
370
              15
  6
STYLE_05
 62
               7
100
AcDbVertex
100
AcDb2dVertex
 10
-105.3551720362359
 20
-56.80263104185957
 30
0.0
  0
SEQEND
  5
186
100
AcDbEntity
  8
一般
370
              15
  6
STYLE_05
 62
               7
  0
ENDBLK
  5
187
100
AcDbEntity
  8
DEFAULT
100
AcDbBlockEnd
  0
BLOCK
  5
188
100
AcDbEntity
  8
DEFAULT
100
AcDbBlockBegin
  2
グループ-5
 70
               0
 10
0.0
 20
0.0
 30
0.0
  3
グループ-5
  1

  0
LINE
  5
189
100
AcDbEntity
  8
一般
370
              15
  6
Continuous
 62
               7
100
AcDbLine
 10
103.30008305170443
 20
-702.3509470693042
 30
0.0
 11
122.30008305170441
 21
-702.3509470693042
 31
0.0
  0
LWPOLYLINE
  5
18A
100
AcDbEntity
  8
一般
370
              15
  6
Continuous
 62
               7
100
AcDbPolyline
 90
        5
 70
             128
 10
97.800083051704434
 20
-641.3509470693042
 10
97.800083051704434
 20
182.64905293069586
 42
-0.4142135623730945
 10
112.80008305170441
 20
197.6490529306958
 42
-0.4142135623730945
 10
127.80008305170438
 20
182.6490529306958
 10
127.80008305170438
 20
-641.3509470693042
  0
SPLINE
  5
18B
100
AcDbEntity
  8
一般
370
              15
  6
Continuous
 62
               7
100
AcDbSpline
210
0.0
220
0.0
230
1.0
 70
               9
 71
               2
 72
              17
 73
              14
 74
               0
 42
0.000001
 43
0.000001
 40
0.0
 40
0.0
 40
0.0
 40
1.0
 40
2.0
 40
3.0
 40
4.0
 40
5.0
 40
6.0
 40
7.0
 40
8.0
 40
9.0
 40
10.0
 40
11.0
 40
12.0
 40
12.0
 40
12.0
 10
105.30008305170442
 20
-34.55671843524425
 30
0.0
 10
108.78084516523757
 20
-33.350947069304198
 30
0.0
 10
116.81932093817124
 20
-33.350947069304198
 30
0.0
 10
123.78084516523754
 20
-35.762489801184302
 30
0.0
 10
127.80008305170438
 20
-39.939404337424094
 30
0.0
 10
127.80008305170438
 20
-44.762489801184302
 30
0.0
 10
123.78084516523754
 20
-48.939404337424094
 30
0.0
 10
116.81932093817124
 20
-51.350947069304198
 30
0.0
 10
108.78084516523757
 20
-51.350947069304198
 30
0.0
 10
101.81932093817127
 20
-48.939404337424094
 30
0.0
 10
97.800083051704434
 20
-44.762489801184302
 30
0.0
 10
97.800083051704434
 20
-39.939404337424094
 30
0.0
 10
101.81932093817127
 20
-35.762489801184302
 30
0.0
 10
105.30008305170442
 20
-34.55671843524425
 30
0.0
  0
POLYLINE
  5
18C
100
AcDbEntity
  8
一般
370
              15
  6
Continuous
 62
               7
100
AcDb2dPolyline
 66
               1
 10
0.0
 20
0.0
 30
0.0
 75
               5
  0
VERTEX
  5
18D
100
AcDbEntity
  8
一般
370
              15
  6
Continuous
 62
               7
100
AcDbVertex
100
AcDb2dVertex
 10
130.30008305170438
 20
-692.3509470693042
 30
0.0
  0
VERTEX
  5
18E
100
AcDbEntity
  8
一般
370
              15
  6
Continuous
 62
               7
100
AcDbVertex
100
AcDb2dVertex
 10
130.30008305170438
 20
-641.3509470693042
 30
0.0
  0
VERTEX
  5
18F
100
AcDbEntity
  8
一般
370
              15
  6
Continuous
 62
               7
100
AcDbVertex
100
AcDb2dVertex
 10
95.300083051704434
 20
-641.3509470693042
 30
0.0
  0
VERTEX
  5
190
100
AcDbEntity
  8
一般
370
              15
  6
Continuous
 62
               7
100
AcDbVertex
100
AcDb2dVertex
 10
95.300083051704434
 20
-692.3509470693042
 30
0.0
  0
SEQEND
  5
191
100
AcDbEntity
  8
一般
370
              15
  6
Continuous
 62
               7
  0
LINE
  5
192
100
AcDbEntity
  8
一般
370
              15
  6
Continuous
 62
               7
100
AcDbLine
 10
122.30008305170441
 20
-702.3509470693042
 30
0.0
 11
97.800083051704434
 21
-702.3509470693042
 31
0.0
  0
POLYLINE
  5
193
100
AcDbEntity
  8
一般
370
              15
  6
Continuous
 62
               7
100
AcDb2dPolyline
 66
               1
 10
0.0
 20
0.0
 30
0.0
 70
               1
 75
               5
  0
VERTEX
  5
194
100
AcDbEntity
  8
一般
370
              15
  6
Continuous
 62
               7
100
AcDbVertex
100
AcDb2dVertex
 10
87.800083051704434
 20
-692.3509470693042
 30
0.0
  0
VERTEX
  5
195
100
AcDbEntity
  8
一般
370
              15
  6
Continuous
 62
               7
100
AcDbVertex
100
AcDb2dVertex
 10
137.80008305170435
 20
-692.3509470693042
 30
0.0
  0
VERTEX
  5
196
100
AcDbEntity
  8
一般
370
              15
  6
Continuous
 62
               7
100
AcDbVertex
100
AcDb2dVertex
 10
137.80008305170435
 20
-702.3509470693042
 30
0.0
  0
VERTEX
  5
197
100
AcDbEntity
  8
一般
370
              15
  6
Continuous
 62
               7
100
AcDbVertex
100
AcDb2dVertex
 10
87.800083051704434
 20
-702.3509470693042
 30
0.0
  0
SEQEND
  5
198
100
AcDbEntity
  8
一般
370
              15
  6
Continuous
 62
               7
  0
SPLINE
  5
199
100
AcDbEntity
  8
一般
370
              15
  6
Continuous
 62
               7
100
AcDbSpline
210
0.0
220
0.0
230
1.0
 70
               9
 71
               2
 72
              17
 73
              14
 74
               0
 42
0.000001
 43
0.000001
 40
0.0
 40
0.0
 40
0.0
 40
1.0
 40
2.0
 40
3.0
 40
4.0
 40
5.0
 40
6.0
 40
7.0
 40
8.0
 40
9.0
 40
10.0
 40
11.0
 40
12.0
 40
12.0
 40
12.0
 10
105.80008305170442
 20
-35.422743839028684
 30
0.0
 10
109.0487943576687
 20
-34.350947069304198
 30
0.0
 10
116.55137174574011
 20
-34.350947069304198
 30
0.0
 10
123.04879435766867
 20
-36.494540608753177
 30
0.0
 10
126.80008305170438
 20
-40.207353529855219
 30
0.0
 10
126.80008305170438
 20
-44.494540608753177
 30
0.0
 10
123.04879435766867
 20
-48.207353529855219
 30
0.0
 10
116.55137174574011
 20
-50.350947069304198
 30
0.0
 10
109.0487943576687
 20
-50.350947069304198
 30
0.0
 10
102.55137174574014
 20
-48.207353529855219
 30
0.0
 10
98.800083051704434
 20
-44.494540608753177
 30
0.0
 10
98.800083051704434
 20
-40.207353529855219
 30
0.0
 10
102.55137174574014
 20
-36.494540608753177
 30
0.0
 10
105.80008305170442
 20
-35.422743839028684
 30
0.0
  0
POLYLINE
  5
19A
100
AcDbEntity
  8
一般
370
               5
  6
STYLE_05
 62
               7
100
AcDb2dPolyline
 66
               1
 10
0.0
 20
0.0
 30
0.0
 70
               1
 75
               5
  0
VERTEX
  5
19B
100
AcDbEntity
  8
一般
370
               5
  6
STYLE_05
 62
               7
100
AcDbVertex
100
AcDb2dVertex
 10
103.30008305170443
 20
-672.3509470693042
 30
0.0
  0
VERTEX
  5
19C
100
AcDbEntity
  8
一般
370
               5
  6
STYLE_05
 62
               7
100
AcDbVertex
100
AcDb2dVertex
 10
122.30008305170441
 20
-672.3509470693042
 30
0.0
  0
VERTEX
  5
19D
100
AcDbEntity
  8
一般
370
               5
  6
STYLE_05
 62
               7
100
AcDbVertex
100
AcDb2dVertex
 10
122.30008305170441
 20
-702.3509470693042
 30
0.0
  0
VERTEX
  5
19E
100
AcDbEntity
  8
一般
370
               5
  6
STYLE_05
 62
               7
100
AcDbVertex
100
AcDb2dVertex
 10
103.30008305170443
 20
-702.3509470693042
 30
0.0
  0
SEQEND
  5
19F
100
AcDbEntity
  8
一般
370
               5
  6
STYLE_05
 62
               7
  0
ENDBLK
  5
1A0
100
AcDbEntity
  8
DEFAULT
100
AcDbBlockEnd
  0
BLOCK
  5
1A1
100
AcDbEntity
  8
DEFAULT
100
AcDbBlockBegin
  2
グループ-6
 70
               0
 10
0.0
 20
0.0
 30
0.0
  3
グループ-6
  1

  0
LINE
  5
1A2
100
AcDbEntity
  8
一般
370
               5
  6
Continuous
 62
               7
100
AcDbLine
 10
52.429078741389262
 20
-778.0
 30
0.0
 11
94.800083051704434
 21
-778.0
 31
0.0
  0
LINE
  5
1A3
100
AcDbEntity
  8
一般
370
               5
  6
Continuous
 62
               7
100
AcDbLine
 10
94.800083051704434
 20
-785.79164381583882
 30
0.0
 11
52.429078741389262
 21
-785.79164381583882
 31
0.0
  0
LINE
  5
1A4
100
AcDbEntity
  8
一般
370
               5
  6
Continuous
 62
               7
100
AcDbLine
 10
173.17108736201942
 20
-785.79164381583882
 30
0.0
 11
130.80008305170438
 21
-785.79164381583882
 31
0.0
  0
LINE
  5
1A5
100
AcDbEntity
  8
一般
370
               5
  6
Continuous
 62
               7
100
AcDbLine
 10
130.80008305170438
 20
-778.0
 30
0.0
 11
173.17108736201942
 21
-778.0
 31
0.0
  0
SPLINE
  5
1A6
100
AcDbEntity
  8
KIKI
370
               5
  6
Continuous
 62
             250
100
AcDbSpline
210
0.0
220
0.0
230
1.0
 70
               8
 71
               2
 72
               6
 73
               3
 74
               0
 42
0.000001
 43
0.000001
 40
0.0
 40
0.0
 40
0.0
 40
1.0
 40
1.0
 40
1.0
 10
128.08875818629892
 20
-902.55847043501171
 30
0.0
 10
116.30697476148137
 20
-902.55847043501171
 30
0.0
 10
113.77921938128426
 20
-900.09072962311302
 30
0.0
  0
POLYLINE
  5
1A7
100
AcDbEntity
  8
KIKI
370
               5
  6
Continuous
 62
             250
100
AcDb2dPolyline
 66
               1
 10
0.0
 20
0.0
 30
0.0
 70
               1
 75
               5
  0
VERTEX
  5
1A8
100
AcDbEntity
  8
KIKI
370
               5
  6
Continuous
 62
             250
100
AcDbVertex
100
AcDb2dVertex
 10
96.088758186298975
 20
-853.55847043501171
 30
0.0
  0
VERTEX
  5
1A9
100
AcDbEntity
  8
KIKI
370
               5
  6
Continuous
 62
             250
100
AcDbVertex
100
AcDb2dVertex
 10
130.08875818629892
 20
-853.55847043501171
 30
0.0
  0
VERTEX
  5
1AA
100
AcDbEntity
  8
KIKI
370
               5
  6
Continuous
 62
             250
100
AcDbVertex
100
AcDb2dVertex
 10
130.08875818629892
 20
-878.55847043501171
 30
0.0
  0
VERTEX
  5
1AB
100
AcDbEntity
  8
KIKI
370
               5
  6
Continuous
 62
             250
100
AcDbVertex
100
AcDb2dVertex
 10
96.088758186298975
 20
-878.55847043501171
 30
0.0
  0
SEQEND
  5
1AC
100
AcDbEntity
  8
KIKI
370
               5
  6
Continuous
 62
             250
  0
POLYLINE
  5
1AD
100
AcDbEntity
  8
KIKI
370
               5
  6
Continuous
 62
             250
100
AcDb2dPolyline
 66
               1
 10
0.0
 20
0.0
 30
0.0
 70
               1
 75
               5
  0
VERTEX
  5
1AE
100
AcDbEntity
  8
KIKI
370
               5
  6
Continuous
 62
             250
100
AcDbVertex
100
AcDb2dVertex
 10
63.088758186298953
 20
-879.55847043501171
 30
0.0
  0
VERTEX
  5
1AF
100
AcDbEntity
  8
KIKI
370
               5
  6
Continuous
 62
             250
100
AcDbVertex
100
AcDb2dVertex
 10
83.088758186298975
 20
-879.55847043501171
 30
0.0
  0
VERTEX
  5
1B0
100
AcDbEntity
  8
KIKI
370
               5
  6
Continuous
 62
             250
100
AcDbVertex
100
AcDb2dVertex
 10
83.088758186298975
 20
-907.55847043501171
 30
0.0
  0
VERTEX
  5
1B1
100
AcDbEntity
  8
KIKI
370
               5
  6
Continuous
 62
             250
100
AcDbVertex
100
AcDb2dVertex
 10
63.088758186298953
 20
-907.55847043501171
 30
0.0
  0
SEQEND
  5
1B2
100
AcDbEntity
  8
KIKI
370
               5
  6
Continuous
 62
             250
  0
LINE
  5
1B3
100
AcDbEntity
  8
KIKI
370
               5
  6
Continuous
 62
             250
100
AcDbLine
 10
99.088758186298975
 20
-878.55847043501171
 30
0.0
 11
127.08875818629892
 21
-878.55847043501171
 31
0.0
  0
LINE
  5
1B4
100
AcDbEntity
  8
KIKI
370
               5
  6
Continuous
 62
             250
100
AcDbLine
 10
83.088758186298975
 20
-905.55847043501171
 30
0.0
 11
83.088758186298975
 21
-881.55847043501171
 31
0.0
  0
SPLINE
  5
1B5
100
AcDbEntity
  8
KIKI
370
               5
  6
Continuous
 62
             250
100
AcDbSpline
210
0.0
220
0.0
230
1.0
 70
               8
 71
               2
 72
               6
 73
               3
 74
               0
 42
0.000001
 43
0.000001
 40
0.0
 40
0.0
 40
0.0
 40
1.0
 40
1.0
 40
1.0
 10
99.088758186298975
 20
-878.55847043501171
 30
0.0
 10
99.088758186298975
 20
-881.55847043501171
 30
0.0
 10
83.088758186298975
 20
-881.55847043501171
 30
0.0
  0
SPLINE
  5
1B6
100
AcDbEntity
  8
KIKI
370
               5
  6
Continuous
 62
             250
100
AcDbSpline
210
0.0
220
0.0
230
1.0
 70
               8
 71
               2
 72
               6
 73
               3
 74
               0
 42
0.000001
 43
0.000001
 40
0.0
 40
0.0
 40
0.0
 40
1.0
 40
1.0
 40
1.0
 10
127.08875818629892
 20
-878.55847043501171
 30
0.0
 10
127.08875818629892
 20
-896.55847836046917
 30
0.0
 10
107.53318540999213
 20
-902.55847571864763
 30
0.0
  0
SPLINE
  5
1B7
100
AcDbEntity
  8
KIKI
370
               5
  6
Continuous
 62
             250
100
AcDbSpline
210
0.0
220
0.0
230
1.0
 70
               8
 71
               2
 72
               6
 73
               3
 74
               0
 42
0.000001
 43
0.000001
 40
0.0
 40
0.0
 40
0.0
 40
1.0
 40
1.0
 40
1.0
 10
98.0886901308034
 20
-904.60260917612254
 30
0.0
 10
91.367574073201396
 20
-905.55847043501171
 30
0.0
 10
83.088758186298975
 20
-905.55847043501171
 30
0.0
  0
POLYLINE
  5
1B8
100
AcDbEntity
  8
KIKI
370
               5
  6
Continuous
 62
             250
100
AcDb2dPolyline
 66
               1
 10
0.0
 20
0.0
 30
0.0
 75
               5
  0
VERTEX
  5
1B9
100
AcDbEntity
  8
KIKI
370
               5
  6
Continuous
 62
             250
100
AcDbVertex
100
AcDb2dVertex
 10
123.08875818629895
 20
-902.55847043501171
 30
0.0
  0
VERTEX
  5
1BA
100
AcDbEntity
  8
KIKI
370
               5
  6
Continuous
 62
             250
100
AcDbVertex
100
AcDb2dVertex
 10
128.08875818629892
 20
-902.55847043501171
 30
0.0
  0
VERTEX
  5
1BB
100
AcDbEntity
  8
KIKI
370
               5
  6
Continuous
 62
             250
100
AcDbVertex
100
AcDb2dVertex
 10
128.08875818629892
 20
-907.55847043501171
 30
0.0
  0
VERTEX
  5
1BC
100
AcDbEntity
  8
KIKI
370
               5
  6
Continuous
 62
             250
100
AcDbVertex
100
AcDb2dVertex
 10
98.088758186298975
 20
-907.55847043501171
 30
0.0
  0
VERTEX
  5
1BD
100
AcDbEntity
  8
KIKI
370
               5
  6
Continuous
 62
             250
100
AcDbVertex
100
AcDb2dVertex
 10
98.088758186298975
 20
-902.55847043501171
 30
0.0
  0
VERTEX
  5
1BE
100
AcDbEntity
  8
KIKI
370
               5
  6
Continuous
 62
             250
100
AcDbVertex
100
AcDb2dVertex
 10
107.69772287880599
 20
-902.55847043501171
 30
0.0
  0
SEQEND
  5
1BF
100
AcDbEntity
  8
KIKI
370
               5
  6
Continuous
 62
             250
  0
POLYLINE
  5
1C0
100
AcDbEntity
  8
一般
370
               5
  6
Continuous
 62
               7
100
AcDb2dPolyline
 66
               1
 10
0.0
 20
0.0
 30
0.0
 75
               5
  0
VERTEX
  5
1C1
100
AcDbEntity
  8
一般
370
               5
  6
Continuous
 62
               7
100
AcDbVertex
100
AcDb2dVertex
 10
130.80008305170438
 20
-785.79164381583882
 30
0.0
  0
VERTEX
  5
1C2
100
AcDbEntity
  8
一般
370
               5
  6
Continuous
 62
               7
100
AcDbVertex
100
AcDb2dVertex
 10
131.80008305170438
 20
-785.79164381583882
 30
0.0
  0
VERTEX
  5
1C3
100
AcDbEntity
  8
一般
370
               5
  6
Continuous
 62
               7
100
AcDbVertex
100
AcDb2dVertex
 10
131.80008305170438
 20
-778.0
 30
0.0
  0
VERTEX
  5
1C4
100
AcDbEntity
  8
一般
370
               5
  6
Continuous
 62
               7
100
AcDbVertex
100
AcDb2dVertex
 10
93.800083051704434
 20
-778.0
 30
0.0
  0
VERTEX
  5
1C5
100
AcDbEntity
  8
一般
370
               5
  6
Continuous
 62
               7
100
AcDbVertex
100
AcDb2dVertex
 10
93.800083051704434
 20
-785.79164381583882
 30
0.0
  0
VERTEX
  5
1C6
100
AcDbEntity
  8
一般
370
               5
  6
Continuous
 62
               7
100
AcDbVertex
100
AcDb2dVertex
 10
94.800083051704434
 20
-785.79164381583882
 30
0.0
  0
SEQEND
  5
1C7
100
AcDbEntity
  8
一般
370
               5
  6
Continuous
 62
               7
  0
POLYLINE
  5
1C8
100
AcDbEntity
  8
KIKI
370
               5
  6
Continuous
 62
             250
100
AcDb2dPolyline
 66
               1
 10
0.0
 20
0.0
 30
0.0
 70
               1
 75
               5
  0
VERTEX
  5
1C9
100
AcDbEntity
  8
KIKI
370
               5
  6
Continuous
 62
             250
100
AcDbVertex
100
AcDb2dVertex
 10
94.800083051704434
 20
-778.0
 30
0.0
  0
VERTEX
  5
1CA
100
AcDbEntity
  8
KIKI
370
               5
  6
Continuous
 62
             250
100
AcDbVertex
100
AcDb2dVertex
 10
130.80008305170438
 20
-778.0
 30
0.0
  0
VERTEX
  5
1CB
100
AcDbEntity
  8
KIKI
370
               5
  6
Continuous
 62
             250
100
AcDbVertex
100
AcDb2dVertex
 10
130.80008305170438
 20
-789.0
 30
0.0
  0
VERTEX
  5
1CC
100
AcDbEntity
  8
KIKI
370
               5
  6
Continuous
 62
             250
100
AcDbVertex
100
AcDb2dVertex
 10
94.800083051704434
 20
-789.0
 30
0.0
  0
SEQEND
  5
1CD
100
AcDbEntity
  8
KIKI
370
               5
  6
Continuous
 62
             250
  0
LINE
  5
1CE
100
AcDbEntity
  8
KIKI
370
               5
  6
Continuous
 62
             250
100
AcDbLine
 10
103.80008305170443
 20
-778.0
 30
0.0
 11
103.80008305170443
 21
-789.0
 31
0.0
  0
LINE
  5
1CF
100
AcDbEntity
  8
KIKI
370
               5
  6
Continuous
 62
             250
100
AcDbLine
 10
121.80008305170441
 20
-778.0
 30
0.0
 11
121.80008305170441
 21
-789.0
 31
0.0
  0
POLYLINE
  5
1D0
100
AcDbEntity
  8
KIKI
370
               5
  6
Continuous
 62
             250
100
AcDb2dPolyline
 66
               1
 10
0.0
 20
0.0
 30
0.0
 70
               1
 75
               5
  0
VERTEX
  5
1D1
100
AcDbEntity
  8
KIKI
370
               5
  6
Continuous
 62
             250
100
AcDbVertex
100
AcDb2dVertex
 10
100.30008305170443
 20
-789.0
 30
0.0
  0
VERTEX
  5
1D2
100
AcDbEntity
  8
KIKI
370
               5
  6
Continuous
 62
             250
100
AcDbVertex
100
AcDb2dVertex
 10
125.30008305170438
 20
-789.0
 30
0.0
  0
VERTEX
  5
1D3
100
AcDbEntity
  8
KIKI
370
               5
  6
Continuous
 62
             250
100
AcDbVertex
100
AcDb2dVertex
 10
125.30008305170438
 20
-807.0
 30
0.0
  0
VERTEX
  5
1D4
100
AcDbEntity
  8
KIKI
370
               5
  6
Continuous
 62
             250
100
AcDbVertex
100
AcDb2dVertex
 10
100.30008305170443
 20
-807.0
 30
0.0
  0
SEQEND
  5
1D5
100
AcDbEntity
  8
KIKI
370
               5
  6
Continuous
 62
             250
  0
POLYLINE
  5
1D6
100
AcDbEntity
  8
KIKI
370
               5
  6
Continuous
 62
             250
100
AcDb2dPolyline
 66
               1
 10
0.0
 20
0.0
 30
0.0
 70
               1
 75
               5
  0
VERTEX
  5
1D7
100
AcDbEntity
  8
KIKI
370
               5
  6
Continuous
 62
             250
100
AcDbVertex
100
AcDb2dVertex
 10
99.588758186298975
 20
-806.5
 30
0.0
  0
VERTEX
  5
1D8
100
AcDbEntity
  8
KIKI
370
               5
  6
Continuous
 62
             250
100
AcDbVertex
100
AcDb2dVertex
 10
126.58875818629892
 20
-806.5
 30
0.0
  0
VERTEX
  5
1D9
100
AcDbEntity
  8
KIKI
370
               5
  6
Continuous
 62
             250
100
AcDbVertex
100
AcDb2dVertex
 10
126.58875818629892
 20
-807.0
 30
0.0
  0
VERTEX
  5
1DA
100
AcDbEntity
  8
KIKI
370
               5
  6
Continuous
 62
             250
100
AcDbVertex
100
AcDb2dVertex
 10
99.588758186298975
 20
-807.0
 30
0.0
  0
SEQEND
  5
1DB
100
AcDbEntity
  8
KIKI
370
               5
  6
Continuous
 62
             250
  0
POLYLINE
  5
1DC
100
AcDbEntity
  8
KIKI
370
               5
  6
Continuous
 62
             250
100
AcDb2dPolyline
 66
               1
 10
0.0
 20
0.0
 30
0.0
 70
               1
 75
               5
  0
VERTEX
  5
1DD
100
AcDbEntity
  8
KIKI
370
               5
  6
Continuous
 62
             250
100
AcDbVertex
100
AcDb2dVertex
 10
99.588758186298975
 20
-805.51681799809296
 30
0.0
  0
VERTEX
  5
1DE
100
AcDbEntity
  8
KIKI
370
               5
  6
Continuous
 62
             250
100
AcDbVertex
100
AcDb2dVertex
 10
126.58875818629892
 20
-805.51681799809296
 30
0.0
  0
VERTEX
  5
1DF
100
AcDbEntity
  8
KIKI
370
               5
  6
Continuous
 62
             250
100
AcDbVertex
100
AcDb2dVertex
 10
126.58875818629892
 20
-806.01681799809296
 30
0.0
  0
VERTEX
  5
1E0
100
AcDbEntity
  8
KIKI
370
               5
  6
Continuous
 62
             250
100
AcDbVertex
100
AcDb2dVertex
 10
99.588758186298975
 20
-806.01681799809296
 30
0.0
  0
SEQEND
  5
1E1
100
AcDbEntity
  8
KIKI
370
               5
  6
Continuous
 62
             250
  0
POLYLINE
  5
1E2
100
AcDbEntity
  8
KIKI
370
               5
  6
Continuous
 62
             250
100
AcDb2dPolyline
 66
               1
 10
0.0
 20
0.0
 30
0.0
 70
               1
 75
               5
  0
VERTEX
  5
1E3
100
AcDbEntity
  8
KIKI
370
               5
  6
Continuous
 62
             250
100
AcDbVertex
100
AcDb2dVertex
 10
99.588758186298975
 20
-804.53363599618592
 30
0.0
  0
VERTEX
  5
1E4
100
AcDbEntity
  8
KIKI
370
               5
  6
Continuous
 62
             250
100
AcDbVertex
100
AcDb2dVertex
 10
126.58875818629892
 20
-804.53363599618592
 30
0.0
  0
VERTEX
  5
1E5
100
AcDbEntity
  8
KIKI
370
               5
  6
Continuous
 62
             250
100
AcDbVertex
100
AcDb2dVertex
 10
126.58875818629892
 20
-805.03363599618592
 30
0.0
  0
VERTEX
  5
1E6
100
AcDbEntity
  8
KIKI
370
               5
  6
Continuous
 62
             250
100
AcDbVertex
100
AcDb2dVertex
 10
99.588758186298975
 20
-805.03363599618592
 30
0.0
  0
SEQEND
  5
1E7
100
AcDbEntity
  8
KIKI
370
               5
  6
Continuous
 62
             250
  0
POLYLINE
  5
1E8
100
AcDbEntity
  8
KIKI
370
               5
  6
Continuous
 62
             250
100
AcDb2dPolyline
 66
               1
 10
0.0
 20
0.0
 30
0.0
 70
               1
 75
               5
  0
VERTEX
  5
1E9
100
AcDbEntity
  8
KIKI
370
               5
  6
Continuous
 62
             250
100
AcDbVertex
100
AcDb2dVertex
 10
99.588758186298975
 20
-803.55045399427888
 30
0.0
  0
VERTEX
  5
1EA
100
AcDbEntity
  8
KIKI
370
               5
  6
Continuous
 62
             250
100
AcDbVertex
100
AcDb2dVertex
 10
126.58875818629892
 20
-803.55045399427888
 30
0.0
  0
VERTEX
  5
1EB
100
AcDbEntity
  8
KIKI
370
               5
  6
Continuous
 62
             250
100
AcDbVertex
100
AcDb2dVertex
 10
126.58875818629892
 20
-804.05045399427888
 30
0.0
  0
VERTEX
  5
1EC
100
AcDbEntity
  8
KIKI
370
               5
  6
Continuous
 62
             250
100
AcDbVertex
100
AcDb2dVertex
 10
99.588758186298975
 20
-804.05045399427888
 30
0.0
  0
SEQEND
  5
1ED
100
AcDbEntity
  8
KIKI
370
               5
  6
Continuous
 62
             250
  0
POLYLINE
  5
1EE
100
AcDbEntity
  8
KIKI
370
               5
  6
Continuous
 62
             250
100
AcDb2dPolyline
 66
               1
 10
0.0
 20
0.0
 30
0.0
 70
               1
 75
               5
  0
VERTEX
  5
1EF
100
AcDbEntity
  8
KIKI
370
               5
  6
Continuous
 62
             250
100
AcDbVertex
100
AcDb2dVertex
 10
99.588758186298975
 20
-802.56727199237184
 30
0.0
  0
VERTEX
  5
1F0
100
AcDbEntity
  8
KIKI
370
               5
  6
Continuous
 62
             250
100
AcDbVertex
100
AcDb2dVertex
 10
126.58875818629892
 20
-802.56727199237184
 30
0.0
  0
VERTEX
  5
1F1
100
AcDbEntity
  8
KIKI
370
               5
  6
Continuous
 62
             250
100
AcDbVertex
100
AcDb2dVertex
 10
126.58875818629892
 20
-803.06727199237184
 30
0.0
  0
VERTEX
  5
1F2
100
AcDbEntity
  8
KIKI
370
               5
  6
Continuous
 62
             250
100
AcDbVertex
100
AcDb2dVertex
 10
99.588758186298975
 20
-803.06727199237184
 30
0.0
  0
SEQEND
  5
1F3
100
AcDbEntity
  8
KIKI
370
               5
  6
Continuous
 62
             250
  0
POLYLINE
  5
1F4
100
AcDbEntity
  8
KIKI
370
               5
  6
Continuous
 62
             250
100
AcDb2dPolyline
 66
               1
 10
0.0
 20
0.0
 30
0.0
 70
               1
 75
               5
  0
VERTEX
  5
1F5
100
AcDbEntity
  8
KIKI
370
               5
  6
Continuous
 62
             250
100
AcDbVertex
100
AcDb2dVertex
 10
99.588758186298975
 20
-801.5840899904648
 30
0.0
  0
VERTEX
  5
1F6
100
AcDbEntity
  8
KIKI
370
               5
  6
Continuous
 62
             250
100
AcDbVertex
100
AcDb2dVertex
 10
126.58875818629892
 20
-801.5840899904648
 30
0.0
  0
VERTEX
  5
1F7
100
AcDbEntity
  8
KIKI
370
               5
  6
Continuous
 62
             250
100
AcDbVertex
100
AcDb2dVertex
 10
126.58875818629892
 20
-802.0840899904648
 30
0.0
  0
VERTEX
  5
1F8
100
AcDbEntity
  8
KIKI
370
               5
  6
Continuous
 62
             250
100
AcDbVertex
100
AcDb2dVertex
 10
99.588758186298975
 20
-802.0840899904648
 30
0.0
  0
SEQEND
  5
1F9
100
AcDbEntity
  8
KIKI
370
               5
  6
Continuous
 62
             250
  0
POLYLINE
  5
1FA
100
AcDbEntity
  8
KIKI
370
               5
  6
Continuous
 62
             250
100
AcDb2dPolyline
 66
               1
 10
0.0
 20
0.0
 30
0.0
 70
               1
 75
               5
  0
VERTEX
  5
1FB
100
AcDbEntity
  8
KIKI
370
               5
  6
Continuous
 62
             250
100
AcDbVertex
100
AcDb2dVertex
 10
99.588758186298975
 20
-800.60090798855776
 30
0.0
  0
VERTEX
  5
1FC
100
AcDbEntity
  8
KIKI
370
               5
  6
Continuous
 62
             250
100
AcDbVertex
100
AcDb2dVertex
 10
126.58875818629892
 20
-800.60090798855776
 30
0.0
  0
VERTEX
  5
1FD
100
AcDbEntity
  8
KIKI
370
               5
  6
Continuous
 62
             250
100
AcDbVertex
100
AcDb2dVertex
 10
126.58875818629892
 20
-801.10090798855776
 30
0.0
  0
VERTEX
  5
1FE
100
AcDbEntity
  8
KIKI
370
               5
  6
Continuous
 62
             250
100
AcDbVertex
100
AcDb2dVertex
 10
99.588758186298975
 20
-801.10090798855776
 30
0.0
  0
SEQEND
  5
1FF
100
AcDbEntity
  8
KIKI
370
               5
  6
Continuous
 62
             250
  0
POLYLINE
  5
200
100
AcDbEntity
  8
KIKI
370
               5
  6
Continuous
 62
             250
100
AcDb2dPolyline
 66
               1
 10
0.0
 20
0.0
 30
0.0
 70
               1
 75
               5
  0
VERTEX
  5
201
100
AcDbEntity
  8
KIKI
370
               5
  6
Continuous
 62
             250
100
AcDbVertex
100
AcDb2dVertex
 10
99.588758186298975
 20
-799.61772598665073
 30
0.0
  0
VERTEX
  5
202
100
AcDbEntity
  8
KIKI
370
               5
  6
Continuous
 62
             250
100
AcDbVertex
100
AcDb2dVertex
 10
126.58875818629892
 20
-799.61772598665073
 30
0.0
  0
VERTEX
  5
203
100
AcDbEntity
  8
KIKI
370
               5
  6
Continuous
 62
             250
100
AcDbVertex
100
AcDb2dVertex
 10
126.58875818629892
 20
-800.11772598665073
 30
0.0
  0
VERTEX
  5
204
100
AcDbEntity
  8
KIKI
370
               5
  6
Continuous
 62
             250
100
AcDbVertex
100
AcDb2dVertex
 10
99.588758186298975
 20
-800.11772598665073
 30
0.0
  0
SEQEND
  5
205
100
AcDbEntity
  8
KIKI
370
               5
  6
Continuous
 62
             250
  0
POLYLINE
  5
206
100
AcDbEntity
  8
KIKI
370
               5
  6
Continuous
 62
             250
100
AcDb2dPolyline
 66
               1
 10
0.0
 20
0.0
 30
0.0
 70
               1
 75
               5
  0
VERTEX
  5
207
100
AcDbEntity
  8
KIKI
370
               5
  6
Continuous
 62
             250
100
AcDbVertex
100
AcDb2dVertex
 10
99.588758186298975
 20
-798.63454398474369
 30
0.0
  0
VERTEX
  5
208
100
AcDbEntity
  8
KIKI
370
               5
  6
Continuous
 62
             250
100
AcDbVertex
100
AcDb2dVertex
 10
126.58875818629892
 20
-798.63454398474369
 30
0.0
  0
VERTEX
  5
209
100
AcDbEntity
  8
KIKI
370
               5
  6
Continuous
 62
             250
100
AcDbVertex
100
AcDb2dVertex
 10
126.58875818629892
 20
-799.13454398474369
 30
0.0
  0
VERTEX
  5
20A
100
AcDbEntity
  8
KIKI
370
               5
  6
Continuous
 62
             250
100
AcDbVertex
100
AcDb2dVertex
 10
99.588758186298975
 20
-799.13454398474369
 30
0.0
  0
SEQEND
  5
20B
100
AcDbEntity
  8
KIKI
370
               5
  6
Continuous
 62
             250
  0
POLYLINE
  5
20C
100
AcDbEntity
  8
KIKI
370
               5
  6
Continuous
 62
             250
100
AcDb2dPolyline
 66
               1
 10
0.0
 20
0.0
 30
0.0
 70
               1
 75
               5
  0
VERTEX
  5
20D
100
AcDbEntity
  8
KIKI
370
               5
  6
Continuous
 62
             250
100
AcDbVertex
100
AcDb2dVertex
 10
99.588758186298975
 20
-797.65136198283665
 30
0.0
  0
VERTEX
  5
20E
100
AcDbEntity
  8
KIKI
370
               5
  6
Continuous
 62
             250
100
AcDbVertex
100
AcDb2dVertex
 10
126.58875818629892
 20
-797.65136198283665
 30
0.0
  0
VERTEX
  5
20F
100
AcDbEntity
  8
KIKI
370
               5
  6
Continuous
 62
             250
100
AcDbVertex
100
AcDb2dVertex
 10
126.58875818629892
 20
-798.15136198283665
 30
0.0
  0
VERTEX
  5
210
100
AcDbEntity
  8
KIKI
370
               5
  6
Continuous
 62
             250
100
AcDbVertex
100
AcDb2dVertex
 10
99.588758186298975
 20
-798.15136198283665
 30
0.0
  0
SEQEND
  5
211
100
AcDbEntity
  8
KIKI
370
               5
  6
Continuous
 62
             250
  0
POLYLINE
  5
212
100
AcDbEntity
  8
KIKI
370
               5
  6
Continuous
 62
             250
100
AcDb2dPolyline
 66
               1
 10
0.0
 20
0.0
 30
0.0
 70
               1
 75
               5
  0
VERTEX
  5
213
100
AcDbEntity
  8
KIKI
370
               5
  6
Continuous
 62
             250
100
AcDbVertex
100
AcDb2dVertex
 10
99.588758186298975
 20
-796.66817998092961
 30
0.0
  0
VERTEX
  5
214
100
AcDbEntity
  8
KIKI
370
               5
  6
Continuous
 62
             250
100
AcDbVertex
100
AcDb2dVertex
 10
126.58875818629892
 20
-796.66817998092961
 30
0.0
  0
VERTEX
  5
215
100
AcDbEntity
  8
KIKI
370
               5
  6
Continuous
 62
             250
100
AcDbVertex
100
AcDb2dVertex
 10
126.58875818629892
 20
-797.16817998092961
 30
0.0
  0
VERTEX
  5
216
100
AcDbEntity
  8
KIKI
370
               5
  6
Continuous
 62
             250
100
AcDbVertex
100
AcDb2dVertex
 10
99.588758186298975
 20
-797.16817998092961
 30
0.0
  0
SEQEND
  5
217
100
AcDbEntity
  8
KIKI
370
               5
  6
Continuous
 62
             250
  0
POLYLINE
  5
218
100
AcDbEntity
  8
KIKI
370
               5
  6
Continuous
 62
             250
100
AcDb2dPolyline
 66
               1
 10
0.0
 20
0.0
 30
0.0
 70
               1
 75
               5
  0
VERTEX
  5
219
100
AcDbEntity
  8
KIKI
370
               5
  6
Continuous
 62
             250
100
AcDbVertex
100
AcDb2dVertex
 10
99.588758186298975
 20
-795.68499797902257
 30
0.0
  0
VERTEX
  5
21A
100
AcDbEntity
  8
KIKI
370
               5
  6
Continuous
 62
             250
100
AcDbVertex
100
AcDb2dVertex
 10
126.58875818629892
 20
-795.68499797902257
 30
0.0
  0
VERTEX
  5
21B
100
AcDbEntity
  8
KIKI
370
               5
  6
Continuous
 62
             250
100
AcDbVertex
100
AcDb2dVertex
 10
126.58875818629892
 20
-796.18499797902257
 30
0.0
  0
VERTEX
  5
21C
100
AcDbEntity
  8
KIKI
370
               5
  6
Continuous
 62
             250
100
AcDbVertex
100
AcDb2dVertex
 10
99.588758186298975
 20
-796.18499797902257
 30
0.0
  0
SEQEND
  5
21D
100
AcDbEntity
  8
KIKI
370
               5
  6
Continuous
 62
             250
  0
POLYLINE
  5
21E
100
AcDbEntity
  8
KIKI
370
               5
  6
Continuous
 62
             250
100
AcDb2dPolyline
 66
               1
 10
0.0
 20
0.0
 30
0.0
 70
               1
 75
               5
  0
VERTEX
  5
21F
100
AcDbEntity
  8
KIKI
370
               5
  6
Continuous
 62
             250
100
AcDbVertex
100
AcDb2dVertex
 10
99.588758186298975
 20
-794.70181597711553
 30
0.0
  0
VERTEX
  5
220
100
AcDbEntity
  8
KIKI
370
               5
  6
Continuous
 62
             250
100
AcDbVertex
100
AcDb2dVertex
 10
126.58875818629892
 20
-794.70181597711553
 30
0.0
  0
VERTEX
  5
221
100
AcDbEntity
  8
KIKI
370
               5
  6
Continuous
 62
             250
100
AcDbVertex
100
AcDb2dVertex
 10
126.58875818629892
 20
-795.20181597711553
 30
0.0
  0
VERTEX
  5
222
100
AcDbEntity
  8
KIKI
370
               5
  6
Continuous
 62
             250
100
AcDbVertex
100
AcDb2dVertex
 10
99.588758186298975
 20
-795.20181597711553
 30
0.0
  0
SEQEND
  5
223
100
AcDbEntity
  8
KIKI
370
               5
  6
Continuous
 62
             250
  0
POLYLINE
  5
224
100
AcDbEntity
  8
KIKI
370
               5
  6
Continuous
 62
             250
100
AcDb2dPolyline
 66
               1
 10
0.0
 20
0.0
 30
0.0
 70
               1
 75
               5
  0
VERTEX
  5
225
100
AcDbEntity
  8
KIKI
370
               5
  6
Continuous
 62
             250
100
AcDbVertex
100
AcDb2dVertex
 10
99.588758186298975
 20
-793.71863397520849
 30
0.0
  0
VERTEX
  5
226
100
AcDbEntity
  8
KIKI
370
               5
  6
Continuous
 62
             250
100
AcDbVertex
100
AcDb2dVertex
 10
126.58875818629892
 20
-793.71863397520849
 30
0.0
  0
VERTEX
  5
227
100
AcDbEntity
  8
KIKI
370
               5
  6
Continuous
 62
             250
100
AcDbVertex
100
AcDb2dVertex
 10
126.58875818629892
 20
-794.21863397520849
 30
0.0
  0
VERTEX
  5
228
100
AcDbEntity
  8
KIKI
370
               5
  6
Continuous
 62
             250
100
AcDbVertex
100
AcDb2dVertex
 10
99.588758186298975
 20
-794.21863397520849
 30
0.0
  0
SEQEND
  5
229
100
AcDbEntity
  8
KIKI
370
               5
  6
Continuous
 62
             250
  0
POLYLINE
  5
22A
100
AcDbEntity
  8
KIKI
370
               5
  6
Continuous
 62
             250
100
AcDb2dPolyline
 66
               1
 10
0.0
 20
0.0
 30
0.0
 70
               1
 75
               5
  0
VERTEX
  5
22B
100
AcDbEntity
  8
KIKI
370
               5
  6
Continuous
 62
             250
100
AcDbVertex
100
AcDb2dVertex
 10
99.588758186298975
 20
-792.73545197330145
 30
0.0
  0
VERTEX
  5
22C
100
AcDbEntity
  8
KIKI
370
               5
  6
Continuous
 62
             250
100
AcDbVertex
100
AcDb2dVertex
 10
126.58875818629892
 20
-792.73545197330145
 30
0.0
  0
VERTEX
  5
22D
100
AcDbEntity
  8
KIKI
370
               5
  6
Continuous
 62
             250
100
AcDbVertex
100
AcDb2dVertex
 10
126.58875818629892
 20
-793.23545197330145
 30
0.0
  0
VERTEX
  5
22E
100
AcDbEntity
  8
KIKI
370
               5
  6
Continuous
 62
             250
100
AcDbVertex
100
AcDb2dVertex
 10
99.588758186298975
 20
-793.23545197330145
 30
0.0
  0
SEQEND
  5
22F
100
AcDbEntity
  8
KIKI
370
               5
  6
Continuous
 62
             250
  0
POLYLINE
  5
230
100
AcDbEntity
  8
KIKI
370
               5
  6
Continuous
 62
             250
100
AcDb2dPolyline
 66
               1
 10
0.0
 20
0.0
 30
0.0
 70
               1
 75
               5
  0
VERTEX
  5
231
100
AcDbEntity
  8
KIKI
370
               5
  6
Continuous
 62
             250
100
AcDbVertex
100
AcDb2dVertex
 10
99.588758186298975
 20
-791.75226997139441
 30
0.0
  0
VERTEX
  5
232
100
AcDbEntity
  8
KIKI
370
               5
  6
Continuous
 62
             250
100
AcDbVertex
100
AcDb2dVertex
 10
126.58875818629892
 20
-791.75226997139441
 30
0.0
  0
VERTEX
  5
233
100
AcDbEntity
  8
KIKI
370
               5
  6
Continuous
 62
             250
100
AcDbVertex
100
AcDb2dVertex
 10
126.58875818629892
 20
-792.25226997139441
 30
0.0
  0
VERTEX
  5
234
100
AcDbEntity
  8
KIKI
370
               5
  6
Continuous
 62
             250
100
AcDbVertex
100
AcDb2dVertex
 10
99.588758186298975
 20
-792.25226997139441
 30
0.0
  0
SEQEND
  5
235
100
AcDbEntity
  8
KIKI
370
               5
  6
Continuous
 62
             250
  0
POLYLINE
  5
236
100
AcDbEntity
  8
KIKI
370
               5
  6
Continuous
 62
             250
100
AcDb2dPolyline
 66
               1
 10
0.0
 20
0.0
 30
0.0
 70
               1
 75
               5
  0
VERTEX
  5
237
100
AcDbEntity
  8
KIKI
370
               5
  6
Continuous
 62
             250
100
AcDbVertex
100
AcDb2dVertex
 10
99.588758186298975
 20
-790.76908796948737
 30
0.0
  0
VERTEX
  5
238
100
AcDbEntity
  8
KIKI
370
               5
  6
Continuous
 62
             250
100
AcDbVertex
100
AcDb2dVertex
 10
126.58875818629892
 20
-790.76908796948737
 30
0.0
  0
VERTEX
  5
239
100
AcDbEntity
  8
KIKI
370
               5
  6
Continuous
 62
             250
100
AcDbVertex
100
AcDb2dVertex
 10
126.58875818629892
 20
-791.26908796948737
 30
0.0
  0
VERTEX
  5
23A
100
AcDbEntity
  8
KIKI
370
               5
  6
Continuous
 62
             250
100
AcDbVertex
100
AcDb2dVertex
 10
99.588758186298975
 20
-791.26908796948737
 30
0.0
  0
SEQEND
  5
23B
100
AcDbEntity
  8
KIKI
370
               5
  6
Continuous
 62
             250
  0
POLYLINE
  5
23C
100
AcDbEntity
  8
KIKI
370
               5
  6
Continuous
 62
             250
100
AcDb2dPolyline
 66
               1
 10
0.0
 20
0.0
 30
0.0
 70
               1
 75
               5
  0
VERTEX
  5
23D
100
AcDbEntity
  8
KIKI
370
               5
  6
Continuous
 62
             250
100
AcDbVertex
100
AcDb2dVertex
 10
99.588758186298975
 20
-789.78590596758033
 30
0.0
  0
VERTEX
  5
23E
100
AcDbEntity
  8
KIKI
370
               5
  6
Continuous
 62
             250
100
AcDbVertex
100
AcDb2dVertex
 10
126.58875818629892
 20
-789.78590596758033
 30
0.0
  0
VERTEX
  5
23F
100
AcDbEntity
  8
KIKI
370
               5
  6
Continuous
 62
             250
100
AcDbVertex
100
AcDb2dVertex
 10
126.58875818629892
 20
-790.28590596758033
 30
0.0
  0
VERTEX
  5
240
100
AcDbEntity
  8
KIKI
370
               5
  6
Continuous
 62
             250
100
AcDbVertex
100
AcDb2dVertex
 10
99.588758186298975
 20
-790.28590596758033
 30
0.0
  0
SEQEND
  5
241
100
AcDbEntity
  8
KIKI
370
               5
  6
Continuous
 62
             250
  0
POLYLINE
  5
242
100
AcDbEntity
  8
KIKI
370
               5
  6
Continuous
 62
             250
100
AcDb2dPolyline
 66
               1
 10
0.0
 20
0.0
 30
0.0
 70
               1
 75
               5
  0
VERTEX
  5
243
100
AcDbEntity
  8
KIKI
370
               5
  6
Continuous
 62
             250
100
AcDbVertex
100
AcDb2dVertex
 10
102.80008305170443
 20
-762.0
 30
0.0
  0
VERTEX
  5
244
100
AcDbEntity
  8
KIKI
370
               5
  6
Continuous
 62
             250
100
AcDbVertex
100
AcDb2dVertex
 10
122.80008305170441
 20
-762.0
 30
0.0
  0
VERTEX
  5
245
100
AcDbEntity
  8
KIKI
370
               5
  6
Continuous
 62
             250
100
AcDbVertex
100
AcDb2dVertex
 10
122.80008305170441
 20
-778.0
 30
0.0
  0
VERTEX
  5
246
100
AcDbEntity
  8
KIKI
370
               5
  6
Continuous
 62
             250
100
AcDbVertex
100
AcDb2dVertex
 10
102.80008305170443
 20
-778.0
 30
0.0
  0
SEQEND
  5
247
100
AcDbEntity
  8
KIKI
370
               5
  6
Continuous
 62
             250
  0
POLYLINE
  5
248
100
AcDbEntity
  8
KIKI
370
               5
  6
Continuous
 62
             250
100
AcDb2dPolyline
 66
               1
 10
0.0
 20
0.0
 30
0.0
 70
               1
 75
               5
  0
VERTEX
  5
249
100
AcDbEntity
  8
KIKI
370
               5
  6
Continuous
 62
             250
100
AcDbVertex
100
AcDb2dVertex
 10
102.30008305170443
 20
-762.0
 30
0.0
  0
VERTEX
  5
24A
100
AcDbEntity
  8
KIKI
370
               5
  6
Continuous
 62
             250
100
AcDbVertex
100
AcDb2dVertex
 10
123.30008305170441
 20
-762.0
 30
0.0
  0
VERTEX
  5
24B
100
AcDbEntity
  8
KIKI
370
               5
  6
Continuous
 62
             250
100
AcDbVertex
100
AcDb2dVertex
 10
123.30008305170441
 20
-762.5
 30
0.0
  0
VERTEX
  5
24C
100
AcDbEntity
  8
KIKI
370
               5
  6
Continuous
 62
             250
100
AcDbVertex
100
AcDb2dVertex
 10
102.30008305170443
 20
-762.5
 30
0.0
  0
SEQEND
  5
24D
100
AcDbEntity
  8
KIKI
370
               5
  6
Continuous
 62
             250
  0
POLYLINE
  5
24E
100
AcDbEntity
  8
KIKI
370
               5
  6
Continuous
 62
             250
100
AcDb2dPolyline
 66
               1
 10
0.0
 20
0.0
 30
0.0
 70
               1
 75
               5
  0
VERTEX
  5
24F
100
AcDbEntity
  8
KIKI
370
               5
  6
Continuous
 62
             250
100
AcDbVertex
100
AcDb2dVertex
 10
102.30008305170443
 20
-763.02908889194271
 30
0.0
  0
VERTEX
  5
250
100
AcDbEntity
  8
KIKI
370
               5
  6
Continuous
 62
             250
100
AcDbVertex
100
AcDb2dVertex
 10
123.30008305170441
 20
-763.02908889194271
 30
0.0
  0
VERTEX
  5
251
100
AcDbEntity
  8
KIKI
370
               5
  6
Continuous
 62
             250
100
AcDbVertex
100
AcDb2dVertex
 10
123.30008305170441
 20
-763.52908889194271
 30
0.0
  0
VERTEX
  5
252
100
AcDbEntity
  8
KIKI
370
               5
  6
Continuous
 62
             250
100
AcDbVertex
100
AcDb2dVertex
 10
102.30008305170443
 20
-763.52908889194271
 30
0.0
  0
SEQEND
  5
253
100
AcDbEntity
  8
KIKI
370
               5
  6
Continuous
 62
             250
  0
POLYLINE
  5
254
100
AcDbEntity
  8
KIKI
370
               5
  6
Continuous
 62
             250
100
AcDb2dPolyline
 66
               1
 10
0.0
 20
0.0
 30
0.0
 70
               1
 75
               5
  0
VERTEX
  5
255
100
AcDbEntity
  8
KIKI
370
               5
  6
Continuous
 62
             250
100
AcDbVertex
100
AcDb2dVertex
 10
102.30008305170443
 20
-764.05817778388541
 30
0.0
  0
VERTEX
  5
256
100
AcDbEntity
  8
KIKI
370
               5
  6
Continuous
 62
             250
100
AcDbVertex
100
AcDb2dVertex
 10
123.30008305170441
 20
-764.05817778388541
 30
0.0
  0
VERTEX
  5
257
100
AcDbEntity
  8
KIKI
370
               5
  6
Continuous
 62
             250
100
AcDbVertex
100
AcDb2dVertex
 10
123.30008305170441
 20
-764.55817778388541
 30
0.0
  0
VERTEX
  5
258
100
AcDbEntity
  8
KIKI
370
               5
  6
Continuous
 62
             250
100
AcDbVertex
100
AcDb2dVertex
 10
102.30008305170443
 20
-764.55817778388541
 30
0.0
  0
SEQEND
  5
259
100
AcDbEntity
  8
KIKI
370
               5
  6
Continuous
 62
             250
  0
POLYLINE
  5
25A
100
AcDbEntity
  8
KIKI
370
               5
  6
Continuous
 62
             250
100
AcDb2dPolyline
 66
               1
 10
0.0
 20
0.0
 30
0.0
 70
               1
 75
               5
  0
VERTEX
  5
25B
100
AcDbEntity
  8
KIKI
370
               5
  6
Continuous
 62
             250
100
AcDbVertex
100
AcDb2dVertex
 10
102.30008305170443
 20
-765.08726667582812
 30
0.0
  0
VERTEX
  5
25C
100
AcDbEntity
  8
KIKI
370
               5
  6
Continuous
 62
             250
100
AcDbVertex
100
AcDb2dVertex
 10
123.30008305170441
 20
-765.08726667582812
 30
0.0
  0
VERTEX
  5
25D
100
AcDbEntity
  8
KIKI
370
               5
  6
Continuous
 62
             250
100
AcDbVertex
100
AcDb2dVertex
 10
123.30008305170441
 20
-765.58726667582812
 30
0.0
  0
VERTEX
  5
25E
100
AcDbEntity
  8
KIKI
370
               5
  6
Continuous
 62
             250
100
AcDbVertex
100
AcDb2dVertex
 10
102.30008305170443
 20
-765.58726667582812
 30
0.0
  0
SEQEND
  5
25F
100
AcDbEntity
  8
KIKI
370
               5
  6
Continuous
 62
             250
  0
POLYLINE
  5
260
100
AcDbEntity
  8
KIKI
370
               5
  6
Continuous
 62
             250
100
AcDb2dPolyline
 66
               1
 10
0.0
 20
0.0
 30
0.0
 70
               1
 75
               5
  0
VERTEX
  5
261
100
AcDbEntity
  8
KIKI
370
               5
  6
Continuous
 62
             250
100
AcDbVertex
100
AcDb2dVertex
 10
102.30008305170443
 20
-766.11635556777082
 30
0.0
  0
VERTEX
  5
262
100
AcDbEntity
  8
KIKI
370
               5
  6
Continuous
 62
             250
100
AcDbVertex
100
AcDb2dVertex
 10
123.30008305170441
 20
-766.11635556777082
 30
0.0
  0
VERTEX
  5
263
100
AcDbEntity
  8
KIKI
370
               5
  6
Continuous
 62
             250
100
AcDbVertex
100
AcDb2dVertex
 10
123.30008305170441
 20
-766.61635556777082
 30
0.0
  0
VERTEX
  5
264
100
AcDbEntity
  8
KIKI
370
               5
  6
Continuous
 62
             250
100
AcDbVertex
100
AcDb2dVertex
 10
102.30008305170443
 20
-766.61635556777082
 30
0.0
  0
SEQEND
  5
265
100
AcDbEntity
  8
KIKI
370
               5
  6
Continuous
 62
             250
  0
POLYLINE
  5
266
100
AcDbEntity
  8
KIKI
370
               5
  6
Continuous
 62
             250
100
AcDb2dPolyline
 66
               1
 10
0.0
 20
0.0
 30
0.0
 70
               1
 75
               5
  0
VERTEX
  5
267
100
AcDbEntity
  8
KIKI
370
               5
  6
Continuous
 62
             250
100
AcDbVertex
100
AcDb2dVertex
 10
102.30008305170443
 20
-767.14544445971353
 30
0.0
  0
VERTEX
  5
268
100
AcDbEntity
  8
KIKI
370
               5
  6
Continuous
 62
             250
100
AcDbVertex
100
AcDb2dVertex
 10
123.30008305170441
 20
-767.14544445971353
 30
0.0
  0
VERTEX
  5
269
100
AcDbEntity
  8
KIKI
370
               5
  6
Continuous
 62
             250
100
AcDbVertex
100
AcDb2dVertex
 10
123.30008305170441
 20
-767.64544445971353
 30
0.0
  0
VERTEX
  5
26A
100
AcDbEntity
  8
KIKI
370
               5
  6
Continuous
 62
             250
100
AcDbVertex
100
AcDb2dVertex
 10
102.30008305170443
 20
-767.64544445971353
 30
0.0
  0
SEQEND
  5
26B
100
AcDbEntity
  8
KIKI
370
               5
  6
Continuous
 62
             250
  0
POLYLINE
  5
26C
100
AcDbEntity
  8
KIKI
370
               5
  6
Continuous
 62
             250
100
AcDb2dPolyline
 66
               1
 10
0.0
 20
0.0
 30
0.0
 70
               1
 75
               5
  0
VERTEX
  5
26D
100
AcDbEntity
  8
KIKI
370
               5
  6
Continuous
 62
             250
100
AcDbVertex
100
AcDb2dVertex
 10
102.30008305170443
 20
-768.17453335165624
 30
0.0
  0
VERTEX
  5
26E
100
AcDbEntity
  8
KIKI
370
               5
  6
Continuous
 62
             250
100
AcDbVertex
100
AcDb2dVertex
 10
123.30008305170441
 20
-768.17453335165624
 30
0.0
  0
VERTEX
  5
26F
100
AcDbEntity
  8
KIKI
370
               5
  6
Continuous
 62
             250
100
AcDbVertex
100
AcDb2dVertex
 10
123.30008305170441
 20
-768.67453335165624
 30
0.0
  0
VERTEX
  5
270
100
AcDbEntity
  8
KIKI
370
               5
  6
Continuous
 62
             250
100
AcDbVertex
100
AcDb2dVertex
 10
102.30008305170443
 20
-768.67453335165624
 30
0.0
  0
SEQEND
  5
271
100
AcDbEntity
  8
KIKI
370
               5
  6
Continuous
 62
             250
  0
POLYLINE
  5
272
100
AcDbEntity
  8
KIKI
370
               5
  6
Continuous
 62
             250
100
AcDb2dPolyline
 66
               1
 10
0.0
 20
0.0
 30
0.0
 70
               1
 75
               5
  0
VERTEX
  5
273
100
AcDbEntity
  8
KIKI
370
               5
  6
Continuous
 62
             250
100
AcDbVertex
100
AcDb2dVertex
 10
102.30008305170443
 20
-769.20362224359894
 30
0.0
  0
VERTEX
  5
274
100
AcDbEntity
  8
KIKI
370
               5
  6
Continuous
 62
             250
100
AcDbVertex
100
AcDb2dVertex
 10
123.30008305170441
 20
-769.20362224359894
 30
0.0
  0
VERTEX
  5
275
100
AcDbEntity
  8
KIKI
370
               5
  6
Continuous
 62
             250
100
AcDbVertex
100
AcDb2dVertex
 10
123.30008305170441
 20
-769.70362224359894
 30
0.0
  0
VERTEX
  5
276
100
AcDbEntity
  8
KIKI
370
               5
  6
Continuous
 62
             250
100
AcDbVertex
100
AcDb2dVertex
 10
102.30008305170443
 20
-769.70362224359894
 30
0.0
  0
SEQEND
  5
277
100
AcDbEntity
  8
KIKI
370
               5
  6
Continuous
 62
             250
  0
POLYLINE
  5
278
100
AcDbEntity
  8
KIKI
370
               5
  6
Continuous
 62
             250
100
AcDb2dPolyline
 66
               1
 10
0.0
 20
0.0
 30
0.0
 70
               1
 75
               5
  0
VERTEX
  5
279
100
AcDbEntity
  8
KIKI
370
               5
  6
Continuous
 62
             250
100
AcDbVertex
100
AcDb2dVertex
 10
102.30008305170443
 20
-770.23271113554165
 30
0.0
  0
VERTEX
  5
27A
100
AcDbEntity
  8
KIKI
370
               5
  6
Continuous
 62
             250
100
AcDbVertex
100
AcDb2dVertex
 10
123.30008305170441
 20
-770.23271113554165
 30
0.0
  0
VERTEX
  5
27B
100
AcDbEntity
  8
KIKI
370
               5
  6
Continuous
 62
             250
100
AcDbVertex
100
AcDb2dVertex
 10
123.30008305170441
 20
-770.73271113554165
 30
0.0
  0
VERTEX
  5
27C
100
AcDbEntity
  8
KIKI
370
               5
  6
Continuous
 62
             250
100
AcDbVertex
100
AcDb2dVertex
 10
102.30008305170443
 20
-770.73271113554165
 30
0.0
  0
SEQEND
  5
27D
100
AcDbEntity
  8
KIKI
370
               5
  6
Continuous
 62
             250
  0
POLYLINE
  5
27E
100
AcDbEntity
  8
KIKI
370
               5
  6
Continuous
 62
             250
100
AcDb2dPolyline
 66
               1
 10
0.0
 20
0.0
 30
0.0
 70
               1
 75
               5
  0
VERTEX
  5
27F
100
AcDbEntity
  8
KIKI
370
               5
  6
Continuous
 62
             250
100
AcDbVertex
100
AcDb2dVertex
 10
102.30008305170443
 20
-771.26180002748436
 30
0.0
  0
VERTEX
  5
280
100
AcDbEntity
  8
KIKI
370
               5
  6
Continuous
 62
             250
100
AcDbVertex
100
AcDb2dVertex
 10
123.30008305170441
 20
-771.26180002748436
 30
0.0
  0
VERTEX
  5
281
100
AcDbEntity
  8
KIKI
370
               5
  6
Continuous
 62
             250
100
AcDbVertex
100
AcDb2dVertex
 10
123.30008305170441
 20
-771.76180002748436
 30
0.0
  0
VERTEX
  5
282
100
AcDbEntity
  8
KIKI
370
               5
  6
Continuous
 62
             250
100
AcDbVertex
100
AcDb2dVertex
 10
102.30008305170443
 20
-771.76180002748436
 30
0.0
  0
SEQEND
  5
283
100
AcDbEntity
  8
KIKI
370
               5
  6
Continuous
 62
             250
  0
POLYLINE
  5
284
100
AcDbEntity
  8
KIKI
370
               5
  6
Continuous
 62
             250
100
AcDb2dPolyline
 66
               1
 10
0.0
 20
0.0
 30
0.0
 70
               1
 75
               5
  0
VERTEX
  5
285
100
AcDbEntity
  8
KIKI
370
               5
  6
Continuous
 62
             250
100
AcDbVertex
100
AcDb2dVertex
 10
102.30008305170443
 20
-772.29088891942706
 30
0.0
  0
VERTEX
  5
286
100
AcDbEntity
  8
KIKI
370
               5
  6
Continuous
 62
             250
100
AcDbVertex
100
AcDb2dVertex
 10
123.30008305170441
 20
-772.29088891942706
 30
0.0
  0
VERTEX
  5
287
100
AcDbEntity
  8
KIKI
370
               5
  6
Continuous
 62
             250
100
AcDbVertex
100
AcDb2dVertex
 10
123.30008305170441
 20
-772.79088891942706
 30
0.0
  0
VERTEX
  5
288
100
AcDbEntity
  8
KIKI
370
               5
  6
Continuous
 62
             250
100
AcDbVertex
100
AcDb2dVertex
 10
102.30008305170443
 20
-772.79088891942706
 30
0.0
  0
SEQEND
  5
289
100
AcDbEntity
  8
KIKI
370
               5
  6
Continuous
 62
             250
  0
POLYLINE
  5
28A
100
AcDbEntity
  8
KIKI
370
               5
  6
Continuous
 62
             250
100
AcDb2dPolyline
 66
               1
 10
0.0
 20
0.0
 30
0.0
 70
               1
 75
               5
  0
VERTEX
  5
28B
100
AcDbEntity
  8
KIKI
370
               5
  6
Continuous
 62
             250
100
AcDbVertex
100
AcDb2dVertex
 10
102.30008305170443
 20
-773.31997781136977
 30
0.0
  0
VERTEX
  5
28C
100
AcDbEntity
  8
KIKI
370
               5
  6
Continuous
 62
             250
100
AcDbVertex
100
AcDb2dVertex
 10
123.30008305170441
 20
-773.31997781136977
 30
0.0
  0
VERTEX
  5
28D
100
AcDbEntity
  8
KIKI
370
               5
  6
Continuous
 62
             250
100
AcDbVertex
100
AcDb2dVertex
 10
123.30008305170441
 20
-773.81997781136977
 30
0.0
  0
VERTEX
  5
28E
100
AcDbEntity
  8
KIKI
370
               5
  6
Continuous
 62
             250
100
AcDbVertex
100
AcDb2dVertex
 10
102.30008305170443
 20
-773.81997781136977
 30
0.0
  0
SEQEND
  5
28F
100
AcDbEntity
  8
KIKI
370
               5
  6
Continuous
 62
             250
  0
POLYLINE
  5
290
100
AcDbEntity
  8
KIKI
370
               5
  6
Continuous
 62
             250
100
AcDb2dPolyline
 66
               1
 10
0.0
 20
0.0
 30
0.0
 70
               1
 75
               5
  0
VERTEX
  5
291
100
AcDbEntity
  8
KIKI
370
               5
  6
Continuous
 62
             250
100
AcDbVertex
100
AcDb2dVertex
 10
102.30008305170443
 20
-774.34906670331247
 30
0.0
  0
VERTEX
  5
292
100
AcDbEntity
  8
KIKI
370
               5
  6
Continuous
 62
             250
100
AcDbVertex
100
AcDb2dVertex
 10
123.30008305170441
 20
-774.34906670331247
 30
0.0
  0
VERTEX
  5
293
100
AcDbEntity
  8
KIKI
370
               5
  6
Continuous
 62
             250
100
AcDbVertex
100
AcDb2dVertex
 10
123.30008305170441
 20
-774.84906670331247
 30
0.0
  0
VERTEX
  5
294
100
AcDbEntity
  8
KIKI
370
               5
  6
Continuous
 62
             250
100
AcDbVertex
100
AcDb2dVertex
 10
102.30008305170443
 20
-774.84906670331247
 30
0.0
  0
SEQEND
  5
295
100
AcDbEntity
  8
KIKI
370
               5
  6
Continuous
 62
             250
  0
POLYLINE
  5
296
100
AcDbEntity
  8
KIKI
370
               5
  6
Continuous
 62
             250
100
AcDb2dPolyline
 66
               1
 10
0.0
 20
0.0
 30
0.0
 70
               1
 75
               5
  0
VERTEX
  5
297
100
AcDbEntity
  8
KIKI
370
               5
  6
Continuous
 62
             250
100
AcDbVertex
100
AcDb2dVertex
 10
102.30008305170443
 20
-775.37815559525518
 30
0.0
  0
VERTEX
  5
298
100
AcDbEntity
  8
KIKI
370
               5
  6
Continuous
 62
             250
100
AcDbVertex
100
AcDb2dVertex
 10
123.30008305170441
 20
-775.37815559525518
 30
0.0
  0
VERTEX
  5
299
100
AcDbEntity
  8
KIKI
370
               5
  6
Continuous
 62
             250
100
AcDbVertex
100
AcDb2dVertex
 10
123.30008305170441
 20
-775.87815559525518
 30
0.0
  0
VERTEX
  5
29A
100
AcDbEntity
  8
KIKI
370
               5
  6
Continuous
 62
             250
100
AcDbVertex
100
AcDb2dVertex
 10
102.30008305170443
 20
-775.87815559525518
 30
0.0
  0
SEQEND
  5
29B
100
AcDbEntity
  8
KIKI
370
               5
  6
Continuous
 62
             250
  0
LINE
  5
29C
100
AcDbEntity
  8
KIKI
370
              30
  6
Continuous
 62
             250
100
AcDbLine
 10
113.08875818629895
 20
-845.79164381583882
 30
0.0
 11
113.08875818629895
 21
-815.79164381583882
 31
0.0
  0
SOLID
  5
29D
100
AcDbEntity
  8
KIKI
370
              30
 62
             250
100
AcDbTrace
 10
113.08875818629895
 20
-815.79164381583882
 30
0.0
 11
121.59614504598707
 21
-847.54164381583882
 31
0.0
 12
104.58137132661081
 22
-847.54164381583882
 32
0.0
 13
104.58137132661081
 23
-847.54164381583882
 33
0.0
  0
ENDBLK
  5
29E
100
AcDbEntity
  8
DEFAULT
100
AcDbBlockEnd
  0
BLOCK
  5
29F
100
AcDbEntity
  8
DEFAULT
100
AcDbBlockBegin
  2
グループ-7
 70
               0
 10
0.0
 20
0.0
 30
0.0
  3
グループ-7
  1

  0
INSERT
  5
2A0
100
AcDbEntity
  8
DEFAULT
 62
               7
100
AcDbBlockReference
  2
グループ-5
 10
0.0
 20
0.0
 30
0.0
  0
INSERT
  5
2A1
100
AcDbEntity
  8
DEFAULT
 62
               7
100
AcDbBlockReference
  2
グループ-6
 10
0.0
 20
0.0
 30
0.0
  0
ENDBLK
  5
2A2
100
AcDbEntity
  8
DEFAULT
100
AcDbBlockEnd
  0
BLOCK
  5
2A3
100
AcDbEntity
  8
DEFAULT
100
AcDbBlockBegin
  2
グループ-8
 70
               0
 10
0.0
 20
0.0
 30
0.0
  3
グループ-8
  1

  0
LWPOLYLINE
  5
2A4
100
AcDbEntity
  8
一般
370
              15
  6
Continuous
 62
               8
100
AcDbPolyline
 90
        6
 70
             128
 10
-96.618581035069838
 20
-187.99999999995498
 10
-149.5443327768414
 20
-187.99999999995521
 42
0.4396309651015297
 10
-154.52585662171592
 20
-193.42944171072031
 10
-108.14602110659951
 20
-731.43553368612038
 42
0.3892449165671884
 10
-68.29383034760221
 20
-768.0
 10
-53.993911941610406
 20
-768.0
  0
LWPOLYLINE
  5
2A5
100
AcDbEntity
  8
一般
370
              15
  6
Continuous
 62
               8
100
AcDbPolyline
 90
        6
 70
             128
 10
-96.618581035069838
 20
-187.99999999995498
 10
-149.5443327768414
 20
-187.99999999995521
 42
0.4396309651015297
 10
-154.52585662171592
 20
-193.42944171072031
 10
-108.14602110659951
 20
-731.43553368612038
 42
0.3892449165671884
 10
-68.29383034760221
 20
-768.0
 10
-53.993911941610406
 20
-768.0
  0
LINE
  5
2A6
100
AcDbEntity
  8
一般
370
              15
  6
Continuous
 62
               8
100
AcDbLine
 10
-68.29383034760221
 20
-768.0
 30
0.0
 11
-53.993911941610406
 21
-768.0
 31
0.0
  0
ARC
  5
2A7
100
AcDbEntity
  8
一般
370
              15
  6
Continuous
 62
               8
100
AcDbCircle
 10
-68.293830347601755
 20
-728.00000000000023
 30
0.0
 40
39.999999999999901
100
AcDbArc
 50
184.92710994764823
 51
269.9999999999996
  0
POLYLINE
  5
2A8
100
AcDbEntity
  8
一般
370
              15
  6
Continuous
 62
               8
100
AcDb2dPolyline
 66
               1
 10
0.0
 20
0.0
 30
0.0
 75
               5
  0
VERTEX
  5
2A9
100
AcDbEntity
  8
一般
370
              15
  6
Continuous
 62
               8
100
AcDbVertex
100
AcDb2dVertex
 10
-154.52585662171592
 20
-193.42944171072031
 30
0.0
  0
VERTEX
  5
2AA
100
AcDbEntity
  8
一般
370
              15
  6
Continuous
 62
               8
100
AcDbVertex
100
AcDb2dVertex
 10
-108.14602110659951
 20
-731.43553368612038
 30
0.0
  0
VERTEX
  5
2AB
100
AcDbEntity
  8
一般
370
              15
  6
Continuous
 62
               8
100
AcDbVertex
100
AcDb2dVertex
 10
-108.14602110659951
 20
-731.43553368612038
 30
0.0
  0
VERTEX
  5
2AC
100
AcDbEntity
  8
一般
370
              15
  6
Continuous
 62
               8
100
AcDbVertex
100
AcDb2dVertex
 10
-108.14602110659951
 20
-731.43553368612038
 30
0.0
  0
VERTEX
  5
2AD
100
AcDbEntity
  8
一般
370
              15
  6
Continuous
 62
               8
100
AcDbVertex
100
AcDb2dVertex
 10
-108.14602110659951
 20
-731.43553368612038
 30
0.0
  0
VERTEX
  5
2AE
100
AcDbEntity
  8
一般
370
              15
  6
Continuous
 62
               8
100
AcDbVertex
100
AcDb2dVertex
 10
-108.14602110659951
 20
-731.43553368612038
 30
0.0
  0
VERTEX
  5
2AF
100
AcDbEntity
  8
一般
370
              15
  6
Continuous
 62
               8
100
AcDbVertex
100
AcDb2dVertex
 10
-108.14602110659928
 20
-731.43553368612015
 30
0.0
  0
SEQEND
  5
2B0
100
AcDbEntity
  8
一般
370
              15
  6
Continuous
 62
               8
  0
ARC
  5
2B1
100
AcDbEntity
  8
一般
370
              15
  6
Continuous
 62
               8
100
AcDbCircle
 10
-149.5443327768414
 20
-192.99999999995498
 30
0.0
 40
4.9999999999997726
100
AcDbArc
 50
90.0
 51
184.92710994765227
  0
POLYLINE
  5
2B2
100
AcDbEntity
  8
一般
370
              15
  6
Continuous
 62
               8
100
AcDb2dPolyline
 66
               1
 10
0.0
 20
0.0
 30
0.0
 75
               5
  0
VERTEX
  5
2B3
100
AcDbEntity
  8
一般
370
              15
  6
Continuous
 62
               8
100
AcDbVertex
100
AcDb2dVertex
 10
286.00608805838988
 20
-187.99999999995475
 30
0.0
  0
VERTEX
  5
2B4
100
AcDbEntity
  8
一般
370
              15
  6
Continuous
 62
               8
100
AcDbVertex
100
AcDb2dVertex
 10
-149.54433277684134
 20
-187.99999999995521
 30
0.0
  0
VERTEX
  5
2B5
100
AcDbEntity
  8
一般
370
              15
  6
Continuous
 62
               8
100
AcDbVertex
100
AcDb2dVertex
 10
-149.5443327768414
 20
-187.99999999995521
 30
0.0
  0
VERTEX
  5
2B6
100
AcDbEntity
  8
一般
370
              15
  6
Continuous
 62
               8
100
AcDbVertex
100
AcDb2dVertex
 10
-149.5443327768414
 20
-187.99999999995521
 30
0.0
  0
VERTEX
  5
2B7
100
AcDbEntity
  8
一般
370
              15
  6
Continuous
 62
               8
100
AcDbVertex
100
AcDb2dVertex
 10
-149.5443327768414
 20
-187.99999999995521
 30
0.0
  0
VERTEX
  5
2B8
100
AcDbEntity
  8
一般
370
              15
  6
Continuous
 62
               8
100
AcDbVertex
100
AcDb2dVertex
 10
-149.5443327768414
 20
-187.99999999995521
 30
0.0
  0
VERTEX
  5
2B9
100
AcDbEntity
  8
一般
370
              15
  6
Continuous
 62
               8
100
AcDbVertex
100
AcDb2dVertex
 10
-149.5443327768414
 20
-187.99999999995521
 30
0.0
  0
SEQEND
  5
2BA
100
AcDbEntity
  8
一般
370
              15
  6
Continuous
 62
               8
  0
LINE
  5
2BB
100
AcDbEntity
  8
DEFAULT
370
               5
  6
Continuous
 62
               8
100
AcDbLine
 10
-53.993911941610406
 20
-768.0
 30
0.0
 11
286.00608805838982
 21
-768.08907491723994
 31
0.0
  0
ENDBLK
  5
2BC
100
AcDbEntity
  8
DEFAULT
100
AcDbBlockEnd
  0
BLOCK
  5
2BD
100
AcDbEntity
  8
DEFAULT
100
AcDbBlockBegin
  2
グループ-9
 70
               0
 10
0.0
 20
0.0
 30
0.0
  3
グループ-9
  1

  0
LINE
  5
2BE
100
AcDbEntity
  8
一般
370
              50
  6
Continuous
 62
               7
100
AcDbLine
 10
-187.19991694829517
 20
-778.0
 30
0.0
 11
-187.19991694829517
 21
-397.0
 31
0.0
  0
LINE
  5
2BF
100
AcDbEntity
  8
一般
370
              50
  6
Continuous
 62
               7
100
AcDbLine
 10
-187.19991694829517
 20
-397.0
 30
0.0
 11
-187.19991694829511
 21
194.0
 31
0.0
  0
LINE
  5
2C0
100
AcDbEntity
  8
一般
370
              50
  6
Continuous
 62
               7
100
AcDbLine
 10
-187.19991694829511
 20
194.0
 30
0.0
 11
-187.19991694829511
 21
722.0
 31
0.0
  0
LINE
  5
2C1
100
AcDbEntity
  8
0
370
              30
  6
Continuous
 62
               7
100
AcDbLine
 10
-187.19991694829517
 20
-778.0
 30
0.0
 11
296.00608805838999
 21
-778.0
 31
0.0
  0
INSERT
  5
2C2
100
AcDbEntity
  8
DEFAULT
 62
               7
100
AcDbBlockReference
  2
グループ-4
 10
0.0
 20
0.0
 30
0.0
  0
INSERT
  5
2C3
100
AcDbEntity
  8
DEFAULT
 62
               7
100
AcDbBlockReference
  2
グループ-7
 10
0.0
 20
0.0
 30
0.0
  0
INSERT
  5
2C4
100
AcDbEntity
  8
DEFAULT
 62
               7
100
AcDbBlockReference
  2
グループ-8
 10
0.0
 20
0.0
 30
0.0
  0
ENDBLK
  5
2C5
100
AcDbEntity
  8
DEFAULT
100
AcDbBlockEnd
  0
ENDSEC
  0
SECTION
  2
ENTITIES
  0
MTEXT
  5
2C6
100
AcDbEntity
  8
一般
 62
               7
100
AcDbMText
 10
551.93248654052172
 20
1073.3653133202774
 30
0.0
 40
70.739293981481481
 41
0.0
 71
               1
 72
               1
  1
CS1-5231
  7
Arial
 73
               1
 44
0.9673603504928806
  0
INSERT
  5
2C7
100
AcDbEntity
  8
DEFAULT
 62
               7
100
AcDbBlockReference
  2
グループ-3
 10
105.8
 20
148.0
 30
0.0
  0
INSERT
  5
2C8
100
AcDbEntity
  8
DEFAULT
 62
               7
100
AcDbBlockReference
  2
グループ-9
 10
105.8
 20
148.0
 30
0.0
  0
ENDSEC
  0
SECTION
  2
OBJECTS
  0
DICTIONARY
  5
19
100
AcDbDictionary
280
               0
281
               1
  3
ACAD_GROUP
350
1A
  3
ACAD_MLINESTYLE
350
1B
  3
ACAD_LAYOUT
350
1E
  3
ACAD_PLOTSETTINGS
350
22
  3
ACAD_PLOTSTYLENAME
350
1F
  3
ACAD_WIPEOUT_VARS
350
23
  0
DICTIONARY
  5
1A
102
{ACAD_REACTORS
330
19
102
}
100
AcDbDictionary
280
               0
281
               1
  0
DICTIONARY
  5
1B
102
{ACAD_REACTORS
330
19
102
}
100
AcDbDictionary
280
               0
281
               1
  3
Standard
350
1C
  0
MLINESTYLE
  5
1C
102
{ACAD_REACTORS
330
1B
102
}
100
AcDbMlineStyle
  2
Standard
 70
               0
  3

 62
               0
 51
90.0
 52
90.0
 71
               2
 49
0.5
 62
             256
  6
ByLayer
 49
-0.5
 62
             256
  6
ByLayer
  0
ACDBDICTIONARYWDFLT
  5
1F
102
{ACAD_REACTORS
330
19
102
}
100
AcDbDictionary
281
               1
  3
Normal
350
1D
100
AcDbDictionaryWithDefault
340
1D
  0
ACDBPLACEHOLDER
  5
1D
102
{ACAD_REACTORS
330
1F
102
}
  0
LAYOUT
  5
20
102
{ACAD_REACTORS
330
1E
102
}
100
AcDbPlotSettings
  1

  2

  4

  6

 40
0.0
 41
0.0
 42
0.0
 43
0.0
 44
0.0
 45
0.0
 46
0.0
 47
0.0
 48
0.0
 49
0.0
140
0.0
141
0.0
142
1.0
143
1.0
 70
            1024
 72
               0
 73
               0
 74
               0
  7

 75
               0
147
1.0
148
0.0
149
0.0
100
AcDbLayout
  1
Model
 70
               0
 71
               0
 10
0.0
 20
0.0
 11
0.0
 21
0.0
 12
0.0
 22
0.0
 32
0.0
 14
0.0
 24
0.0
 34
0.0
 15
0.0
 25
0.0
 35
0.0
146
0.0
 13
0.0
 23
0.0
 33
0.0
 16
0.0
 26
0.0
 36
0.0
 17
0.0
 27
0.0
 37
0.0
 76
               0
330
A
331
0
345
0
346
0
  0
LAYOUT
  5
21
102
{ACAD_REACTORS
330
1E
102
}
100
AcDbPlotSettings
  1

  2

  4

  6

 40
0.0
 41
0.0
 42
0.0
 43
0.0
 44
0.0
 45
0.0
 46
0.0
 47
0.0
 48
0.0
 49
0.0
140
0.0
141
0.0
142
1.0
143
1.0
 70
               0
 72
               0
 73
               0
 74
               0
  7

 75
               0
147
1.0
148
0.0
149
0.0
100
AcDbLayout
  1
Layout1
 70
               0
 71
               0
 10
0.0
 20
0.0
 11
0.0
 21
0.0
 12
0.0
 22
0.0
 32
0.0
 14
0.0
 24
0.0
 34
0.0
 15
0.0
 25
0.0
 35
0.0
146
0.0
 13
0.0
 23
0.0
 33
0.0
 16
0.0
 26
0.0
 36
0.0
 17
0.0
 27
0.0
 37
0.0
 76
               0
330
B
331
0
345
0
346
0
  0
DICTIONARY
  5
1E
102
{ACAD_REACTORS
330
19
102
}
100
AcDbDictionary
280
               0
281
               1
  3
Layout1
350
21
  3
Model
350
20
  0
DICTIONARY
  5
22
102
{ACAD_REACTORS
330
19
102
}
100
AcDbDictionary
280
               0
281
               1
  0
WIPEOUTVARIABLES
  5
23
100
AcDbWipeoutVariables
 70
               0
  0
ENDSEC
  0
EOF
