  0
SECTION
  2
HEADER
  9
$ACADVER
  1
AC1009
  9
$INSBASE
 10
0
 20
0
 30
0
  9
$EXTMIN
 10
0
 20
0
  9
$EXTMAX
 10
2970
 20
2100
  9
$LIMMIN
 10
0
 20
0
  9
$LIMMAX
 10
2970
 20
2100
  9
$LTSCALE
 40
10
  0
ENDSEC
  0
SECTION
  2
TABLES
  0
TABLE
  2
LTYPE
 70
     9
  0
LTYPE
  2
CONTINUOUS
 70
    64
  3
実線
 72
    65
 73
     0
 40
0.0
  0
LTYPE
  2
DASHED1
 70
    64
  3
--  --  --  --  --  --  --  --  
 72
    65
 73
     2
 40
2.5
 49
1.25
 49
-1.25
  0
LTYPE
  2
DASHED2
 70
    64
  3
----    ----    ----    ----    
 72
    65
 73
     2
 40
5.0
 49
2.5
 49
-2.5
  0
LTYPE
  2
DASHED3
 70
    64
  3
------  ------  ------  ------  
 72
    65
 73
     2
 40
5.0
 49
3.75
 49
-1.25
  0
LTYPE
  2
CENTER1
 70
    64
  3
----- - ----- - ----- - ----- - 
 72
    65
 73
     4
 40
10.0
 49
6.25
 49
-1.25
 49
1.25
 49
-1.25
  0
LTYPE
  2
CENTER2
 70
    64
  3
----------  --  ----------  --  
 72
    65
 73
     4
 40
20.0
 49
12.5
 49
-2.5
 49
2.5
 49
-2.5
  0
LTYPE
  2
PHANTOM1
 70
    64
  3
--- - - --- - - --- - - --- - - 
 72
    65
 73
     6
 40
10.0
 49
3.25
 49
-1.25
 49
1.25
 49
-1.25
 49
1.25
 49
-1.25
  0
LTYPE
  2
PHANTOM2
 70
    64
  3
--------  -  -  --------  -  -  
 72
    65
 73
     6
 40
20.0
 49
10.0
 49
-2.5
 49
1.25
 49
-2.5
 49
1.25
 49
-2.5
  0
LTYPE
  2
DOT
 70
    64
  3
-   -   -   -   -   -   -   -   
 72
    65
 73
     2
 40
2.5
 49
0.625
 49
-1.875
  0
LTYPE
  2
DUMMY
 70
    64
  3
ダミー
 72
    65
 73
     0
 40
0.0
  0
LTYPE
  2
RAND1
 70
    64
  3
ランダム線1
 72
    65
 73
     4
 40
10.0
 49
1.0
 49
-2.0
 49
3.0
 49
-4.0
  0
LTYPE
  2
RAND2
 70
    64
  3
ランダム線2
 72
    65
 73
     4
 40
14.0
 49
2.0
 49
-3.0
 49
4.0
 49
-5.0
  0
LTYPE
  2
RAND3
 70
    64
  3
ランダム線3
 72
    65
 73
     4
 40
18.0
 49
3.0
 49
-4.0
 49
5.0
 49
-6.0
  0
LTYPE
  2
RAND4
 70
    64
  3
ランダム線4
 72
    65
 73
     4
 40
22.0
 49
4.0
 49
-5.0
 49
6.0
 49
-7.0
  0
LTYPE
  2
RAND5
 70
    64
  3
ランダム線5
 72
    65
 73
     4
 40
26.0
 49
5.0
 49
-6.0
 49
7.0
 49
-8.0
  0
LTYPE
  2
LONG1
 70
    64
  3
----------  --  ----------  --  
 72
    65
 73
     4
 40
40.0
 49
32.5
 49
-2.5
 49
2.5
 49
-2.5
  0
LTYPE
  2
LONG2
 70
    64
  3
--------  -  -  --------  -  -  
 72
    65
 73
     6
 40
40.0
 49
30.0
 49
-2.5
 49
1.25
 49
-2.5
 49
1.25
 49
-2.5
  0
LTYPE
  2
LONG3
 70
    64
  3
+++++++++++++++..+++++++++++++++
 72
    65
 73
     2
 40
40.0
 49
37.5
 49
-2.5
  0
LTYPE
  2
LONG4
 70
    64
  3
+++++++++++++++..+++++++++++++++
 72
    65
 73
     2
 40
80.0
 49
75.0
 49
-5.0
  0
LTYPE
  2
LONG5
 70
    64
  3
----------  --  ----------  --  
 72
    65
 73
     4
 40
60.0
 49
37.5
 49
-7.5
 49
7.5
 49
-7.5
  0
LTYPE
  2
dashed
 70
   64
  3
-------   -------------   ------
 72
   65
 73
    2
 40
7.5
 49
6
 49
-1.5
  0
LTYPE
  2
dashed_spaced
 70
   64
  3
----        --------        ----
 72
   65
 73
    2
 40
12
 49
6
 49
-6
  0
LTYPE
  2
long_dashed_dotted
 70
   64
  3
------------- --- --------------
 72
   65
 73
    4
 40
15.25
 49
12
 49
-1.5
 49
0.25
 49
-1.5
  0
LTYPE
  2
long_dashed_double-dotted
 70
   64
  3
----------- --- --- ------------
 72
   65
 73
    6
 40
17
 49
12
 49
-1.5
 49
0.25
 49
-1.5
 49
0.25
 49
-1.5
  0
LTYPE
  2
long_dashed_triplicate-dotted
 70
   64
  3
--------- --- --- --- ----------
 72
   65
 73
    8
 40
18.75
 49
12
 49
-1.5
 49
0.25
 49
-1.5
 49
0.25
 49
-1.5
 49
0.25
 49
-1.5
  0
LTYPE
  2
dotted
 70
   64
  3
   -       -       -       -    
 72
   65
 73
    2
 40
1.75
 49
0.25
 49
-1.5
  0
LTYPE
  2
chain
 70
   64
  3
-------------- -- --------------
 72
   65
 73
    4
 40
18.5
 49
12
 49
-1.5
 49
3.5
 49
-1.5
  0
LTYPE
  2
chain_double_dash
 70
   64
  3
------------ -- -- -------------
 72
   65
 73
    6
 40
23.5
 49
12
 49
-1.5
 49
3.5
 49
-1.5
 49
3.5
 49
-1.5
  0
LTYPE
  2
dashed_dotted
 70
   64
  3
-----------     -     ----------
 72
   65
 73
    4
 40
9.25
 49
6
 49
-1.5
 49
0.25
 49
-1.5
  0
LTYPE
  2
double-dashed_dotted
 70
   64
  3
------   -----------   -   -----
 72
   65
 73
    6
 40
16.75
 49
6
 49
-1.5
 49
6
 49
-1.5
 49
0.25
 49
-1.5
  0
LTYPE
  2
dashed_double-dotted
 70
   64
  3
---------    -    -    ---------
 72
   65
 73
    6
 40
11
 49
6
 49
-1.5
 49
0.25
 49
-1.5
 49
0.25
 49
-1.5
  0
LTYPE
  2
double-dashed_double-dotted
 70
   64
  3
-----   ---------   -   -   ----
 72
   65
 73
    8
 40
18.5
 49
6
 49
-1.5
 49
6
 49
-1.5
 49
0.25
 49
-1.5
 49
0.25
 49
-1.5
  0
LTYPE
  2
dashed_triplicate-dotted
 70
   64
  3
-------    -    -    -    ------
 72
   65
 73
    8
 40
12.75
 49
6
 49
-1.5
 49
0.25
 49
-1.5
 49
0.25
 49
-1.5
 49
0.25
 49
-1.5
  0
LTYPE
  2
double-dashed_triplicate-dotted
 70
   64
  3
-----  ---------  -  -  -  -----
 72
   65
 73
   10
 40
20.25
 49
6
 49
-1.5
 49
6
 49
-1.5
 49
0.25
 49
-1.5
 49
0.25
 49
-1.5
 49
0.25
 49
-1.5
  0
LTYPE
  2
undefined
 70
   64
  3
--------------------------------
 72
   65
 73
    0
 40
0
  0
LTYPE
  2
_
 70
   64
  3
                                
 72
   65
 73
    0
 40
0
  0
LTYPE
  2
__18
 70
   64
  3
                                
 72
   65
 73
    0
 40
0
  0
LTYPE
  2
__19
 70
   64
  3
                                
 72
   65
 73
    0
 40
0
  0
LTYPE
  2
__20
 70
   64
  3
                                
 72
   65
 73
    0
 40
0
  0
LTYPE
  2
__21
 70
   64
  3
                                
 72
   65
 73
    0
 40
0
  0
LTYPE
  2
__22
 70
   64
  3
                                
 72
   65
 73
    0
 40
0
  0
LTYPE
  2
__23
 70
   64
  3
                                
 72
   65
 73
    0
 40
0
  0
LTYPE
  2
__24
 70
   64
  3
                                
 72
   65
 73
    0
 40
0
  0
LTYPE
  2
__25
 70
   64
  3
                                
 72
   65
 73
    0
 40
0
  0
LTYPE
  2
__26
 70
   64
  3
                                
 72
   65
 73
    0
 40
0
  0
LTYPE
  2
__27
 70
   64
  3
                                
 72
   65
 73
    0
 40
0
  0
LTYPE
  2
__28
 70
   64
  3
                                
 72
   65
 73
    0
 40
0
  0
LTYPE
  2
__29
 70
   64
  3
                                
 72
   65
 73
    0
 40
0
  0
LTYPE
  2
__30
 70
   64
  3
                                
 72
   65
 73
    0
 40
0
  0
LTYPE
  2
__31
 70
   64
  3
                                
 72
   65
 73
    0
 40
0
  0
LTYPE
  2
__32
 70
   64
  3
                                
 72
   65
 73
    0
 40
0
  0
ENDTAB
  0
TABLE
  2
STYLE
  5
3
100
AcDbSymbolTable
 70
     1
  0
STYLE
  5
10
100
AcDbSymbolTableRecord
100
AcDbTextStyleTableRecord
  2
STANDARD
 70
     0
 40
0.0
 41
1.0
 50
0.0
 71
     0
 42
0.2
  3
txt
  4
bigfont.shx
  0
STYLE
  5
26
100
AcDbSymbolTableRecord
100
AcDbTextStyleTableRecord
  2
TATEGAKI
 70
    68
 40
0.0
 41
1.0
 50
0.0
 71
     0
 42
1.0
  3
txt
  4
bigfont.shx
  0
ENDTAB
  0
TABLE
  2
LAYER
 70
    6
  0
LAYER
  2
_0-0_
 70
   64
 62
    7
  6
CONTINUOUS
  0
LAYER
  2
_1-0_
 70
   64
 62
    7
  6
CONTINUOUS
  0
LAYER
  2
_2-0_
 70
   64
 62
    7
  6
CONTINUOUS
  0
LAYER
  2
_3-0_
 70
   64
 62
    7
  6
CONTINUOUS
  0
LAYER
  2
_3-1_
 70
   64
 62
    7
  6
CONTINUOUS
  0
LAYER
  2
ADD_LINE
 70
   64
 62
    7
  6
CONTINUOUS
  0
ENDTAB
  0
ENDSEC
  0
SECTION
  2
BLOCKS
  0
ENDSEC
  0
SECTION
  2
ENTITIES
  0
LINE
  8
_2-0_
  6
CONTINUOUS
 62
    7
 10
1841.0000274540375
 20
281.77003587995262
 11
157.00000276896958
 21
281.77003587995262
  0
LINE
  8
_1-0_
  6
CONTINUOUS
 62
    7
 10
969.0000182045012
 20
1031.0001547088034
 11
337.00000608289571
 21
1031.0001547088034
  0
LINE
  8
_1-0_
  6
CONTINUOUS
 62
    7
 10
931.00001920604325
 20
761.00022628960915
 11
374.99998320944059
 21
761.00022628960915
  0
LINE
  8
_1-0_
  6
CONTINUOUS
 62
    7
 10
931.00001920604325
 20
1001.0002015456269
 11
374.99998320944059
 21
1001.0002015456269
  0
LINE
  8
_1-0_
  6
CONTINUOUS
 62
    7
 10
909.00002439049672
 20
781.00016590250959
 11
493.00000312245487
 21
781.00016590250959
  0
LINE
  8
_1-0_
  6
CONTINUOUS
 62
    7
 10
909.00002439049672
 20
981.00017444507489
 11
493.00000312245487
 21
981.00017444507489
  0
LINE
  8
_1-0_
  6
CONTINUOUS
 62
    7
 10
333.00000503716774
 20
1027.0002192788143
 11
333.00000503716774
 21
735.00020855642197
  0
LINE
  8
_1-0_
  6
CONTINUOUS
 62
    7
 10
363.00000194417009
 20
989.00022028035642
 11
363.00000194417009
 21
773.00020755487981
  0
LINE
  8
_1-0_
  6
CONTINUOUS
 62
    7
 10
943.00000047131391
 20
989.00022028035642
 11
943.00000047131391
 21
773.00020755487981
  0
LINE
  8
_1-0_
  6
CONTINUOUS
 62
    7
 10
921.00000565576738
 20
969.00019317980434
 11
921.00000565576738
 21
793.00014716778026
  0
LINE
  8
_1-0_
  6
CONTINUOUS
 62
    7
 10
481.00002185718438
 20
969.00019317980434
 11
481.00002185718438
 21
793.00014716778026
  0
LINE
  8
_1-0_
  6
CONTINUOUS
 62
    7
 10
337.00000608289571
 20
731.0001856387812
 11
969.0000182045012
 21
731.0001856387812
  0
LINE
  8
_1-0_
  6
CONTINUOUS
 62
    7
 10
931.00001920604325
 20
1001.0002015456269
 11
909.00002439049672
 21
981.00017444507489
  0
LINE
  8
_1-0_
  6
CONTINUOUS
 62
    7
 10
943.00000047131391
 20
989.00022028035642
 11
921.00000565576738
 21
969.00019317980434
  0
LINE
  8
_1-0_
  6
CONTINUOUS
 62
    7
 10
493.00000312245487
 20
981.00017444507489
 11
374.99998320944059
 21
1001.0002015456269
  0
LINE
  8
_1-0_
  6
CONTINUOUS
 62
    7
 10
481.00002185718438
 20
969.00019317980434
 11
363.00000194417009
 21
989.00022028035642
  0
LINE
  8
_1-0_
  6
CONTINUOUS
 62
    7
 10
921.00000565576738
 20
793.00014716778026
 11
943.00000047131391
 21
773.00020755487981
  0
LINE
  8
_1-0_
  6
CONTINUOUS
 62
    7
 10
909.00002439049672
 20
781.00016590250959
 11
931.00001920604325
 21
761.00022628960915
  0
LINE
  8
_1-0_
  6
CONTINUOUS
 62
    7
 10
493.00000312245487
 20
781.00016590250959
 11
371.87501178284862
 21
761.00022628960915
  0
LINE
  8
_1-0_
  6
CONTINUOUS
 62
    7
 10
481.00002185718438
 20
789.87517574118829
 11
363.00000194417009
 21
773.00020755487981
  0
LINE
  8
_1-0_
  6
CONTINUOUS
 62
    7
 10
906.49761509250948
 20
286.84714114804069
 11
907.96941985494846
 21
286.88686054185553
  0
LINE
  8
_1-0_
  6
CONTINUOUS
 62
    7
 10
907.96941985494846
 20
286.88686054185553
 11
909.43133851275934
 21
287.06170461352724
  0
LINE
  8
_1-0_
  6
CONTINUOUS
 62
    7
 10
909.43133851275934
 20
287.06170461352724
 11
910.87103530707043
 21
287.37020794489212
  0
LINE
  8
_1-0_
  6
CONTINUOUS
 62
    7
 10
910.87103530707043
 20
287.37020794489212
 11
912.27626196666108
 21
287.80972403448982
  0
LINE
  8
_1-0_
  6
CONTINUOUS
 62
    7
 10
912.27626196666108
 20
287.80972403448982
 11
913.63512017091716
 21
288.37655652904147
  0
LINE
  8
_1-0_
  6
CONTINUOUS
 62
    7
 10
913.63512017091716
 20
288.37655652904147
 11
914.93606154983104
 21
289.06589360771022
  0
LINE
  8
_1-0_
  6
CONTINUOUS
 62
    7
 10
914.93606154983104
 20
289.06589360771022
 11
916.16815014695567
 21
289.87191734166686
  0
LINE
  8
_1-0_
  6
CONTINUOUS
 62
    7
 10
916.16815014695567
 20
289.87191734166686
 11
917.32097493175377
 21
290.78778182217519
  0
LINE
  8
_1-0_
  6
CONTINUOUS
 62
    7
 10
917.32097493175377
 20
290.78778182217519
 11
918.38473728724875
 21
291.80574439207089
  0
LINE
  8
_1-0_
  6
CONTINUOUS
 62
    7
 10
918.38473728724875
 20
291.80574439207089
 11
919.35042598532891
 21
292.91716564576132
  0
LINE
  8
_1-0_
  6
CONTINUOUS
 62
    7
 10
919.35042598532891
 20
292.91716564576132
 11
920.20981718674591
 21
294.11266253261488
  0
LINE
  8
_1-0_
  6
CONTINUOUS
 62
    7
 10
920.20981718674591
 20
294.11266253261488
 11
920.95564941641896
 21
295.38208648504894
  0
LINE
  8
_1-0_
  6
CONTINUOUS
 62
    7
 10
920.95564941641896
 20
295.38208648504894
 11
921.58171105108659
 21
296.7146983938328
  0
LINE
  8
_1-0_
  6
CONTINUOUS
 62
    7
 10
921.58171105108659
 20
296.7146983938328
 11
922.08257785635101
 21
298.0992342238261
  0
LINE
  8
_1-0_
  6
CONTINUOUS
 62
    7
 10
922.08257785635101
 20
298.0992342238261
 11
922.45405042493655
 21
299.52392688589202
  0
LINE
  8
_1-0_
  6
CONTINUOUS
 62
    7
 10
922.45405042493655
 20
299.52392688589202
 11
922.69297920138672
 21
300.97674682793922
  0
LINE
  8
_1-0_
  6
CONTINUOUS
 62
    7
 10
922.69297920138672
 20
300.97674682793922
 11
943.00000047131391
 21
473.7700423310622
  0
LINE
  8
_1-0_
  6
CONTINUOUS
 62
    7
 10
943.00000047131391
 20
473.7700423310622
 11
973.00004112214185
 21
473.7700423310622
  0
LINE
  8
_1-0_
  6
CONTINUOUS
 62
    7
 10
973.00004112214185
 20
473.7700423310622
 11
973.00004112214185
 21
457.77003814815089
  0
LINE
  8
_1-0_
  6
CONTINUOUS
 62
    7
 10
973.00004112214185
 20
457.77003814815089
 11
969.80000529049903
 21
457.77003814815089
  0
LINE
  8
_1-0_
  6
CONTINUOUS
 62
    7
 10
969.80000529049903
 20
457.77003814815089
 11
969.80000529049903
 21
470.57005024324508
  0
LINE
  8
_1-0_
  6
CONTINUOUS
 62
    7
 10
969.80000529049903
 20
470.57005024324508
 11
945.0404749689875
 21
470.57005024324508
  0
LINE
  8
_1-0_
  6
CONTINUOUS
 62
    7
 10
945.0404749689875
 20
470.57005024324508
 11
924.54115584089948
 21
296.1406700399391
  0
LINE
  8
_1-0_
  6
CONTINUOUS
 62
    7
 10
924.54115584089948
 20
296.1406700399391
 11
924.3022270644492
 21
294.6878500978919
  0
LINE
  8
_1-0_
  6
CONTINUOUS
 62
    7
 10
924.3022270644492
 20
294.6878500978919
 11
923.93075449586365
 21
293.26315743582586
  0
LINE
  8
_1-0_
  6
CONTINUOUS
 62
    7
 10
923.93075449586365
 20
293.26315743582586
 11
923.42988769059934
 21
291.87864347774553
  0
LINE
  8
_1-0_
  6
CONTINUOUS
 62
    7
 10
923.42988769059934
 20
291.87864347774553
 11
922.80382605593172
 21
290.54600969704882
  0
LINE
  8
_1-0_
  6
CONTINUOUS
 62
    7
 10
922.80382605593172
 20
290.54600969704882
 11
922.05799382625855
 21
289.27658574461475
  0
LINE
  8
_1-0_
  6
CONTINUOUS
 62
    7
 10
922.05799382625855
 20
289.27658574461475
 11
921.19860262484156
 21
288.08108885776119
  0
LINE
  8
_1-0_
  6
CONTINUOUS
 62
    7
 10
921.19860262484156
 20
288.08108885776119
 11
920.23291392676151
 21
286.96966760407076
  0
LINE
  8
_1-0_
  6
CONTINUOUS
 62
    7
 10
920.23291392676151
 20
286.96966760407076
 11
919.16915157126641
 21
285.95170503417489
  0
LINE
  8
_1-0_
  6
CONTINUOUS
 62
    7
 10
919.16915157126641
 20
285.95170503417489
 11
918.01632678646843
 21
285.03584055366662
  0
LINE
  8
_1-0_
  6
CONTINUOUS
 62
    7
 10
918.01632678646843
 20
285.03584055366662
 11
916.7842381893438
 21
284.22983869162306
  0
LINE
  8
_1-0_
  6
CONTINUOUS
 62
    7
 10
916.7842381893438
 20
284.22983869162306
 11
915.48329681042992
 21
283.54047974104117
  0
LINE
  8
_1-0_
  6
CONTINUOUS
 62
    7
 10
915.48329681042992
 20
283.54047974104117
 11
914.12443860617373
 21
282.97364724648958
  0
LINE
  8
_1-0_
  6
CONTINUOUS
 62
    7
 10
914.12443860617373
 20
282.97364724648958
 11
912.71921194658307
 21
282.53413115689199
  0
LINE
  8
_1-0_
  6
CONTINUOUS
 62
    7
 10
912.71921194658307
 20
282.53413115689199
 11
911.2795151522721
 21
282.22564969743996
  0
LINE
  8
_1-0_
  6
CONTINUOUS
 62
    7
 10
911.2795151522721
 20
282.22564969743996
 11
909.81759649446099
 21
282.05080562576825
  0
LINE
  8
_1-0_
  6
CONTINUOUS
 62
    7
 10
909.81759649446099
 20
282.05080562576825
 11
908.34579173202212
 21
282.01106436004039
  0
LINE
  8
_1-0_
  6
CONTINUOUS
 62
    7
 10
908.34579173202212
 20
282.01106436004039
 11
881.00476327549995
 21
282.5318564779509
  0
LINE
  8
_1-0_
  6
CONTINUOUS
 62
    7
 10
881.00476327549995
 20
282.5318564779509
 11
880.79444296111456
 21
282.51048761905395
  0
LINE
  8
_1-0_
  6
CONTINUOUS
 62
    7
 10
880.79444296111456
 20
282.51048761905395
 11
880.5854349615031
 21
282.47802970031967
  0
LINE
  8
_1-0_
  6
CONTINUOUS
 62
    7
 10
880.5854349615031
 20
282.47802970031967
 11
880.37843917787757
 21
282.43457020940014
  0
LINE
  8
_1-0_
  6
CONTINUOUS
 62
    7
 10
880.37843917787757
 20
282.43457020940014
 11
880.17406802379935
 21
282.38024037777222
  0
LINE
  8
_1-0_
  6
CONTINUOUS
 62
    7
 10
880.17406802379935
 20
282.38024037777222
 11
879.97284642517798
 21
282.31519330882662
  0
LINE
  8
_1-0_
  6
CONTINUOUS
 62
    7
 10
879.97284642517798
 20
282.31519330882662
 11
879.77538679557415
 21
282.23958210595328
  0
LINE
  8
_1-0_
  6
CONTINUOUS
 62
    7
 10
879.77538679557415
 20
282.23958210595328
 11
879.58212657324589
 21
282.1536473601941
  0
LINE
  8
_1-0_
  6
CONTINUOUS
 62
    7
 10
879.58212657324589
 20
282.1536473601941
 11
879.39376565940597
 21
282.05762966259101
  0
LINE
  8
_1-0_
  6
CONTINUOUS
 62
    7
 10
879.39376565940597
 20
282.05762966259101
 11
879.21065400466034
 21
281.95176960418576
  0
LINE
  8
_1-0_
  6
CONTINUOUS
 62
    7
 10
879.21065400466034
 20
281.95176960418576
 11
879.03340402257027
 21
281.83639526367188
  0
LINE
  8
_1-0_
  6
CONTINUOUS
 62
    7
 10
879.03340402257027
 20
281.83639526367188
 11
878.86254063904516
 21
281.71181284782961
  0
LINE
  8
_1-0_
  6
CONTINUOUS
 62
    7
 10
878.86254063904516
 20
281.71181284782961
 11
878.69850129234283
 21
281.57837230726557
  0
LINE
  8
_1-0_
  6
CONTINUOUS
 62
    7
 10
878.69850129234283
 20
281.57837230726557
 11
878.54172342072115
 21
281.43644546449877
  0
LINE
  8
_1-0_
  6
CONTINUOUS
 62
    7
 10
878.54172342072115
 20
281.43644546449877
 11
878.39264446243817
 21
281.28644788587422
  0
LINE
  8
_1-0_
  6
CONTINUOUS
 62
    7
 10
878.39264446243817
 20
281.28644788587422
 11
878.25170185575143
 21
281.12875139391093
  0
LINE
  8
_1-0_
  6
CONTINUOUS
 62
    7
 10
878.25170185575143
 20
281.12875139391093
 11
878.11933303891919
 21
280.96385904260586
  0
LINE
  8
_1-0_
  6
CONTINUOUS
 62
    7
 10
878.11933303891919
 20
280.96385904260586
 11
874.57547073658827
 21
276.3024294790614
  0
LINE
  8
_1-0_
  6
CONTINUOUS
 62
    7
 10
874.57547073658827
 20
276.3024294790614
 11
874.42805404368517
 21
276.11984275022536
  0
LINE
  8
_1-0_
  6
CONTINUOUS
 62
    7
 10
874.42805404368517
 20
276.11984275022536
 11
874.27013883259303
 21
275.9462016337626
  0
LINE
  8
_1-0_
  6
CONTINUOUS
 62
    7
 10
874.27013883259303
 20
275.9462016337626
 11
874.10233751687304
 21
275.78214041514741
  0
LINE
  8
_1-0_
  6
CONTINUOUS
 62
    7
 10
874.10233751687304
 20
275.78214041514741
 11
873.92517502243447
 21
275.62820589220195
  0
LINE
  8
_1-0_
  6
CONTINUOUS
 62
    7
 10
873.92517502243447
 20
275.62820589220195
 11
873.7392637628385
 21
275.4849229908358
  0
LINE
  8
_1-0_
  6
CONTINUOUS
 62
    7
 10
873.7392637628385
 20
275.4849229908358
 11
873.54530363929769
 21
275.3527728931324
  0
LINE
  8
_1-0_
  6
CONTINUOUS
 62
    7
 10
873.54530363929769
 20
275.3527728931324
 11
873.34390706537306
 21
275.23223678117546
  0
LINE
  8
_1-0_
  6
CONTINUOUS
 62
    7
 10
873.34390706537306
 20
275.23223678117546
 11
873.13577394227718
 21
275.12373022131015
  0
LINE
  8
_1-0_
  6
CONTINUOUS
 62
    7
 10
873.13577394227718
 20
275.12373022131015
 11
872.92160417122261
 21
275.02760316414253
  0
LINE
  8
_1-0_
  6
CONTINUOUS
 62
    7
 10
872.92160417122261
 20
275.02760316414253
 11
872.70227262872527
 21
274.94420556027922
  0
LINE
  8
_1-0_
  6
CONTINUOUS
 62
    7
 10
872.70227262872527
 20
274.94420556027922
 11
872.47839172834585
 21
274.87382174458742
  0
LINE
  8
_1-0_
  6
CONTINUOUS
 62
    7
 10
872.47839172834585
 20
274.87382174458742
 11
872.25074885894878
 21
274.81669230810922
  0
LINE
  8
_1-0_
  6
CONTINUOUS
 62
    7
 10
872.25074885894878
 20
274.81669230810922
 11
872.02013140939823
 21
274.77299222614772
  0
LINE
  8
_1-0_
  6
CONTINUOUS
 62
    7
 10
872.02013140939823
 20
274.77299222614772
 11
871.78732676855839
 21
274.74291834591895
  0
LINE
  8
_1-0_
  6
CONTINUOUS
 62
    7
 10
871.78732676855839
 20
274.74291834591895
 11
871.55320981294483
 21
274.72653628316164
  0
LINE
  8
_1-0_
  6
CONTINUOUS
 62
    7
 10
871.55320981294483
 20
274.72653628316164
 11
871.31848044377034
 21
274.72391165361444
  0
LINE
  8
_1-0_
  6
CONTINUOUS
 62
    7
 10
871.31848044377034
 20
274.72391165361444
 11
861.0000118417629
 21
274.91152892241598
  0
LINE
  8
_1-0_
  6
CONTINUOUS
 62
    7
 10
861.0000118417629
 20
274.91152892241598
 11
861.0000118417629
 21
279.71232631491876
  0
LINE
  8
_1-0_
  6
CONTINUOUS
 62
    7
 10
861.0000118417629
 20
279.71232631491876
 11
868.97109926437315
 21
279.56738114817256
  0
LINE
  8
_1-0_
  6
CONTINUOUS
 62
    7
 10
868.97109926437315
 20
279.56738114817256
 11
869.20582863354764
 21
279.57000577771993
  0
LINE
  8
_1-0_
  6
CONTINUOUS
 62
    7
 10
869.20582863354764
 20
279.57000577771993
 11
869.4399455891612
 21
279.58638784047719
  0
LINE
  8
_1-0_
  6
CONTINUOUS
 62
    7
 10
869.4399455891612
 20
279.58638784047719
 11
869.67266274234953
 21
279.61648359261886
  0
LINE
  8
_1-0_
  6
CONTINUOUS
 62
    7
 10
869.67266274234953
 20
279.61648359261886
 11
869.90328019190019
 21
279.66016180266735
  0
LINE
  8
_1-0_
  6
CONTINUOUS
 62
    7
 10
869.90328019190019
 20
279.66016180266735
 11
870.13092306129715
 21
279.71729123914571
  0
LINE
  8
_1-0_
  6
CONTINUOUS
 62
    7
 10
870.13092306129715
 20
279.71729123914571
 11
870.35480396167645
 21
279.78767505483734
  0
LINE
  8
_1-0_
  6
CONTINUOUS
 62
    7
 10
870.35480396167645
 20
279.78767505483734
 11
870.57422299182554
 21
279.87107265870077
  0
LINE
  8
_1-0_
  6
CONTINUOUS
 62
    7
 10
870.57422299182554
 20
279.87107265870077
 11
870.78839276288011
 21
279.96719971586845
  0
LINE
  8
_1-0_
  6
CONTINUOUS
 62
    7
 10
870.78839276288011
 20
279.96719971586845
 11
870.99643839832436
 21
280.07570627573375
  0
LINE
  8
_1-0_
  6
CONTINUOUS
 62
    7
 10
870.99643839832436
 20
280.07570627573375
 11
871.19783497224898
 21
280.19624238769052
  0
LINE
  8
_1-0_
  6
CONTINUOUS
 62
    7
 10
871.19783497224898
 20
280.19624238769052
 11
871.3917950957898
 21
280.32839248539403
  0
LINE
  8
_1-0_
  6
CONTINUOUS
 62
    7
 10
871.3917950957898
 20
280.32839248539403
 11
871.57770635538566
 21
280.47167538676024
  0
LINE
  8
_1-0_
  6
CONTINUOUS
 62
    7
 10
871.57770635538566
 20
280.47167538676024
 11
871.75486884982422
 21
280.62560990970564
  0
LINE
  8
_1-0_
  6
CONTINUOUS
 62
    7
 10
871.75486884982422
 20
280.62560990970564
 11
871.92275765319573
 21
280.78969300023374
  0
LINE
  8
_1-0_
  6
CONTINUOUS
 62
    7
 10
871.92275765319573
 20
280.78969300023374
 11
872.08067286428786
 21
280.96331224478348
  0
LINE
  8
_1-0_
  6
CONTINUOUS
 62
    7
 10
872.08067286428786
 20
280.96331224478348
 11
872.22808955719097
 21
281.14589897361952
  0
LINE
  8
_1-0_
  6
CONTINUOUS
 62
    7
 10
872.22808955719097
 20
281.14589897361952
 11
875.77186437187038
 21
285.80732853716398
  0
LINE
  8
_1-0_
  6
CONTINUOUS
 62
    7
 10
875.77186437187038
 20
285.80732853716398
 11
875.90519555287005
 21
285.97333635602683
  0
LINE
  8
_1-0_
  6
CONTINUOUS
 62
    7
 10
875.90519555287005
 20
285.97333635602683
 11
876.04718801137551
 21
286.13201708407018
  0
LINE
  8
_1-0_
  6
CONTINUOUS
 62
    7
 10
876.04718801137551
 20
286.13201708407018
 11
876.19740430912907
 21
286.2829332830363
  0
LINE
  8
_1-0_
  6
CONTINUOUS
 62
    7
 10
876.19740430912907
 20
286.2829332830363
 11
876.35549449552423
 21
286.42562564275437
  0
LINE
  8
_1-0_
  6
CONTINUOUS
 62
    7
 10
876.35549449552423
 20
286.42562564275437
 11
876.52084615700028
 21
286.55972234070532
  0
LINE
  8
_1-0_
  6
CONTINUOUS
 62
    7
 10
876.52084615700028
 20
286.55972234070532
 11
876.69319683060223
 21
286.68480781054399
  0
LINE
  8
_1-0_
  6
CONTINUOUS
 62
    7
 10
876.69319683060223
 20
286.68480781054399
 11
876.87193410276905
 21
286.80055397357717
  0
LINE
  8
_1-0_
  6
CONTINUOUS
 62
    7
 10
876.87193410276905
 20
286.80055397357717
 11
877.05653304759142
 21
286.90663275111137
  0
LINE
  8
_1-0_
  6
CONTINUOUS
 62
    7
 10
877.05653304759142
 20
286.90663275111137
 11
877.24655622681121
 21
287.00273793636597
  0
LINE
  8
_1-0_
  6
CONTINUOUS
 62
    7
 10
877.24655622681121
 20
287.00273793636597
 11
877.44139122686784
 21
287.08858519447347
  0
LINE
  8
_1-0_
  6
CONTINUOUS
 62
    7
 10
877.44139122686784
 20
287.08858519447347
 11
877.64051312185165
 21
287.16395580630501
  0
LINE
  8
_1-0_
  6
CONTINUOUS
 62
    7
 10
877.64051312185165
 20
287.16395580630501
 11
877.84339698585302
 21
287.22860918081864
  0
LINE
  8
_1-0_
  6
CONTINUOUS
 62
    7
 10
877.84339698585302
 20
287.22860918081864
 11
878.04943040531111
 21
287.28237034271115
  0
LINE
  8
_1-0_
  6
CONTINUOUS
 62
    7
 10
878.04943040531111
 20
287.28237034271115
 11
878.25800096666489
 21
287.32510806050539
  0
LINE
  8
_1-0_
  6
CONTINUOUS
 62
    7
 10
878.25800096666489
 20
287.32510806050539
 11
878.46858374400483
 21
287.35666923081084
  0
LINE
  8
_1-0_
  6
CONTINUOUS
 62
    7
 10
878.46858374400483
 20
287.35666923081084
 11
878.68056632377011
 21
287.37698823788918
  0
LINE
  8
_1-0_
  6
CONTINUOUS
 62
    7
 10
878.68056632377011
 20
287.37698823788918
 11
906.49761509250948
 21
286.84714114804069
  0
LINE
  8
_1-0_
  6
CONTINUOUS
 62
    7
 10
868.97109926437315
 20
279.56738114817256
 11
852.97074513085568
 21
279.85829946157094
  0
LINE
  8
_1-0_
  6
CONTINUOUS
 62
    7
 10
838.61262170504415
 20
287.98848317856948
 11
838.84122693860843
 21
287.97778781316453
  0
LINE
  8
_1-0_
  6
CONTINUOUS
 62
    7
 10
838.84122693860843
 20
287.97778781316453
 11
839.0688698080055
 21
287.9540130438491
  0
LINE
  8
_1-0_
  6
CONTINUOUS
 62
    7
 10
839.0688698080055
 20
287.9540130438491
 11
839.29485041202258
 21
287.91726823018791
  0
LINE
  8
_1-0_
  6
CONTINUOUS
 62
    7
 10
839.29485041202258
 20
287.91726823018791
 11
839.51829387414409
 21
287.86764085983208
  0
LINE
  8
_1-0_
  6
CONTINUOUS
 62
    7
 10
839.51829387414409
 20
287.86764085983208
 11
839.73850029315724
 21
287.80532777999809
  0
LINE
  8
_1-0_
  6
CONTINUOUS
 62
    7
 10
839.73850029315724
 20
287.80532777999809
 11
839.95485725550111
 21
287.73052583790189
  0
LINE
  8
_1-0_
  6
CONTINUOUS
 62
    7
 10
839.95485725550111
 20
287.73052583790189
 11
840.16648988466
 21
287.64347562458522
  0
LINE
  8
_1-0_
  6
CONTINUOUS
 62
    7
 10
840.16648988466
 20
287.64347562458522
 11
840.37287325472437
 21
287.54443960300279
  0
LINE
  8
_1-0_
  6
CONTINUOUS
 62
    7
 10
840.37287325472437
 20
287.54443960300279
 11
840.57321997683016
 21
287.43378959567394
  0
LINE
  8
_1-0_
  6
CONTINUOUS
 62
    7
 10
840.57321997683016
 20
287.43378959567394
 11
840.76691763741621
 21
287.31183180937887
  0
LINE
  8
_1-0_
  6
CONTINUOUS
 62
    7
 10
840.76691763741621
 20
287.31183180937887
 11
840.9533538229216
 21
287.17900368237594
  0
LINE
  8
_1-0_
  6
CONTINUOUS
 62
    7
 10
840.9533538229216
 20
287.17900368237594
 11
841.13182863213387
 21
287.03574265292247
  0
LINE
  8
_1-0_
  6
CONTINUOUS
 62
    7
 10
841.13182863213387
 20
287.03574265292247
 11
841.30190462679468
 21
286.88250803118962
  0
LINE
  8
_1-0_
  6
CONTINUOUS
 62
    7
 10
841.30190462679468
 20
286.88250803118962
 11
841.46288190569192
 21
286.71978099926093
  0
LINE
  8
_1-0_
  6
CONTINUOUS
 62
    7
 10
841.46288190569192
 20
286.71978099926093
 11
841.61423554291582
 21
286.54813022687165
  0
LINE
  8
_1-0_
  6
CONTINUOUS
 62
    7
 10
841.61423554291582
 20
286.54813022687165
 11
841.75561558786046
 21
286.36808063993129
  0
LINE
  8
_1-0_
  6
CONTINUOUS
 62
    7
 10
841.75561558786046
 20
286.36808063993129
 11
845.41111213360057
 21
281.42682182282556
  0
LINE
  8
_1-0_
  6
CONTINUOUS
 62
    7
 10
845.41111213360057
 20
281.42682182282556
 11
845.55240469089335
 21
281.24677223588503
  0
LINE
  8
_1-0_
  6
CONTINUOUS
 62
    7
 10
845.55240469089335
 20
281.24677223588503
 11
845.703845815769
 21
281.07512146349575
  0
LINE
  8
_1-0_
  6
CONTINUOUS
 62
    7
 10
845.703845815769
 20
281.07512146349575
 11
845.86482309466624
 21
280.91239443156712
  0
LINE
  8
_1-0_
  6
CONTINUOUS
 62
    7
 10
845.86482309466624
 20
280.91239443156712
 11
846.03481160167564
 21
280.75915980983427
  0
LINE
  8
_1-0_
  6
CONTINUOUS
 62
    7
 10
846.03481160167564
 20
280.75915980983427
 11
846.21328641088769
 21
280.61587690846807
  0
LINE
  8
_1-0_
  6
CONTINUOUS
 62
    7
 10
846.21328641088769
 20
280.61587690846807
 11
846.39972259639308
 21
280.48304878146496
  0
LINE
  8
_1-0_
  6
CONTINUOUS
 62
    7
 10
846.39972259639308
 20
280.48304878146496
 11
846.59342025697913
 21
280.36111286708291
  0
LINE
  8
_1-0_
  6
CONTINUOUS
 62
    7
 10
846.59342025697913
 20
280.36111286708291
 11
846.79376697908492
 21
280.2504409878411
  0
LINE
  8
_1-0_
  6
CONTINUOUS
 62
    7
 10
846.79376697908492
 20
280.2504409878411
 11
847.00015034914929
 21
280.15142683817146
  0
LINE
  8
_1-0_
  6
CONTINUOUS
 62
    7
 10
847.00015034914929
 20
280.15142683817146
 11
847.21187046595969
 21
280.06435475294199
  0
LINE
  8
_1-0_
  6
CONTINUOUS
 62
    7
 10
847.21187046595969
 20
280.06435475294199
 11
847.42813994065216
 21
279.98955281084562
  0
LINE
  8
_1-0_
  6
CONTINUOUS
 62
    7
 10
847.42813994065216
 20
279.98955281084562
 11
847.64843384731694
 21
279.92723973101164
  0
LINE
  8
_1-0_
  6
CONTINUOUS
 62
    7
 10
847.64843384731694
 20
279.92723973101164
 11
847.87187730943833
 21
279.87763423256894
  0
LINE
  8
_1-0_
  6
CONTINUOUS
 62
    7
 10
847.87187730943833
 20
279.87763423256894
 11
848.09777042580379
 21
279.84088941890764
  0
LINE
  8
_1-0_
  6
CONTINUOUS
 62
    7
 10
848.09777042580379
 20
279.84088941890764
 11
848.32541329520086
 21
279.81711464959221
  0
LINE
  8
_1-0_
  6
CONTINUOUS
 62
    7
 10
848.32541329520086
 20
279.81711464959221
 11
848.55401852876514
 21
279.8064192841872
  0
LINE
  8
_1-0_
  6
CONTINUOUS
 62
    7
 10
848.55401852876514
 20
279.8064192841872
 11
856.5833727273241
 21
279.66042426562211
  0
LINE
  8
_1-0_
  6
CONTINUOUS
 62
    7
 10
856.5833727273241
 20
279.66042426562211
 11
856.5833727273241
 21
274.8596268731194
  0
LINE
  8
_1-0_
  6
CONTINUOUS
 62
    7
 10
856.5833727273241
 20
274.8596268731194
 11
846.10191463043316
 21
275.0501968501618
  0
LINE
  8
_1-0_
  6
CONTINUOUS
 62
    7
 10
846.10191463043316
 20
275.0501968501618
 11
845.87330939686899
 21
275.06091408747966
  0
LINE
  8
_1-0_
  6
CONTINUOUS
 62
    7
 10
845.87330939686899
 20
275.06091408747966
 11
845.64566652747192
 21
275.08466698488206
  0
LINE
  8
_1-0_
  6
CONTINUOUS
 62
    7
 10
845.64566652747192
 20
275.08466698488206
 11
845.41968592345484
 21
275.12143367045638
  0
LINE
  8
_1-0_
  6
CONTINUOUS
 62
    7
 10
845.41968592345484
 20
275.12143367045638
 11
845.19624246133333
 21
275.17103916889909
  0
LINE
  8
_1-0_
  6
CONTINUOUS
 62
    7
 10
845.19624246133333
 20
275.17103916889909
 11
844.97603604232017
 21
275.23335224873307
  0
LINE
  8
_1-0_
  6
CONTINUOUS
 62
    7
 10
844.97603604232017
 20
275.23335224873307
 11
844.75967907997631
 21
275.30815419082927
  0
LINE
  8
_1-0_
  6
CONTINUOUS
 62
    7
 10
844.75967907997631
 20
275.30815419082927
 11
844.54804645081731
 21
275.39520440414606
  0
LINE
  8
_1-0_
  6
CONTINUOUS
 62
    7
 10
844.54804645081731
 20
275.39520440414606
 11
844.34166308075305
 21
275.49424042572838
  0
LINE
  8
_1-0_
  6
CONTINUOUS
 62
    7
 10
844.34166308075305
 20
275.49424042572838
 11
844.14131635864715
 21
275.60491230497036
  0
LINE
  8
_1-0_
  6
CONTINUOUS
 62
    7
 10
844.14131635864715
 20
275.60491230497036
 11
843.94761869806121
 21
275.72684821935241
  0
LINE
  8
_1-0_
  6
CONTINUOUS
 62
    7
 10
843.94761869806121
 20
275.72684821935241
 11
843.76118251255571
 21
275.8596763463554
  0
LINE
  8
_1-0_
  6
CONTINUOUS
 62
    7
 10
843.76118251255571
 20
275.8596763463554
 11
843.58270770334354
 21
276.0029373758087
  0
LINE
  8
_1-0_
  6
CONTINUOUS
 62
    7
 10
843.58270770334354
 20
276.0029373758087
 11
843.41263170868274
 21
276.15619386945457
  0
LINE
  8
_1-0_
  6
CONTINUOUS
 62
    7
 10
843.41263170868274
 20
276.15619386945457
 11
843.2516544297855
 21
276.31889902947023
  0
LINE
  8
_1-0_
  6
CONTINUOUS
 62
    7
 10
843.2516544297855
 20
276.31889902947023
 11
843.10030079256148
 21
276.49057167377248
  0
LINE
  8
_1-0_
  6
CONTINUOUS
 62
    7
 10
843.10030079256148
 20
276.49057167377248
 11
842.95892074761696
 21
276.67059938880004
  0
LINE
  8
_1-0_
  6
CONTINUOUS
 62
    7
 10
842.95892074761696
 20
276.67059938880004
 11
839.30342420187685
 21
281.61188007781857
  0
LINE
  8
_1-0_
  6
CONTINUOUS
 62
    7
 10
839.30342420187685
 20
281.61188007781857
 11
839.16213164458395
 21
281.79190779284625
  0
LINE
  8
_1-0_
  6
CONTINUOUS
 62
    7
 10
839.16213164458395
 20
281.79190779284625
 11
839.01069051970831
 21
281.96358043714838
  0
LINE
  8
_1-0_
  6
CONTINUOUS
 62
    7
 10
839.01069051970831
 20
281.96358043714838
 11
838.84971324081118
 21
282.12628559716421
  0
LINE
  8
_1-0_
  6
CONTINUOUS
 62
    7
 10
838.84971324081118
 20
282.12628559716421
 11
838.67972473380178
 21
282.27954209080991
  0
LINE
  8
_1-0_
  6
CONTINUOUS
 62
    7
 10
838.67972473380178
 20
282.27954209080991
 11
838.50124992458973
 21
282.42280312026321
  0
LINE
  8
_1-0_
  6
CONTINUOUS
 62
    7
 10
838.50124992458973
 20
282.42280312026321
 11
838.31481373908434
 21
282.55563124726632
  0
LINE
  8
_1-0_
  6
CONTINUOUS
 62
    7
 10
838.31481373908434
 20
282.55563124726632
 11
838.12111607849829
 21
282.67756716164843
  0
LINE
  8
_1-0_
  6
CONTINUOUS
 62
    7
 10
838.12111607849829
 20
282.67756716164843
 11
837.92076935639238
 21
282.78823904089023
  0
LINE
  8
_1-0_
  6
CONTINUOUS
 62
    7
 10
837.92076935639238
 20
282.78823904089023
 11
837.71438598632812
 21
282.8872531905597
  0
LINE
  8
_1-0_
  6
CONTINUOUS
 62
    7
 10
837.71438598632812
 20
282.8872531905597
 11
837.50266586951761
 21
282.97432527578934
  0
LINE
  8
_1-0_
  6
CONTINUOUS
 62
    7
 10
837.50266586951761
 20
282.97432527578934
 11
837.28639639482526
 21
283.04912721788554
  0
LINE
  8
_1-0_
  6
CONTINUOUS
 62
    7
 10
837.28639639482526
 20
283.04912721788554
 11
837.06610248816048
 21
283.11144029771953
  0
LINE
  8
_1-0_
  6
CONTINUOUS
 62
    7
 10
837.06610248816048
 20
283.11144029771953
 11
836.84265902603909
 21
283.1610457961624
  0
LINE
  8
_1-0_
  6
CONTINUOUS
 62
    7
 10
836.84265902603909
 20
283.1610457961624
 11
836.61676590967363
 21
283.19781248173655
  0
LINE
  8
_1-0_
  6
CONTINUOUS
 62
    7
 10
836.61676590967363
 20
283.19781248173655
 11
836.38912304027656
 21
283.22156537913912
  0
LINE
  8
_1-0_
  6
CONTINUOUS
 62
    7
 10
836.38912304027656
 20
283.22156537913912
 11
836.16051780671228
 21
283.23228261645693
  0
LINE
  8
_1-0_
  6
CONTINUOUS
 62
    7
 10
836.16051780671228
 20
283.23228261645693
 11
485.39338925630432
 21
289.60986995328813
  0
LINE
  8
_1-0_
  6
CONTINUOUS
 62
    7
 10
485.39338925630432
 20
289.60986995328813
 11
484.42472597807068
 21
289.65687269409642
  0
LINE
  8
_1-0_
  6
CONTINUOUS
 62
    7
 10
484.42472597807068
 20
289.65687269409642
 11
483.4606558015447
 21
289.76247028954703
  0
LINE
  8
_1-0_
  6
CONTINUOUS
 62
    7
 10
483.4606558015447
 20
289.76247028954703
 11
482.50480946426677
 21
289.92631278903332
  0
LINE
  8
_1-0_
  6
CONTINUOUS
 62
    7
 10
482.50480946426677
 20
289.92631278903332
 11
481.56059898464832
 21
290.14774403516856
  0
LINE
  8
_1-0_
  6
CONTINUOUS
 62
    7
 10
481.56059898464832
 20
290.14774403516856
 11
480.63152386875231
 21
290.4259766390885
  0
LINE
  8
_1-0_
  6
CONTINUOUS
 62
    7
 10
480.63152386875231
 20
290.4259766390885
 11
479.72108362264152
 21
290.75998262088729
  0
LINE
  8
_1-0_
  6
CONTINUOUS
 62
    7
 10
479.72108362264152
 20
290.75998262088729
 11
478.83247154559865
 21
291.14853715344282
  0
LINE
  8
_1-0_
  6
CONTINUOUS
 62
    7
 10
478.83247154559865
 20
291.14853715344282
 11
477.96909965603504
 21
291.59021856241708
  0
LINE
  8
_1-0_
  6
CONTINUOUS
 62
    7
 10
477.96909965603504
 20
291.59021856241708
 11
477.13403002175585
 21
292.08338645434281
  0
LINE
  8
_1-0_
  6
CONTINUOUS
 62
    7
 10
477.13403002175585
 20
292.08338645434281
 11
476.33036845439193
 21
292.6262692042759
  0
LINE
  8
_1-0_
  6
CONTINUOUS
 62
    7
 10
476.33036845439193
 20
292.6262692042759
 11
475.56113327792247
 21
293.21681085240425
  0
LINE
  8
_1-0_
  6
CONTINUOUS
 62
    7
 10
475.56113327792247
 20
293.21681085240425
 11
474.82903660954662
 21
293.85288982317718
  0
LINE
  8
_1-0_
  6
CONTINUOUS
 62
    7
 10
474.82903660954662
 20
293.85288982317718
 11
474.13683431028858
 21
294.53216582191487
  0
LINE
  8
_1-0_
  6
CONTINUOUS
 62
    7
 10
474.13683431028858
 20
294.53216582191487
 11
473.48706352204431
 21
295.2521017067221
  0
LINE
  8
_1-0_
  6
CONTINUOUS
 62
    7
 10
473.48706352204431
 20
295.2521017067221
 11
472.88208641140614
 21
296.01011659187691
  0
LINE
  8
_1-0_
  6
CONTINUOUS
 62
    7
 10
472.88208641140614
 20
296.01011659187691
 11
472.32413391348928
 21
296.8033671287036
  0
LINE
  8
_1-0_
  6
CONTINUOUS
 62
    7
 10
472.32413391348928
 20
296.8033671287036
 11
357.81780213462798
 21
470.57005024324508
  0
LINE
  8
_1-0_
  6
CONTINUOUS
 62
    7
 10
357.81780213462798
 20
470.57005024324508
 11
329.28333275106411
 21
470.57005024324508
  0
LINE
  8
_1-0_
  6
CONTINUOUS
 62
    7
 10
329.28333275106411
 20
470.57005024324508
 11
329.28333275106411
 21
457.77003814815089
  0
LINE
  8
_1-0_
  6
CONTINUOUS
 62
    7
 10
329.28333275106411
 20
457.77003814815089
 11
326.08334066324716
 21
457.77003814815089
  0
LINE
  8
_1-0_
  6
CONTINUOUS
 62
    7
 10
326.08334066324716
 20
457.77003814815089
 11
326.08334066324716
 21
473.7700423310622
  0
LINE
  8
_1-0_
  6
CONTINUOUS
 62
    7
 10
326.08334066324716
 20
473.7700423310622
 11
358.58334095781828
 21
473.7700423310622
  0
LINE
  8
_1-0_
  6
CONTINUOUS
 62
    7
 10
358.58334095781828
 20
473.7700423310622
 11
472.03131274366922
 21
301.60947939603943
  0
LINE
  8
_1-0_
  6
CONTINUOUS
 62
    7
 10
472.03131274366922
 20
301.60947939603943
 11
472.58926524158608
 21
300.81622885921291
  0
LINE
  8
_1-0_
  6
CONTINUOUS
 62
    7
 10
472.58926524158608
 20
300.81622885921291
 11
473.19419860839844
 21
300.05823584597078
  0
LINE
  8
_1-0_
  6
CONTINUOUS
 62
    7
 10
473.19419860839844
 20
300.05823584597078
 11
473.84396939664271
 21
299.33827808925088
  0
LINE
  8
_1-0_
  6
CONTINUOUS
 62
    7
 10
473.84396939664271
 20
299.33827808925088
 11
474.53617169590075
 21
298.65900209051301
  0
LINE
  8
_1-0_
  6
CONTINUOUS
 62
    7
 10
474.53617169590075
 20
298.65900209051301
 11
475.26826836427659
 21
298.02292311974014
  0
LINE
  8
_1-0_
  6
CONTINUOUS
 62
    7
 10
475.26826836427659
 20
298.02292311974014
 11
476.03754728457176
 21
297.43238147161179
  0
LINE
  8
_1-0_
  6
CONTINUOUS
 62
    7
 10
476.03754728457176
 20
297.43238147161179
 11
476.84120885193579
 21
296.88952059359167
  0
LINE
  8
_1-0_
  6
CONTINUOUS
 62
    7
 10
476.84120885193579
 20
296.88952059359167
 11
477.67623474238917
 21
296.39633082975297
  0
LINE
  8
_1-0_
  6
CONTINUOUS
 62
    7
 10
477.67623474238917
 20
296.39633082975297
 11
478.53965037577865
 21
295.95464942077865
  0
LINE
  8
_1-0_
  6
CONTINUOUS
 62
    7
 10
478.53965037577865
 20
295.95464942077865
 11
479.42821870899564
 21
295.56609488822318
  0
LINE
  8
_1-0_
  6
CONTINUOUS
 62
    7
 10
479.42821870899564
 20
295.56609488822318
 11
480.33870269893214
 21
295.23208890642434
  0
LINE
  8
_1-0_
  6
CONTINUOUS
 62
    7
 10
480.33870269893214
 20
295.23208890642434
 11
481.26773407100245
 21
294.95385630250439
  0
LINE
  8
_1-0_
  6
CONTINUOUS
 62
    7
 10
481.26773407100245
 20
294.95385630250439
 11
482.2119445506209
 21
294.73242505636915
  0
LINE
  8
_1-0_
  6
CONTINUOUS
 62
    7
 10
482.2119445506209
 20
294.73242505636915
 11
483.1678346317247
 21
294.56860442879577
  0
LINE
  8
_1-0_
  6
CONTINUOUS
 62
    7
 10
483.1678346317247
 20
294.56860442879577
 11
484.13186106442481
 21
294.46298496143243
  0
LINE
  8
_1-0_
  6
CONTINUOUS
 62
    7
 10
484.13186106442481
 20
294.46298496143243
 11
485.10056808648415
 21
294.41598222062396
  0
LINE
  8
_1-0_
  6
CONTINUOUS
 62
    7
 10
485.10056808648415
 20
294.41598222062396
 11
838.61262170504415
 21
287.98848317856948
  0
LINE
  8
_1-0_
  6
CONTINUOUS
 62
    7
 10
902.09339922459424
 20
286.83428046325912
 11
903.56424162286589
 21
286.87522468419616
  0
LINE
  8
_1-0_
  6
CONTINUOUS
 62
    7
 10
903.56424162286589
 20
286.87522468419616
 11
905.02519791650957
 21
287.05111860768682
  0
LINE
  8
_1-0_
  6
CONTINUOUS
 62
    7
 10
905.02519791650957
 20
287.05111860768682
 11
906.46375737135008
 21
287.36047494365437
  0
LINE
  8
_1-0_
  6
CONTINUOUS
 62
    7
 10
906.46375737135008
 20
287.36047494365437
 11
907.86784669147028
 21
287.80069093446468
  0
LINE
  8
_1-0_
  6
CONTINUOUS
 62
    7
 10
907.86784669147028
 20
287.80069093446468
 11
909.2255675562559
 21
288.36802648301284
  0
LINE
  8
_1-0_
  6
CONTINUOUS
 62
    7
 10
909.2255675562559
 20
288.36802648301284
 11
910.52537159569943
 21
289.05771351228805
  0
LINE
  8
_1-0_
  6
CONTINUOUS
 62
    7
 10
910.52537159569943
 20
289.05771351228805
 11
911.75632285335337
 21
289.8638903496348
  0
LINE
  8
_1-0_
  6
CONTINUOUS
 62
    7
 10
911.75632285335337
 20
289.8638903496348
 11
912.90809778633263
 21
290.77973295823028
  0
LINE
  8
_1-0_
  6
CONTINUOUS
 62
    7
 10
912.90809778633263
 20
290.77973295823028
 11
913.9708102900089
 21
291.7975205528229
  0
LINE
  8
_1-0_
  6
CONTINUOUS
 62
    7
 10
913.9708102900089
 20
291.7975205528229
 11
914.93544913627011
 21
292.90863559973286
  0
LINE
  8
_1-0_
  6
CONTINUOUS
 62
    7
 10
914.93544913627011
 20
292.90863559973286
 11
915.79405294882281
 21
294.10369504832858
  0
LINE
  8
_1-0_
  6
CONTINUOUS
 62
    7
 10
915.79405294882281
 20
294.10369504832858
 11
916.53918527728342
 21
295.37255033102736
  0
LINE
  8
_1-0_
  6
CONTINUOUS
 62
    7
 10
916.53918527728342
 20
295.37255033102736
 11
917.16454701073826
 21
296.70450608242436
  0
LINE
  8
_1-0_
  6
CONTINUOUS
 62
    7
 10
917.16454701073826
 20
296.70450608242436
 11
917.66497637774489
 21
298.08827639546632
  0
LINE
  8
_1-0_
  6
CONTINUOUS
 62
    7
 10
917.66497637774489
 20
298.08827639546632
 11
918.03609899572416
 21
299.51218166866823
  0
LINE
  8
_1-0_
  6
CONTINUOUS
 62
    7
 10
918.03609899572416
 20
299.51218166866823
 11
918.27485279687107
 21
300.96414860611247
  0
LINE
  8
_1-0_
  6
CONTINUOUS
 62
    7
 10
918.27485279687107
 20
300.96414860611247
 11
938.58336135687512
 21
473.7700423310622
  0
LINE
  8
_1-0_
  6
CONTINUOUS
 62
    7
 10
938.58336135687512
 20
473.7700423310622
 11
968.58331452005143
 21
473.7700423310622
  0
LINE
  8
_1-0_
  6
CONTINUOUS
 62
    7
 10
968.58331452005143
 20
473.7700423310622
 11
968.58331452005143
 21
457.77003814815089
  0
LINE
  8
_1-0_
  6
CONTINUOUS
 62
    7
 10
968.58331452005143
 20
457.77003814815089
 11
965.38336617606024
 21
457.77003814815089
  0
LINE
  8
_1-0_
  6
CONTINUOUS
 62
    7
 10
965.38336617606024
 20
457.77003814815089
 11
965.38336617606024
 21
470.57005024324508
  0
LINE
  8
_1-0_
  6
CONTINUOUS
 62
    7
 10
965.38336617606024
 20
470.57005024324508
 11
940.62374836689719
 21
470.57005024324508
  0
LINE
  8
_1-0_
  6
CONTINUOUS
 62
    7
 10
940.62374836689719
 20
470.57005024324508
 11
920.12320441168697
 21
296.12975595540519
  0
LINE
  8
_1-0_
  6
CONTINUOUS
 62
    7
 10
920.12320441168697
 20
296.12975595540519
 11
919.88445061054006
 21
294.67776714604793
  0
LINE
  8
_1-0_
  6
CONTINUOUS
 62
    7
 10
919.88445061054006
 20
294.67776714604793
 11
919.51332799256079
 21
293.25388374475892
  0
LINE
  8
_1-0_
  6
CONTINUOUS
 62
    7
 10
919.51332799256079
 20
293.25388374475892
 11
919.01289862555416
 21
291.8701134317169
  0
LINE
  8
_1-0_
  6
CONTINUOUS
 62
    7
 10
919.01289862555416
 20
291.8701134317169
 11
918.38753689209921
 21
290.53815768031996
  0
LINE
  8
_1-0_
  6
CONTINUOUS
 62
    7
 10
918.38753689209921
 20
290.53815768031996
 11
917.64240456363859
 21
289.26928052570827
  0
LINE
  8
_1-0_
  6
CONTINUOUS
 62
    7
 10
917.64240456363859
 20
289.26928052570827
 11
916.78388823873752
 21
288.07424294902546
  0
LINE
  8
_1-0_
  6
CONTINUOUS
 62
    7
 10
916.78388823873752
 20
288.07424294902546
 11
915.8191619048248
 21
286.96312790211562
  0
LINE
  8
_1-0_
  6
CONTINUOUS
 62
    7
 10
915.8191619048248
 20
286.96312790211562
 11
914.75644940114853
 21
285.94534030752288
  0
LINE
  8
_1-0_
  6
CONTINUOUS
 62
    7
 10
914.75644940114853
 20
285.94534030752288
 11
913.60476195582078
 21
285.02947582701449
  0
LINE
  8
_1-0_
  6
CONTINUOUS
 62
    7
 10
913.60476195582078
 20
285.02947582701449
 11
912.3737232105151
 21
284.2232989896678
  0
LINE
  8
_1-0_
  6
CONTINUOUS
 62
    7
 10
912.3737232105151
 20
284.2232989896678
 11
911.07391917107179
 21
283.53363383230555
  0
LINE
  8
_1-0_
  6
CONTINUOUS
 62
    7
 10
911.07391917107179
 20
283.53363383230555
 11
909.71619830628606
 21
282.96627641184443
  0
LINE
  8
_1-0_
  6
CONTINUOUS
 62
    7
 10
909.71619830628606
 20
282.96627641184443
 11
908.31210898616587
 21
282.52606042103423
  0
LINE
  8
_1-0_
  6
CONTINUOUS
 62
    7
 10
908.31210898616587
 20
282.52606042103423
 11
906.87354953132535
 21
282.21670408506657
  0
LINE
  8
_1-0_
  6
CONTINUOUS
 62
    7
 10
906.87354953132535
 20
282.21670408506657
 11
905.41259323768168
 21
282.04081016157591
  0
LINE
  8
_1-0_
  6
CONTINUOUS
 62
    7
 10
905.41259323768168
 20
282.04081016157591
 11
903.94175083941013
 21
281.99988781255183
  0
LINE
  8
_1-0_
  6
CONTINUOUS
 62
    7
 10
903.94175083941013
 20
281.99988781255183
 11
876.95968421729833
 21
282.49047481875618
  0
LINE
  8
_1-0_
  6
CONTINUOUS
 62
    7
 10
876.95968421729833
 20
282.49047481875618
 11
876.72495484812373
 21
282.48785018920898
  0
LINE
  8
_1-0_
  6
CONTINUOUS
 62
    7
 10
876.72495484812373
 20
282.48785018920898
 11
876.49083789251017
 21
282.47146812645155
  0
LINE
  8
_1-0_
  6
CONTINUOUS
 62
    7
 10
876.49083789251017
 20
282.47146812645155
 11
876.25803325167021
 21
282.4413942462229
  0
LINE
  8
_1-0_
  6
CONTINUOUS
 62
    7
 10
876.25803325167021
 20
282.4413942462229
 11
876.02741580211966
 21
282.3977160361743
  0
LINE
  8
_1-0_
  6
CONTINUOUS
 62
    7
 10
876.02741580211966
 20
282.3977160361743
 11
875.79977293272259
 21
282.3405647277832
  0
LINE
  8
_1-0_
  6
CONTINUOUS
 62
    7
 10
875.79977293272259
 20
282.3405647277832
 11
875.5758920323434
 21
282.27018091209146
  0
LINE
  8
_1-0_
  6
CONTINUOUS
 62
    7
 10
875.5758920323434
 20
282.27018091209146
 11
875.35647300219443
 21
282.18678330822797
  0
LINE
  8
_1-0_
  6
CONTINUOUS
 62
    7
 10
875.35647300219443
 20
282.18678330822797
 11
875.14239071879149
 21
282.09065625106035
  0
LINE
  8
_1-0_
  6
CONTINUOUS
 62
    7
 10
875.14239071879149
 20
282.09065625106035
 11
874.9342575956955
 21
281.98214969119505
  0
LINE
  8
_1-0_
  6
CONTINUOUS
 62
    7
 10
874.9342575956955
 20
281.98214969119505
 11
874.73286102177087
 21
281.86161357923822
  0
LINE
  8
_1-0_
  6
CONTINUOUS
 62
    7
 10
874.73286102177087
 20
281.86161357923822
 11
874.53890089823005
 21
281.72948535344773
  0
LINE
  8
_1-0_
  6
CONTINUOUS
 62
    7
 10
874.53890089823005
 20
281.72948535344773
 11
874.3529896386342
 21
281.58618058016856
  0
LINE
  8
_1-0_
  6
CONTINUOUS
 62
    7
 10
874.3529896386342
 20
281.58618058016856
 11
874.17582714419564
 21
281.4322460572231
  0
LINE
  8
_1-0_
  6
CONTINUOUS
 62
    7
 10
874.17582714419564
 20
281.4322460572231
 11
874.00802582847564
 21
281.26818483860802
  0
LINE
  8
_1-0_
  6
CONTINUOUS
 62
    7
 10
874.00802582847564
 20
281.26818483860802
 11
873.85011061738351
 21
281.09454372214532
  0
LINE
  8
_1-0_
  6
CONTINUOUS
 62
    7
 10
873.85011061738351
 20
281.09454372214532
 11
873.70260643682877
 21
280.91195699330922
  0
LINE
  8
_1-0_
  6
CONTINUOUS
 62
    7
 10
873.70260643682877
 20
280.91195699330922
 11
870.15883162214948
 21
276.25054930167767
  0
LINE
  8
_1-0_
  6
CONTINUOUS
 62
    7
 10
870.15883162214948
 20
276.25054930167767
 11
870.01141492924626
 21
276.0679407009286
  0
LINE
  8
_1-0_
  6
CONTINUOUS
 62
    7
 10
870.01141492924626
 20
276.0679407009286
 11
869.85349971815424
 21
275.89432145637886
  0
LINE
  8
_1-0_
  6
CONTINUOUS
 62
    7
 10
869.85349971815424
 20
275.89432145637886
 11
869.68561091478261
 21
275.73023836585082
  0
LINE
  8
_1-0_
  6
CONTINUOUS
 62
    7
 10
869.68561091478261
 20
275.73023836585082
 11
869.50844842034417
 21
275.57630384290547
  0
LINE
  8
_1-0_
  6
CONTINUOUS
 62
    7
 10
869.50844842034417
 20
275.57630384290547
 11
869.32253716074808
 21
275.43302094153916
  0
LINE
  8
_1-0_
  6
CONTINUOUS
 62
    7
 10
869.32253716074808
 20
275.43302094153916
 11
869.12857703720738
 21
275.30087084383581
  0
LINE
  8
_1-0_
  6
CONTINUOUS
 62
    7
 10
869.12857703720738
 20
275.30087084383581
 11
868.92718046328264
 21
275.18033473187899
  0
LINE
  8
_1-0_
  6
CONTINUOUS
 62
    7
 10
868.92718046328264
 20
275.18033473187899
 11
868.71913482783839
 21
275.07182817201351
  0
LINE
  8
_1-0_
  6
CONTINUOUS
 62
    7
 10
868.71913482783839
 20
275.07182817201351
 11
868.50496505678382
 21
274.97570111484606
  0
LINE
  8
_1-0_
  6
CONTINUOUS
 62
    7
 10
868.50496505678382
 20
274.97570111484606
 11
868.28563351428647
 21
274.89230351098257
  0
LINE
  8
_1-0_
  6
CONTINUOUS
 62
    7
 10
868.28563351428647
 20
274.89230351098257
 11
868.06166512625555
 21
274.82191969529083
  0
LINE
  8
_1-0_
  6
CONTINUOUS
 62
    7
 10
868.06166512625555
 20
274.82191969529083
 11
867.83402225685847
 21
274.76479025881258
  0
LINE
  8
_1-0_
  6
CONTINUOUS
 62
    7
 10
867.83402225685847
 20
274.76479025881258
 11
867.60340480730792
 21
274.72111204876398
  0
LINE
  8
_1-0_
  6
CONTINUOUS
 62
    7
 10
867.60340480730792
 20
274.72111204876398
 11
867.37068765411959
 21
274.69101629662237
  0
LINE
  8
_1-0_
  6
CONTINUOUS
 62
    7
 10
867.37068765411959
 20
274.69101629662237
 11
867.13657069850615
 21
274.67463423386505
  0
LINE
  8
_1-0_
  6
CONTINUOUS
 62
    7
 10
867.13657069850615
 20
274.67463423386505
 11
866.90184132933155
 21
274.67200960431785
  0
LINE
  8
_1-0_
  6
CONTINUOUS
 62
    7
 10
866.90184132933155
 20
274.67200960431785
 11
856.5833727273241
 21
274.8596268731194
  0
LINE
  8
_1-0_
  6
CONTINUOUS
 62
    7
 10
856.5833727273241
 20
274.8596268731194
 11
856.5833727273241
 21
279.66042426562211
  0
LINE
  8
_1-0_
  6
CONTINUOUS
 62
    7
 10
856.5833727273241
 20
279.66042426562211
 11
864.55446014993424
 21
279.51550097078893
  0
LINE
  8
_1-0_
  6
CONTINUOUS
 62
    7
 10
864.55446014993424
 20
279.51550097078893
 11
864.78910203145733
 21
279.51810372842317
  0
LINE
  8
_1-0_
  6
CONTINUOUS
 62
    7
 10
864.78910203145733
 20
279.51810372842317
 11
865.02321898707078
 21
279.5344857911806
  0
LINE
  8
_1-0_
  6
CONTINUOUS
 62
    7
 10
865.02321898707078
 20
279.5344857911806
 11
865.25602362791074
 21
279.56458154332222
  0
LINE
  8
_1-0_
  6
CONTINUOUS
 62
    7
 10
865.25602362791074
 20
279.56458154332222
 11
865.4866410774614
 21
279.60825975337087
  0
LINE
  8
_1-0_
  6
CONTINUOUS
 62
    7
 10
865.4866410774614
 20
279.60825975337087
 11
865.71428394685836
 21
279.66538918984895
  0
LINE
  8
_1-0_
  6
CONTINUOUS
 62
    7
 10
865.71428394685836
 20
279.66538918984895
 11
865.93816484723766
 21
279.73577300554069
  0
LINE
  8
_1-0_
  6
CONTINUOUS
 62
    7
 10
865.93816484723766
 20
279.73577300554069
 11
866.15758387738663
 21
279.81917060940418
  0
LINE
  8
_1-0_
  6
CONTINUOUS
 62
    7
 10
866.15758387738663
 20
279.81917060940418
 11
866.37166616078957
 21
279.9152976665718
  0
LINE
  8
_1-0_
  6
CONTINUOUS
 62
    7
 10
866.37166616078957
 20
279.9152976665718
 11
866.57979928388556
 21
280.02382609834996
  0
LINE
  8
_1-0_
  6
CONTINUOUS
 62
    7
 10
866.57979928388556
 20
280.02382609834996
 11
866.78119585781019
 21
280.14436221030678
  0
LINE
  8
_1-0_
  6
CONTINUOUS
 62
    7
 10
866.78119585781019
 20
280.14436221030678
 11
866.97515598135101
 21
280.27649043609728
  0
LINE
  8
_1-0_
  6
CONTINUOUS
 62
    7
 10
866.97515598135101
 20
280.27649043609728
 11
867.16106724094698
 21
280.4197733374636
  0
LINE
  8
_1-0_
  6
CONTINUOUS
 62
    7
 10
867.16106724094698
 20
280.4197733374636
 11
867.33822973538554
 21
280.57372973232191
  0
LINE
  8
_1-0_
  6
CONTINUOUS
 62
    7
 10
867.33822973538554
 20
280.57372973232191
 11
867.50603105110542
 21
280.7377909509371
  0
LINE
  8
_1-0_
  6
CONTINUOUS
 62
    7
 10
867.50603105110542
 20
280.7377909509371
 11
867.66394626219744
 21
280.91141019548684
  0
LINE
  8
_1-0_
  6
CONTINUOUS
 62
    7
 10
867.66394626219744
 20
280.91141019548684
 11
867.81145044275218
 21
281.0940187962359
  0
LINE
  8
_1-0_
  6
CONTINUOUS
 62
    7
 10
867.81145044275218
 20
281.0940187962359
 11
871.35522525743158
 21
285.75542648786734
  0
LINE
  8
_1-0_
  6
CONTINUOUS
 62
    7
 10
871.35522525743158
 20
285.75542648786734
 11
871.50272943798643
 21
285.93801321670355
  0
LINE
  8
_1-0_
  6
CONTINUOUS
 62
    7
 10
871.50272943798643
 20
285.93801321670355
 11
871.66064464907845
 21
286.11165433316614
  0
LINE
  8
_1-0_
  6
CONTINUOUS
 62
    7
 10
871.66064464907845
 20
286.11165433316614
 11
871.82844596479845
 21
286.27571555178133
  0
LINE
  8
_1-0_
  6
CONTINUOUS
 62
    7
 10
871.82844596479845
 20
286.27571555178133
 11
872.0056084592369
 21
286.4296719466397
  0
LINE
  8
_1-0_
  6
CONTINUOUS
 62
    7
 10
872.0056084592369
 20
286.4296719466397
 11
872.19151971883298
 21
286.57295484800602
  0
LINE
  8
_1-0_
  6
CONTINUOUS
 62
    7
 10
872.19151971883298
 20
286.57295484800602
 11
872.38547984237368
 21
286.70508307379646
  0
LINE
  8
_1-0_
  6
CONTINUOUS
 62
    7
 10
872.38547984237368
 20
286.70508307379646
 11
872.58687641629831
 21
286.82561918575334
  0
LINE
  8
_1-0_
  6
CONTINUOUS
 62
    7
 10
872.58687641629831
 20
286.82561918575334
 11
872.79500953939419
 21
286.93414761753161
  0
LINE
  8
_1-0_
  6
CONTINUOUS
 62
    7
 10
872.79500953939419
 20
286.93414761753161
 11
873.00909182279725
 21
287.03025280278621
  0
LINE
  8
_1-0_
  6
CONTINUOUS
 62
    7
 10
873.00909182279725
 20
287.03025280278621
 11
873.2285108529461
 21
287.11365040664958
  0
LINE
  8
_1-0_
  6
CONTINUOUS
 62
    7
 10
873.2285108529461
 20
287.11365040664958
 11
873.45239175332551
 21
287.18403422234132
  0
LINE
  8
_1-0_
  6
CONTINUOUS
 62
    7
 10
873.45239175332551
 20
287.18403422234132
 11
873.68003462272259
 21
287.24118553073254
  0
LINE
  8
_1-0_
  6
CONTINUOUS
 62
    7
 10
873.68003462272259
 20
287.24118553073254
 11
873.91065207227314
 21
287.28486374078102
  0
LINE
  8
_1-0_
  6
CONTINUOUS
 62
    7
 10
873.91065207227314
 20
287.28486374078102
 11
874.14336922546136
 21
287.31493762100979
  0
LINE
  8
_1-0_
  6
CONTINUOUS
 62
    7
 10
874.14336922546136
 20
287.31493762100979
 11
874.37757366872665
 21
287.33131968376711
  0
LINE
  8
_1-0_
  6
CONTINUOUS
 62
    7
 10
874.37757366872665
 20
287.33131968376711
 11
874.61221555024952
 21
287.33394431331448
  0
LINE
  8
_1-0_
  6
CONTINUOUS
 62
    7
 10
874.61221555024952
 20
287.33394431331448
 11
902.09339922459424
 21
286.83428046325912
  0
LINE
  8
_1-0_
  6
CONTINUOUS
 62
    7
 10
968.58331452005143
 20
473.7700423310622
 11
968.58331452005143
 21
457.77003814815089
  0
LINE
  8
_1-0_
  6
CONTINUOUS
 62
    7
 10
965.38336617606024
 20
470.57005024324508
 11
965.38336617606024
 21
457.77003814815089
  0
LINE
  8
_1-0_
  6
CONTINUOUS
 62
    7
 10
326.08334066324716
 20
473.7700423310622
 11
326.08334066324716
 21
457.77003814815089
  0
LINE
  8
_1-0_
  6
CONTINUOUS
 62
    7
 10
329.28333275106411
 20
470.57005024324508
 11
329.28333275106411
 21
457.77003814815089
  0
LINE
  8
_1-0_
  6
CONTINUOUS
 62
    7
 10
968.58331452005143
 20
473.7700423310622
 11
326.08334066324716
 21
473.7700423310622
  0
LINE
  8
_1-0_
  6
CONTINUOUS
 62
    7
 10
965.38336617606024
 20
470.57005024324508
 11
940.62374836689719
 21
470.57005024324508
  0
LINE
  8
_1-0_
  6
CONTINUOUS
 62
    7
 10
357.81780213462798
 20
470.57005024324508
 11
329.28333275106411
 21
470.57005024324508
  0
LINE
  8
_1-0_
  6
CONTINUOUS
 62
    7
 10
968.58331452005143
 20
457.77003814815089
 11
939.11948568572393
 21
457.77003814815089
  0
LINE
  8
_1-0_
  6
CONTINUOUS
 62
    7
 10
366.25255223867043
 20
457.77003814815089
 11
326.08334066324716
 21
457.77003814815089
  0
LINE
  8
_1-0_
  6
CONTINUOUS
 62
    7
 10
938.58336135687512
 20
473.7700423310622
 11
918.27485279687107
 21
300.96414860611247
  0
LINE
  8
_1-0_
  6
CONTINUOUS
 62
    7
 10
940.62374836689719
 20
470.57005024324508
 11
920.12320441168697
 21
296.12975595540519
  0
LINE
  8
_1-0_
  6
CONTINUOUS
 62
    7
 10
903.94175083941013
 20
281.99988781255183
 11
876.95968421729833
 21
282.49047481875618
  0
LINE
  8
_1-0_
  6
CONTINUOUS
 62
    7
 10
866.90184132933155
 20
274.67200960431785
 11
846.10191463043316
 21
275.0501968501618
  0
LINE
  8
_1-0_
  6
CONTINUOUS
 62
    7
 10
864.55446014993424
 20
279.51550097078893
 11
848.55401852876514
 21
279.8064192841872
  0
LINE
  8
_1-0_
  6
CONTINUOUS
 62
    7
 10
902.09339922459424
 20
286.83428046325912
 11
874.61221555024952
 21
287.33394431331448
  0
LINE
  8
_1-0_
  6
CONTINUOUS
 62
    7
 10
838.61262170504415
 20
287.98848317856948
 11
485.10056808648415
 21
294.41598222062396
  0
LINE
  8
_1-0_
  6
CONTINUOUS
 62
    7
 10
836.16051780671228
 20
283.23228261645693
 11
485.39338925630432
 21
289.60986995328813
  0
LINE
  8
_1-0_
  6
CONTINUOUS
 62
    7
 10
358.58334095781828
 20
473.7700423310622
 11
472.03131274366922
 21
301.60947939603943
  0
LINE
  8
_1-0_
  6
CONTINUOUS
 62
    7
 10
357.81780213462798
 20
470.57005024324508
 11
472.32413391348928
 21
296.8033671287036
  0
LINE
  8
_1-0_
  6
CONTINUOUS
 62
    7
 10
841.75561558786046
 20
286.36808063993129
 11
845.41111213360057
 21
281.42682182282556
  0
LINE
  8
_1-0_
  6
CONTINUOUS
 62
    7
 10
839.30342420187685
 20
281.61188007781857
 11
842.95892074761696
 21
276.67059938880004
  0
LINE
  8
_1-0_
  6
CONTINUOUS
 62
    7
 10
871.35522525743158
 20
285.75542648786734
 11
867.81145044275218
 21
281.0940187962359
  0
LINE
  8
_1-0_
  6
CONTINUOUS
 62
    7
 10
873.70260643682877
 20
280.91195699330922
 11
870.15883162214948
 21
276.25054930167767
  0
LINE
  8
_1-0_
  6
CONTINUOUS
 62
    7
 10
1556.4285932268413
 20
296.0703080961602
 11
1575.0718618267751
 21
470.57005024324508
  0
LINE
  8
_1-0_
  6
CONTINUOUS
 62
    7
 10
1575.0718618267751
 20
470.57005024324508
 11
1599.8000715690227
 21
470.57005024324508
  0
LINE
  8
_1-0_
  6
CONTINUOUS
 62
    7
 10
1599.8000715690227
 20
470.57005024324508
 11
1599.8000715690227
 21
457.77003814815089
  0
LINE
  8
_1-0_
  6
CONTINUOUS
 62
    7
 10
1599.8000715690227
 20
457.77003814815089
 11
1603.0000199130143
 21
457.77003814815089
  0
LINE
  8
_1-0_
  6
CONTINUOUS
 62
    7
 10
1603.0000199130143
 20
457.77003814815089
 11
1603.0000199130143
 21
473.7700423310622
  0
LINE
  8
_1-0_
  6
CONTINUOUS
 62
    7
 10
1603.0000199130143
 20
473.7700423310622
 11
1572.9999792621861
 21
473.7700423310622
  0
LINE
  8
_1-0_
  6
CONTINUOUS
 62
    7
 10
1572.9999792621861
 20
473.7700423310622
 11
1554.5278365087324
 21
300.87031809979891
  0
LINE
  8
_1-0_
  6
CONTINUOUS
 62
    7
 10
1554.5278365087324
 20
300.87031809979891
 11
1554.3057928490362
 21
299.42338170232006
  0
LINE
  8
_1-0_
  6
CONTINUOUS
 62
    7
 10
1554.3057928490362
 20
299.42338170232006
 11
1553.9526926872813
 21
298.00280095987802
  0
LINE
  8
_1-0_
  6
CONTINUOUS
 62
    7
 10
1553.9526926872813
 20
298.00280095987802
 11
1553.4709856777115
 21
296.62043044926122
  0
LINE
  8
_1-0_
  6
CONTINUOUS
 62
    7
 10
1553.4709856777115
 20
296.62043044926122
 11
1552.8650462029063
 21
295.28788415621602
  0
LINE
  8
_1-0_
  6
CONTINUOUS
 62
    7
 10
1552.8650462029063
 20
295.28788415621602
 11
1552.1399485466563
 21
294.01627301249266
  0
LINE
  8
_1-0_
  6
CONTINUOUS
 62
    7
 10
1552.1399485466563
 20
294.01627301249266
 11
1551.3016418692687
 21
292.81627051158296
  0
LINE
  8
_1-0_
  6
CONTINUOUS
 62
    7
 10
1551.3016418692687
 20
292.81627051158296
 11
1550.3569502075666
 21
291.69791586150524
  0
LINE
  8
_1-0_
  6
CONTINUOUS
 62
    7
 10
1550.3569502075666
 20
291.69791586150524
 11
1549.3142723761007
 21
290.67054836906522
  0
LINE
  8
_1-0_
  6
CONTINUOUS
 62
    7
 10
1549.3142723761007
 20
290.67054836906522
 11
1548.1820071894228
 21
289.7428074398556
  0
LINE
  8
_1-0_
  6
CONTINUOUS
 62
    7
 10
1548.1820071894228
 20
289.7428074398556
 11
1546.9696033139026
 21
288.92243573104082
  0
LINE
  8
_1-0_
  6
CONTINUOUS
 62
    7
 10
1546.9696033139026
 20
288.92243573104082
 11
1545.6872093171226
 21
288.21630102326964
  0
LINE
  8
_1-0_
  6
CONTINUOUS
 62
    7
 10
1545.6872093171226
 20
288.21630102326964
 11
1544.3458486431814
 21
287.6303087330233
  0
LINE
  8
_1-0_
  6
CONTINUOUS
 62
    7
 10
1544.3458486431814
 20
287.6303087330233
 11
1542.9563697608739
 21
287.1693581687897
  0
LINE
  8
_1-0_
  6
CONTINUOUS
 62
    7
 10
1542.9563697608739
 20
287.1693581687897
 11
1541.5306709908148
 21
286.83734253106422
  0
LINE
  8
_1-0_
  6
CONTINUOUS
 62
    7
 10
1541.5306709908148
 20
286.83734253106422
 11
1540.0806506536182
 21
286.63701768087151
  0
LINE
  8
_1-0_
  6
CONTINUOUS
 62
    7
 10
1540.0806506536182
 20
286.63701768087151
 11
1538.6183820452006
 21
286.57004588359115
  0
LINE
  8
_1-0_
  6
CONTINUOUS
 62
    7
 10
1538.6183820452006
 20
286.57004588359115
 11
1367.3816887108055
 21
286.57004588359115
  0
LINE
  8
_1-0_
  6
CONTINUOUS
 62
    7
 10
1367.3816887108055
 20
286.57004588359115
 11
1365.9193326147365
 21
286.63701768087151
  0
LINE
  8
_1-0_
  6
CONTINUOUS
 62
    7
 10
1365.9193326147365
 20
286.63701768087151
 11
1364.4692247898884
 21
286.83734253106422
  0
LINE
  8
_1-0_
  6
CONTINUOUS
 62
    7
 10
1364.4692247898884
 20
286.83734253106422
 11
1363.0435260198292
 21
287.1693581687897
  0
LINE
  8
_1-0_
  6
CONTINUOUS
 62
    7
 10
1363.0435260198292
 20
287.1693581687897
 11
1361.6541346251734
 21
287.6303087330233
  0
LINE
  8
_1-0_
  6
CONTINUOUS
 62
    7
 10
1361.6541346251734
 20
287.6303087330233
 11
1360.3126864635806
 21
288.21630102326964
  0
LINE
  8
_1-0_
  6
CONTINUOUS
 62
    7
 10
1360.3126864635806
 20
288.21630102326964
 11
1359.0304674421036
 21
288.92243573104082
  0
LINE
  8
_1-0_
  6
CONTINUOUS
 62
    7
 10
1359.0304674421036
 20
288.92243573104082
 11
1357.8180635665833
 21
289.7428074398556
  0
LINE
  8
_1-0_
  6
CONTINUOUS
 62
    7
 10
1357.8180635665833
 20
289.7428074398556
 11
1356.6857983799055
 21
290.67054836906522
  0
LINE
  8
_1-0_
  6
CONTINUOUS
 62
    7
 10
1356.6857983799055
 20
290.67054836906522
 11
1355.6429455731363
 21
291.69791586150524
  0
LINE
  8
_1-0_
  6
CONTINUOUS
 62
    7
 10
1355.6429455731363
 20
291.69791586150524
 11
1354.6984288867375
 21
292.81627051158296
  0
LINE
  8
_1-0_
  6
CONTINUOUS
 62
    7
 10
1354.6984288867375
 20
292.81627051158296
 11
1353.8601222093503
 21
294.01627301249266
  0
LINE
  8
_1-0_
  6
CONTINUOUS
 62
    7
 10
1353.8601222093503
 20
294.01627301249266
 11
1353.1349370654484
 21
295.28788415621602
  0
LINE
  8
_1-0_
  6
CONTINUOUS
 62
    7
 10
1353.1349370654484
 20
295.28788415621602
 11
1352.528997590643
 21
296.62043044926122
  0
LINE
  8
_1-0_
  6
CONTINUOUS
 62
    7
 10
1352.528997590643
 20
296.62043044926122
 11
1352.0473780687253
 21
298.00280095987802
  0
LINE
  8
_1-0_
  6
CONTINUOUS
 62
    7
 10
1352.0473780687253
 20
298.00280095987802
 11
1351.694102931667
 21
299.42338170232006
  0
LINE
  8
_1-0_
  6
CONTINUOUS
 62
    7
 10
1351.694102931667
 20
299.42338170232006
 11
1351.4722342472737
 21
300.87031809979891
  0
LINE
  8
_1-0_
  6
CONTINUOUS
 62
    7
 10
1351.4722342472737
 20
300.87031809979891
 11
1333.0000040061686
 21
473.7700423310622
  0
LINE
  8
_1-0_
  6
CONTINUOUS
 62
    7
 10
1333.0000040061686
 20
473.7700423310622
 11
1302.9999633553405
 21
473.7700423310622
  0
LINE
  8
_1-0_
  6
CONTINUOUS
 62
    7
 10
1302.9999633553405
 20
473.7700423310622
 11
1302.9999633553405
 21
457.77003814815089
  0
LINE
  8
_1-0_
  6
CONTINUOUS
 62
    7
 10
1302.9999633553405
 20
457.77003814815089
 11
1306.1999991869834
 21
457.77003814815089
  0
LINE
  8
_1-0_
  6
CONTINUOUS
 62
    7
 10
1306.1999991869834
 20
457.77003814815089
 11
1306.1999991869834
 21
470.57005024324508
  0
LINE
  8
_1-0_
  6
CONTINUOUS
 62
    7
 10
1306.1999991869834
 20
470.57005024324508
 11
1330.9282089292312
 21
470.57005024324508
  0
LINE
  8
_1-0_
  6
CONTINUOUS
 62
    7
 10
1330.9282089292312
 20
470.57005024324508
 11
1349.571390041513
 21
296.0703080961602
  0
LINE
  8
_1-0_
  6
CONTINUOUS
 62
    7
 10
1349.571390041513
 20
296.0703080961602
 11
1349.7932587259063
 21
294.62339357059432
  0
LINE
  8
_1-0_
  6
CONTINUOUS
 62
    7
 10
1349.7932587259063
 20
294.62339357059432
 11
1350.1465338629644
 21
293.20279095623948
  0
LINE
  8
_1-0_
  6
CONTINUOUS
 62
    7
 10
1350.1465338629644
 20
293.20279095623948
 11
1350.6281533848824
 21
291.82044231753548
  0
LINE
  8
_1-0_
  6
CONTINUOUS
 62
    7
 10
1350.6281533848824
 20
291.82044231753548
 11
1351.234092859688
 21
290.48787415257749
  0
LINE
  8
_1-0_
  6
CONTINUOUS
 62
    7
 10
1351.234092859688
 20
290.48787415257749
 11
1351.9592780035894
 21
289.21626300885407
  0
LINE
  8
_1-0_
  6
CONTINUOUS
 62
    7
 10
1351.9592780035894
 20
289.21626300885407
 11
1352.797584680977
 21
288.01626050794454
  0
LINE
  8
_1-0_
  6
CONTINUOUS
 62
    7
 10
1352.797584680977
 20
288.01626050794454
 11
1353.7421013673759
 21
286.89790585786682
  0
LINE
  8
_1-0_
  6
CONTINUOUS
 62
    7
 10
1353.7421013673759
 20
286.89790585786682
 11
1354.7849541741448
 21
285.87056023733953
  0
LINE
  8
_1-0_
  6
CONTINUOUS
 62
    7
 10
1354.7849541741448
 20
285.87056023733953
 11
1355.9172193608229
 21
284.94279743621701
  0
LINE
  8
_1-0_
  6
CONTINUOUS
 62
    7
 10
1355.9172193608229
 20
284.94279743621701
 11
1357.1296232363431
 21
284.1224257274024
  0
LINE
  8
_1-0_
  6
CONTINUOUS
 62
    7
 10
1357.1296232363431
 20
284.1224257274024
 11
1358.4118422578199
 21
283.41629101963122
  0
LINE
  8
_1-0_
  6
CONTINUOUS
 62
    7
 10
1358.4118422578199
 20
283.41629101963122
 11
1359.7532904194127
 21
282.83029872938471
  0
LINE
  8
_1-0_
  6
CONTINUOUS
 62
    7
 10
1359.7532904194127
 20
282.83029872938471
 11
1361.1426818140685
 21
282.36937003706419
  0
LINE
  8
_1-0_
  6
CONTINUOUS
 62
    7
 10
1361.1426818140685
 20
282.36937003706419
 11
1362.5683805841277
 21
282.0373325274258
  0
LINE
  8
_1-0_
  6
CONTINUOUS
 62
    7
 10
1362.5683805841277
 20
282.0373325274258
 11
1364.0184884089761
 21
281.8370076772328
  0
LINE
  8
_1-0_
  6
CONTINUOUS
 62
    7
 10
1364.0184884089761
 20
281.8370076772328
 11
1365.4808445050448
 21
281.77003587995262
  0
LINE
  8
_1-0_
  6
CONTINUOUS
 62
    7
 10
1365.4808445050448
 20
281.77003587995262
 11
1540.5191387633099
 21
281.77003587995262
  0
LINE
  8
_1-0_
  6
CONTINUOUS
 62
    7
 10
1540.5191387633099
 20
281.77003587995262
 11
1541.9815823470301
 21
281.8370076772328
  0
LINE
  8
_1-0_
  6
CONTINUOUS
 62
    7
 10
1541.9815823470301
 20
281.8370076772328
 11
1543.4316026842271
 21
282.0373325274258
  0
LINE
  8
_1-0_
  6
CONTINUOUS
 62
    7
 10
1543.4316026842271
 20
282.0373325274258
 11
1544.8573014542862
 21
282.36937003706419
  0
LINE
  8
_1-0_
  6
CONTINUOUS
 62
    7
 10
1544.8573014542862
 20
282.36937003706419
 11
1546.2466053612902
 21
282.83029872938471
  0
LINE
  8
_1-0_
  6
CONTINUOUS
 62
    7
 10
1546.2466053612902
 20
282.83029872938471
 11
1547.5881410105349
 21
283.41629101963122
  0
LINE
  8
_1-0_
  6
CONTINUOUS
 62
    7
 10
1547.5881410105349
 20
283.41629101963122
 11
1548.8703600320116
 21
284.1224257274024
  0
LINE
  8
_1-0_
  6
CONTINUOUS
 62
    7
 10
1548.8703600320116
 20
284.1224257274024
 11
1550.0827639075319
 21
284.94279743621701
  0
LINE
  8
_1-0_
  6
CONTINUOUS
 62
    7
 10
1550.0827639075319
 20
284.94279743621701
 11
1551.21502909421
 21
285.87056023733953
  0
LINE
  8
_1-0_
  6
CONTINUOUS
 62
    7
 10
1551.21502909421
 20
285.87056023733953
 11
1552.2578819009786
 21
286.89790585786682
  0
LINE
  8
_1-0_
  6
CONTINUOUS
 62
    7
 10
1552.2578819009786
 20
286.89790585786682
 11
1553.2023985873777
 21
288.01626050794454
  0
LINE
  8
_1-0_
  6
CONTINUOUS
 62
    7
 10
1553.2023985873777
 20
288.01626050794454
 11
1554.0407052647652
 21
289.21626300885407
  0
LINE
  8
_1-0_
  6
CONTINUOUS
 62
    7
 10
1554.0407052647652
 20
289.21626300885407
 11
1554.7659778963182
 21
290.48787415257749
  0
LINE
  8
_1-0_
  6
CONTINUOUS
 62
    7
 10
1554.7659778963182
 20
290.48787415257749
 11
1555.3719173711238
 21
291.82044231753548
  0
LINE
  8
_1-0_
  6
CONTINUOUS
 62
    7
 10
1555.3719173711238
 20
291.82044231753548
 11
1555.8534494053902
 21
293.20279095623948
  0
LINE
  8
_1-0_
  6
CONTINUOUS
 62
    7
 10
1555.8534494053902
 20
293.20279095623948
 11
1556.2067245424485
 21
294.62339357059432
  0
LINE
  8
_1-0_
  6
CONTINUOUS
 62
    7
 10
1556.2067245424485
 20
294.62339357059432
 11
1556.4285932268413
 21
296.0703080961602
  0
LINE
  8
_1-0_
  6
CONTINUOUS
 62
    7
 10
1302.9999633553405
 20
473.7700423310622
 11
1603.0000199130143
 21
473.7700423310622
  0
LINE
  8
_1-0_
  6
CONTINUOUS
 62
    7
 10
1306.1999991869834
 20
470.57005024324508
 11
1330.9282089292312
 21
470.57005024324508
  0
LINE
  8
_1-0_
  6
CONTINUOUS
 62
    7
 10
1575.0718618267751
 20
470.57005024324508
 11
1599.8000715690227
 21
470.57005024324508
  0
LINE
  8
_1-0_
  6
CONTINUOUS
 62
    7
 10
1302.9999633553405
 20
453.770058974336
 11
1332.7231055889351
 21
453.770058974336
  0
LINE
  8
_1-0_
  6
CONTINUOUS
 62
    7
 10
1573.2769651670715
 20
453.770058974336
 11
1603.0000199130143
 21
453.770058974336
  0
LINE
  8
_1-0_
  6
CONTINUOUS
 62
    7
 10
1365.4808445050448
 20
281.77003587995262
 11
1540.5191387633099
 21
281.77003587995262
  0
LINE
  8
_1-0_
  6
CONTINUOUS
 62
    7
 10
1367.3816887108055
 20
286.57004588359115
 11
1538.6183820452006
 21
286.57004588359115
  0
LINE
  8
_1-0_
  6
CONTINUOUS
 62
    7
 10
1302.9999633553405
 20
473.7700423310622
 11
1302.9999633553405
 21
453.770058974336
  0
LINE
  8
_1-0_
  6
CONTINUOUS
 62
    7
 10
1306.1999991869834
 20
470.57005024324508
 11
1306.1999991869834
 21
453.770058974336
  0
LINE
  8
_1-0_
  6
CONTINUOUS
 62
    7
 10
1603.0000199130143
 20
473.7700423310622
 11
1603.0000199130143
 21
453.770058974336
  0
LINE
  8
_1-0_
  6
CONTINUOUS
 62
    7
 10
1599.8000715690227
 20
470.57005024324508
 11
1599.8000715690227
 21
453.770058974336
  0
LINE
  8
_1-0_
  6
CONTINUOUS
 62
    7
 10
1572.9999792621861
 20
473.7700423310622
 11
1554.5278365087324
 21
300.87031809979891
  0
LINE
  8
_1-0_
  6
CONTINUOUS
 62
    7
 10
1575.0718618267751
 20
470.57005024324508
 11
1556.4285932268413
 21
296.0703080961602
  0
LINE
  8
_1-0_
  6
CONTINUOUS
 62
    7
 10
1333.0000040061686
 20
473.7700423310622
 11
1351.4722342472737
 21
300.87031809979891
  0
LINE
  8
_1-0_
  6
CONTINUOUS
 62
    7
 10
1330.9282089292312
 20
470.57005024324508
 11
1349.571390041513
 21
296.0703080961602
  0
LINE
  8
_1-0_
  6
CONTINUOUS
 62
    7
 10
1442.9999780839014
 20
286.57004588359115
 11
1463.0000051844534
 21
286.57004588359115
  0
LINE
  8
_1-0_
  6
CONTINUOUS
 62
    7
 10
1463.0000051844534
 20
286.57004588359115
 11
1463.0000051844534
 21
281.77003587995262
  0
LINE
  8
_1-0_
  6
CONTINUOUS
 62
    7
 10
1463.0000051844534
 20
281.77003587995262
 11
1442.9999780839014
 21
281.77003587995262
  0
LINE
  8
_1-0_
  6
CONTINUOUS
 62
    7
 10
1442.9999780839014
 20
281.77003587995262
 11
1442.9999780839014
 21
286.57004588359115
  0
LINE
  8
_2-0_
  6
CONTINUOUS
 62
    7
 10
997.00000365268306
 20
473.7700423310622
 11
457.00001558281741
 21
473.7700423310622
  0
LINE
  8
_3-0_
  6
CONTINUOUS
 62
    7
 10
858.08991008743817
 20
291.0949947106792
 11
863.9616438228652
 21
291.0949947106792
  0
LINE
  8
_3-0_
  6
CONTINUOUS
 62
    7
 10
863.9616438228652
 20
291.0949947106792
 11
863.9616438228652
 21
287.70493569981636
  0
LINE
  8
_3-0_
  6
CONTINUOUS
 62
    7
 10
863.9616438228652
 20
287.70493569981636
 11
858.08991008743817
 21
287.70493569981636
  0
LINE
  8
_3-0_
  6
CONTINUOUS
 62
    7
 10
858.08991008743817
 20
287.70493569981636
 11
858.08991008743817
 21
291.0949947106792
  0
LINE
  8
_3-1_
  6
CONTINUOUS
 62
    7
 10
863.29997471400657
 20
283.04005037403471
 11
863.29997471400657
 21
286.64005787676359
  0
LINE
  8
_3-1_
  6
CONTINUOUS
 62
    7
 10
863.29997471400657
 20
286.64005787676359
 11
862.69998439950825
 21
286.64005787676359
  0
LINE
  8
_3-1_
  6
CONTINUOUS
 62
    7
 10
862.69998439950825
 20
286.64005787676359
 11
862.69998439950825
 21
287.84003850576039
  0
LINE
  8
_3-1_
  6
CONTINUOUS
 62
    7
 10
862.69998439950825
 20
287.84003850576039
 11
859.30003928401743
 21
287.84003850576039
  0
LINE
  8
_3-1_
  6
CONTINUOUS
 62
    7
 10
859.30003928401743
 20
287.84003850576039
 11
859.30003928401743
 21
286.64005787676359
  0
LINE
  8
_3-1_
  6
CONTINUOUS
 62
    7
 10
859.30003928401743
 20
286.64005787676359
 11
859.30003928401743
 21
287.84003850576039
  0
LINE
  8
_3-1_
  6
CONTINUOUS
 62
    7
 10
859.30003928401743
 20
287.84003850576039
 11
859.30003928401743
 21
286.64005787676359
  0
LINE
  8
_3-1_
  6
CONTINUOUS
 62
    7
 10
859.30003928401743
 20
286.64005787676359
 11
859.30003928401743
 21
287.84003850576039
  0
LINE
  8
_3-1_
  6
CONTINUOUS
 62
    7
 10
859.30003928401743
 20
287.84003850576039
 11
859.30003928401743
 21
286.64005787676359
  0
LINE
  8
_3-1_
  6
CONTINUOUS
 62
    7
 10
859.30003928401743
 20
286.64005787676359
 11
858.6999614818676
 21
286.64005787676359
  0
LINE
  8
_3-1_
  6
CONTINUOUS
 62
    7
 10
858.6999614818676
 20
286.64005787676359
 11
858.6999614818676
 21
283.04005037403471
  0
LINE
  8
_3-1_
  6
CONTINUOUS
 62
    7
 10
858.6999614818676
 20
283.04005037403471
 11
863.29997471400657
 21
283.04005037403471
  0
LINE
  8
_3-1_
  6
CONTINUOUS
 62
    7
 10
860.00002798426567
 20
289.44005642158174
 11
861.99999569926024
 21
289.44005642158174
  0
LINE
  8
_3-1_
  6
CONTINUOUS
 62
    7
 10
861.99999569926024
 20
289.44005642158174
 11
861.99999569926024
 21
287.84003850576039
  0
LINE
  8
_3-1_
  6
CONTINUOUS
 62
    7
 10
861.99999569926024
 20
287.84003850576039
 11
860.00002798426567
 21
287.84003850576039
  0
LINE
  8
_3-1_
  6
CONTINUOUS
 62
    7
 10
860.00002798426567
 20
287.84003850576039
 11
860.00002798426567
 21
289.44005642158174
  0
LINE
  8
_3-1_
  6
CONTINUOUS
 62
    7
 10
862.49832536262886
 20
289.34010177965786
 11
859.50003605551706
 21
289.44005642158174
  0
LINE
  8
_3-1_
  6
CONTINUOUS
 62
    7
 10
859.50003605551706
 20
289.44005642158174
 11
859.49329950634581
 21
289.24016900964688
  0
LINE
  8
_3-1_
  6
CONTINUOUS
 62
    7
 10
859.49329950634581
 20
289.24016900964688
 11
862.49167630110924
 21
289.14021436772288
  0
LINE
  8
_3-1_
  6
CONTINUOUS
 62
    7
 10
862.49167630110924
 20
289.14021436772288
 11
862.49832536262886
 21
289.34010177965786
  0
LINE
  8
_3-1_
  6
CONTINUOUS
 62
    7
 10
862.48607709140845
 20
288.97304733747671
 11
859.48778778429653
 21
289.07298010748787
  0
LINE
  8
_3-1_
  6
CONTINUOUS
 62
    7
 10
859.48778778429653
 20
289.07298010748787
 11
859.4811387227769
 21
288.87309269555288
  0
LINE
  8
_3-1_
  6
CONTINUOUS
 62
    7
 10
859.4811387227769
 20
288.87309269555288
 11
862.47942802988871
 21
288.77315992554173
  0
LINE
  8
_3-1_
  6
CONTINUOUS
 62
    7
 10
862.47942802988871
 20
288.77315992554173
 11
862.48607709140845
 21
288.97304733747671
  0
LINE
  8
_3-1_
  6
CONTINUOUS
 62
    7
 10
861.70000054201091
 20
287.84003850576039
 11
861.70000054201091
 21
283.04005037403471
  0
LINE
  8
_3-1_
  6
CONTINUOUS
 62
    7
 10
860.30002314151477
 20
287.84003850576039
 11
860.30002314151477
 21
283.04005037403471
  0
LINE
  8
_3-1_
  6
CONTINUOUS
 62
    7
 10
857.99997278161936
 20
284.4919516957404
 11
863.99996341425481
 21
284.4919516957404
  0
LINE
  8
_3-1_
  6
CONTINUOUS
 62
    7
 10
863.99996341425481
 20
284.4919516957404
 11
863.99996341425481
 21
276.89196501919668
  0
LINE
  8
_3-1_
  6
CONTINUOUS
 62
    7
 10
863.99996341425481
 20
276.89196501919668
 11
857.99997278161936
 21
276.89196501919668
  0
LINE
  8
_3-1_
  6
CONTINUOUS
 62
    7
 10
857.99997278161936
 20
276.89196501919668
 11
857.99997278161936
 21
284.4919516957404
  0
LINE
  8
_3-1_
  6
CONTINUOUS
 62
    7
 10
861.300006999012
 20
283.19195080908105
 11
861.300006999012
 21
283.59194435207996
  0
LINE
  8
_3-1_
  6
CONTINUOUS
 62
    7
 10
861.300006999012
 20
283.59194435207996
 11
860.70001668451368
 21
283.59194435207996
  0
LINE
  8
_3-1_
  6
CONTINUOUS
 62
    7
 10
860.70001668451368
 20
283.59194435207996
 11
860.70001668451368
 21
283.19195080908105
  0
LINE
  8
_3-1_
  6
CONTINUOUS
 62
    7
 10
860.70001668451368
 20
283.19195080908105
 11
860.30002314151477
 21
283.19195080908105
  0
LINE
  8
_3-1_
  6
CONTINUOUS
 62
    7
 10
860.30002314151477
 20
283.19195080908105
 11
860.30002314151477
 21
282.59196049458268
  0
LINE
  8
_3-1_
  6
CONTINUOUS
 62
    7
 10
860.30002314151477
 20
282.59196049458268
 11
860.70001668451368
 21
282.59196049458268
  0
LINE
  8
_3-1_
  6
CONTINUOUS
 62
    7
 10
860.70001668451368
 20
282.59196049458268
 11
860.70001668451368
 21
282.19194507967086
  0
LINE
  8
_3-1_
  6
CONTINUOUS
 62
    7
 10
860.70001668451368
 20
282.19194507967086
 11
861.300006999012
 21
282.19194507967086
  0
LINE
  8
_3-1_
  6
CONTINUOUS
 62
    7
 10
861.300006999012
 20
282.19194507967086
 11
861.300006999012
 21
282.59196049458268
  0
LINE
  8
_3-1_
  6
CONTINUOUS
 62
    7
 10
861.300006999012
 20
282.59196049458268
 11
861.70000054201091
 21
282.59196049458268
  0
LINE
  8
_3-1_
  6
CONTINUOUS
 62
    7
 10
861.70000054201091
 20
282.59196049458268
 11
861.70000054201091
 21
283.19195080908105
  0
LINE
  8
_3-1_
  6
CONTINUOUS
 62
    7
 10
861.70000054201091
 20
283.19195080908105
 11
861.300006999012
 21
283.19195080908105
  0
LINE
  8
_3-1_
  6
CONTINUOUS
 62
    7
 10
857.19998569562165
 20
276.89196501919668
 11
864.80003798790426
 21
276.89196501919668
  0
LINE
  8
_3-1_
  6
CONTINUOUS
 62
    7
 10
864.80003798790426
 20
276.89196501919668
 11
864.80003798790426
 21
276.09195606128594
  0
LINE
  8
_3-1_
  6
CONTINUOUS
 62
    7
 10
864.80003798790426
 20
276.09195606128594
 11
857.19998569562165
 21
276.09195606128594
  0
LINE
  8
_3-1_
  6
CONTINUOUS
 62
    7
 10
857.19998569562165
 20
276.09195606128594
 11
857.19998569562165
 21
276.89196501919668
  0
LINE
  8
_3-1_
  6
CONTINUOUS
 62
    7
 10
865.00003475940366
 20
275.69196251828703
 11
865.00003475940366
 21
275.89195928978643
  0
LINE
  8
_3-1_
  6
CONTINUOUS
 62
    7
 10
865.00003475940366
 20
275.89195928978643
 11
864.99907239523623
 21
275.91155652373914
  0
LINE
  8
_3-1_
  6
CONTINUOUS
 62
    7
 10
864.99907239523623
 20
275.91155652373914
 11
864.99618530273437
 21
275.93097878238865
  0
LINE
  8
_3-1_
  6
CONTINUOUS
 62
    7
 10
864.99618530273437
 20
275.93097878238865
 11
864.99137348189777
 21
275.95000734660618
  0
LINE
  8
_3-1_
  6
CONTINUOUS
 62
    7
 10
864.99137348189777
 20
275.95000734660618
 11
864.98481190802966
 21
275.96848911300128
  0
LINE
  8
_3-1_
  6
CONTINUOUS
 62
    7
 10
864.98481190802966
 20
275.96848911300128
 11
864.97641309347841
 21
275.98622723435795
  0
LINE
  8
_3-1_
  6
CONTINUOUS
 62
    7
 10
864.97641309347841
 20
275.98622723435795
 11
864.96626452589578
 21
276.00306860728608
  0
LINE
  8
_3-1_
  6
CONTINUOUS
 62
    7
 10
864.96626452589578
 20
276.00306860728608
 11
864.95462866823641
 21
276.01883825648247
  0
LINE
  8
_3-1_
  6
CONTINUOUS
 62
    7
 10
864.95462866823641
 20
276.01883825648247
 11
864.94141803284856
 21
276.03338307855665
  0
LINE
  8
_3-1_
  6
CONTINUOUS
 62
    7
 10
864.94141803284856
 20
276.03338307855665
 11
864.92689508268722
 21
276.04654997011863
  0
LINE
  8
_3-1_
  6
CONTINUOUS
 62
    7
 10
864.92689508268722
 20
276.04654997011863
 11
864.91114730540392
 21
276.05825144351684
  0
LINE
  8
_3-1_
  6
CONTINUOUS
 62
    7
 10
864.91114730540392
 20
276.05825144351684
 11
864.89426218864992
 21
276.06833439536075
  0
LINE
  8
_3-1_
  6
CONTINUOUS
 62
    7
 10
864.89426218864992
 20
276.06833439536075
 11
864.87650219538023
 21
276.07673320991182
  0
LINE
  8
_3-1_
  6
CONTINUOUS
 62
    7
 10
864.87650219538023
 20
276.07673320991182
 11
864.85804230089809
 21
276.0833385276058
  0
LINE
  8
_3-1_
  6
CONTINUOUS
 62
    7
 10
864.85804230089809
 20
276.0833385276058
 11
864.83905748050643
 21
276.08810660461654
  0
LINE
  8
_3-1_
  6
CONTINUOUS
 62
    7
 10
864.83905748050643
 20
276.08810660461654
 11
864.81963522185674
 21
276.09099369711856
  0
LINE
  8
_3-1_
  6
CONTINUOUS
 62
    7
 10
864.81963522185674
 20
276.09099369711856
 11
864.80003798790426
 21
276.09195606128594
  0
LINE
  8
_3-1_
  6
CONTINUOUS
 62
    7
 10
864.80003798790426
 20
276.09195606128594
 11
861.0000118417629
 21
276.09195606128594
  0
LINE
  8
_3-1_
  6
CONTINUOUS
 62
    7
 10
861.0000118417629
 20
276.09195606128594
 11
857.19998569562165
 21
276.09195606128594
  0
LINE
  8
_3-1_
  6
CONTINUOUS
 62
    7
 10
857.19998569562165
 20
276.09195606128594
 11
857.18038846166894
 21
276.09099369711856
  0
LINE
  8
_3-1_
  6
CONTINUOUS
 62
    7
 10
857.18038846166894
 20
276.09099369711856
 11
857.16096620301937
 21
276.08810660461654
  0
LINE
  8
_3-1_
  6
CONTINUOUS
 62
    7
 10
857.16096620301937
 20
276.08810660461654
 11
857.1419813826277
 21
276.0833385276058
  0
LINE
  8
_3-1_
  6
CONTINUOUS
 62
    7
 10
857.1419813826277
 20
276.0833385276058
 11
857.12343400049394
 21
276.07673320991182
  0
LINE
  8
_3-1_
  6
CONTINUOUS
 62
    7
 10
857.12343400049394
 20
276.07673320991182
 11
857.10576149487576
 21
276.06833439536075
  0
LINE
  8
_3-1_
  6
CONTINUOUS
 62
    7
 10
857.10576149487576
 20
276.06833439536075
 11
857.088876378122
 21
276.05825144351684
  0
LINE
  8
_3-1_
  6
CONTINUOUS
 62
    7
 10
857.088876378122
 20
276.05825144351684
 11
857.07312860083846
 21
276.04654997011863
  0
LINE
  8
_3-1_
  6
CONTINUOUS
 62
    7
 10
857.07312860083846
 20
276.04654997011863
 11
857.05860565067712
 21
276.03338307855665
  0
LINE
  8
_3-1_
  6
CONTINUOUS
 62
    7
 10
857.05860565067712
 20
276.03338307855665
 11
857.04539501528939
 21
276.01883825648247
  0
LINE
  8
_3-1_
  6
CONTINUOUS
 62
    7
 10
857.04539501528939
 20
276.01883825648247
 11
857.03367166997839
 21
276.00306860728608
  0
LINE
  8
_3-1_
  6
CONTINUOUS
 62
    7
 10
857.03367166997839
 20
276.00306860728608
 11
857.02361059004727
 21
275.98622723435795
  0
LINE
  8
_3-1_
  6
CONTINUOUS
 62
    7
 10
857.02361059004727
 20
275.98622723435795
 11
857.01521177549603
 21
275.96848911300128
  0
LINE
  8
_3-1_
  6
CONTINUOUS
 62
    7
 10
857.01521177549603
 20
275.96848911300128
 11
857.00865020162814
 21
275.95000734660618
  0
LINE
  8
_3-1_
  6
CONTINUOUS
 62
    7
 10
857.00865020162814
 20
275.95000734660618
 11
857.00383838079142
 21
275.93097878238865
  0
LINE
  8
_3-1_
  6
CONTINUOUS
 62
    7
 10
857.00383838079142
 20
275.93097878238865
 11
857.00095128828946
 21
275.91155652373914
  0
LINE
  8
_3-1_
  6
CONTINUOUS
 62
    7
 10
857.00095128828946
 20
275.91155652373914
 11
856.99998892412214
 21
275.89195928978643
  0
LINE
  8
_3-1_
  6
CONTINUOUS
 62
    7
 10
856.99998892412214
 20
275.89195928978643
 11
856.99998892412214
 21
275.69196251828703
  0
LINE
  8
_3-1_
  6
CONTINUOUS
 62
    7
 10
856.99998892412214
 20
275.69196251828703
 11
856.99998892412214
 21
275.49194387487461
  0
LINE
  8
_3-1_
  6
CONTINUOUS
 62
    7
 10
856.99998892412214
 20
275.49194387487461
 11
857.00095128828946
 21
275.47234664092184
  0
LINE
  8
_3-1_
  6
CONTINUOUS
 62
    7
 10
857.00095128828946
 20
275.47234664092184
 11
857.00383838079142
 21
275.45294625418524
  0
LINE
  8
_3-1_
  6
CONTINUOUS
 62
    7
 10
857.00383838079142
 20
275.45294625418524
 11
857.00865020162814
 21
275.43389581805485
  0
LINE
  8
_3-1_
  6
CONTINUOUS
 62
    7
 10
857.00865020162814
 20
275.43389581805485
 11
857.01521177549603
 21
275.4154140516597
  0
LINE
  8
_3-1_
  6
CONTINUOUS
 62
    7
 10
857.01521177549603
 20
275.4154140516597
 11
857.02361059004727
 21
275.39767593030308
  0
LINE
  8
_3-1_
  6
CONTINUOUS
 62
    7
 10
857.02361059004727
 20
275.39767593030308
 11
857.03367166997839
 21
275.3808345573749
  0
LINE
  8
_3-1_
  6
CONTINUOUS
 62
    7
 10
857.03367166997839
 20
275.3808345573749
 11
857.04539501528939
 21
275.36508678009142
  0
LINE
  8
_3-1_
  6
CONTINUOUS
 62
    7
 10
857.04539501528939
 20
275.36508678009142
 11
857.05860565067712
 21
275.35054195801717
  0
LINE
  8
_3-1_
  6
CONTINUOUS
 62
    7
 10
857.05860565067712
 20
275.35054195801717
 11
857.07312860083846
 21
275.3373531945424
  0
LINE
  8
_3-1_
  6
CONTINUOUS
 62
    7
 10
857.07312860083846
 20
275.3373531945424
 11
857.088876378122
 21
275.32565172114431
  0
LINE
  8
_3-1_
  6
CONTINUOUS
 62
    7
 10
857.088876378122
 20
275.32565172114431
 11
857.10576149487576
 21
275.31556876930028
  0
LINE
  8
_3-1_
  6
CONTINUOUS
 62
    7
 10
857.10576149487576
 20
275.31556876930028
 11
857.12343400049394
 21
275.30716995474904
  0
LINE
  8
_3-1_
  6
CONTINUOUS
 62
    7
 10
857.12343400049394
 20
275.30716995474904
 11
857.1419813826277
 21
275.30056463705523
  0
LINE
  8
_3-1_
  6
CONTINUOUS
 62
    7
 10
857.1419813826277
 20
275.30056463705523
 11
857.16096620301937
 21
275.29579656004444
  0
LINE
  8
_3-1_
  6
CONTINUOUS
 62
    7
 10
857.16096620301937
 20
275.29579656004444
 11
857.18038846166894
 21
275.29290946754247
  0
LINE
  8
_3-1_
  6
CONTINUOUS
 62
    7
 10
857.18038846166894
 20
275.29290946754247
 11
857.19998569562165
 21
275.29194710337521
  0
LINE
  8
_3-1_
  6
CONTINUOUS
 62
    7
 10
857.19998569562165
 20
275.29194710337521
 11
861.0000118417629
 21
275.29194710337521
  0
LINE
  8
_3-1_
  6
CONTINUOUS
 62
    7
 10
861.0000118417629
 20
275.29194710337521
 11
864.80003798790426
 21
275.29194710337521
  0
LINE
  8
_3-1_
  6
CONTINUOUS
 62
    7
 10
864.80003798790426
 20
275.29194710337521
 11
864.81963522185674
 21
275.29290946754247
  0
LINE
  8
_3-1_
  6
CONTINUOUS
 62
    7
 10
864.81963522185674
 20
275.29290946754247
 11
864.83905748050643
 21
275.29579656004444
  0
LINE
  8
_3-1_
  6
CONTINUOUS
 62
    7
 10
864.83905748050643
 20
275.29579656004444
 11
864.85804230089809
 21
275.30056463705523
  0
LINE
  8
_3-1_
  6
CONTINUOUS
 62
    7
 10
864.85804230089809
 20
275.30056463705523
 11
864.87650219538023
 21
275.30716995474904
  0
LINE
  8
_3-1_
  6
CONTINUOUS
 62
    7
 10
864.87650219538023
 20
275.30716995474904
 11
864.89426218864992
 21
275.31556876930028
  0
LINE
  8
_3-1_
  6
CONTINUOUS
 62
    7
 10
864.89426218864992
 20
275.31556876930028
 11
864.91114730540392
 21
275.32565172114431
  0
LINE
  8
_3-1_
  6
CONTINUOUS
 62
    7
 10
864.91114730540392
 20
275.32565172114431
 11
864.92689508268722
 21
275.3373531945424
  0
LINE
  8
_3-1_
  6
CONTINUOUS
 62
    7
 10
864.92689508268722
 20
275.3373531945424
 11
864.94141803284856
 21
275.35054195801717
  0
LINE
  8
_3-1_
  6
CONTINUOUS
 62
    7
 10
864.94141803284856
 20
275.35054195801717
 11
864.95462866823641
 21
275.36508678009142
  0
LINE
  8
_3-1_
  6
CONTINUOUS
 62
    7
 10
864.95462866823641
 20
275.36508678009142
 11
864.96626452589578
 21
275.3808345573749
  0
LINE
  8
_3-1_
  6
CONTINUOUS
 62
    7
 10
864.96626452589578
 20
275.3808345573749
 11
864.97641309347841
 21
275.39767593030308
  0
LINE
  8
_3-1_
  6
CONTINUOUS
 62
    7
 10
864.97641309347841
 20
275.39767593030308
 11
864.98481190802966
 21
275.4154140516597
  0
LINE
  8
_3-1_
  6
CONTINUOUS
 62
    7
 10
864.98481190802966
 20
275.4154140516597
 11
864.99137348189777
 21
275.43389581805485
  0
LINE
  8
_3-1_
  6
CONTINUOUS
 62
    7
 10
864.99137348189777
 20
275.43389581805485
 11
864.99618530273437
 21
275.45294625418524
  0
LINE
  8
_3-1_
  6
CONTINUOUS
 62
    7
 10
864.99618530273437
 20
275.45294625418524
 11
864.99907239523623
 21
275.47234664092184
  0
LINE
  8
_3-1_
  6
CONTINUOUS
 62
    7
 10
864.99907239523623
 20
275.47234664092184
 11
865.00003475940366
 21
275.49194387487461
  0
LINE
  8
_3-1_
  6
CONTINUOUS
 62
    7
 10
865.00003475940366
 20
275.49194387487461
 11
865.00003475940366
 21
275.69196251828703
  0
LINE
  8
_3-1_
  6
CONTINUOUS
 62
    7
 10
857.79997601011996
 20
275.29194710337521
 11
864.19996018575421
 21
275.29194710337521
  0
LINE
  8
_3-1_
  6
CONTINUOUS
 62
    7
 10
864.19996018575421
 20
275.29194710337521
 11
864.19996018575421
 21
272.09195501555797
  0
LINE
  8
_3-1_
  6
CONTINUOUS
 62
    7
 10
864.19996018575421
 20
272.09195501555797
 11
857.79997601011996
 21
272.09195501555797
  0
LINE
  8
_3-1_
  6
CONTINUOUS
 62
    7
 10
857.79997601011996
 20
272.09195501555797
 11
857.79997601011996
 21
275.29194710337521
  0
LINE
  8
_3-1_
  6
CONTINUOUS
 62
    7
 10
864.50004283065493
 20
272.29195178705754
 11
864.3059952194626
 21
272.49774461547372
  0
LINE
  8
_3-1_
  6
CONTINUOUS
 62
    7
 10
864.3059952194626
 20
272.49774461547372
 11
857.70881387717941
 21
272.69179222666622
  0
LINE
  8
_3-1_
  6
CONTINUOUS
 62
    7
 10
857.70881387717941
 20
272.69179222666622
 11
857.50304292067597
 21
272.49774461547372
  0
LINE
  8
_3-1_
  6
CONTINUOUS
 62
    7
 10
857.50304292067597
 20
272.49774461547372
 11
857.6970905318683
 21
272.29195178705754
  0
LINE
  8
_3-1_
  6
CONTINUOUS
 62
    7
 10
857.6970905318683
 20
272.29195178705754
 11
864.29418438650009
 21
272.09792604777806
  0
LINE
  8
_3-1_
  6
CONTINUOUS
 62
    7
 10
864.29418438650009
 20
272.09792604777806
 11
864.50004283065493
 21
272.29195178705754
  0
LINE
  8
_3-1_
  6
CONTINUOUS
 62
    7
 10
864.50004283065493
 20
272.89196397346871
 11
864.3059952194626
 21
273.09775680188511
  0
LINE
  8
_3-1_
  6
CONTINUOUS
 62
    7
 10
864.3059952194626
 20
273.09775680188511
 11
857.70881387717941
 21
273.29178254116459
  0
LINE
  8
_3-1_
  6
CONTINUOUS
 62
    7
 10
857.70881387717941
 20
273.29178254116459
 11
857.50304292067597
 21
273.09775680188511
  0
LINE
  8
_3-1_
  6
CONTINUOUS
 62
    7
 10
857.50304292067597
 20
273.09775680188511
 11
857.6970905318683
 21
272.89196397346871
  0
LINE
  8
_3-1_
  6
CONTINUOUS
 62
    7
 10
857.6970905318683
 20
272.89196397346871
 11
864.29418438650009
 21
272.69791636227637
  0
LINE
  8
_3-1_
  6
CONTINUOUS
 62
    7
 10
864.29418438650009
 20
272.69791636227637
 11
864.50004283065493
 21
272.89196397346871
  0
LINE
  8
_3-1_
  6
CONTINUOUS
 62
    7
 10
864.50004283065493
 20
273.49195428796719
 11
864.3059952194626
 21
273.69774711638343
  0
LINE
  8
_3-1_
  6
CONTINUOUS
 62
    7
 10
864.3059952194626
 20
273.69774711638343
 11
857.70881387717941
 21
273.89177285566291
  0
LINE
  8
_3-1_
  6
CONTINUOUS
 62
    7
 10
857.70881387717941
 20
273.89177285566291
 11
857.50304292067597
 21
273.69774711638343
  0
LINE
  8
_3-1_
  6
CONTINUOUS
 62
    7
 10
857.50304292067597
 20
273.69774711638343
 11
857.6970905318683
 21
273.49195428796719
  0
LINE
  8
_3-1_
  6
CONTINUOUS
 62
    7
 10
857.6970905318683
 20
273.49195428796719
 11
864.29418438650009
 21
273.29792854868771
  0
LINE
  8
_3-1_
  6
CONTINUOUS
 62
    7
 10
864.29418438650009
 20
273.29792854868771
 11
864.50004283065493
 21
273.49195428796719
  0
LINE
  8
_3-1_
  6
CONTINUOUS
 62
    7
 10
864.50004283065493
 20
274.09194460246556
 11
864.3059952194626
 21
274.29773743088174
  0
LINE
  8
_3-1_
  6
CONTINUOUS
 62
    7
 10
864.3059952194626
 20
274.29773743088174
 11
857.70881387717941
 21
274.49178504207424
  0
LINE
  8
_3-1_
  6
CONTINUOUS
 62
    7
 10
857.70881387717941
 20
274.49178504207424
 11
857.50304292067597
 21
274.29773743088174
  0
LINE
  8
_3-1_
  6
CONTINUOUS
 62
    7
 10
857.50304292067597
 20
274.29773743088174
 11
857.6970905318683
 21
274.09194460246556
  0
LINE
  8
_3-1_
  6
CONTINUOUS
 62
    7
 10
857.6970905318683
 20
274.09194460246556
 11
864.29418438650009
 21
273.89791886318608
  0
LINE
  8
_3-1_
  6
CONTINUOUS
 62
    7
 10
864.29418438650009
 20
273.89791886318608
 11
864.50004283065493
 21
274.09194460246556
  0
LINE
  8
_3-1_
  6
CONTINUOUS
 62
    7
 10
858.05797709461342
 20
272.09195501555797
 11
861.45800969775576
 21
272.09195501555797
  0
LINE
  8
_3-1_
  6
CONTINUOUS
 62
    7
 10
861.45800969775576
 20
272.09195501555797
 11
861.45800969775576
 21
271.29194605764735
  0
LINE
  8
_3-1_
  6
CONTINUOUS
 62
    7
 10
861.45800969775576
 20
271.29194605764735
 11
858.05797709461342
 21
271.29194605764735
  0
LINE
  8
_3-1_
  6
CONTINUOUS
 62
    7
 10
858.05797709461342
 20
271.29194605764735
 11
858.05797709461342
 21
272.09195501555797
  0
LINE
  8
_3-1_
  6
CONTINUOUS
 62
    7
 10
861.45800969775576
 20
271.29194605764735
 11
860.75802099750763
 21
269.69195001373873
  0
LINE
  8
_3-1_
  6
CONTINUOUS
 62
    7
 10
860.75802099750763
 20
269.69195001373873
 11
858.75796579486155
 21
269.69195001373873
  0
LINE
  8
_3-1_
  6
CONTINUOUS
 62
    7
 10
858.75796579486155
 20
269.69195001373873
 11
858.05797709461342
 21
271.29194605764735
  0
LINE
  8
_3-1_
  6
CONTINUOUS
 62
    7
 10
854.35541219232618
 20
284.06494634031787
 11
867.15538054359456
 21
284.06494634031787
  0
LINE
  8
_3-1_
  6
CONTINUOUS
 62
    7
 10
867.15538054359456
 20
284.06494634031787
 11
867.15538054359456
 21
283.66495279731896
  0
LINE
  8
_3-1_
  6
CONTINUOUS
 62
    7
 10
867.15538054359456
 20
283.66495279731896
 11
854.35541219232618
 21
283.66495279731896
  0
LINE
  8
_3-1_
  6
CONTINUOUS
 62
    7
 10
854.35541219232618
 20
283.66495279731896
 11
854.35541219232618
 21
284.06494634031787
  0
LINE
  8
_3-1_
  6
CONTINUOUS
 62
    7
 10
854.35541219232618
 20
285.66494238422649
 11
867.15538054359456
 21
285.66494238422649
  0
LINE
  8
_3-1_
  6
CONTINUOUS
 62
    7
 10
867.15538054359456
 20
285.66494238422649
 11
867.15538054359456
 21
284.06494634031787
  0
LINE
  8
_3-1_
  6
CONTINUOUS
 62
    7
 10
867.15538054359456
 20
284.06494634031787
 11
854.35541219232618
 21
284.06494634031787
  0
LINE
  8
_3-1_
  6
CONTINUOUS
 62
    7
 10
854.35541219232618
 20
284.06494634031787
 11
854.35541219232618
 21
285.66494238422649
  0
LINE
  8
_3-1_
  6
CONTINUOUS
 62
    7
 10
851.7554541628333
 20
284.99275288526621
 11
869.75542606073918
 21
284.99275288526621
  0
LINE
  8
_3-1_
  6
CONTINUOUS
 62
    7
 10
869.75542606073918
 20
284.99275288526621
 11
869.75542606073918
 21
284.59275934226724
  0
LINE
  8
_3-1_
  6
CONTINUOUS
 62
    7
 10
869.75542606073918
 20
284.59275934226724
 11
851.7554541628333
 21
284.59275934226724
  0
LINE
  8
_3-1_
  6
CONTINUOUS
 62
    7
 10
851.7554541628333
 20
284.59275934226724
 11
851.7554541628333
 21
284.99275288526621
  0
LINE
  8
_3-1_
  6
CONTINUOUS
 62
    7
 10
846.75544738769531
 20
291.66493301686171
 11
874.75543283587717
 21
291.66493301686171
  0
LINE
  8
_3-1_
  6
CONTINUOUS
 62
    7
 10
874.75543283587717
 20
291.66493301686171
 11
874.75543283587717
 21
291.2649394738628
  0
LINE
  8
_3-1_
  6
CONTINUOUS
 62
    7
 10
874.75543283587717
 20
291.2649394738628
 11
846.75544738769531
 21
291.2649394738628
  0
LINE
  8
_3-1_
  6
CONTINUOUS
 62
    7
 10
846.75544738769531
 20
291.2649394738628
 11
846.75544738769531
 21
291.66493301686171
  0
LINE
  8
_3-1_
  6
CONTINUOUS
 62
    7
 10
854.35541219232618
 20
291.2649394738628
 11
867.15538054359456
 21
291.2649394738628
  0
LINE
  8
_3-1_
  6
CONTINUOUS
 62
    7
 10
867.15538054359456
 20
291.2649394738628
 11
867.15538054359456
 21
285.66494238422649
  0
LINE
  8
_3-1_
  6
CONTINUOUS
 62
    7
 10
867.15538054359456
 20
285.66494238422649
 11
854.35541219232618
 21
285.66494238422649
  0
LINE
  8
_3-1_
  6
CONTINUOUS
 62
    7
 10
854.35541219232618
 20
285.66494238422649
 11
854.35541219232618
 21
291.2649394738628
  0
LINE
  8
_3-1_
  6
CONTINUOUS
 62
    7
 10
846.99997537384615
 20
287.66495384304676
 11
874.99996082202802
 21
287.66495384304676
  0
LINE
  8
_3-1_
  6
CONTINUOUS
 62
    7
 10
874.99996082202802
 20
287.66495384304676
 11
874.99996082202802
 21
286.98493419927058
  0
LINE
  8
_3-1_
  6
CONTINUOUS
 62
    7
 10
874.99996082202802
 20
286.98493419927058
 11
846.99997537384615
 21
286.98493419927058
  0
LINE
  8
_3-1_
  6
CONTINUOUS
 62
    7
 10
846.99997537384615
 20
286.98493419927058
 11
846.99997537384615
 21
287.66495384304676
  0
LINE
  8
_3-1_
  6
CONTINUOUS
 62
    7
 10
851.79998537748475
 20
286.98493419927058
 11
870.20003830604105
 21
286.98493419927058
  0
LINE
  8
_3-1_
  6
CONTINUOUS
 62
    7
 10
870.20003830604105
 20
286.98493419927058
 11
870.20003830604105
 21
272.98494147517971
  0
LINE
  8
_3-1_
  6
CONTINUOUS
 62
    7
 10
870.20003830604105
 20
272.98494147517971
 11
851.79998537748475
 21
272.98494147517971
  0
LINE
  8
_3-1_
  6
CONTINUOUS
 62
    7
 10
851.79998537748475
 20
272.98494147517971
 11
851.79998537748475
 21
286.98493419927058
  0
LINE
  8
_3-1_
  6
CONTINUOUS
 62
    7
 10
870.20003830604105
 20
286.58494065627167
 11
870.60003184903985
 21
286.98493419927058
  0
LINE
  8
_3-1_
  6
CONTINUOUS
 62
    7
 10
870.60003184903985
 20
286.98493419927058
 11
851.39999183448583
 21
286.98493419927058
  0
LINE
  8
_3-1_
  6
CONTINUOUS
 62
    7
 10
851.39999183448583
 20
286.98493419927058
 11
851.79998537748475
 21
286.58494065627167
  0
LINE
  8
_3-1_
  6
CONTINUOUS
 62
    7
 10
870.20003830604105
 20
286.58494065627167
 11
851.79998537748475
 21
286.58494065627167
  0
LINE
  8
_3-1_
  6
CONTINUOUS
 62
    7
 10
870.4010849293594
 20
273.18386652294737
 11
870.20327534914929
 21
273.38600674191042
  0
LINE
  8
_3-1_
  6
CONTINUOUS
 62
    7
 10
870.20327534914929
 20
273.38600674191042
 11
851.80435976006356
 21
273.58488804585221
  0
LINE
  8
_3-1_
  6
CONTINUOUS
 62
    7
 10
851.80435976006356
 20
273.58488804585221
 11
851.60217579727464
 21
273.38707846564216
  0
LINE
  8
_3-1_
  6
CONTINUOUS
 62
    7
 10
851.60217579727464
 20
273.38707846564216
 11
851.79998537748475
 21
273.18491637476626
  0
LINE
  8
_3-1_
  6
CONTINUOUS
 62
    7
 10
851.79998537748475
 20
273.18491637476626
 11
870.19890096657059
 21
272.9860350708243
  0
LINE
  8
_3-1_
  6
CONTINUOUS
 62
    7
 10
870.19890096657059
 20
272.9860350708243
 11
870.4010849293594
 21
273.18386652294737
  0
LINE
  8
_3-1_
  6
CONTINUOUS
 62
    7
 10
870.4010849293594
 20
274.1838503804446
 11
870.20327534914929
 21
274.38601247132056
  0
LINE
  8
_3-1_
  6
CONTINUOUS
 62
    7
 10
870.20327534914929
 20
274.38601247132056
 11
851.80435976006356
 21
274.58489377526234
  0
LINE
  8
_3-1_
  6
CONTINUOUS
 62
    7
 10
851.80435976006356
 20
274.58489377526234
 11
851.60217579727464
 21
274.3870623231395
  0
LINE
  8
_3-1_
  6
CONTINUOUS
 62
    7
 10
851.60217579727464
 20
274.3870623231395
 11
851.79998537748475
 21
274.18492210417639
  0
LINE
  8
_3-1_
  6
CONTINUOUS
 62
    7
 10
851.79998537748475
 20
274.18492210417639
 11
870.19890096657059
 21
273.98604080023449
  0
LINE
  8
_3-1_
  6
CONTINUOUS
 62
    7
 10
870.19890096657059
 20
273.98604080023449
 11
870.4010849293594
 21
274.1838503804446
  0
LINE
  8
_3-1_
  6
CONTINUOUS
 62
    7
 10
870.4010849293594
 20
275.18385610985479
 11
870.20327534914929
 21
275.38599632881784
  0
LINE
  8
_3-1_
  6
CONTINUOUS
 62
    7
 10
870.20327534914929
 20
275.38599632881784
 11
851.80435976006356
 21
275.58489950467265
  0
LINE
  8
_3-1_
  6
CONTINUOUS
 62
    7
 10
851.80435976006356
 20
275.58489950467265
 11
851.60217579727464
 21
275.38706805254958
  0
LINE
  8
_3-1_
  6
CONTINUOUS
 62
    7
 10
851.60217579727464
 20
275.38706805254958
 11
851.79998537748475
 21
275.18492783358653
  0
LINE
  8
_3-1_
  6
CONTINUOUS
 62
    7
 10
851.79998537748475
 20
275.18492783358653
 11
870.19890096657059
 21
274.98602465773172
  0
LINE
  8
_3-1_
  6
CONTINUOUS
 62
    7
 10
870.19890096657059
 20
274.98602465773172
 11
870.4010849293594
 21
275.18385610985479
  0
LINE
  8
_3-1_
  6
CONTINUOUS
 62
    7
 10
870.4010849293594
 20
276.18386183926503
 11
870.20327534914929
 21
276.38600205822797
  0
LINE
  8
_3-1_
  6
CONTINUOUS
 62
    7
 10
870.20327534914929
 20
276.38600205822797
 11
851.80435976006356
 21
276.58490523408273
  0
LINE
  8
_3-1_
  6
CONTINUOUS
 62
    7
 10
851.80435976006356
 20
276.58490523408273
 11
851.60217579727464
 21
276.38707378195977
  0
LINE
  8
_3-1_
  6
CONTINUOUS
 62
    7
 10
851.60217579727464
 20
276.38707378195977
 11
851.79998537748475
 21
276.18491169108381
  0
LINE
  8
_3-1_
  6
CONTINUOUS
 62
    7
 10
851.79998537748475
 20
276.18491169108381
 11
870.19890096657059
 21
275.98603038714202
  0
LINE
  8
_3-1_
  6
CONTINUOUS
 62
    7
 10
870.19890096657059
 20
275.98603038714202
 11
870.4010849293594
 21
276.18386183926503
  0
LINE
  8
_3-1_
  6
CONTINUOUS
 62
    7
 10
870.4010849293594
 20
277.18386756867517
 11
870.20327534914929
 21
277.38600778763811
  0
LINE
  8
_3-1_
  6
CONTINUOUS
 62
    7
 10
870.20327534914929
 20
277.38600778763811
 11
851.80435976006356
 21
277.58488909158007
  0
LINE
  8
_3-1_
  6
CONTINUOUS
 62
    7
 10
851.80435976006356
 20
277.58488909158007
 11
851.60217579727464
 21
277.38707951137002
  0
LINE
  8
_3-1_
  6
CONTINUOUS
 62
    7
 10
851.60217579727464
 20
277.38707951137002
 11
851.79998537748475
 21
277.18491742049395
  0
LINE
  8
_3-1_
  6
CONTINUOUS
 62
    7
 10
851.79998537748475
 20
277.18491742049395
 11
870.19890096657059
 21
276.98603611655216
  0
LINE
  8
_3-1_
  6
CONTINUOUS
 62
    7
 10
870.19890096657059
 20
276.98603611655216
 11
870.4010849293594
 21
277.18386756867517
  0
LINE
  8
_3-1_
  6
CONTINUOUS
 62
    7
 10
870.4010849293594
 20
278.18385142617245
 11
870.20327534914929
 21
278.38601351704835
  0
LINE
  8
_3-1_
  6
CONTINUOUS
 62
    7
 10
870.20327534914929
 20
278.38601351704835
 11
851.80435976006356
 21
278.58489482099031
  0
LINE
  8
_3-1_
  6
CONTINUOUS
 62
    7
 10
851.80435976006356
 20
278.58489482099031
 11
851.60217579727464
 21
278.3870633688673
  0
LINE
  8
_3-1_
  6
CONTINUOUS
 62
    7
 10
851.60217579727464
 20
278.3870633688673
 11
851.79998537748475
 21
278.18492314990419
  0
LINE
  8
_3-1_
  6
CONTINUOUS
 62
    7
 10
851.79998537748475
 20
278.18492314990419
 11
870.19890096657059
 21
277.98601997404944
  0
LINE
  8
_3-1_
  6
CONTINUOUS
 62
    7
 10
870.19890096657059
 20
277.98601997404944
 11
870.4010849293594
 21
278.18385142617245
  0
LINE
  8
_3-1_
  6
CONTINUOUS
 62
    7
 10
870.4010849293594
 20
279.18385715558259
 11
870.20327534914929
 21
279.3859973745457
  0
LINE
  8
_3-1_
  6
CONTINUOUS
 62
    7
 10
870.20327534914929
 20
279.3859973745457
 11
851.80435976006356
 21
279.58490055040045
  0
LINE
  8
_3-1_
  6
CONTINUOUS
 62
    7
 10
851.80435976006356
 20
279.58490055040045
 11
851.60217579727464
 21
279.38706909827744
  0
LINE
  8
_3-1_
  6
CONTINUOUS
 62
    7
 10
851.60217579727464
 20
279.38706909827744
 11
851.79998537748475
 21
279.18492887931438
  0
LINE
  8
_3-1_
  6
CONTINUOUS
 62
    7
 10
851.79998537748475
 20
279.18492887931438
 11
870.19890096657059
 21
278.98602570345957
  0
LINE
  8
_3-1_
  6
CONTINUOUS
 62
    7
 10
870.19890096657059
 20
278.98602570345957
 11
870.4010849293594
 21
279.18385715558259
  0
LINE
  8
_3-1_
  6
CONTINUOUS
 62
    7
 10
870.4010849293594
 20
280.18386288499272
 11
870.20327534914929
 21
280.38600310395577
  0
LINE
  8
_3-1_
  6
CONTINUOUS
 62
    7
 10
870.20327534914929
 20
280.38600310395577
 11
851.80435976006356
 21
280.58490627981058
  0
LINE
  8
_3-1_
  6
CONTINUOUS
 62
    7
 10
851.80435976006356
 20
280.58490627981058
 11
851.60217579727464
 21
280.38707482768757
  0
LINE
  8
_3-1_
  6
CONTINUOUS
 62
    7
 10
851.60217579727464
 20
280.38707482768757
 11
851.79998537748475
 21
280.18491273681161
  0
LINE
  8
_3-1_
  6
CONTINUOUS
 62
    7
 10
851.79998537748475
 20
280.18491273681161
 11
870.19890096657059
 21
279.98603143286971
  0
LINE
  8
_3-1_
  6
CONTINUOUS
 62
    7
 10
870.19890096657059
 20
279.98603143286971
 11
870.4010849293594
 21
280.18386288499272
  0
LINE
  8
_3-1_
  6
CONTINUOUS
 62
    7
 10
870.4010849293594
 20
281.18384674249
 11
870.20327534914929
 21
281.38600883336608
  0
LINE
  8
_3-1_
  6
CONTINUOUS
 62
    7
 10
870.20327534914929
 20
281.38600883336608
 11
851.80435976006356
 21
281.58489013730787
  0
LINE
  8
_3-1_
  6
CONTINUOUS
 62
    7
 10
851.80435976006356
 20
281.58489013730787
 11
851.60217579727464
 21
281.3870805570977
  0
LINE
  8
_3-1_
  6
CONTINUOUS
 62
    7
 10
851.60217579727464
 20
281.3870805570977
 11
851.79998537748475
 21
281.18491846622192
  0
LINE
  8
_3-1_
  6
CONTINUOUS
 62
    7
 10
851.79998537748475
 20
281.18491846622192
 11
870.19890096657059
 21
280.98603716228001
  0
LINE
  8
_3-1_
  6
CONTINUOUS
 62
    7
 10
870.19890096657059
 20
280.98603716228001
 11
870.4010849293594
 21
281.18384674249
  0
LINE
  8
_3-1_
  6
CONTINUOUS
 62
    7
 10
870.4010849293594
 20
282.18385247190031
 11
870.20327534914929
 21
282.38601456277621
  0
LINE
  8
_3-1_
  6
CONTINUOUS
 62
    7
 10
870.20327534914929
 20
282.38601456277621
 11
851.80435976006356
 21
282.584895866718
  0
LINE
  8
_3-1_
  6
CONTINUOUS
 62
    7
 10
851.80435976006356
 20
282.584895866718
 11
851.60217579727464
 21
282.38706441459499
  0
LINE
  8
_3-1_
  6
CONTINUOUS
 62
    7
 10
851.60217579727464
 20
282.38706441459499
 11
851.79998537748475
 21
282.18492419563205
  0
LINE
  8
_3-1_
  6
CONTINUOUS
 62
    7
 10
851.79998537748475
 20
282.18492419563205
 11
870.19890096657059
 21
281.98602101977724
  0
LINE
  8
_3-1_
  6
CONTINUOUS
 62
    7
 10
870.19890096657059
 20
281.98602101977724
 11
870.4010849293594
 21
282.18385247190031
  0
LINE
  8
_3-1_
  6
CONTINUOUS
 62
    7
 10
870.4010849293594
 20
283.18385820131039
 11
870.20327534914929
 21
283.38599842027349
  0
LINE
  8
_3-1_
  6
CONTINUOUS
 62
    7
 10
870.20327534914929
 20
283.38599842027349
 11
851.80435976006356
 21
283.58490159612825
  0
LINE
  8
_3-1_
  6
CONTINUOUS
 62
    7
 10
851.80435976006356
 20
283.58490159612825
 11
851.60217579727464
 21
283.38707014400529
  0
LINE
  8
_3-1_
  6
CONTINUOUS
 62
    7
 10
851.60217579727464
 20
283.38707014400529
 11
851.79998537748475
 21
283.18492992504218
  0
LINE
  8
_3-1_
  6
CONTINUOUS
 62
    7
 10
851.79998537748475
 20
283.18492992504218
 11
870.19890096657059
 21
282.98602674918743
  0
LINE
  8
_3-1_
  6
CONTINUOUS
 62
    7
 10
870.19890096657059
 20
282.98602674918743
 11
870.4010849293594
 21
283.18385820131039
  0
LINE
  8
_3-1_
  6
CONTINUOUS
 62
    7
 10
870.4010849293594
 20
284.18386393072069
 11
870.20327534914929
 21
284.38600414968363
  0
LINE
  8
_3-1_
  6
CONTINUOUS
 62
    7
 10
870.20327534914929
 20
284.38600414968363
 11
851.80435976006356
 21
284.58490732553844
  0
LINE
  8
_3-1_
  6
CONTINUOUS
 62
    7
 10
851.80435976006356
 20
284.58490732553844
 11
851.60217579727464
 21
284.38707587341537
  0
LINE
  8
_3-1_
  6
CONTINUOUS
 62
    7
 10
851.60217579727464
 20
284.38707587341537
 11
851.79998537748475
 21
284.18491378253947
  0
LINE
  8
_3-1_
  6
CONTINUOUS
 62
    7
 10
851.79998537748475
 20
284.18491378253947
 11
870.19890096657059
 21
283.98603247859768
  0
LINE
  8
_3-1_
  6
CONTINUOUS
 62
    7
 10
870.19890096657059
 20
283.98603247859768
 11
870.4010849293594
 21
284.18386393072069
  0
LINE
  8
_3-1_
  6
CONTINUOUS
 62
    7
 10
870.4010849293594
 20
285.18384778821797
 11
870.20327534914929
 21
285.38600987909376
  0
LINE
  8
_3-1_
  6
CONTINUOUS
 62
    7
 10
870.20327534914929
 20
285.38600987909376
 11
851.80435976006356
 21
285.58489118303567
  0
LINE
  8
_3-1_
  6
CONTINUOUS
 62
    7
 10
851.80435976006356
 20
285.58489118303567
 11
851.60217579727464
 21
285.38705973091271
  0
LINE
  8
_3-1_
  6
CONTINUOUS
 62
    7
 10
851.60217579727464
 20
285.38705973091271
 11
851.79998537748475
 21
285.1849195119496
  0
LINE
  8
_3-1_
  6
CONTINUOUS
 62
    7
 10
851.79998537748475
 20
285.1849195119496
 11
870.19890096657059
 21
284.98603820800781
  0
LINE
  8
_3-1_
  6
CONTINUOUS
 62
    7
 10
870.19890096657059
 20
284.98603820800781
 11
870.4010849293594
 21
285.18384778821797
  0
LINE
  8
_3-1_
  6
CONTINUOUS
 62
    7
 10
848.00380868801267
 20
274.32555850408249
 11
874.00382642120007
 21
274.32555850408249
  0
LINE
  8
_3-1_
  6
CONTINUOUS
 62
    7
 10
874.00382642120007
 20
274.32555850408249
 11
874.00382642120007
 21
273.47043232567984
  0
LINE
  8
_3-1_
  6
CONTINUOUS
 62
    7
 10
874.00382642120007
 20
273.47043232567984
 11
848.00380868801267
 21
273.47043232567984
  0
LINE
  8
_3-1_
  6
CONTINUOUS
 62
    7
 10
848.00380868801267
 20
273.47043232567984
 11
848.00380868801267
 21
274.32555850408249
  0
LINE
  8
_3-1_
  6
CONTINUOUS
 62
    7
 10
850.93516994167021
 20
273.47043232567984
 11
871.07237767989102
 21
273.47043232567984
  0
LINE
  8
_3-1_
  6
CONTINUOUS
 62
    7
 10
871.07237767989102
 20
273.47043232567984
 11
871.07237767989102
 21
271.33258407180364
  0
LINE
  8
_3-1_
  6
CONTINUOUS
 62
    7
 10
871.07237767989102
 20
271.33258407180364
 11
850.93516994167021
 21
271.33258407180364
  0
LINE
  8
_3-1_
  6
CONTINUOUS
 62
    7
 10
850.93516994167021
 20
271.33258407180364
 11
850.93516994167021
 21
273.47043232567984
  0
LINE
  8
_3-1_
  6
CONTINUOUS
 62
    7
 10
866.03807574533573
 20
271.33258407180364
 11
866.03807574533573
 21
273.47043232567984
  0
LINE
  8
_3-1_
  6
CONTINUOUS
 62
    7
 10
855.96947187622527
 20
271.33258407180364
 11
855.96947187622527
 21
273.47043232567984
  0
LINE
  8
_3-1_
  6
CONTINUOUS
 62
    7
 10
848.2586602170494
 20
274.72391165361444
 11
873.74888740451172
 21
274.72391165361444
  0
LINE
  8
_3-1_
  6
CONTINUOUS
 62
    7
 10
873.74888740451172
 20
274.72391165361444
 11
873.74888740451172
 21
274.29635950036953
  0
LINE
  8
_3-1_
  6
CONTINUOUS
 62
    7
 10
873.74888740451172
 20
274.29635950036953
 11
848.2586602170494
 21
274.29635950036953
  0
LINE
  8
_3-1_
  6
CONTINUOUS
 62
    7
 10
848.2586602170494
 20
274.29635950036953
 11
848.2586602170494
 21
274.72391165361444
  0
ARC
  8
_1-0_
  6
CONTINUOUS
 62
    7
 10
969.0000182045012
 20
1027.0002192788143
 40
4.0000000204819051
 50
0
 51
90
  0
ARC
  8
_1-0_
  6
CONTINUOUS
 62
    7
 10
374.99998320944059
 20
773.00020755487981
 40
12.000000403194353
 50
180
 51
270
  0
ARC
  8
_1-0_
  6
CONTINUOUS
 62
    7
 10
931.00001920604325
 20
773.00020755487981
 40
12.000000403194353
 50
270
 51
0
  0
ARC
  8
_1-0_
  6
CONTINUOUS
 62
    7
 10
931.00001920604325
 20
989.00022028035642
 40
12.000000403194353
 50
0
 51
90
  0
ARC
  8
_1-0_
  6
CONTINUOUS
 62
    7
 10
909.00002439049672
 20
793.00014716778026
 40
12.000000403194353
 50
270
 51
0
  0
ARC
  8
_1-0_
  6
CONTINUOUS
 62
    7
 10
909.00002439049672
 20
969.00019317980434
 40
12.000000403194353
 50
0
 51
90
  0
ARC
  8
_1-0_
  6
CONTINUOUS
 62
    7
 10
337.00000608289571
 20
1027.0002192788143
 40
4.0000000204819051
 50
90
 51
180
  0
ARC
  8
_1-0_
  6
CONTINUOUS
 62
    7
 10
374.99998320944059
 20
989.00022028035642
 40
12.000000403194353
 50
90
 51
180
  0
ARC
  8
_1-0_
  6
CONTINUOUS
 62
    7
 10
493.00000312245487
 20
793.00014716778026
 40
12.000000403194353
 50
180
 51
270
  0
ARC
  8
_1-0_
  6
CONTINUOUS
 62
    7
 10
493.00000312245487
 20
969.00019317980434
 40
12.000000403194353
 50
90
 51
180
  0
ARC
  8
_1-0_
  6
CONTINUOUS
 62
    7
 10
337.00000608289571
 20
735.00020855642197
 40
4.0000000204819051
 50
180
 51
270
  0
ARC
  8
_1-0_
  6
CONTINUOUS
 62
    7
 10
969.0000182045012
 20
735.00020855642197
 40
4.0000000204819051
 50
270
 51
0
  0
CIRCLE
  8
_1-0_
  6
CONTINUOUS
 62
    7
 10
861.0000118417629
 20
881.000213917618
 40
16.00000008192762
  0
CIRCLE
  8
_1-0_
  6
CONTINUOUS
 62
    7
 10
861.0000118417629
 20
881.000213917618
 40
9.9999998803304422
  0
ARC
  8
_1-0_
  6
CONTINUOUS
 62
    7
 10
904.23255979324392
 20
297.99724549400298
 40
16.00000008192762
 50
268.95835876464844
 51
353.29722595214844
  0
ARC
  8
_1-0_
  6
CONTINUOUS
 62
    7
 10
866.97454356778985
 20
278.67135449265874
 40
4.0000000204819051
 50
268.95835876464844
 51
322.75639343261719
  0
ARC
  8
_1-0_
  6
CONTINUOUS
 62
    7
 10
864.62716238839278
 20
283.51482398721703
 40
4.0000000204819051
 50
268.95835876464844
 51
322.75639343261719
  0
ARC
  8
_1-0_
  6
CONTINUOUS
 62
    7
 10
838.53991946658562
 20
283.9891382902286
 40
4.0000000204819051
 50
36.49365234375
 51
88.958358764648438
  0
ARC
  8
_1-0_
  6
CONTINUOUS
 62
    7
 10
836.08772808060223
 20
279.23293772811587
 40
4.0000000204819051
 50
36.49365234375
 51
88.958358764648438
  0
ARC
  8
_1-0_
  6
CONTINUOUS
 62
    7
 10
902.38420817842803
 20
302.83163814471038
 40
16.00000008192762
 50
268.95835876464844
 51
353.29722595214844
  0
ARC
  8
_1-0_
  6
CONTINUOUS
 62
    7
 10
485.39142078414386
 20
310.41333990207505
 40
16.00000008192762
 50
213.38352966308597
 51
268.95835876464844
  0
ARC
  8
_1-0_
  6
CONTINUOUS
 62
    7
 10
485.68424195396392
 20
305.60720576282631
 40
16.00000008192762
 50
213.38352966308597
 51
268.95835876464844
  0
ARC
  8
_1-0_
  6
CONTINUOUS
 62
    7
 10
848.62680825487519
 20
283.80574230061541
 40
4.0000000204819051
 50
216.49365234375
 51
268.95835876464844
  0
ARC
  8
_1-0_
  6
CONTINUOUS
 62
    7
 10
846.17461686889169
 20
279.04954173850274
 40
4.0000000204819051
 50
216.49365234375
 51
268.95835876464844
  0
ARC
  8
_1-0_
  6
CONTINUOUS
 62
    7
 10
874.5395133117911
 20
283.33459942497342
 40
4.0000000204819051
 50
88.958358764648438
 51
142.75639343261719
  0
ARC
  8
_1-0_
  6
CONTINUOUS
 62
    7
 10
876.88689449118829
 20
278.49112993041513
 40
4.0000000204819051
 50
88.958358764648438
 51
142.75639343261719
  0
ARC
  8
_1-0_
  6
CONTINUOUS
 62
    7
 10
1365.4808445050448
 20
297.77004006286376
 40
16.00000008192762
 50
186.09820556640622
 51
270
  0
ARC
  8
_1-0_
  6
CONTINUOUS
 62
    7
 10
1538.6183820452006
 20
302.57005006650246
 40
16.00000008192762
 50
270
 51
353.90177917480469
  0
ARC
  8
_1-0_
  6
CONTINUOUS
 62
    7
 10
1367.3816887108055
 20
302.57005006650246
 40
16.00000008192762
 50
186.09820556640622
 51
270
  0
ARC
  8
_1-0_
  6
CONTINUOUS
 62
    7
 10
1540.5191387633099
 20
297.77004006286376
 40
16.00000008192762
 50
270
 51
353.90177917480469
  0
CIRCLE
  8
_3-1_
  6
CONTINUOUS
 62
    7
 10
861.0000118417629
 20
282.89195565183195
 40
1.0000000051204763
  0
ARC
  8
_3-1_
  6
CONTINUOUS
 62
    7
 10
860.75539636796043
 20
243.6649423400408
 40
50.000002135641324
 50
73.739791870117188
 51
106.26019287109375
  0
TEXT
  8
_0-0_
 62
    6
 10
2068.0662218484176
 20
1789.0034914937257
 40
100
 41
1
 50
0
  1
T 505-160w75_
  0
LINE
  8
_0-0_
  6
CONTINUOUS
 62
    7
 10
972.69673640808401
 20
1026.622370395917
 11
973.01506801991468
 21
734.79956682151146
  0
ENDSEC
  0
EOF
