  0
SECTION
  2
HEADER
  9
$ACADVER
  1
AC1009
  9
$INSBASE
 10
0
 20
0
 30
0
  9
$EXTMIN
 10
0
 20
0
  9
$EXTMAX
 10
2970
 20
2100
  9
$LIMMIN
 10
0
 20
0
  9
$LIMMAX
 10
2970
 20
2100
  9
$LTSCALE
 40
10
  0
ENDSEC
  0
SECTION
  2
TABLES
  0
TABLE
  2
LTYPE
 70
     9
  0
LTYPE
  2
CONTINUOUS
 70
    64
  3
実線
 72
    65
 73
     0
 40
0.0
  0
LTYPE
  2
DASHED1
 70
    64
  3
--  --  --  --  --  --  --  --  
 72
    65
 73
     2
 40
2.5
 49
1.25
 49
-1.25
  0
LTYPE
  2
DASHED2
 70
    64
  3
----    ----    ----    ----    
 72
    65
 73
     2
 40
5.0
 49
2.5
 49
-2.5
  0
LTYPE
  2
DASHED3
 70
    64
  3
------  ------  ------  ------  
 72
    65
 73
     2
 40
5.0
 49
3.75
 49
-1.25
  0
LTYPE
  2
CENTER1
 70
    64
  3
----- - ----- - ----- - ----- - 
 72
    65
 73
     4
 40
10.0
 49
6.25
 49
-1.25
 49
1.25
 49
-1.25
  0
LTYPE
  2
CENTER2
 70
    64
  3
----------  --  ----------  --  
 72
    65
 73
     4
 40
20.0
 49
12.5
 49
-2.5
 49
2.5
 49
-2.5
  0
LTYPE
  2
PHANTOM1
 70
    64
  3
--- - - --- - - --- - - --- - - 
 72
    65
 73
     6
 40
10.0
 49
3.25
 49
-1.25
 49
1.25
 49
-1.25
 49
1.25
 49
-1.25
  0
LTYPE
  2
PHANTOM2
 70
    64
  3
--------  -  -  --------  -  -  
 72
    65
 73
     6
 40
20.0
 49
10.0
 49
-2.5
 49
1.25
 49
-2.5
 49
1.25
 49
-2.5
  0
LTYPE
  2
DOT
 70
    64
  3
-   -   -   -   -   -   -   -   
 72
    65
 73
     2
 40
2.5
 49
0.625
 49
-1.875
  0
LTYPE
  2
DUMMY
 70
    64
  3
ダミー
 72
    65
 73
     0
 40
0.0
  0
LTYPE
  2
RAND1
 70
    64
  3
ランダム線1
 72
    65
 73
     4
 40
10.0
 49
1.0
 49
-2.0
 49
3.0
 49
-4.0
  0
LTYPE
  2
RAND2
 70
    64
  3
ランダム線2
 72
    65
 73
     4
 40
14.0
 49
2.0
 49
-3.0
 49
4.0
 49
-5.0
  0
LTYPE
  2
RAND3
 70
    64
  3
ランダム線3
 72
    65
 73
     4
 40
18.0
 49
3.0
 49
-4.0
 49
5.0
 49
-6.0
  0
LTYPE
  2
RAND4
 70
    64
  3
ランダム線4
 72
    65
 73
     4
 40
22.0
 49
4.0
 49
-5.0
 49
6.0
 49
-7.0
  0
LTYPE
  2
RAND5
 70
    64
  3
ランダム線5
 72
    65
 73
     4
 40
26.0
 49
5.0
 49
-6.0
 49
7.0
 49
-8.0
  0
LTYPE
  2
LONG1
 70
    64
  3
----------  --  ----------  --  
 72
    65
 73
     4
 40
40.0
 49
32.5
 49
-2.5
 49
2.5
 49
-2.5
  0
LTYPE
  2
LONG2
 70
    64
  3
--------  -  -  --------  -  -  
 72
    65
 73
     6
 40
40.0
 49
30.0
 49
-2.5
 49
1.25
 49
-2.5
 49
1.25
 49
-2.5
  0
LTYPE
  2
LONG3
 70
    64
  3
+++++++++++++++..+++++++++++++++
 72
    65
 73
     2
 40
40.0
 49
37.5
 49
-2.5
  0
LTYPE
  2
LONG4
 70
    64
  3
+++++++++++++++..+++++++++++++++
 72
    65
 73
     2
 40
80.0
 49
75.0
 49
-5.0
  0
LTYPE
  2
LONG5
 70
    64
  3
----------  --  ----------  --  
 72
    65
 73
     4
 40
60.0
 49
37.5
 49
-7.5
 49
7.5
 49
-7.5
  0
LTYPE
  2
dashed
 70
   64
  3
-------   -------------   ------
 72
   65
 73
    2
 40
7.5
 49
6
 49
-1.5
  0
LTYPE
  2
dashed_spaced
 70
   64
  3
----        --------        ----
 72
   65
 73
    2
 40
12
 49
6
 49
-6
  0
LTYPE
  2
long_dashed_dotted
 70
   64
  3
------------- --- --------------
 72
   65
 73
    4
 40
15.25
 49
12
 49
-1.5
 49
0.25
 49
-1.5
  0
LTYPE
  2
long_dashed_double-dotted
 70
   64
  3
----------- --- --- ------------
 72
   65
 73
    6
 40
17
 49
12
 49
-1.5
 49
0.25
 49
-1.5
 49
0.25
 49
-1.5
  0
LTYPE
  2
long_dashed_triplicate-dotted
 70
   64
  3
--------- --- --- --- ----------
 72
   65
 73
    8
 40
18.75
 49
12
 49
-1.5
 49
0.25
 49
-1.5
 49
0.25
 49
-1.5
 49
0.25
 49
-1.5
  0
LTYPE
  2
dotted
 70
   64
  3
   -       -       -       -    
 72
   65
 73
    2
 40
1.75
 49
0.25
 49
-1.5
  0
LTYPE
  2
chain
 70
   64
  3
-------------- -- --------------
 72
   65
 73
    4
 40
18.5
 49
12
 49
-1.5
 49
3.5
 49
-1.5
  0
LTYPE
  2
chain_double_dash
 70
   64
  3
------------ -- -- -------------
 72
   65
 73
    6
 40
23.5
 49
12
 49
-1.5
 49
3.5
 49
-1.5
 49
3.5
 49
-1.5
  0
LTYPE
  2
dashed_dotted
 70
   64
  3
-----------     -     ----------
 72
   65
 73
    4
 40
9.25
 49
6
 49
-1.5
 49
0.25
 49
-1.5
  0
LTYPE
  2
double-dashed_dotted
 70
   64
  3
------   -----------   -   -----
 72
   65
 73
    6
 40
16.75
 49
6
 49
-1.5
 49
6
 49
-1.5
 49
0.25
 49
-1.5
  0
LTYPE
  2
dashed_double-dotted
 70
   64
  3
---------    -    -    ---------
 72
   65
 73
    6
 40
11
 49
6
 49
-1.5
 49
0.25
 49
-1.5
 49
0.25
 49
-1.5
  0
LTYPE
  2
double-dashed_double-dotted
 70
   64
  3
-----   ---------   -   -   ----
 72
   65
 73
    8
 40
18.5
 49
6
 49
-1.5
 49
6
 49
-1.5
 49
0.25
 49
-1.5
 49
0.25
 49
-1.5
  0
LTYPE
  2
dashed_triplicate-dotted
 70
   64
  3
-------    -    -    -    ------
 72
   65
 73
    8
 40
12.75
 49
6
 49
-1.5
 49
0.25
 49
-1.5
 49
0.25
 49
-1.5
 49
0.25
 49
-1.5
  0
LTYPE
  2
double-dashed_triplicate-dotted
 70
   64
  3
-----  ---------  -  -  -  -----
 72
   65
 73
   10
 40
20.25
 49
6
 49
-1.5
 49
6
 49
-1.5
 49
0.25
 49
-1.5
 49
0.25
 49
-1.5
 49
0.25
 49
-1.5
  0
LTYPE
  2
undefined
 70
   64
  3
--------------------------------
 72
   65
 73
    0
 40
0
  0
LTYPE
  2
_
 70
   64
  3
                                
 72
   65
 73
    0
 40
0
  0
LTYPE
  2
__18
 70
   64
  3
                                
 72
   65
 73
    0
 40
0
  0
LTYPE
  2
__19
 70
   64
  3
                                
 72
   65
 73
    0
 40
0
  0
LTYPE
  2
__20
 70
   64
  3
                                
 72
   65
 73
    0
 40
0
  0
LTYPE
  2
__21
 70
   64
  3
                                
 72
   65
 73
    0
 40
0
  0
LTYPE
  2
__22
 70
   64
  3
                                
 72
   65
 73
    0
 40
0
  0
LTYPE
  2
__23
 70
   64
  3
                                
 72
   65
 73
    0
 40
0
  0
LTYPE
  2
__24
 70
   64
  3
                                
 72
   65
 73
    0
 40
0
  0
LTYPE
  2
__25
 70
   64
  3
                                
 72
   65
 73
    0
 40
0
  0
LTYPE
  2
__26
 70
   64
  3
                                
 72
   65
 73
    0
 40
0
  0
LTYPE
  2
__27
 70
   64
  3
                                
 72
   65
 73
    0
 40
0
  0
LTYPE
  2
__28
 70
   64
  3
                                
 72
   65
 73
    0
 40
0
  0
LTYPE
  2
__29
 70
   64
  3
                                
 72
   65
 73
    0
 40
0
  0
LTYPE
  2
__30
 70
   64
  3
                                
 72
   65
 73
    0
 40
0
  0
LTYPE
  2
__31
 70
   64
  3
                                
 72
   65
 73
    0
 40
0
  0
LTYPE
  2
__32
 70
   64
  3
                                
 72
   65
 73
    0
 40
0
  0
ENDTAB
  0
TABLE
  2
STYLE
  5
3
100
AcDbSymbolTable
 70
     1
  0
STYLE
  5
10
100
AcDbSymbolTableRecord
100
AcDbTextStyleTableRecord
  2
STANDARD
 70
     0
 40
0.0
 41
1.0
 50
0.0
 71
     0
 42
0.2
  3
txt
  4
bigfont.shx
  0
STYLE
  5
26
100
AcDbSymbolTableRecord
100
AcDbTextStyleTableRecord
  2
TATEGAKI
 70
    68
 40
0.0
 41
1.0
 50
0.0
 71
     0
 42
1.0
  3
txt
  4
bigfont.shx
  0
ENDTAB
  0
TABLE
  2
LAYER
 70
    7
  0
LAYER
  2
_0-0_
 70
   64
 62
    7
  6
CONTINUOUS
  0
LAYER
  2
_1-0_
 70
   64
 62
    7
  6
CONTINUOUS
  0
LAYER
  2
_1-1_
 70
   64
 62
    7
  6
CONTINUOUS
  0
LAYER
  2
_2-0_
 70
   64
 62
    7
  6
CONTINUOUS
  0
LAYER
  2
_3-0_
 70
   64
 62
    7
  6
CONTINUOUS
  0
LAYER
  2
_3-1_
 70
   64
 62
    7
  6
CONTINUOUS
  0
LAYER
  2
ADD_LINE
 70
   64
 62
    7
  6
CONTINUOUS
  0
ENDTAB
  0
ENDSEC
  0
SECTION
  2
BLOCKS
  0
ENDSEC
  0
SECTION
  2
ENTITIES
  0
LINE
  8
_2-0_
  6
CONTINUOUS
 62
    7
 10
1026.9999568158594
 20
473.7700423310622
 11
560.99999902791501
 21
473.7700423310622
  0
LINE
  8
_1-1_
  6
CONTINUOUS
 62
    7
 10
906.49761509250948
 20
286.84714114804069
 11
907.96941985494846
 21
286.88686054185553
  0
LINE
  8
_1-1_
  6
CONTINUOUS
 62
    7
 10
907.96941985494846
 20
286.88686054185553
 11
909.43133851275934
 21
287.06170461352724
  0
LINE
  8
_1-1_
  6
CONTINUOUS
 62
    7
 10
909.43133851275934
 20
287.06170461352724
 11
910.87103530707043
 21
287.37020794489212
  0
LINE
  8
_1-1_
  6
CONTINUOUS
 62
    7
 10
910.87103530707043
 20
287.37020794489212
 11
912.27626196666108
 21
287.80972403448982
  0
LINE
  8
_1-1_
  6
CONTINUOUS
 62
    7
 10
912.27626196666108
 20
287.80972403448982
 11
913.63512017091716
 21
288.37655652904147
  0
LINE
  8
_1-1_
  6
CONTINUOUS
 62
    7
 10
913.63512017091716
 20
288.37655652904147
 11
914.93606154983104
 21
289.06589360771022
  0
LINE
  8
_1-1_
  6
CONTINUOUS
 62
    7
 10
914.93606154983104
 20
289.06589360771022
 11
916.16815014695567
 21
289.87191734166686
  0
LINE
  8
_1-1_
  6
CONTINUOUS
 62
    7
 10
916.16815014695567
 20
289.87191734166686
 11
917.32097493175377
 21
290.78778182217519
  0
LINE
  8
_1-1_
  6
CONTINUOUS
 62
    7
 10
917.32097493175377
 20
290.78778182217519
 11
918.38473728724875
 21
291.80574439207089
  0
LINE
  8
_1-1_
  6
CONTINUOUS
 62
    7
 10
918.38473728724875
 20
291.80574439207089
 11
919.35042598532891
 21
292.91716564576132
  0
LINE
  8
_1-1_
  6
CONTINUOUS
 62
    7
 10
919.35042598532891
 20
292.91716564576132
 11
920.20981718674591
 21
294.11266253261488
  0
LINE
  8
_1-1_
  6
CONTINUOUS
 62
    7
 10
920.20981718674591
 20
294.11266253261488
 11
920.95564941641896
 21
295.38208648504894
  0
LINE
  8
_1-1_
  6
CONTINUOUS
 62
    7
 10
920.95564941641896
 20
295.38208648504894
 11
921.58171105108659
 21
296.7146983938328
  0
LINE
  8
_1-1_
  6
CONTINUOUS
 62
    7
 10
921.58171105108659
 20
296.7146983938328
 11
922.08257785635101
 21
298.0992342238261
  0
LINE
  8
_1-1_
  6
CONTINUOUS
 62
    7
 10
922.08257785635101
 20
298.0992342238261
 11
922.45405042493655
 21
299.52392688589202
  0
LINE
  8
_1-1_
  6
CONTINUOUS
 62
    7
 10
922.45405042493655
 20
299.52392688589202
 11
922.69297920138672
 21
300.97674682793922
  0
LINE
  8
_1-1_
  6
CONTINUOUS
 62
    7
 10
922.69297920138672
 20
300.97674682793922
 11
943.00000047131391
 21
473.7700423310622
  0
LINE
  8
_1-1_
  6
CONTINUOUS
 62
    7
 10
943.00000047131391
 20
473.7700423310622
 11
973.00004112214185
 21
473.7700423310622
  0
LINE
  8
_1-1_
  6
CONTINUOUS
 62
    7
 10
973.00004112214185
 20
473.7700423310622
 11
973.00004112214185
 21
457.77003814815089
  0
LINE
  8
_1-1_
  6
CONTINUOUS
 62
    7
 10
973.00004112214185
 20
457.77003814815089
 11
969.80000529049903
 21
457.77003814815089
  0
LINE
  8
_1-1_
  6
CONTINUOUS
 62
    7
 10
969.80000529049903
 20
457.77003814815089
 11
969.80000529049903
 21
470.57005024324508
  0
LINE
  8
_1-1_
  6
CONTINUOUS
 62
    7
 10
969.80000529049903
 20
470.57005024324508
 11
945.0404749689875
 21
470.57005024324508
  0
LINE
  8
_1-1_
  6
CONTINUOUS
 62
    7
 10
945.0404749689875
 20
470.57005024324508
 11
924.54115584089948
 21
296.1406700399391
  0
LINE
  8
_1-1_
  6
CONTINUOUS
 62
    7
 10
924.54115584089948
 20
296.1406700399391
 11
924.3022270644492
 21
294.6878500978919
  0
LINE
  8
_1-1_
  6
CONTINUOUS
 62
    7
 10
924.3022270644492
 20
294.6878500978919
 11
923.93075449586365
 21
293.26315743582586
  0
LINE
  8
_1-1_
  6
CONTINUOUS
 62
    7
 10
923.93075449586365
 20
293.26315743582586
 11
923.42988769059934
 21
291.87864347774553
  0
LINE
  8
_1-1_
  6
CONTINUOUS
 62
    7
 10
923.42988769059934
 20
291.87864347774553
 11
922.80382605593172
 21
290.54600969704882
  0
LINE
  8
_1-1_
  6
CONTINUOUS
 62
    7
 10
922.80382605593172
 20
290.54600969704882
 11
922.05799382625855
 21
289.27658574461475
  0
LINE
  8
_1-1_
  6
CONTINUOUS
 62
    7
 10
922.05799382625855
 20
289.27658574461475
 11
921.19860262484156
 21
288.08108885776119
  0
LINE
  8
_1-1_
  6
CONTINUOUS
 62
    7
 10
921.19860262484156
 20
288.08108885776119
 11
920.23291392676151
 21
286.96966760407076
  0
LINE
  8
_1-1_
  6
CONTINUOUS
 62
    7
 10
920.23291392676151
 20
286.96966760407076
 11
919.16915157126641
 21
285.95170503417489
  0
LINE
  8
_1-1_
  6
CONTINUOUS
 62
    7
 10
919.16915157126641
 20
285.95170503417489
 11
918.01632678646843
 21
285.03584055366662
  0
LINE
  8
_1-1_
  6
CONTINUOUS
 62
    7
 10
918.01632678646843
 20
285.03584055366662
 11
916.7842381893438
 21
284.22983869162306
  0
LINE
  8
_1-1_
  6
CONTINUOUS
 62
    7
 10
916.7842381893438
 20
284.22983869162306
 11
915.48329681042992
 21
283.54047974104117
  0
LINE
  8
_1-1_
  6
CONTINUOUS
 62
    7
 10
915.48329681042992
 20
283.54047974104117
 11
914.12443860617373
 21
282.97364724648958
  0
LINE
  8
_1-1_
  6
CONTINUOUS
 62
    7
 10
914.12443860617373
 20
282.97364724648958
 11
912.71921194658307
 21
282.53413115689199
  0
LINE
  8
_1-1_
  6
CONTINUOUS
 62
    7
 10
912.71921194658307
 20
282.53413115689199
 11
911.2795151522721
 21
282.22564969743996
  0
LINE
  8
_1-1_
  6
CONTINUOUS
 62
    7
 10
911.2795151522721
 20
282.22564969743996
 11
909.81759649446099
 21
282.05080562576825
  0
LINE
  8
_1-1_
  6
CONTINUOUS
 62
    7
 10
909.81759649446099
 20
282.05080562576825
 11
908.34579173202212
 21
282.01106436004039
  0
LINE
  8
_1-1_
  6
CONTINUOUS
 62
    7
 10
908.34579173202212
 20
282.01106436004039
 11
881.00476327549995
 21
282.5318564779509
  0
LINE
  8
_1-1_
  6
CONTINUOUS
 62
    7
 10
881.00476327549995
 20
282.5318564779509
 11
880.79444296111456
 21
282.51048761905395
  0
LINE
  8
_1-1_
  6
CONTINUOUS
 62
    7
 10
880.79444296111456
 20
282.51048761905395
 11
880.5854349615031
 21
282.47802970031967
  0
LINE
  8
_1-1_
  6
CONTINUOUS
 62
    7
 10
880.5854349615031
 20
282.47802970031967
 11
880.37843917787757
 21
282.43457020940014
  0
LINE
  8
_1-1_
  6
CONTINUOUS
 62
    7
 10
880.37843917787757
 20
282.43457020940014
 11
880.17406802379935
 21
282.38024037777222
  0
LINE
  8
_1-1_
  6
CONTINUOUS
 62
    7
 10
880.17406802379935
 20
282.38024037777222
 11
879.97284642517798
 21
282.31519330882662
  0
LINE
  8
_1-1_
  6
CONTINUOUS
 62
    7
 10
879.97284642517798
 20
282.31519330882662
 11
879.77538679557415
 21
282.23958210595328
  0
LINE
  8
_1-1_
  6
CONTINUOUS
 62
    7
 10
879.77538679557415
 20
282.23958210595328
 11
879.58212657324589
 21
282.1536473601941
  0
LINE
  8
_1-1_
  6
CONTINUOUS
 62
    7
 10
879.58212657324589
 20
282.1536473601941
 11
879.39376565940597
 21
282.05762966259101
  0
LINE
  8
_1-1_
  6
CONTINUOUS
 62
    7
 10
879.39376565940597
 20
282.05762966259101
 11
879.21065400466034
 21
281.95176960418576
  0
LINE
  8
_1-1_
  6
CONTINUOUS
 62
    7
 10
879.21065400466034
 20
281.95176960418576
 11
879.03340402257027
 21
281.83639526367188
  0
LINE
  8
_1-1_
  6
CONTINUOUS
 62
    7
 10
879.03340402257027
 20
281.83639526367188
 11
878.86254063904516
 21
281.71181284782961
  0
LINE
  8
_1-1_
  6
CONTINUOUS
 62
    7
 10
878.86254063904516
 20
281.71181284782961
 11
878.69850129234283
 21
281.57837230726557
  0
LINE
  8
_1-1_
  6
CONTINUOUS
 62
    7
 10
878.69850129234283
 20
281.57837230726557
 11
878.54172342072115
 21
281.43644546449877
  0
LINE
  8
_1-1_
  6
CONTINUOUS
 62
    7
 10
878.54172342072115
 20
281.43644546449877
 11
878.39264446243817
 21
281.28644788587422
  0
LINE
  8
_1-1_
  6
CONTINUOUS
 62
    7
 10
878.39264446243817
 20
281.28644788587422
 11
878.25170185575143
 21
281.12875139391093
  0
LINE
  8
_1-1_
  6
CONTINUOUS
 62
    7
 10
878.25170185575143
 20
281.12875139391093
 11
878.11933303891919
 21
280.96385904260586
  0
LINE
  8
_1-1_
  6
CONTINUOUS
 62
    7
 10
878.11933303891919
 20
280.96385904260586
 11
874.57547073658827
 21
276.3024294790614
  0
LINE
  8
_1-1_
  6
CONTINUOUS
 62
    7
 10
874.57547073658827
 20
276.3024294790614
 11
874.42805404368517
 21
276.11984275022536
  0
LINE
  8
_1-1_
  6
CONTINUOUS
 62
    7
 10
874.42805404368517
 20
276.11984275022536
 11
874.27013883259303
 21
275.9462016337626
  0
LINE
  8
_1-1_
  6
CONTINUOUS
 62
    7
 10
874.27013883259303
 20
275.9462016337626
 11
874.10233751687304
 21
275.78214041514741
  0
LINE
  8
_1-1_
  6
CONTINUOUS
 62
    7
 10
874.10233751687304
 20
275.78214041514741
 11
873.92517502243447
 21
275.62820589220195
  0
LINE
  8
_1-1_
  6
CONTINUOUS
 62
    7
 10
873.92517502243447
 20
275.62820589220195
 11
873.7392637628385
 21
275.4849229908358
  0
LINE
  8
_1-1_
  6
CONTINUOUS
 62
    7
 10
873.7392637628385
 20
275.4849229908358
 11
873.54530363929769
 21
275.3527728931324
  0
LINE
  8
_1-1_
  6
CONTINUOUS
 62
    7
 10
873.54530363929769
 20
275.3527728931324
 11
873.34390706537306
 21
275.23223678117546
  0
LINE
  8
_1-1_
  6
CONTINUOUS
 62
    7
 10
873.34390706537306
 20
275.23223678117546
 11
873.13577394227718
 21
275.12373022131015
  0
LINE
  8
_1-1_
  6
CONTINUOUS
 62
    7
 10
873.13577394227718
 20
275.12373022131015
 11
872.92160417122261
 21
275.02760316414253
  0
LINE
  8
_1-1_
  6
CONTINUOUS
 62
    7
 10
872.92160417122261
 20
275.02760316414253
 11
872.70227262872527
 21
274.94420556027922
  0
LINE
  8
_1-1_
  6
CONTINUOUS
 62
    7
 10
872.70227262872527
 20
274.94420556027922
 11
872.47839172834585
 21
274.87382174458742
  0
LINE
  8
_1-1_
  6
CONTINUOUS
 62
    7
 10
872.47839172834585
 20
274.87382174458742
 11
872.25074885894878
 21
274.81669230810922
  0
LINE
  8
_1-1_
  6
CONTINUOUS
 62
    7
 10
872.25074885894878
 20
274.81669230810922
 11
872.02013140939823
 21
274.77299222614772
  0
LINE
  8
_1-1_
  6
CONTINUOUS
 62
    7
 10
872.02013140939823
 20
274.77299222614772
 11
871.78732676855839
 21
274.74291834591895
  0
LINE
  8
_1-1_
  6
CONTINUOUS
 62
    7
 10
871.78732676855839
 20
274.74291834591895
 11
871.55320981294483
 21
274.72653628316164
  0
LINE
  8
_1-1_
  6
CONTINUOUS
 62
    7
 10
871.55320981294483
 20
274.72653628316164
 11
871.31848044377034
 21
274.72391165361444
  0
LINE
  8
_1-1_
  6
CONTINUOUS
 62
    7
 10
871.31848044377034
 20
274.72391165361444
 11
861.0000118417629
 21
274.91152892241598
  0
LINE
  8
_1-1_
  6
CONTINUOUS
 62
    7
 10
861.0000118417629
 20
274.91152892241598
 11
861.0000118417629
 21
279.71232631491876
  0
LINE
  8
_1-1_
  6
CONTINUOUS
 62
    7
 10
861.0000118417629
 20
279.71232631491876
 11
868.97109926437315
 21
279.56738114817256
  0
LINE
  8
_1-1_
  6
CONTINUOUS
 62
    7
 10
868.97109926437315
 20
279.56738114817256
 11
869.20582863354764
 21
279.57000577771993
  0
LINE
  8
_1-1_
  6
CONTINUOUS
 62
    7
 10
869.20582863354764
 20
279.57000577771993
 11
869.4399455891612
 21
279.58638784047719
  0
LINE
  8
_1-1_
  6
CONTINUOUS
 62
    7
 10
869.4399455891612
 20
279.58638784047719
 11
869.67266274234953
 21
279.61648359261886
  0
LINE
  8
_1-1_
  6
CONTINUOUS
 62
    7
 10
869.67266274234953
 20
279.61648359261886
 11
869.90328019190019
 21
279.66016180266735
  0
LINE
  8
_1-1_
  6
CONTINUOUS
 62
    7
 10
869.90328019190019
 20
279.66016180266735
 11
870.13092306129715
 21
279.71729123914571
  0
LINE
  8
_1-1_
  6
CONTINUOUS
 62
    7
 10
870.13092306129715
 20
279.71729123914571
 11
870.35480396167645
 21
279.78767505483734
  0
LINE
  8
_1-1_
  6
CONTINUOUS
 62
    7
 10
870.35480396167645
 20
279.78767505483734
 11
870.57422299182554
 21
279.87107265870077
  0
LINE
  8
_1-1_
  6
CONTINUOUS
 62
    7
 10
870.57422299182554
 20
279.87107265870077
 11
870.78839276288011
 21
279.96719971586845
  0
LINE
  8
_1-1_
  6
CONTINUOUS
 62
    7
 10
870.78839276288011
 20
279.96719971586845
 11
870.99643839832436
 21
280.07570627573375
  0
LINE
  8
_1-1_
  6
CONTINUOUS
 62
    7
 10
870.99643839832436
 20
280.07570627573375
 11
871.19783497224898
 21
280.19624238769052
  0
LINE
  8
_1-1_
  6
CONTINUOUS
 62
    7
 10
871.19783497224898
 20
280.19624238769052
 11
871.3917950957898
 21
280.32839248539403
  0
LINE
  8
_1-1_
  6
CONTINUOUS
 62
    7
 10
871.3917950957898
 20
280.32839248539403
 11
871.57770635538566
 21
280.47167538676024
  0
LINE
  8
_1-1_
  6
CONTINUOUS
 62
    7
 10
871.57770635538566
 20
280.47167538676024
 11
871.75486884982422
 21
280.62560990970564
  0
LINE
  8
_1-1_
  6
CONTINUOUS
 62
    7
 10
871.75486884982422
 20
280.62560990970564
 11
871.92275765319573
 21
280.78969300023374
  0
LINE
  8
_1-1_
  6
CONTINUOUS
 62
    7
 10
871.92275765319573
 20
280.78969300023374
 11
872.08067286428786
 21
280.96331224478348
  0
LINE
  8
_1-1_
  6
CONTINUOUS
 62
    7
 10
872.08067286428786
 20
280.96331224478348
 11
872.22808955719097
 21
281.14589897361952
  0
LINE
  8
_1-1_
  6
CONTINUOUS
 62
    7
 10
872.22808955719097
 20
281.14589897361952
 11
875.77186437187038
 21
285.80732853716398
  0
LINE
  8
_1-1_
  6
CONTINUOUS
 62
    7
 10
875.77186437187038
 20
285.80732853716398
 11
875.90519555287005
 21
285.97333635602683
  0
LINE
  8
_1-1_
  6
CONTINUOUS
 62
    7
 10
875.90519555287005
 20
285.97333635602683
 11
876.04718801137551
 21
286.13201708407018
  0
LINE
  8
_1-1_
  6
CONTINUOUS
 62
    7
 10
876.04718801137551
 20
286.13201708407018
 11
876.19740430912907
 21
286.2829332830363
  0
LINE
  8
_1-1_
  6
CONTINUOUS
 62
    7
 10
876.19740430912907
 20
286.2829332830363
 11
876.35549449552423
 21
286.42562564275437
  0
LINE
  8
_1-1_
  6
CONTINUOUS
 62
    7
 10
876.35549449552423
 20
286.42562564275437
 11
876.52084615700028
 21
286.55972234070532
  0
LINE
  8
_1-1_
  6
CONTINUOUS
 62
    7
 10
876.52084615700028
 20
286.55972234070532
 11
876.69319683060223
 21
286.68480781054399
  0
LINE
  8
_1-1_
  6
CONTINUOUS
 62
    7
 10
876.69319683060223
 20
286.68480781054399
 11
876.87193410276905
 21
286.80055397357717
  0
LINE
  8
_1-1_
  6
CONTINUOUS
 62
    7
 10
876.87193410276905
 20
286.80055397357717
 11
877.05653304759142
 21
286.90663275111137
  0
LINE
  8
_1-1_
  6
CONTINUOUS
 62
    7
 10
877.05653304759142
 20
286.90663275111137
 11
877.24655622681121
 21
287.00273793636597
  0
LINE
  8
_1-1_
  6
CONTINUOUS
 62
    7
 10
877.24655622681121
 20
287.00273793636597
 11
877.44139122686784
 21
287.08858519447347
  0
LINE
  8
_1-1_
  6
CONTINUOUS
 62
    7
 10
877.44139122686784
 20
287.08858519447347
 11
877.64051312185165
 21
287.16395580630501
  0
LINE
  8
_1-1_
  6
CONTINUOUS
 62
    7
 10
877.64051312185165
 20
287.16395580630501
 11
877.84339698585302
 21
287.22860918081864
  0
LINE
  8
_1-1_
  6
CONTINUOUS
 62
    7
 10
877.84339698585302
 20
287.22860918081864
 11
878.04943040531111
 21
287.28237034271115
  0
LINE
  8
_1-1_
  6
CONTINUOUS
 62
    7
 10
878.04943040531111
 20
287.28237034271115
 11
878.25800096666489
 21
287.32510806050539
  0
LINE
  8
_1-1_
  6
CONTINUOUS
 62
    7
 10
878.25800096666489
 20
287.32510806050539
 11
878.46858374400483
 21
287.35666923081084
  0
LINE
  8
_1-1_
  6
CONTINUOUS
 62
    7
 10
878.46858374400483
 20
287.35666923081084
 11
878.68056632377011
 21
287.37698823788918
  0
LINE
  8
_1-1_
  6
CONTINUOUS
 62
    7
 10
878.68056632377011
 20
287.37698823788918
 11
906.49761509250948
 21
286.84714114804069
  0
LINE
  8
_1-1_
  6
CONTINUOUS
 62
    7
 10
908.34579173202212
 20
282.01106436004039
 11
881.00476327549995
 21
282.5318564779509
  0
LINE
  8
_1-1_
  6
CONTINUOUS
 62
    7
 10
871.31848044377034
 20
274.72391165361444
 11
850.51855374487207
 21
275.10209889945827
  0
LINE
  8
_1-1_
  6
CONTINUOUS
 62
    7
 10
868.97109926437315
 20
279.56738114817256
 11
852.97074513085568
 21
279.85829946157094
  0
LINE
  8
_1-1_
  6
CONTINUOUS
 62
    7
 10
846.17225470229926
 20
286.41998268922777
 11
849.82775124803925
 21
281.47870200020918
  0
LINE
  8
_1-1_
  6
CONTINUOUS
 62
    7
 10
843.72015080396727
 20
281.66376025520236
 11
847.37564734970738
 21
276.72250143809663
  0
LINE
  8
_1-1_
  6
CONTINUOUS
 62
    7
 10
875.77186437187038
 20
285.80732853716398
 11
872.22808955719097
 21
281.14589897361952
  0
LINE
  8
_1-1_
  6
CONTINUOUS
 62
    7
 10
878.11933303891919
 20
280.96385904260586
 11
874.57547073658827
 21
276.3024294790614
  0
LINE
  8
_1-0_
  6
CONTINUOUS
 62
    7
 10
532.66309863351944
 20
289.57052238199242
 11
531.53424546525287
 21
289.63316354051983
  0
LINE
  8
_1-0_
  6
CONTINUOUS
 62
    7
 10
531.53424546525287
 20
289.63316354051983
 11
530.41265377206685
 21
289.77535284624139
  0
LINE
  8
_1-0_
  6
CONTINUOUS
 62
    7
 10
530.41265377206685
 20
289.77535284624139
 11
529.30387901983659
 21
289.99641226985744
  0
LINE
  8
_1-0_
  6
CONTINUOUS
 62
    7
 10
529.30387901983659
 20
289.99641226985744
 11
528.21347667443706
 21
290.29520447189736
  0
LINE
  8
_1-0_
  6
CONTINUOUS
 62
    7
 10
528.21347667443706
 20
290.29520447189736
 11
527.14691471409139
 21
290.6702640341976
  0
LINE
  8
_1-0_
  6
CONTINUOUS
 62
    7
 10
527.14691471409139
 20
290.6702640341976
 11
526.10952988554595
 21
291.11968810033613
  0
LINE
  8
_1-0_
  6
CONTINUOUS
 62
    7
 10
526.10952988554595
 20
291.11968810033613
 11
525.10644021641781
 21
291.64126760711071
  0
LINE
  8
_1-0_
  6
CONTINUOUS
 62
    7
 10
525.10644021641781
 20
291.64126760711071
 11
524.14267624667241
 21
292.23235605306144
  0
LINE
  8
_1-0_
  6
CONTINUOUS
 62
    7
 10
524.14267624667241
 20
292.23235605306144
 11
523.22309354097229
 21
292.89004447377323
  0
LINE
  8
_1-0_
  6
CONTINUOUS
 62
    7
 10
523.22309354097229
 20
292.89004447377323
 11
522.35224145719894
 21
293.61103021039924
  0
LINE
  8
_1-0_
  6
CONTINUOUS
 62
    7
 10
522.35224145719894
 20
293.61103021039924
 11
521.53445063410572
 21
294.39170439731197
  0
LINE
  8
_1-0_
  6
CONTINUOUS
 62
    7
 10
521.53445063410572
 20
294.39170439731197
 11
520.77383299131634
 21
295.22819570592929
  0
LINE
  8
_1-0_
  6
CONTINUOUS
 62
    7
 10
520.77383299131634
 20
295.22819570592929
 11
520.0742379855003
 21
296.11628285706274
  0
LINE
  8
_1-0_
  6
CONTINUOUS
 62
    7
 10
520.0742379855003
 20
296.11628285706274
 11
519.4390338912433
 21
297.05159146813344
  0
LINE
  8
_1-0_
  6
CONTINUOUS
 62
    7
 10
519.4390338912433
 20
297.05159146813344
 11
518.87150149547915
 21
298.02939720595657
  0
LINE
  8
_1-0_
  6
CONTINUOUS
 62
    7
 10
518.87150149547915
 20
298.02939720595657
 11
518.37444040305832
 21
299.04484450586978
  0
LINE
  8
_1-0_
  6
CONTINUOUS
 62
    7
 10
518.37444040305832
 20
299.04484450586978
 11
441.80026094885864
 21
470.57005024324508
  0
LINE
  8
_1-0_
  6
CONTINUOUS
 62
    7
 10
441.80026094885864
 20
470.57005024324508
 11
416.20001803954125
 21
470.57005024324508
  0
LINE
  8
_1-0_
  6
CONTINUOUS
 62
    7
 10
416.20001803954125
 20
470.57005024324508
 11
416.20001803954125
 21
457.77003814815089
  0
LINE
  8
_1-0_
  6
CONTINUOUS
 62
    7
 10
416.20001803954125
 20
457.77003814815089
 11
412.99998220789848
 21
457.77003814815089
  0
LINE
  8
_1-0_
  6
CONTINUOUS
 62
    7
 10
412.99998220789848
 20
457.77003814815089
 11
412.99998220789848
 21
473.7700423310622
  0
LINE
  8
_1-0_
  6
CONTINUOUS
 62
    7
 10
412.99998220789848
 20
473.7700423310622
 11
442.99997911490067
 21
473.7700423310622
  0
LINE
  8
_1-0_
  6
CONTINUOUS
 62
    7
 10
442.99997911490067
 20
473.7700423310622
 11
518.86144041554815
 21
303.84128938770658
  0
LINE
  8
_1-0_
  6
CONTINUOUS
 62
    7
 10
518.86144041554815
 20
303.84128938770658
 11
519.35854525179479
 21
302.82584208779355
  0
LINE
  8
_1-0_
  6
CONTINUOUS
 62
    7
 10
519.35854525179479
 20
302.82584208779355
 11
519.92607764755894
 21
301.84803634997036
  0
LINE
  8
_1-0_
  6
CONTINUOUS
 62
    7
 10
519.92607764755894
 20
301.84803634997036
 11
520.56123799799025
 21
300.91272773889955
  0
LINE
  8
_1-0_
  6
CONTINUOUS
 62
    7
 10
520.56123799799025
 20
300.91272773889955
 11
521.26087674763198
 21
300.0246405877661
  0
LINE
  8
_1-0_
  6
CONTINUOUS
 62
    7
 10
521.26087674763198
 20
300.0246405877661
 11
522.02145064659567
 21
299.18814927914894
  0
LINE
  8
_1-0_
  6
CONTINUOUS
 62
    7
 10
522.02145064659567
 20
299.18814927914894
 11
522.83924146968889
 21
298.40747509223604
  0
LINE
  8
_1-0_
  6
CONTINUOUS
 62
    7
 10
522.83924146968889
 20
298.40747509223604
 11
523.710093553462
 21
297.68648935561021
  0
LINE
  8
_1-0_
  6
CONTINUOUS
 62
    7
 10
523.710093553462
 20
297.68648935561021
 11
524.62967625916235
 21
297.02882280681126
  0
LINE
  8
_1-0_
  6
CONTINUOUS
 62
    7
 10
524.62967625916235
 20
297.02882280681126
 11
525.59344022890764
 21
296.43771248894768
  0
LINE
  8
_1-0_
  6
CONTINUOUS
 62
    7
 10
525.59344022890764
 20
296.43771248894768
 11
526.5965298980359
 21
295.91613298217294
  0
LINE
  8
_1-0_
  6
CONTINUOUS
 62
    7
 10
526.5965298980359
 20
295.91613298217294
 11
527.63391472658122
 21
295.46670891603441
  0
LINE
  8
_1-0_
  6
CONTINUOUS
 62
    7
 10
527.63391472658122
 20
295.46670891603441
 11
528.70047668692678
 21
295.09164935373434
  0
LINE
  8
_1-0_
  6
CONTINUOUS
 62
    7
 10
528.70047668692678
 20
295.09164935373434
 11
529.79087903232653
 21
294.79285715169425
  0
LINE
  8
_1-0_
  6
CONTINUOUS
 62
    7
 10
529.79087903232653
 20
294.79285715169425
 11
530.89961004073086
 21
294.5717977280782
  0
LINE
  8
_1-0_
  6
CONTINUOUS
 62
    7
 10
530.89961004073086
 20
294.5717977280782
 11
532.02124547774258
 21
294.42960842235664
  0
LINE
  8
_1-0_
  6
CONTINUOUS
 62
    7
 10
532.02124547774258
 20
294.42960842235664
 11
533.15005490218346
 21
294.36694539191637
  0
LINE
  8
_1-0_
  6
CONTINUOUS
 62
    7
 10
533.15005490218346
 20
294.36694539191637
 11
843.04465864616009
 21
288.13714657050753
  0
LINE
  8
_1-0_
  6
CONTINUOUS
 62
    7
 10
843.04465864616009
 20
288.13714657050753
 11
843.27230151555705
 21
288.12564194432554
  0
LINE
  8
_1-0_
  6
CONTINUOUS
 62
    7
 10
843.27230151555705
 20
288.12564194432554
 11
843.49889453313517
 21
288.10118914571046
  0
LINE
  8
_1-0_
  6
CONTINUOUS
 62
    7
 10
843.49889453313517
 20
288.10118914571046
 11
843.72373779768179
 21
288.06387566231393
  0
LINE
  8
_1-0_
  6
CONTINUOUS
 62
    7
 10
843.72373779768179
 20
288.06387566231393
 11
843.94613140798447
 21
288.0137889817874
  0
LINE
  8
_1-0_
  6
CONTINUOUS
 62
    7
 10
843.94613140798447
 20
288.0137889817874
 11
844.16528797517867
 21
287.9511478232601
  0
LINE
  8
_1-0_
  6
CONTINUOUS
 62
    7
 10
844.16528797517867
 20
287.9511478232601
 11
844.38050759805208
 21
287.87610529012198
  0
LINE
  8
_1-0_
  6
CONTINUOUS
 62
    7
 10
844.38050759805208
 20
287.87610529012198
 11
844.59109037539201
 21
287.78892384532799
  0
LINE
  8
_1-0_
  6
CONTINUOUS
 62
    7
 10
844.59109037539201
 20
287.78892384532799
 11
844.79633640598604
 21
287.68990969565834
  0
LINE
  8
_1-0_
  6
CONTINUOUS
 62
    7
 10
844.79633640598604
 20
287.68990969565834
 11
844.9957207639244
 21
287.57934717598107
  0
LINE
  8
_1-0_
  6
CONTINUOUS
 62
    7
 10
844.9957207639244
 20
287.57934717598107
 11
845.18836857269162
 21
287.45760810881507
  0
LINE
  8
_1-0_
  6
CONTINUOUS
 62
    7
 10
845.18836857269162
 20
287.45760810881507
 11
845.37384239402968
 21
287.32508618859242
  0
LINE
  8
_1-0_
  6
CONTINUOUS
 62
    7
 10
845.37384239402968
 20
287.32508618859242
 11
845.55144232672603
 21
287.18224072548412
  0
LINE
  8
_1-0_
  6
CONTINUOUS
 62
    7
 10
845.55144232672603
 20
287.18224072548412
 11
845.72064344487126
 21
287.02948728583493
  0
LINE
  8
_1-0_
  6
CONTINUOUS
 62
    7
 10
845.72064344487126
 20
287.02948728583493
 11
845.88083333490431
 21
286.86735079555433
  0
LINE
  8
_1-0_
  6
CONTINUOUS
 62
    7
 10
845.88083333490431
 20
286.86735079555433
 11
846.03148707091577
 21
286.69635618055196
  0
LINE
  8
_1-0_
  6
CONTINUOUS
 62
    7
 10
846.03148707091577
 20
286.69635618055196
 11
846.17225470229926
 21
286.51707211056276
  0
LINE
  8
_1-0_
  6
CONTINUOUS
 62
    7
 10
846.17225470229926
 20
286.51707211056276
 11
849.82775124803925
 21
281.57579142154418
  0
LINE
  8
_1-0_
  6
CONTINUOUS
 62
    7
 10
849.82775124803925
 20
281.57579142154418
 11
849.96904380533226
 21
281.3957637065165
  0
LINE
  8
_1-0_
  6
CONTINUOUS
 62
    7
 10
849.96904380533226
 20
281.3957637065165
 11
850.12048493020768
 21
281.22409106221437
  0
LINE
  8
_1-0_
  6
CONTINUOUS
 62
    7
 10
850.12048493020768
 20
281.22409106221437
 11
850.28146220910503
 21
281.06138590219859
  0
LINE
  8
_1-0_
  6
CONTINUOUS
 62
    7
 10
850.28146220910503
 20
281.06138590219859
 11
850.45145071611432
 21
280.9081294085529
  0
LINE
  8
_1-0_
  6
CONTINUOUS
 62
    7
 10
850.45145071611432
 20
280.9081294085529
 11
850.630013012978
 21
280.76486837909954
  0
LINE
  8
_1-0_
  6
CONTINUOUS
 62
    7
 10
850.630013012978
 20
280.76486837909954
 11
850.81636171083187
 21
280.63204025209643
  0
LINE
  8
_1-0_
  6
CONTINUOUS
 62
    7
 10
850.81636171083187
 20
280.63204025209643
 11
851.01005937141792
 21
280.51008246580153
  0
LINE
  8
_1-0_
  6
CONTINUOUS
 62
    7
 10
851.01005937141792
 20
280.51008246580153
 11
851.21049358117534
 21
280.39943245847257
  0
LINE
  8
_1-0_
  6
CONTINUOUS
 62
    7
 10
851.21049358117534
 20
280.39943245847257
 11
851.41678946358809
 21
280.30039643689008
  0
LINE
  8
_1-0_
  6
CONTINUOUS
 62
    7
 10
851.41678946358809
 20
280.30039643689008
 11
851.62850958039849
 21
280.21334622357347
  0
LINE
  8
_1-0_
  6
CONTINUOUS
 62
    7
 10
851.62850958039849
 20
280.21334622357347
 11
851.84477905509084
 21
280.1385442814771
  0
LINE
  8
_1-0_
  6
CONTINUOUS
 62
    7
 10
851.84477905509084
 20
280.1385442814771
 11
852.06507296175562
 21
280.07623120164311
  0
LINE
  8
_1-0_
  6
CONTINUOUS
 62
    7
 10
852.06507296175562
 20
280.07623120164311
 11
852.28851642387713
 21
280.02660383128756
  0
LINE
  8
_1-0_
  6
CONTINUOUS
 62
    7
 10
852.28851642387713
 20
280.02660383128756
 11
852.51440954024258
 21
279.98985901762626
  0
LINE
  8
_1-0_
  6
CONTINUOUS
 62
    7
 10
852.51440954024258
 20
279.98985901762626
 11
852.74205240963965
 21
279.96610612022369
  0
LINE
  8
_1-0_
  6
CONTINUOUS
 62
    7
 10
852.74205240963965
 20
279.96610612022369
 11
852.97074513085568
 21
279.95538888290582
  0
LINE
  8
_1-0_
  6
CONTINUOUS
 62
    7
 10
852.97074513085568
 20
279.95538888290582
 11
868.97109926437315
 21
279.66447056950756
  0
LINE
  8
_1-0_
  6
CONTINUOUS
 62
    7
 10
868.97109926437315
 20
279.66447056950756
 11
869.20582863354764
 21
279.66709519905464
  0
LINE
  8
_1-0_
  6
CONTINUOUS
 62
    7
 10
869.20582863354764
 20
279.66709519905464
 11
869.4399455891612
 21
279.68347726181207
  0
LINE
  8
_1-0_
  6
CONTINUOUS
 62
    7
 10
869.4399455891612
 20
279.68347726181207
 11
869.67266274234953
 21
279.71355114204073
  0
LINE
  8
_1-0_
  6
CONTINUOUS
 62
    7
 10
869.67266274234953
 20
279.71355114204073
 11
869.90328019190019
 21
279.75725122400235
  0
LINE
  8
_1-0_
  6
CONTINUOUS
 62
    7
 10
869.90328019190019
 20
279.75725122400235
 11
870.13092306129715
 21
279.81438066048042
  0
LINE
  8
_1-0_
  6
CONTINUOUS
 62
    7
 10
870.13092306129715
 20
279.81438066048042
 11
870.35480396167645
 21
279.88476447617217
  0
LINE
  8
_1-0_
  6
CONTINUOUS
 62
    7
 10
870.35480396167645
 20
279.88476447617217
 11
870.57422299182554
 21
279.96816208003565
  0
LINE
  8
_1-0_
  6
CONTINUOUS
 62
    7
 10
870.57422299182554
 20
279.96816208003565
 11
870.78839276288011
 21
280.06428913720328
  0
LINE
  8
_1-0_
  6
CONTINUOUS
 62
    7
 10
870.78839276288011
 20
280.06428913720328
 11
870.99643839832436
 21
280.17279569706858
  0
LINE
  8
_1-0_
  6
CONTINUOUS
 62
    7
 10
870.99643839832436
 20
280.17279569706858
 11
871.19783497224898
 21
280.2933318090254
  0
LINE
  8
_1-0_
  6
CONTINUOUS
 62
    7
 10
871.19783497224898
 20
280.2933318090254
 11
871.3917950957898
 21
280.4254600348159
  0
LINE
  8
_1-0_
  6
CONTINUOUS
 62
    7
 10
871.3917950957898
 20
280.4254600348159
 11
871.57770635538566
 21
280.56876480809507
  0
LINE
  8
_1-0_
  6
CONTINUOUS
 62
    7
 10
871.57770635538566
 20
280.56876480809507
 11
871.75486884982422
 21
280.72269933104053
  0
LINE
  8
_1-0_
  6
CONTINUOUS
 62
    7
 10
871.75486884982422
 20
280.72269933104053
 11
871.92275765319573
 21
280.88676054965572
  0
LINE
  8
_1-0_
  6
CONTINUOUS
 62
    7
 10
871.92275765319573
 20
280.88676054965572
 11
872.08067286428786
 21
281.06040166611831
  0
LINE
  8
_1-0_
  6
CONTINUOUS
 62
    7
 10
872.08067286428786
 20
281.06040166611831
 11
872.22808955719097
 21
281.24298839495452
  0
LINE
  8
_1-0_
  6
CONTINUOUS
 62
    7
 10
872.22808955719097
 20
281.24298839495452
 11
875.77186437187038
 21
285.90441795849898
  0
LINE
  8
_1-0_
  6
CONTINUOUS
 62
    7
 10
875.77186437187038
 20
285.90441795849898
 11
875.89898392960833
 21
286.06305494271652
  0
LINE
  8
_1-0_
  6
CONTINUOUS
 62
    7
 10
875.89898392960833
 20
286.06305494271652
 11
876.03397737598789
 21
286.21504286541438
  0
LINE
  8
_1-0_
  6
CONTINUOUS
 62
    7
 10
876.03397737598789
 20
286.21504286541438
 11
876.17649476040287
 21
286.35996616024772
  0
LINE
  8
_1-0_
  6
CONTINUOUS
 62
    7
 10
876.17649476040287
 20
286.35996616024772
 11
876.32627361989853
 21
286.49747487661
  0
LINE
  8
_1-0_
  6
CONTINUOUS
 62
    7
 10
876.32627361989853
 20
286.49747487661
 11
876.48278902856532
 21
286.62717532006923
  0
LINE
  8
_1-0_
  6
CONTINUOUS
 62
    7
 10
876.48278902856532
 20
286.62717532006923
 11
876.6456910357972
 21
286.74878315575796
  0
LINE
  8
_1-0_
  6
CONTINUOUS
 62
    7
 10
876.6456910357972
 20
286.74878315575796
 11
876.81454220333603
 21
286.86194843306964
  0
LINE
  8
_1-0_
  6
CONTINUOUS
 62
    7
 10
876.81454220333603
 20
286.86194843306964
 11
876.98890509292426
 21
286.96638681713682
  0
LINE
  8
_1-0_
  6
CONTINUOUS
 62
    7
 10
876.98890509292426
 20
286.96638681713682
 11
877.16842975395525
 21
287.06183584500468
  0
LINE
  8
_1-0_
  6
CONTINUOUS
 62
    7
 10
877.16842975395525
 20
287.06183584500468
 11
877.35250377286798
 21
287.14803305371845
  0
LINE
  8
_1-0_
  6
CONTINUOUS
 62
    7
 10
877.35250377286798
 20
287.14803305371845
 11
877.54077719905649
 21
287.22478159606226
  0
LINE
  8
_1-0_
  6
CONTINUOUS
 62
    7
 10
877.54077719905649
 20
287.22478159606226
 11
877.73263761895964
 21
287.29186275290704
  0
LINE
  8
_1-0_
  6
CONTINUOUS
 62
    7
 10
877.73263761895964
 20
287.29186275290704
 11
877.9276475943193
 21
287.34910154894976
  0
LINE
  8
_1-0_
  6
CONTINUOUS
 62
    7
 10
877.9276475943193
 20
287.34910154894976
 11
878.12536968687778
 21
287.39636675271288
  0
LINE
  8
_1-0_
  6
CONTINUOUS
 62
    7
 10
878.12536968687778
 20
287.39636675271288
 11
878.32527897072566
 21
287.43350526080633
  0
LINE
  8
_1-0_
  6
CONTINUOUS
 62
    7
 10
878.32527897072566
 20
287.43350526080633
 11
878.52676303230191
 21
287.46047332940407
  0
LINE
  8
_1-0_
  6
CONTINUOUS
 62
    7
 10
878.52676303230191
 20
287.46047332940407
 11
908.32943154117766
 21
286.86441995922667
  0
LINE
  8
_1-0_
  6
CONTINUOUS
 62
    7
 10
908.32943154117766
 20
286.86441995922667
 11
909.81269718597287
 21
286.90357068330627
  0
LINE
  8
_1-0_
  6
CONTINUOUS
 62
    7
 10
909.81269718597287
 20
286.90357068330627
 11
911.2860767261401
 21
287.0799676607935
  0
LINE
  8
_1-0_
  6
CONTINUOUS
 62
    7
 10
911.2860767261401
 20
287.0799676607935
 11
912.73670947689811
 21
287.39207985778563
  0
LINE
  8
_1-0_
  6
CONTINUOUS
 62
    7
 10
912.73670947689811
 20
287.39207985778563
 11
914.15217219172291
 21
287.83726077282296
  0
LINE
  8
_1-0_
  6
CONTINUOUS
 62
    7
 10
914.15217219172291
 20
287.83726077282296
 11
915.52030408704593
 21
288.41163907732277
  0
LINE
  8
_1-0_
  6
CONTINUOUS
 62
    7
 10
915.52030408704593
 20
288.41163907732277
 11
916.82938181755617
 21
289.11029359088445
  0
LINE
  8
_1-0_
  6
CONTINUOUS
 62
    7
 10
916.82938181755617
 20
289.11029359088445
 11
918.06803198854891
 21
289.92720953746186
  0
LINE
  8
_1-0_
  6
CONTINUOUS
 62
    7
 10
918.06803198854891
 20
289.92720953746186
 11
919.22575608183502
 21
290.85536603301648
  0
LINE
  8
_1-0_
  6
CONTINUOUS
 62
    7
 10
919.22575608183502
 20
290.85536603301648
 11
920.29249301748382
 21
291.8868017012548
  0
LINE
  8
_1-0_
  6
CONTINUOUS
 62
    7
 10
920.29249301748382
 20
291.8868017012548
 11
921.25905659207956
 21
293.01259280171632
  0
LINE
  8
_1-0_
  6
CONTINUOUS
 62
    7
 10
921.25905659207956
 20
293.01259280171632
 11
922.11722296637447
 21
294.22311569272779
  0
LINE
  8
_1-0_
  6
CONTINUOUS
 62
    7
 10
922.11722296637447
 20
294.22311569272779
 11
922.85955568998475
 21
295.50791559992604
  0
LINE
  8
_1-0_
  6
CONTINUOUS
 62
    7
 10
922.85955568998475
 20
295.50791559992604
 11
923.47966816434518
 21
296.85594720729995
  0
LINE
  8
_1-0_
  6
CONTINUOUS
 62
    7
 10
923.47966816434518
 20
296.85594720729995
 11
923.97213615505848
 21
298.25564027292842
  0
LINE
  8
_1-0_
  6
CONTINUOUS
 62
    7
 10
923.97213615505848
 20
298.25564027292842
 11
924.33293523015197
 21
299.69494337280736
  0
LINE
  8
_1-0_
  6
CONTINUOUS
 62
    7
 10
924.33293523015197
 20
299.69494337280736
 11
924.55882834651743
 21
301.16147700423892
  0
LINE
  8
_1-0_
  6
CONTINUOUS
 62
    7
 10
924.55882834651743
 20
301.16147700423892
 11
943.00000047131391
 21
473.7700423310622
  0
LINE
  8
_1-0_
  6
CONTINUOUS
 62
    7
 10
943.00000047131391
 20
473.7700423310622
 11
973.00004112214185
 21
473.7700423310622
  0
LINE
  8
_1-0_
  6
CONTINUOUS
 62
    7
 10
973.00004112214185
 20
473.7700423310622
 11
973.00004112214185
 21
457.77003814815089
  0
LINE
  8
_1-0_
  6
CONTINUOUS
 62
    7
 10
973.00004112214185
 20
457.77003814815089
 11
969.80000529049903
 21
457.77003814815089
  0
LINE
  8
_1-0_
  6
CONTINUOUS
 62
    7
 10
969.80000529049903
 20
457.77003814815089
 11
969.80000529049903
 21
470.57005024324508
  0
LINE
  8
_1-0_
  6
CONTINUOUS
 62
    7
 10
969.80000529049903
 20
470.57005024324508
 11
945.0717955482512
 21
470.57005024324508
  0
LINE
  8
_1-0_
  6
CONTINUOUS
 62
    7
 10
945.0717955482512
 20
470.57005024324508
 11
926.45547314500254
 21
296.32257873947549
  0
LINE
  8
_1-0_
  6
CONTINUOUS
 62
    7
 10
926.45547314500254
 20
296.32257873947549
 11
926.22958002863697
 21
294.85604510804393
  0
LINE
  8
_1-0_
  6
CONTINUOUS
 62
    7
 10
926.22958002863697
 20
294.85604510804393
 11
925.86886844119499
 21
293.41674200816499
  0
LINE
  8
_1-0_
  6
CONTINUOUS
 62
    7
 10
925.86886844119499
 20
293.41674200816499
 11
925.3763129628303
 21
292.01704894253652
  0
LINE
  8
_1-0_
  6
CONTINUOUS
 62
    7
 10
925.3763129628303
 20
292.01704894253652
 11
924.75620048846974
 21
290.66901733516261
  0
LINE
  8
_1-0_
  6
CONTINUOUS
 62
    7
 10
924.75620048846974
 20
290.66901733516261
 11
924.01386776485947
 21
289.38421742796436
  0
LINE
  8
_1-0_
  6
CONTINUOUS
 62
    7
 10
924.01386776485947
 20
289.38421742796436
 11
923.15578887821619
 21
288.17369453695289
  0
LINE
  8
_1-0_
  6
CONTINUOUS
 62
    7
 10
923.15578887821619
 20
288.17369453695289
 11
922.18913781596882
 21
287.04790343649137
  0
LINE
  8
_1-0_
  6
CONTINUOUS
 62
    7
 10
922.18913781596882
 20
287.04790343649137
 11
921.12240088032013
 21
286.0164896401659
  0
LINE
  8
_1-0_
  6
CONTINUOUS
 62
    7
 10
921.12240088032013
 20
286.0164896401659
 11
919.96476427468554
 21
285.08831127269843
  0
LINE
  8
_1-0_
  6
CONTINUOUS
 62
    7
 10
919.96476427468554
 20
285.08831127269843
 11
918.72602661604117
 21
284.27139532612102
  0
LINE
  8
_1-0_
  6
CONTINUOUS
 62
    7
 10
918.72602661604117
 20
284.27139532612102
 11
917.41694888553093
 21
283.57274081255935
  0
LINE
  8
_1-0_
  6
CONTINUOUS
 62
    7
 10
917.41694888553093
 20
283.57274081255935
 11
916.04881699020791
 21
282.99836250805953
  0
LINE
  8
_1-0_
  6
CONTINUOUS
 62
    7
 10
916.04881699020791
 20
282.99836250805953
 11
914.633354275383
 21
282.55320346493522
  0
LINE
  8
_1-0_
  6
CONTINUOUS
 62
    7
 10
914.633354275383
 20
282.55320346493522
 11
913.18272152462509
 21
282.24106939603007
  0
LINE
  8
_1-0_
  6
CONTINUOUS
 62
    7
 10
913.18272152462509
 20
282.24106939603007
 11
911.70942947210949
 21
282.06467241854284
  0
LINE
  8
_1-0_
  6
CONTINUOUS
 62
    7
 10
911.70942947210949
 20
282.06467241854284
 11
910.22607633966277
 21
282.02552169446324
  0
LINE
  8
_1-0_
  6
CONTINUOUS
 62
    7
 10
910.22607633966277
 20
282.02552169446324
 11
880.8406364411461
 21
282.61321999391527
  0
LINE
  8
_1-0_
  6
CONTINUOUS
 62
    7
 10
880.8406364411461
 20
282.61321999391527
 11
880.64142705851066
 21
282.58491773863102
  0
LINE
  8
_1-0_
  6
CONTINUOUS
 62
    7
 10
880.64142705851066
 20
282.58491773863102
 11
880.44396742890694
 21
282.54664189106705
  0
LINE
  8
_1-0_
  6
CONTINUOUS
 62
    7
 10
880.44396742890694
 20
282.54664189106705
 11
880.24860750294101
 21
282.49847993887528
  0
LINE
  8
_1-0_
  6
CONTINUOUS
 62
    7
 10
880.24860750294101
 20
282.49847993887528
 11
880.05595969417368
 21
282.4405631135329
  0
LINE
  8
_1-0_
  6
CONTINUOUS
 62
    7
 10
880.05595969417368
 20
282.4405631135329
 11
879.86646144086319
 21
282.37304451843016
  0
LINE
  8
_1-0_
  6
CONTINUOUS
 62
    7
 10
879.86646144086319
 20
282.37304451843016
 11
879.68063766891885
 21
282.29605538504461
  0
LINE
  8
_1-0_
  6
CONTINUOUS
 62
    7
 10
879.68063766891885
 20
282.29605538504461
 11
879.49883832894693
 21
282.20983630441793
  0
LINE
  8
_1-0_
  6
CONTINUOUS
 62
    7
 10
879.49883832894693
 20
282.20983630441793
 11
879.32167583450848
 21
282.11458412376601
  0
LINE
  8
_1-0_
  6
CONTINUOUS
 62
    7
 10
879.32167583450848
 20
282.11458412376601
 11
879.14950013620967
 21
282.01053943413103
  0
LINE
  8
_1-0_
  6
CONTINUOUS
 62
    7
 10
879.14950013620967
 20
282.01053943413103
 11
878.9827486723085
 21
281.8979865703804
  0
LINE
  8
_1-0_
  6
CONTINUOUS
 62
    7
 10
878.9827486723085
 20
281.8979865703804
 11
878.82185888106289
 21
281.77718799546881
  0
LINE
  8
_1-0_
  6
CONTINUOUS
 62
    7
 10
878.82185888106289
 20
281.77718799546881
 11
878.66735568838226
 21
281.64844991617684
  0
LINE
  8
_1-0_
  6
CONTINUOUS
 62
    7
 10
878.66735568838226
 20
281.64844991617684
 11
878.51941406956962
 21
281.51210041119782
  0
LINE
  8
_1-0_
  6
CONTINUOUS
 62
    7
 10
878.51941406956962
 20
281.51210041119782
 11
878.37855895053463
 21
281.36848943113819
  0
LINE
  8
_1-0_
  6
CONTINUOUS
 62
    7
 10
878.37855895053463
 20
281.36848943113819
 11
878.24505279423181
 21
281.21796692660411
  0
LINE
  8
_1-0_
  6
CONTINUOUS
 62
    7
 10
878.24505279423181
 20
281.21796692660411
 11
878.11933303891919
 21
281.06092659202773
  0
LINE
  8
_1-0_
  6
CONTINUOUS
 62
    7
 10
878.11933303891919
 20
281.06092659202773
 11
874.57547073658827
 21
276.39951890039629
  0
LINE
  8
_1-0_
  6
CONTINUOUS
 62
    7
 10
874.57547073658827
 20
276.39951890039629
 11
874.42805404368517
 21
276.21693217156007
  0
LINE
  8
_1-0_
  6
CONTINUOUS
 62
    7
 10
874.42805404368517
 20
276.21693217156007
 11
874.27013883259303
 21
276.04329105509748
  0
LINE
  8
_1-0_
  6
CONTINUOUS
 62
    7
 10
874.27013883259303
 20
276.04329105509748
 11
874.10233751687304
 21
275.87922983648241
  0
LINE
  8
_1-0_
  6
CONTINUOUS
 62
    7
 10
874.10233751687304
 20
275.87922983648241
 11
873.92517502243447
 21
275.72527344162393
  0
LINE
  8
_1-0_
  6
CONTINUOUS
 62
    7
 10
873.92517502243447
 20
275.72527344162393
 11
873.7392637628385
 21
275.58199054025778
  0
LINE
  8
_1-0_
  6
CONTINUOUS
 62
    7
 10
873.7392637628385
 20
275.58199054025778
 11
873.54530363929769
 21
275.44986231446728
  0
LINE
  8
_1-0_
  6
CONTINUOUS
 62
    7
 10
873.54530363929769
 20
275.44986231446728
 11
873.34390706537306
 21
275.32932620251046
  0
LINE
  8
_1-0_
  6
CONTINUOUS
 62
    7
 10
873.34390706537306
 20
275.32932620251046
 11
873.13577394227718
 21
275.22081964264498
  0
LINE
  8
_1-0_
  6
CONTINUOUS
 62
    7
 10
873.13577394227718
 20
275.22081964264498
 11
872.92160417122261
 21
275.12469258547753
  0
LINE
  8
_1-0_
  6
CONTINUOUS
 62
    7
 10
872.92160417122261
 20
275.12469258547753
 11
872.70227262872527
 21
275.04129498161404
  0
LINE
  8
_1-0_
  6
CONTINUOUS
 62
    7
 10
872.70227262872527
 20
275.04129498161404
 11
872.47839172834585
 21
274.9709111659223
  0
LINE
  8
_1-0_
  6
CONTINUOUS
 62
    7
 10
872.47839172834585
 20
274.9709111659223
 11
872.25074885894878
 21
274.9137598575312
  0
LINE
  8
_1-0_
  6
CONTINUOUS
 62
    7
 10
872.25074885894878
 20
274.9137598575312
 11
872.02013140939823
 21
274.87008164748261
  0
LINE
  8
_1-0_
  6
CONTINUOUS
 62
    7
 10
872.02013140939823
 20
274.87008164748261
 11
871.78732676855839
 21
274.84000776725384
  0
LINE
  8
_1-0_
  6
CONTINUOUS
 62
    7
 10
871.78732676855839
 20
274.84000776725384
 11
871.55320981294483
 21
274.82362570449652
  0
LINE
  8
_1-0_
  6
CONTINUOUS
 62
    7
 10
871.55320981294483
 20
274.82362570449652
 11
871.31848044377034
 21
274.82100107494932
  0
LINE
  8
_1-0_
  6
CONTINUOUS
 62
    7
 10
871.31848044377034
 20
274.82100107494932
 11
850.51855374487207
 21
275.19918832079327
  0
LINE
  8
_1-0_
  6
CONTINUOUS
 62
    7
 10
850.51855374487207
 20
275.19918832079327
 11
850.28994851130778
 21
275.20988368619828
  0
LINE
  8
_1-0_
  6
CONTINUOUS
 62
    7
 10
850.28994851130778
 20
275.20988368619828
 11
850.06230564191071
 21
275.23365845551353
  0
LINE
  8
_1-0_
  6
CONTINUOUS
 62
    7
 10
850.06230564191071
 20
275.23365845551353
 11
849.83641252554526
 21
275.27040326917501
  0
LINE
  8
_1-0_
  6
CONTINUOUS
 62
    7
 10
849.83641252554526
 20
275.27040326917501
 11
849.61296906342363
 21
275.32000876761771
  0
LINE
  8
_1-0_
  6
CONTINUOUS
 62
    7
 10
849.61296906342363
 20
275.32000876761771
 11
849.39267515675897
 21
275.38232184745169
  0
LINE
  8
_1-0_
  6
CONTINUOUS
 62
    7
 10
849.39267515675897
 20
275.38232184745169
 11
849.17640568206662
 21
275.45714566146074
  0
LINE
  8
_1-0_
  6
CONTINUOUS
 62
    7
 10
849.17640568206662
 20
275.45714566146074
 11
848.96468556525622
 21
275.54419587477753
  0
LINE
  8
_1-0_
  6
CONTINUOUS
 62
    7
 10
848.96468556525622
 20
275.54419587477753
 11
848.75830219519173
 21
275.643210024447
  0
LINE
  8
_1-0_
  6
CONTINUOUS
 62
    7
 10
848.75830219519173
 20
275.643210024447
 11
848.55795547308605
 21
275.75388190368881
  0
LINE
  8
_1-0_
  6
CONTINUOUS
 62
    7
 10
848.55795547308605
 20
275.75388190368881
 11
848.3642578125
 21
275.87581781807091
  0
LINE
  8
_1-0_
  6
CONTINUOUS
 62
    7
 10
848.3642578125
 20
275.87581781807091
 11
848.17782162699461
 21
276.00864594507402
  0
LINE
  8
_1-0_
  6
CONTINUOUS
 62
    7
 10
848.17782162699461
 20
276.00864594507402
 11
847.99934681778245
 21
276.15192884644017
  0
LINE
  8
_1-0_
  6
CONTINUOUS
 62
    7
 10
847.99934681778245
 20
276.15192884644017
 11
847.82935831077316
 21
276.30516346817302
  0
LINE
  8
_1-0_
  6
CONTINUOUS
 62
    7
 10
847.82935831077316
 20
276.30516346817302
 11
847.66838103187581
 21
276.4678905001017
  0
LINE
  8
_1-0_
  6
CONTINUOUS
 62
    7
 10
847.66838103187581
 20
276.4678905001017
 11
847.51693990700028
 21
276.6395412724911
  0
LINE
  8
_1-0_
  6
CONTINUOUS
 62
    7
 10
847.51693990700028
 20
276.6395412724911
 11
847.37564734970738
 21
276.81959085943163
  0
LINE
  8
_1-0_
  6
CONTINUOUS
 62
    7
 10
847.37564734970738
 20
276.81959085943163
 11
843.72015080396727
 21
281.76084967653719
  0
LINE
  8
_1-0_
  6
CONTINUOUS
 62
    7
 10
843.72015080396727
 20
281.76084967653719
 11
843.57877075902275
 21
281.94089926347772
  0
LINE
  8
_1-0_
  6
CONTINUOUS
 62
    7
 10
843.57877075902275
 20
281.94089926347772
 11
843.42741712179873
 21
282.112550035867
  0
LINE
  8
_1-0_
  6
CONTINUOUS
 62
    7
 10
843.42741712179873
 20
282.112550035867
 11
843.2664398429016
 21
282.27527706779568
  0
LINE
  8
_1-0_
  6
CONTINUOUS
 62
    7
 10
843.2664398429016
 20
282.27527706779568
 11
843.09636384824057
 21
282.42851168952853
  0
LINE
  8
_1-0_
  6
CONTINUOUS
 62
    7
 10
843.09636384824057
 20
282.42851168952853
 11
842.91788903902852
 21
282.57179459089468
  0
LINE
  8
_1-0_
  6
CONTINUOUS
 62
    7
 10
842.91788903902852
 20
282.57179459089468
 11
842.73145285352314
 21
282.70460084598494
  0
LINE
  8
_1-0_
  6
CONTINUOUS
 62
    7
 10
842.73145285352314
 20
282.70460084598494
 11
842.53775519293697
 21
282.8265586322799
  0
LINE
  8
_1-0_
  6
CONTINUOUS
 62
    7
 10
842.53775519293697
 20
282.8265586322799
 11
842.33740847083129
 21
282.93720863960885
  0
LINE
  8
_1-0_
  6
CONTINUOUS
 62
    7
 10
842.33740847083129
 20
282.93720863960885
 11
842.13102510076681
 21
283.03624466119118
  0
LINE
  8
_1-0_
  6
CONTINUOUS
 62
    7
 10
842.13102510076681
 20
283.03624466119118
 11
841.91939247160803
 21
283.12329487450796
  0
LINE
  8
_1-0_
  6
CONTINUOUS
 62
    7
 10
841.91939247160803
 20
283.12329487450796
 11
841.70303550926405
 21
283.19811868851701
  0
LINE
  8
_1-0_
  6
CONTINUOUS
 62
    7
 10
841.70303550926405
 20
283.19811868851701
 11
841.48282909025079
 21
283.26040989643815
  0
LINE
  8
_1-0_
  6
CONTINUOUS
 62
    7
 10
841.48282909025079
 20
283.26040989643815
 11
841.25938562812951
 21
283.31003726679387
  0
LINE
  8
_1-0_
  6
CONTINUOUS
 62
    7
 10
841.25938562812951
 20
283.31003726679387
 11
841.03340502411243
 21
283.34678208045517
  0
LINE
  8
_1-0_
  6
CONTINUOUS
 62
    7
 10
841.03340502411243
 20
283.34678208045517
 11
840.80576215471535
 21
283.37055684977059
  0
LINE
  8
_1-0_
  6
CONTINUOUS
 62
    7
 10
840.80576215471535
 20
283.37055684977059
 11
840.57715692115096
 21
283.38125221517555
  0
LINE
  8
_1-0_
  6
CONTINUOUS
 62
    7
 10
840.57715692115096
 20
283.38125221517555
 11
532.66309863351944
 21
289.57052238199242
  0
LINE
  8
_1-0_
  6
CONTINUOUS
 62
    7
 10
973.00004112214185
 20
473.7700423310622
 11
973.00004112214185
 21
457.77003814815089
  0
LINE
  8
_1-0_
  6
CONTINUOUS
 62
    7
 10
969.80000529049903
 20
470.57005024324508
 11
969.80000529049903
 21
457.77003814815089
  0
LINE
  8
_1-0_
  6
CONTINUOUS
 62
    7
 10
412.99998220789848
 20
473.7700423310622
 11
412.99998220789848
 21
457.77003814815089
  0
LINE
  8
_1-0_
  6
CONTINUOUS
 62
    7
 10
416.20001803954125
 20
470.57005024324508
 11
416.20001803954125
 21
457.77003814815089
  0
LINE
  8
_1-0_
  6
CONTINUOUS
 62
    7
 10
973.00004112214185
 20
473.7700423310622
 11
412.99998220789848
 21
473.7700423310622
  0
LINE
  8
_1-0_
  6
CONTINUOUS
 62
    7
 10
969.80000529049903
 20
470.57005024324508
 11
945.0717955482512
 21
470.57005024324508
  0
LINE
  8
_1-0_
  6
CONTINUOUS
 62
    7
 10
441.80026094885864
 20
470.57005024324508
 11
416.20001803954125
 21
470.57005024324508
  0
LINE
  8
_1-0_
  6
CONTINUOUS
 62
    7
 10
973.00004112214185
 20
457.77003814815089
 11
943.70427606648923
 21
457.77003814815089
  0
LINE
  8
_1-0_
  6
CONTINUOUS
 62
    7
 10
447.51460439910289
 20
457.77003814815089
 11
412.99998220789848
 21
457.77003814815089
  0
LINE
  8
_1-0_
  6
CONTINUOUS
 62
    7
 10
910.22607633966277
 20
282.02552169446324
 11
880.8406364411461
 21
282.61321999391527
  0
LINE
  8
_1-0_
  6
CONTINUOUS
 62
    7
 10
908.32943154117766
 20
286.86441995922667
 11
878.52676303230191
 21
287.46047332940407
  0
LINE
  8
_1-0_
  6
CONTINUOUS
 62
    7
 10
943.00000047131391
 20
473.7700423310622
 11
924.55882834651743
 21
301.16147700423892
  0
LINE
  8
_1-0_
  6
CONTINUOUS
 62
    7
 10
945.0717955482512
 20
470.57005024324508
 11
926.45547314500254
 21
296.32257873947549
  0
LINE
  8
_1-0_
  6
CONTINUOUS
 62
    7
 10
442.99997911490067
 20
473.7700423310622
 11
518.86144041554815
 21
303.84128938770658
  0
LINE
  8
_1-0_
  6
CONTINUOUS
 62
    7
 10
441.80026094885864
 20
470.57005024324508
 11
518.37444040305832
 21
299.04484450586978
  0
LINE
  8
_1-0_
  6
CONTINUOUS
 62
    7
 10
871.31848044377034
 20
274.82100107494932
 11
850.51855374487207
 21
275.19918832079327
  0
LINE
  8
_1-0_
  6
CONTINUOUS
 62
    7
 10
868.97109926437315
 20
279.66447056950756
 11
852.97074513085568
 21
279.95538888290582
  0
LINE
  8
_1-0_
  6
CONTINUOUS
 62
    7
 10
846.17225470229926
 20
286.51707211056276
 11
849.82775124803925
 21
281.57579142154418
  0
LINE
  8
_1-0_
  6
CONTINUOUS
 62
    7
 10
843.72015080396727
 20
281.76084967653719
 11
847.37564734970738
 21
276.81959085943163
  0
LINE
  8
_1-0_
  6
CONTINUOUS
 62
    7
 10
875.77186437187038
 20
285.90441795849898
 11
872.22808955719097
 21
281.24298839495452
  0
LINE
  8
_1-0_
  6
CONTINUOUS
 62
    7
 10
878.11933303891919
 20
281.06092659202773
 11
874.57547073658827
 21
276.39951890039629
  0
LINE
  8
_1-0_
  6
CONTINUOUS
 62
    7
 10
843.02926081948294
 20
288.13747464920095
 11
533.15005490218346
 21
294.36694539191637
  0
LINE
  8
_1-0_
  6
CONTINUOUS
 62
    7
 10
840.57715692115096
 20
283.38125221517555
 11
532.66309863351944
 21
289.57052238199242
  0
LINE
  8
_1-0_
  6
CONTINUOUS
 62
    7
 10
969.0000182045012
 20
1031.0001547088034
 11
417.00000512553913
 21
1031.0001547088034
  0
LINE
  8
_1-0_
  6
CONTINUOUS
 62
    7
 10
931.00001920604325
 20
761.00022628960915
 11
455.00000412399697
 21
761.00022628960915
  0
LINE
  8
_1-0_
  6
CONTINUOUS
 62
    7
 10
931.00001920604325
 20
1001.0002015456269
 11
455.00000412399697
 21
1001.0002015456269
  0
LINE
  8
_1-0_
  6
CONTINUOUS
 62
    7
 10
910.99999210549129
 20
781.00016590250959
 11
534.99998129472772
 21
781.00016590250959
  0
LINE
  8
_1-0_
  6
CONTINUOUS
 62
    7
 10
910.99999210549129
 20
981.00017444507489
 11
534.99998129472772
 21
981.00017444507489
  0
LINE
  8
_1-0_
  6
CONTINUOUS
 62
    7
 10
412.99998220789848
 20
1027.0002192788143
 11
412.99998220789848
 21
735.00020855642197
  0
LINE
  8
_1-0_
  6
CONTINUOUS
 62
    7
 10
442.99997911490067
 20
989.00022028035642
 11
442.99997911490067
 21
773.00020755487981
  0
LINE
  8
_1-0_
  6
CONTINUOUS
 62
    7
 10
943.00000047131391
 20
989.00022028035642
 11
943.00000047131391
 21
773.00020755487981
  0
LINE
  8
_1-0_
  6
CONTINUOUS
 62
    7
 10
922.99997337076195
 20
969.00019317980434
 11
922.99997337076195
 21
793.00014716778026
  0
LINE
  8
_1-0_
  6
CONTINUOUS
 62
    7
 10
523.00000002945706
 20
969.00019317980434
 11
523.00000002945706
 21
793.00014716778026
  0
LINE
  8
_1-0_
  6
CONTINUOUS
 62
    7
 10
417.00000512553913
 20
731.0001856387812
 11
969.0000182045012
 21
731.0001856387812
  0
LINE
  8
_1-0_
  6
CONTINUOUS
 62
    7
 10
973.00004112214185
 20
735.00020855642197
 11
973.00004112214185
 21
1027.0002192788143
  0
LINE
  8
_1-0_
  6
CONTINUOUS
 62
    7
 10
931.00001920604325
 20
1001.0002015456269
 11
910.99999210549129
 21
981.00017444507489
  0
LINE
  8
_1-0_
  6
CONTINUOUS
 62
    7
 10
943.00000047131391
 20
989.00022028035642
 11
922.99997337076195
 21
969.00019317980434
  0
LINE
  8
_1-0_
  6
CONTINUOUS
 62
    7
 10
922.99997337076195
 20
969.00019317980434
 11
922.99997337076195
 21
790.50018752403707
  0
LINE
  8
_1-0_
  6
CONTINUOUS
 62
    7
 10
922.99997337076195
 20
790.50018752403707
 11
943.00000047131391
 21
773.00020755487981
  0
LINE
  8
_1-0_
  6
CONTINUOUS
 62
    7
 10
910.99999210549129
 20
781.00016590250959
 11
931.00001920604325
 21
761.00022628960915
  0
LINE
  8
_1-0_
  6
CONTINUOUS
 62
    7
 10
523.00000002945706
 20
790.50018752403707
 11
442.99997911490067
 21
773.00020755487981
  0
LINE
  8
_1-0_
  6
CONTINUOUS
 62
    7
 10
534.99998129472772
 20
781.00016590250959
 11
452.50000073642809
 21
761.00022628960915
  0
LINE
  8
_1-0_
  6
CONTINUOUS
 62
    7
 10
455.00000412399697
 20
1001.0002015456269
 11
534.99998129472772
 21
981.00017444507489
  0
LINE
  8
_1-0_
  6
CONTINUOUS
 62
    7
 10
523.00000002945706
 20
969.00019317980434
 11
442.99997911490067
 21
989.00022028035642
  0
LINE
  8
_1-0_
  6
CONTINUOUS
 62
    7
 10
1556.4285932268413
 20
296.0703080961602
 11
1575.0718618267751
 21
470.57005024324508
  0
LINE
  8
_1-0_
  6
CONTINUOUS
 62
    7
 10
1575.0718618267751
 20
470.57005024324508
 11
1599.8000715690227
 21
470.57005024324508
  0
LINE
  8
_1-0_
  6
CONTINUOUS
 62
    7
 10
1599.8000715690227
 20
470.57005024324508
 11
1599.8000715690227
 21
457.77003814815089
  0
LINE
  8
_1-0_
  6
CONTINUOUS
 62
    7
 10
1599.8000715690227
 20
457.77003814815089
 11
1603.0000199130143
 21
457.77003814815089
  0
LINE
  8
_1-0_
  6
CONTINUOUS
 62
    7
 10
1603.0000199130143
 20
457.77003814815089
 11
1603.0000199130143
 21
473.7700423310622
  0
LINE
  8
_1-0_
  6
CONTINUOUS
 62
    7
 10
1603.0000199130143
 20
473.7700423310622
 11
1572.9999792621861
 21
473.7700423310622
  0
LINE
  8
_1-0_
  6
CONTINUOUS
 62
    7
 10
1572.9999792621861
 20
473.7700423310622
 11
1554.5278365087324
 21
300.87031809979891
  0
LINE
  8
_1-0_
  6
CONTINUOUS
 62
    7
 10
1554.5278365087324
 20
300.87031809979891
 11
1554.3057928490362
 21
299.42338170232006
  0
LINE
  8
_1-0_
  6
CONTINUOUS
 62
    7
 10
1554.3057928490362
 20
299.42338170232006
 11
1553.9526926872813
 21
298.00280095987802
  0
LINE
  8
_1-0_
  6
CONTINUOUS
 62
    7
 10
1553.9526926872813
 20
298.00280095987802
 11
1553.4709856777115
 21
296.62043044926122
  0
LINE
  8
_1-0_
  6
CONTINUOUS
 62
    7
 10
1553.4709856777115
 20
296.62043044926122
 11
1552.8650462029063
 21
295.28788415621602
  0
LINE
  8
_1-0_
  6
CONTINUOUS
 62
    7
 10
1552.8650462029063
 20
295.28788415621602
 11
1552.1399485466563
 21
294.01627301249266
  0
LINE
  8
_1-0_
  6
CONTINUOUS
 62
    7
 10
1552.1399485466563
 20
294.01627301249266
 11
1551.3016418692687
 21
292.81627051158296
  0
LINE
  8
_1-0_
  6
CONTINUOUS
 62
    7
 10
1551.3016418692687
 20
292.81627051158296
 11
1550.3569502075666
 21
291.69791586150524
  0
LINE
  8
_1-0_
  6
CONTINUOUS
 62
    7
 10
1550.3569502075666
 20
291.69791586150524
 11
1549.3142723761007
 21
290.67054836906522
  0
LINE
  8
_1-0_
  6
CONTINUOUS
 62
    7
 10
1549.3142723761007
 20
290.67054836906522
 11
1548.1820071894228
 21
289.7428074398556
  0
LINE
  8
_1-0_
  6
CONTINUOUS
 62
    7
 10
1548.1820071894228
 20
289.7428074398556
 11
1546.9696033139026
 21
288.92243573104082
  0
LINE
  8
_1-0_
  6
CONTINUOUS
 62
    7
 10
1546.9696033139026
 20
288.92243573104082
 11
1545.6872093171226
 21
288.21630102326964
  0
LINE
  8
_1-0_
  6
CONTINUOUS
 62
    7
 10
1545.6872093171226
 20
288.21630102326964
 11
1544.3458486431814
 21
287.6303087330233
  0
LINE
  8
_1-0_
  6
CONTINUOUS
 62
    7
 10
1544.3458486431814
 20
287.6303087330233
 11
1542.9563697608739
 21
287.1693581687897
  0
LINE
  8
_1-0_
  6
CONTINUOUS
 62
    7
 10
1542.9563697608739
 20
287.1693581687897
 11
1541.5306709908148
 21
286.83734253106422
  0
LINE
  8
_1-0_
  6
CONTINUOUS
 62
    7
 10
1541.5306709908148
 20
286.83734253106422
 11
1540.0806506536182
 21
286.63701768087151
  0
LINE
  8
_1-0_
  6
CONTINUOUS
 62
    7
 10
1540.0806506536182
 20
286.63701768087151
 11
1538.6183820452006
 21
286.57004588359115
  0
LINE
  8
_1-0_
  6
CONTINUOUS
 62
    7
 10
1538.6183820452006
 20
286.57004588359115
 11
1367.3816887108055
 21
286.57004588359115
  0
LINE
  8
_1-0_
  6
CONTINUOUS
 62
    7
 10
1367.3816887108055
 20
286.57004588359115
 11
1365.9193326147365
 21
286.63701768087151
  0
LINE
  8
_1-0_
  6
CONTINUOUS
 62
    7
 10
1365.9193326147365
 20
286.63701768087151
 11
1364.4692247898884
 21
286.83734253106422
  0
LINE
  8
_1-0_
  6
CONTINUOUS
 62
    7
 10
1364.4692247898884
 20
286.83734253106422
 11
1363.0435260198292
 21
287.1693581687897
  0
LINE
  8
_1-0_
  6
CONTINUOUS
 62
    7
 10
1363.0435260198292
 20
287.1693581687897
 11
1361.6541346251734
 21
287.6303087330233
  0
LINE
  8
_1-0_
  6
CONTINUOUS
 62
    7
 10
1361.6541346251734
 20
287.6303087330233
 11
1360.3126864635806
 21
288.21630102326964
  0
LINE
  8
_1-0_
  6
CONTINUOUS
 62
    7
 10
1360.3126864635806
 20
288.21630102326964
 11
1359.0304674421036
 21
288.92243573104082
  0
LINE
  8
_1-0_
  6
CONTINUOUS
 62
    7
 10
1359.0304674421036
 20
288.92243573104082
 11
1357.8180635665833
 21
289.7428074398556
  0
LINE
  8
_1-0_
  6
CONTINUOUS
 62
    7
 10
1357.8180635665833
 20
289.7428074398556
 11
1356.6857983799055
 21
290.67054836906522
  0
LINE
  8
_1-0_
  6
CONTINUOUS
 62
    7
 10
1356.6857983799055
 20
290.67054836906522
 11
1355.6429455731363
 21
291.69791586150524
  0
LINE
  8
_1-0_
  6
CONTINUOUS
 62
    7
 10
1355.6429455731363
 20
291.69791586150524
 11
1354.6984288867375
 21
292.81627051158296
  0
LINE
  8
_1-0_
  6
CONTINUOUS
 62
    7
 10
1354.6984288867375
 20
292.81627051158296
 11
1353.8601222093503
 21
294.01627301249266
  0
LINE
  8
_1-0_
  6
CONTINUOUS
 62
    7
 10
1353.8601222093503
 20
294.01627301249266
 11
1353.1349370654484
 21
295.28788415621602
  0
LINE
  8
_1-0_
  6
CONTINUOUS
 62
    7
 10
1353.1349370654484
 20
295.28788415621602
 11
1352.528997590643
 21
296.62043044926122
  0
LINE
  8
_1-0_
  6
CONTINUOUS
 62
    7
 10
1352.528997590643
 20
296.62043044926122
 11
1352.0473780687253
 21
298.00280095987802
  0
LINE
  8
_1-0_
  6
CONTINUOUS
 62
    7
 10
1352.0473780687253
 20
298.00280095987802
 11
1351.694102931667
 21
299.42338170232006
  0
LINE
  8
_1-0_
  6
CONTINUOUS
 62
    7
 10
1351.694102931667
 20
299.42338170232006
 11
1351.4722342472737
 21
300.87031809979891
  0
LINE
  8
_1-0_
  6
CONTINUOUS
 62
    7
 10
1351.4722342472737
 20
300.87031809979891
 11
1333.0000040061686
 21
473.7700423310622
  0
LINE
  8
_1-0_
  6
CONTINUOUS
 62
    7
 10
1333.0000040061686
 20
473.7700423310622
 11
1302.9999633553405
 21
473.7700423310622
  0
LINE
  8
_1-0_
  6
CONTINUOUS
 62
    7
 10
1302.9999633553405
 20
473.7700423310622
 11
1302.9999633553405
 21
457.77003814815089
  0
LINE
  8
_1-0_
  6
CONTINUOUS
 62
    7
 10
1302.9999633553405
 20
457.77003814815089
 11
1306.1999991869834
 21
457.77003814815089
  0
LINE
  8
_1-0_
  6
CONTINUOUS
 62
    7
 10
1306.1999991869834
 20
457.77003814815089
 11
1306.1999991869834
 21
470.57005024324508
  0
LINE
  8
_1-0_
  6
CONTINUOUS
 62
    7
 10
1306.1999991869834
 20
470.57005024324508
 11
1330.9282089292312
 21
470.57005024324508
  0
LINE
  8
_1-0_
  6
CONTINUOUS
 62
    7
 10
1330.9282089292312
 20
470.57005024324508
 11
1349.571390041513
 21
296.0703080961602
  0
LINE
  8
_1-0_
  6
CONTINUOUS
 62
    7
 10
1349.571390041513
 20
296.0703080961602
 11
1349.7932587259063
 21
294.62339357059432
  0
LINE
  8
_1-0_
  6
CONTINUOUS
 62
    7
 10
1349.7932587259063
 20
294.62339357059432
 11
1350.1465338629644
 21
293.20279095623948
  0
LINE
  8
_1-0_
  6
CONTINUOUS
 62
    7
 10
1350.1465338629644
 20
293.20279095623948
 11
1350.6281533848824
 21
291.82044231753548
  0
LINE
  8
_1-0_
  6
CONTINUOUS
 62
    7
 10
1350.6281533848824
 20
291.82044231753548
 11
1351.234092859688
 21
290.48787415257749
  0
LINE
  8
_1-0_
  6
CONTINUOUS
 62
    7
 10
1351.234092859688
 20
290.48787415257749
 11
1351.9592780035894
 21
289.21626300885407
  0
LINE
  8
_1-0_
  6
CONTINUOUS
 62
    7
 10
1351.9592780035894
 20
289.21626300885407
 11
1352.797584680977
 21
288.01626050794454
  0
LINE
  8
_1-0_
  6
CONTINUOUS
 62
    7
 10
1352.797584680977
 20
288.01626050794454
 11
1353.7421013673759
 21
286.89790585786682
  0
LINE
  8
_1-0_
  6
CONTINUOUS
 62
    7
 10
1353.7421013673759
 20
286.89790585786682
 11
1354.7849541741448
 21
285.87056023733953
  0
LINE
  8
_1-0_
  6
CONTINUOUS
 62
    7
 10
1354.7849541741448
 20
285.87056023733953
 11
1355.9172193608229
 21
284.94279743621701
  0
LINE
  8
_1-0_
  6
CONTINUOUS
 62
    7
 10
1355.9172193608229
 20
284.94279743621701
 11
1357.1296232363431
 21
284.1224257274024
  0
LINE
  8
_1-0_
  6
CONTINUOUS
 62
    7
 10
1357.1296232363431
 20
284.1224257274024
 11
1358.4118422578199
 21
283.41629101963122
  0
LINE
  8
_1-0_
  6
CONTINUOUS
 62
    7
 10
1358.4118422578199
 20
283.41629101963122
 11
1359.7532904194127
 21
282.83029872938471
  0
LINE
  8
_1-0_
  6
CONTINUOUS
 62
    7
 10
1359.7532904194127
 20
282.83029872938471
 11
1361.1426818140685
 21
282.36937003706419
  0
LINE
  8
_1-0_
  6
CONTINUOUS
 62
    7
 10
1361.1426818140685
 20
282.36937003706419
 11
1362.5683805841277
 21
282.0373325274258
  0
LINE
  8
_1-0_
  6
CONTINUOUS
 62
    7
 10
1362.5683805841277
 20
282.0373325274258
 11
1364.0184884089761
 21
281.8370076772328
  0
LINE
  8
_1-0_
  6
CONTINUOUS
 62
    7
 10
1364.0184884089761
 20
281.8370076772328
 11
1365.4808445050448
 21
281.77003587995262
  0
LINE
  8
_1-0_
  6
CONTINUOUS
 62
    7
 10
1365.4808445050448
 20
281.77003587995262
 11
1540.5191387633099
 21
281.77003587995262
  0
LINE
  8
_1-0_
  6
CONTINUOUS
 62
    7
 10
1540.5191387633099
 20
281.77003587995262
 11
1541.9815823470301
 21
281.8370076772328
  0
LINE
  8
_1-0_
  6
CONTINUOUS
 62
    7
 10
1541.9815823470301
 20
281.8370076772328
 11
1543.4316026842271
 21
282.0373325274258
  0
LINE
  8
_1-0_
  6
CONTINUOUS
 62
    7
 10
1543.4316026842271
 20
282.0373325274258
 11
1544.8573014542862
 21
282.36937003706419
  0
LINE
  8
_1-0_
  6
CONTINUOUS
 62
    7
 10
1544.8573014542862
 20
282.36937003706419
 11
1546.2466053612902
 21
282.83029872938471
  0
LINE
  8
_1-0_
  6
CONTINUOUS
 62
    7
 10
1546.2466053612902
 20
282.83029872938471
 11
1547.5881410105349
 21
283.41629101963122
  0
LINE
  8
_1-0_
  6
CONTINUOUS
 62
    7
 10
1547.5881410105349
 20
283.41629101963122
 11
1548.8703600320116
 21
284.1224257274024
  0
LINE
  8
_1-0_
  6
CONTINUOUS
 62
    7
 10
1548.8703600320116
 20
284.1224257274024
 11
1550.0827639075319
 21
284.94279743621701
  0
LINE
  8
_1-0_
  6
CONTINUOUS
 62
    7
 10
1550.0827639075319
 20
284.94279743621701
 11
1551.21502909421
 21
285.87056023733953
  0
LINE
  8
_1-0_
  6
CONTINUOUS
 62
    7
 10
1551.21502909421
 20
285.87056023733953
 11
1552.2578819009786
 21
286.89790585786682
  0
LINE
  8
_1-0_
  6
CONTINUOUS
 62
    7
 10
1552.2578819009786
 20
286.89790585786682
 11
1553.2023985873777
 21
288.01626050794454
  0
LINE
  8
_1-0_
  6
CONTINUOUS
 62
    7
 10
1553.2023985873777
 20
288.01626050794454
 11
1554.0407052647652
 21
289.21626300885407
  0
LINE
  8
_1-0_
  6
CONTINUOUS
 62
    7
 10
1554.0407052647652
 20
289.21626300885407
 11
1554.7659778963182
 21
290.48787415257749
  0
LINE
  8
_1-0_
  6
CONTINUOUS
 62
    7
 10
1554.7659778963182
 20
290.48787415257749
 11
1555.3719173711238
 21
291.82044231753548
  0
LINE
  8
_1-0_
  6
CONTINUOUS
 62
    7
 10
1555.3719173711238
 20
291.82044231753548
 11
1555.8534494053902
 21
293.20279095623948
  0
LINE
  8
_1-0_
  6
CONTINUOUS
 62
    7
 10
1555.8534494053902
 20
293.20279095623948
 11
1556.2067245424485
 21
294.62339357059432
  0
LINE
  8
_1-0_
  6
CONTINUOUS
 62
    7
 10
1556.2067245424485
 20
294.62339357059432
 11
1556.4285932268413
 21
296.0703080961602
  0
LINE
  8
_1-0_
  6
CONTINUOUS
 62
    7
 10
1302.9999633553405
 20
473.7700423310622
 11
1603.0000199130143
 21
473.7700423310622
  0
LINE
  8
_1-0_
  6
CONTINUOUS
 62
    7
 10
1306.1999991869834
 20
470.57005024324508
 11
1330.9282089292312
 21
470.57005024324508
  0
LINE
  8
_1-0_
  6
CONTINUOUS
 62
    7
 10
1575.0718618267751
 20
470.57005024324508
 11
1599.8000715690227
 21
470.57005024324508
  0
LINE
  8
_1-0_
  6
CONTINUOUS
 62
    7
 10
1302.9999633553405
 20
453.770058974336
 11
1332.7231055889351
 21
453.770058974336
  0
LINE
  8
_1-0_
  6
CONTINUOUS
 62
    7
 10
1573.2769651670715
 20
453.770058974336
 11
1603.0000199130143
 21
453.770058974336
  0
LINE
  8
_1-0_
  6
CONTINUOUS
 62
    7
 10
1365.4808445050448
 20
281.77003587995262
 11
1540.5191387633099
 21
281.77003587995262
  0
LINE
  8
_1-0_
  6
CONTINUOUS
 62
    7
 10
1367.3816887108055
 20
286.57004588359115
 11
1538.6183820452006
 21
286.57004588359115
  0
LINE
  8
_1-0_
  6
CONTINUOUS
 62
    7
 10
1302.9999633553405
 20
473.7700423310622
 11
1302.9999633553405
 21
453.770058974336
  0
LINE
  8
_1-0_
  6
CONTINUOUS
 62
    7
 10
1306.1999991869834
 20
470.57005024324508
 11
1306.1999991869834
 21
453.770058974336
  0
LINE
  8
_1-0_
  6
CONTINUOUS
 62
    7
 10
1603.0000199130143
 20
473.7700423310622
 11
1603.0000199130143
 21
453.770058974336
  0
LINE
  8
_1-0_
  6
CONTINUOUS
 62
    7
 10
1599.8000715690227
 20
470.57005024324508
 11
1599.8000715690227
 21
453.770058974336
  0
LINE
  8
_1-0_
  6
CONTINUOUS
 62
    7
 10
1572.9999792621861
 20
473.7700423310622
 11
1554.5278365087324
 21
300.87031809979891
  0
LINE
  8
_1-0_
  6
CONTINUOUS
 62
    7
 10
1575.0718618267751
 20
470.57005024324508
 11
1556.4285932268413
 21
296.0703080961602
  0
LINE
  8
_1-0_
  6
CONTINUOUS
 62
    7
 10
1333.0000040061686
 20
473.7700423310622
 11
1351.4722342472737
 21
300.87031809979891
  0
LINE
  8
_1-0_
  6
CONTINUOUS
 62
    7
 10
1330.9282089292312
 20
470.57005024324508
 11
1349.571390041513
 21
296.0703080961602
  0
LINE
  8
_1-0_
  6
CONTINUOUS
 62
    7
 10
1442.9999780839014
 20
286.57004588359115
 11
1463.0000051844534
 21
286.57004588359115
  0
LINE
  8
_1-0_
  6
CONTINUOUS
 62
    7
 10
1463.0000051844534
 20
286.57004588359115
 11
1463.0000051844534
 21
281.77003587995262
  0
LINE
  8
_1-0_
  6
CONTINUOUS
 62
    7
 10
1463.0000051844534
 20
281.77003587995262
 11
1442.9999780839014
 21
281.77003587995262
  0
LINE
  8
_1-0_
  6
CONTINUOUS
 62
    7
 10
1442.9999780839014
 20
281.77003587995262
 11
1442.9999780839014
 21
286.57004588359115
  0
LINE
  8
_2-0_
  6
CONTINUOUS
 62
    7
 10
1841.0000274540375
 20
281.77003587995262
 11
157.00000276896958
 21
281.77003587995262
  0
LINE
  8
_3-0_
  6
CONTINUOUS
 62
    7
 10
851.00376026050458
 20
281.83873555835146
 11
871.00378736105654
 21
281.83873555835146
  0
LINE
  8
_3-0_
  6
CONTINUOUS
 62
    7
 10
858.08991008743817
 20
291.0949947106792
 11
863.9616438228652
 21
291.0949947106792
  0
LINE
  8
_3-0_
  6
CONTINUOUS
 62
    7
 10
863.9616438228652
 20
291.0949947106792
 11
863.9616438228652
 21
287.70493569981636
  0
LINE
  8
_3-0_
  6
CONTINUOUS
 62
    7
 10
863.9616438228652
 20
287.70493569981636
 11
858.08991008743817
 21
287.70493569981636
  0
LINE
  8
_3-0_
  6
CONTINUOUS
 62
    7
 10
858.08991008743817
 20
287.70493569981636
 11
858.08991008743817
 21
291.0949947106792
  0
LINE
  8
_3-1_
  6
CONTINUOUS
 62
    7
 10
863.29997471400657
 20
283.04005037403471
 11
863.29997471400657
 21
286.64005787676359
  0
LINE
  8
_3-1_
  6
CONTINUOUS
 62
    7
 10
863.29997471400657
 20
286.64005787676359
 11
862.69998439950825
 21
286.64005787676359
  0
LINE
  8
_3-1_
  6
CONTINUOUS
 62
    7
 10
862.69998439950825
 20
286.64005787676359
 11
862.69998439950825
 21
287.84003850576039
  0
LINE
  8
_3-1_
  6
CONTINUOUS
 62
    7
 10
862.69998439950825
 20
287.84003850576039
 11
859.30003928401743
 21
287.84003850576039
  0
LINE
  8
_3-1_
  6
CONTINUOUS
 62
    7
 10
859.30003928401743
 20
287.84003850576039
 11
859.30003928401743
 21
286.64005787676359
  0
LINE
  8
_3-1_
  6
CONTINUOUS
 62
    7
 10
859.30003928401743
 20
286.64005787676359
 11
859.30003928401743
 21
287.84003850576039
  0
LINE
  8
_3-1_
  6
CONTINUOUS
 62
    7
 10
859.30003928401743
 20
287.84003850576039
 11
859.30003928401743
 21
286.64005787676359
  0
LINE
  8
_3-1_
  6
CONTINUOUS
 62
    7
 10
859.30003928401743
 20
286.64005787676359
 11
859.30003928401743
 21
287.84003850576039
  0
LINE
  8
_3-1_
  6
CONTINUOUS
 62
    7
 10
859.30003928401743
 20
287.84003850576039
 11
859.30003928401743
 21
286.64005787676359
  0
LINE
  8
_3-1_
  6
CONTINUOUS
 62
    7
 10
859.30003928401743
 20
286.64005787676359
 11
858.6999614818676
 21
286.64005787676359
  0
LINE
  8
_3-1_
  6
CONTINUOUS
 62
    7
 10
858.6999614818676
 20
286.64005787676359
 11
858.6999614818676
 21
283.04005037403471
  0
LINE
  8
_3-1_
  6
CONTINUOUS
 62
    7
 10
858.6999614818676
 20
283.04005037403471
 11
863.29997471400657
 21
283.04005037403471
  0
LINE
  8
_3-1_
  6
CONTINUOUS
 62
    7
 10
860.00002798426567
 20
289.44005642158174
 11
861.99999569926024
 21
289.44005642158174
  0
LINE
  8
_3-1_
  6
CONTINUOUS
 62
    7
 10
861.99999569926024
 20
289.44005642158174
 11
861.99999569926024
 21
287.84003850576039
  0
LINE
  8
_3-1_
  6
CONTINUOUS
 62
    7
 10
861.99999569926024
 20
287.84003850576039
 11
860.00002798426567
 21
287.84003850576039
  0
LINE
  8
_3-1_
  6
CONTINUOUS
 62
    7
 10
860.00002798426567
 20
287.84003850576039
 11
860.00002798426567
 21
289.44005642158174
  0
LINE
  8
_3-1_
  6
CONTINUOUS
 62
    7
 10
862.49832536262886
 20
289.34010177965786
 11
859.50003605551706
 21
289.44005642158174
  0
LINE
  8
_3-1_
  6
CONTINUOUS
 62
    7
 10
859.50003605551706
 20
289.44005642158174
 11
859.49329950634581
 21
289.24016900964688
  0
LINE
  8
_3-1_
  6
CONTINUOUS
 62
    7
 10
859.49329950634581
 20
289.24016900964688
 11
862.49167630110924
 21
289.14021436772288
  0
LINE
  8
_3-1_
  6
CONTINUOUS
 62
    7
 10
862.49167630110924
 20
289.14021436772288
 11
862.49832536262886
 21
289.34010177965786
  0
LINE
  8
_3-1_
  6
CONTINUOUS
 62
    7
 10
862.48607709140845
 20
288.97304733747671
 11
859.48778778429653
 21
289.07298010748787
  0
LINE
  8
_3-1_
  6
CONTINUOUS
 62
    7
 10
859.48778778429653
 20
289.07298010748787
 11
859.4811387227769
 21
288.87309269555288
  0
LINE
  8
_3-1_
  6
CONTINUOUS
 62
    7
 10
859.4811387227769
 20
288.87309269555288
 11
862.47942802988871
 21
288.77315992554173
  0
LINE
  8
_3-1_
  6
CONTINUOUS
 62
    7
 10
862.47942802988871
 20
288.77315992554173
 11
862.48607709140845
 21
288.97304733747671
  0
LINE
  8
_3-1_
  6
CONTINUOUS
 62
    7
 10
861.70000054201091
 20
287.84003850576039
 11
861.70000054201091
 21
283.04005037403471
  0
LINE
  8
_3-1_
  6
CONTINUOUS
 62
    7
 10
860.30002314151477
 20
287.84003850576039
 11
860.30002314151477
 21
283.04005037403471
  0
LINE
  8
_3-1_
  6
CONTINUOUS
 62
    7
 10
857.99997278161936
 20
284.4919516957404
 11
863.99996341425481
 21
284.4919516957404
  0
LINE
  8
_3-1_
  6
CONTINUOUS
 62
    7
 10
863.99996341425481
 20
284.4919516957404
 11
863.99996341425481
 21
276.89196501919668
  0
LINE
  8
_3-1_
  6
CONTINUOUS
 62
    7
 10
863.99996341425481
 20
276.89196501919668
 11
857.99997278161936
 21
276.89196501919668
  0
LINE
  8
_3-1_
  6
CONTINUOUS
 62
    7
 10
857.99997278161936
 20
276.89196501919668
 11
857.99997278161936
 21
284.4919516957404
  0
LINE
  8
_3-1_
  6
CONTINUOUS
 62
    7
 10
861.300006999012
 20
283.19195080908105
 11
861.300006999012
 21
283.59194435207996
  0
LINE
  8
_3-1_
  6
CONTINUOUS
 62
    7
 10
861.300006999012
 20
283.59194435207996
 11
860.70001668451368
 21
283.59194435207996
  0
LINE
  8
_3-1_
  6
CONTINUOUS
 62
    7
 10
860.70001668451368
 20
283.59194435207996
 11
860.70001668451368
 21
283.19195080908105
  0
LINE
  8
_3-1_
  6
CONTINUOUS
 62
    7
 10
860.70001668451368
 20
283.19195080908105
 11
860.30002314151477
 21
283.19195080908105
  0
LINE
  8
_3-1_
  6
CONTINUOUS
 62
    7
 10
860.30002314151477
 20
283.19195080908105
 11
860.30002314151477
 21
282.59196049458268
  0
LINE
  8
_3-1_
  6
CONTINUOUS
 62
    7
 10
860.30002314151477
 20
282.59196049458268
 11
860.70001668451368
 21
282.59196049458268
  0
LINE
  8
_3-1_
  6
CONTINUOUS
 62
    7
 10
860.70001668451368
 20
282.59196049458268
 11
860.70001668451368
 21
282.19194507967086
  0
LINE
  8
_3-1_
  6
CONTINUOUS
 62
    7
 10
860.70001668451368
 20
282.19194507967086
 11
861.300006999012
 21
282.19194507967086
  0
LINE
  8
_3-1_
  6
CONTINUOUS
 62
    7
 10
861.300006999012
 20
282.19194507967086
 11
861.300006999012
 21
282.59196049458268
  0
LINE
  8
_3-1_
  6
CONTINUOUS
 62
    7
 10
861.300006999012
 20
282.59196049458268
 11
861.70000054201091
 21
282.59196049458268
  0
LINE
  8
_3-1_
  6
CONTINUOUS
 62
    7
 10
861.70000054201091
 20
282.59196049458268
 11
861.70000054201091
 21
283.19195080908105
  0
LINE
  8
_3-1_
  6
CONTINUOUS
 62
    7
 10
861.70000054201091
 20
283.19195080908105
 11
861.300006999012
 21
283.19195080908105
  0
LINE
  8
_3-1_
  6
CONTINUOUS
 62
    7
 10
857.19998569562165
 20
276.89196501919668
 11
864.80003798790426
 21
276.89196501919668
  0
LINE
  8
_3-1_
  6
CONTINUOUS
 62
    7
 10
864.80003798790426
 20
276.89196501919668
 11
864.80003798790426
 21
276.09195606128594
  0
LINE
  8
_3-1_
  6
CONTINUOUS
 62
    7
 10
864.80003798790426
 20
276.09195606128594
 11
857.19998569562165
 21
276.09195606128594
  0
LINE
  8
_3-1_
  6
CONTINUOUS
 62
    7
 10
857.19998569562165
 20
276.09195606128594
 11
857.19998569562165
 21
276.89196501919668
  0
LINE
  8
_3-1_
  6
CONTINUOUS
 62
    7
 10
865.00003475940366
 20
275.69196251828703
 11
865.00003475940366
 21
275.89195928978643
  0
LINE
  8
_3-1_
  6
CONTINUOUS
 62
    7
 10
865.00003475940366
 20
275.89195928978643
 11
864.99907239523623
 21
275.91155652373914
  0
LINE
  8
_3-1_
  6
CONTINUOUS
 62
    7
 10
864.99907239523623
 20
275.91155652373914
 11
864.99618530273437
 21
275.93097878238865
  0
LINE
  8
_3-1_
  6
CONTINUOUS
 62
    7
 10
864.99618530273437
 20
275.93097878238865
 11
864.99137348189777
 21
275.95000734660618
  0
LINE
  8
_3-1_
  6
CONTINUOUS
 62
    7
 10
864.99137348189777
 20
275.95000734660618
 11
864.98481190802966
 21
275.96848911300128
  0
LINE
  8
_3-1_
  6
CONTINUOUS
 62
    7
 10
864.98481190802966
 20
275.96848911300128
 11
864.97641309347841
 21
275.98622723435795
  0
LINE
  8
_3-1_
  6
CONTINUOUS
 62
    7
 10
864.97641309347841
 20
275.98622723435795
 11
864.96626452589578
 21
276.00306860728608
  0
LINE
  8
_3-1_
  6
CONTINUOUS
 62
    7
 10
864.96626452589578
 20
276.00306860728608
 11
864.95462866823641
 21
276.01883825648247
  0
LINE
  8
_3-1_
  6
CONTINUOUS
 62
    7
 10
864.95462866823641
 20
276.01883825648247
 11
864.94141803284856
 21
276.03338307855665
  0
LINE
  8
_3-1_
  6
CONTINUOUS
 62
    7
 10
864.94141803284856
 20
276.03338307855665
 11
864.92689508268722
 21
276.04654997011863
  0
LINE
  8
_3-1_
  6
CONTINUOUS
 62
    7
 10
864.92689508268722
 20
276.04654997011863
 11
864.91114730540392
 21
276.05825144351684
  0
LINE
  8
_3-1_
  6
CONTINUOUS
 62
    7
 10
864.91114730540392
 20
276.05825144351684
 11
864.89426218864992
 21
276.06833439536075
  0
LINE
  8
_3-1_
  6
CONTINUOUS
 62
    7
 10
864.89426218864992
 20
276.06833439536075
 11
864.87650219538023
 21
276.07673320991182
  0
LINE
  8
_3-1_
  6
CONTINUOUS
 62
    7
 10
864.87650219538023
 20
276.07673320991182
 11
864.85804230089809
 21
276.0833385276058
  0
LINE
  8
_3-1_
  6
CONTINUOUS
 62
    7
 10
864.85804230089809
 20
276.0833385276058
 11
864.83905748050643
 21
276.08810660461654
  0
LINE
  8
_3-1_
  6
CONTINUOUS
 62
    7
 10
864.83905748050643
 20
276.08810660461654
 11
864.81963522185674
 21
276.09099369711856
  0
LINE
  8
_3-1_
  6
CONTINUOUS
 62
    7
 10
864.81963522185674
 20
276.09099369711856
 11
864.80003798790426
 21
276.09195606128594
  0
LINE
  8
_3-1_
  6
CONTINUOUS
 62
    7
 10
864.80003798790426
 20
276.09195606128594
 11
861.0000118417629
 21
276.09195606128594
  0
LINE
  8
_3-1_
  6
CONTINUOUS
 62
    7
 10
861.0000118417629
 20
276.09195606128594
 11
857.19998569562165
 21
276.09195606128594
  0
LINE
  8
_3-1_
  6
CONTINUOUS
 62
    7
 10
857.19998569562165
 20
276.09195606128594
 11
857.18038846166894
 21
276.09099369711856
  0
LINE
  8
_3-1_
  6
CONTINUOUS
 62
    7
 10
857.18038846166894
 20
276.09099369711856
 11
857.16096620301937
 21
276.08810660461654
  0
LINE
  8
_3-1_
  6
CONTINUOUS
 62
    7
 10
857.16096620301937
 20
276.08810660461654
 11
857.1419813826277
 21
276.0833385276058
  0
LINE
  8
_3-1_
  6
CONTINUOUS
 62
    7
 10
857.1419813826277
 20
276.0833385276058
 11
857.12343400049394
 21
276.07673320991182
  0
LINE
  8
_3-1_
  6
CONTINUOUS
 62
    7
 10
857.12343400049394
 20
276.07673320991182
 11
857.10576149487576
 21
276.06833439536075
  0
LINE
  8
_3-1_
  6
CONTINUOUS
 62
    7
 10
857.10576149487576
 20
276.06833439536075
 11
857.088876378122
 21
276.05825144351684
  0
LINE
  8
_3-1_
  6
CONTINUOUS
 62
    7
 10
857.088876378122
 20
276.05825144351684
 11
857.07312860083846
 21
276.04654997011863
  0
LINE
  8
_3-1_
  6
CONTINUOUS
 62
    7
 10
857.07312860083846
 20
276.04654997011863
 11
857.05860565067712
 21
276.03338307855665
  0
LINE
  8
_3-1_
  6
CONTINUOUS
 62
    7
 10
857.05860565067712
 20
276.03338307855665
 11
857.04539501528939
 21
276.01883825648247
  0
LINE
  8
_3-1_
  6
CONTINUOUS
 62
    7
 10
857.04539501528939
 20
276.01883825648247
 11
857.03367166997839
 21
276.00306860728608
  0
LINE
  8
_3-1_
  6
CONTINUOUS
 62
    7
 10
857.03367166997839
 20
276.00306860728608
 11
857.02361059004727
 21
275.98622723435795
  0
LINE
  8
_3-1_
  6
CONTINUOUS
 62
    7
 10
857.02361059004727
 20
275.98622723435795
 11
857.01521177549603
 21
275.96848911300128
  0
LINE
  8
_3-1_
  6
CONTINUOUS
 62
    7
 10
857.01521177549603
 20
275.96848911300128
 11
857.00865020162814
 21
275.95000734660618
  0
LINE
  8
_3-1_
  6
CONTINUOUS
 62
    7
 10
857.00865020162814
 20
275.95000734660618
 11
857.00383838079142
 21
275.93097878238865
  0
LINE
  8
_3-1_
  6
CONTINUOUS
 62
    7
 10
857.00383838079142
 20
275.93097878238865
 11
857.00095128828946
 21
275.91155652373914
  0
LINE
  8
_3-1_
  6
CONTINUOUS
 62
    7
 10
857.00095128828946
 20
275.91155652373914
 11
856.99998892412214
 21
275.89195928978643
  0
LINE
  8
_3-1_
  6
CONTINUOUS
 62
    7
 10
856.99998892412214
 20
275.89195928978643
 11
856.99998892412214
 21
275.69196251828703
  0
LINE
  8
_3-1_
  6
CONTINUOUS
 62
    7
 10
856.99998892412214
 20
275.69196251828703
 11
856.99998892412214
 21
275.49194387487461
  0
LINE
  8
_3-1_
  6
CONTINUOUS
 62
    7
 10
856.99998892412214
 20
275.49194387487461
 11
857.00095128828946
 21
275.47234664092184
  0
LINE
  8
_3-1_
  6
CONTINUOUS
 62
    7
 10
857.00095128828946
 20
275.47234664092184
 11
857.00383838079142
 21
275.45294625418524
  0
LINE
  8
_3-1_
  6
CONTINUOUS
 62
    7
 10
857.00383838079142
 20
275.45294625418524
 11
857.00865020162814
 21
275.43389581805485
  0
LINE
  8
_3-1_
  6
CONTINUOUS
 62
    7
 10
857.00865020162814
 20
275.43389581805485
 11
857.01521177549603
 21
275.4154140516597
  0
LINE
  8
_3-1_
  6
CONTINUOUS
 62
    7
 10
857.01521177549603
 20
275.4154140516597
 11
857.02361059004727
 21
275.39767593030308
  0
LINE
  8
_3-1_
  6
CONTINUOUS
 62
    7
 10
857.02361059004727
 20
275.39767593030308
 11
857.03367166997839
 21
275.3808345573749
  0
LINE
  8
_3-1_
  6
CONTINUOUS
 62
    7
 10
857.03367166997839
 20
275.3808345573749
 11
857.04539501528939
 21
275.36508678009142
  0
LINE
  8
_3-1_
  6
CONTINUOUS
 62
    7
 10
857.04539501528939
 20
275.36508678009142
 11
857.05860565067712
 21
275.35054195801717
  0
LINE
  8
_3-1_
  6
CONTINUOUS
 62
    7
 10
857.05860565067712
 20
275.35054195801717
 11
857.07312860083846
 21
275.3373531945424
  0
LINE
  8
_3-1_
  6
CONTINUOUS
 62
    7
 10
857.07312860083846
 20
275.3373531945424
 11
857.088876378122
 21
275.32565172114431
  0
LINE
  8
_3-1_
  6
CONTINUOUS
 62
    7
 10
857.088876378122
 20
275.32565172114431
 11
857.10576149487576
 21
275.31556876930028
  0
LINE
  8
_3-1_
  6
CONTINUOUS
 62
    7
 10
857.10576149487576
 20
275.31556876930028
 11
857.12343400049394
 21
275.30716995474904
  0
LINE
  8
_3-1_
  6
CONTINUOUS
 62
    7
 10
857.12343400049394
 20
275.30716995474904
 11
857.1419813826277
 21
275.30056463705523
  0
LINE
  8
_3-1_
  6
CONTINUOUS
 62
    7
 10
857.1419813826277
 20
275.30056463705523
 11
857.16096620301937
 21
275.29579656004444
  0
LINE
  8
_3-1_
  6
CONTINUOUS
 62
    7
 10
857.16096620301937
 20
275.29579656004444
 11
857.18038846166894
 21
275.29290946754247
  0
LINE
  8
_3-1_
  6
CONTINUOUS
 62
    7
 10
857.18038846166894
 20
275.29290946754247
 11
857.19998569562165
 21
275.29194710337521
  0
LINE
  8
_3-1_
  6
CONTINUOUS
 62
    7
 10
857.19998569562165
 20
275.29194710337521
 11
861.0000118417629
 21
275.29194710337521
  0
LINE
  8
_3-1_
  6
CONTINUOUS
 62
    7
 10
861.0000118417629
 20
275.29194710337521
 11
864.80003798790426
 21
275.29194710337521
  0
LINE
  8
_3-1_
  6
CONTINUOUS
 62
    7
 10
864.80003798790426
 20
275.29194710337521
 11
864.81963522185674
 21
275.29290946754247
  0
LINE
  8
_3-1_
  6
CONTINUOUS
 62
    7
 10
864.81963522185674
 20
275.29290946754247
 11
864.83905748050643
 21
275.29579656004444
  0
LINE
  8
_3-1_
  6
CONTINUOUS
 62
    7
 10
864.83905748050643
 20
275.29579656004444
 11
864.85804230089809
 21
275.30056463705523
  0
LINE
  8
_3-1_
  6
CONTINUOUS
 62
    7
 10
864.85804230089809
 20
275.30056463705523
 11
864.87650219538023
 21
275.30716995474904
  0
LINE
  8
_3-1_
  6
CONTINUOUS
 62
    7
 10
864.87650219538023
 20
275.30716995474904
 11
864.89426218864992
 21
275.31556876930028
  0
LINE
  8
_3-1_
  6
CONTINUOUS
 62
    7
 10
864.89426218864992
 20
275.31556876930028
 11
864.91114730540392
 21
275.32565172114431
  0
LINE
  8
_3-1_
  6
CONTINUOUS
 62
    7
 10
864.91114730540392
 20
275.32565172114431
 11
864.92689508268722
 21
275.3373531945424
  0
LINE
  8
_3-1_
  6
CONTINUOUS
 62
    7
 10
864.92689508268722
 20
275.3373531945424
 11
864.94141803284856
 21
275.35054195801717
  0
LINE
  8
_3-1_
  6
CONTINUOUS
 62
    7
 10
864.94141803284856
 20
275.35054195801717
 11
864.95462866823641
 21
275.36508678009142
  0
LINE
  8
_3-1_
  6
CONTINUOUS
 62
    7
 10
864.95462866823641
 20
275.36508678009142
 11
864.96626452589578
 21
275.3808345573749
  0
LINE
  8
_3-1_
  6
CONTINUOUS
 62
    7
 10
864.96626452589578
 20
275.3808345573749
 11
864.97641309347841
 21
275.39767593030308
  0
LINE
  8
_3-1_
  6
CONTINUOUS
 62
    7
 10
864.97641309347841
 20
275.39767593030308
 11
864.98481190802966
 21
275.4154140516597
  0
LINE
  8
_3-1_
  6
CONTINUOUS
 62
    7
 10
864.98481190802966
 20
275.4154140516597
 11
864.99137348189777
 21
275.43389581805485
  0
LINE
  8
_3-1_
  6
CONTINUOUS
 62
    7
 10
864.99137348189777
 20
275.43389581805485
 11
864.99618530273437
 21
275.45294625418524
  0
LINE
  8
_3-1_
  6
CONTINUOUS
 62
    7
 10
864.99618530273437
 20
275.45294625418524
 11
864.99907239523623
 21
275.47234664092184
  0
LINE
  8
_3-1_
  6
CONTINUOUS
 62
    7
 10
864.99907239523623
 20
275.47234664092184
 11
865.00003475940366
 21
275.49194387487461
  0
LINE
  8
_3-1_
  6
CONTINUOUS
 62
    7
 10
865.00003475940366
 20
275.49194387487461
 11
865.00003475940366
 21
275.69196251828703
  0
LINE
  8
_3-1_
  6
CONTINUOUS
 62
    7
 10
857.79997601011996
 20
275.29194710337521
 11
864.19996018575421
 21
275.29194710337521
  0
LINE
  8
_3-1_
  6
CONTINUOUS
 62
    7
 10
864.19996018575421
 20
275.29194710337521
 11
864.19996018575421
 21
272.09195501555797
  0
LINE
  8
_3-1_
  6
CONTINUOUS
 62
    7
 10
864.19996018575421
 20
272.09195501555797
 11
857.79997601011996
 21
272.09195501555797
  0
LINE
  8
_3-1_
  6
CONTINUOUS
 62
    7
 10
857.79997601011996
 20
272.09195501555797
 11
857.79997601011996
 21
275.29194710337521
  0
LINE
  8
_3-1_
  6
CONTINUOUS
 62
    7
 10
864.50004283065493
 20
272.29195178705754
 11
864.3059952194626
 21
272.49774461547372
  0
LINE
  8
_3-1_
  6
CONTINUOUS
 62
    7
 10
864.3059952194626
 20
272.49774461547372
 11
857.70881387717941
 21
272.69179222666622
  0
LINE
  8
_3-1_
  6
CONTINUOUS
 62
    7
 10
857.70881387717941
 20
272.69179222666622
 11
857.50304292067597
 21
272.49774461547372
  0
LINE
  8
_3-1_
  6
CONTINUOUS
 62
    7
 10
857.50304292067597
 20
272.49774461547372
 11
857.6970905318683
 21
272.29195178705754
  0
LINE
  8
_3-1_
  6
CONTINUOUS
 62
    7
 10
857.6970905318683
 20
272.29195178705754
 11
864.29418438650009
 21
272.09792604777806
  0
LINE
  8
_3-1_
  6
CONTINUOUS
 62
    7
 10
864.29418438650009
 20
272.09792604777806
 11
864.50004283065493
 21
272.29195178705754
  0
LINE
  8
_3-1_
  6
CONTINUOUS
 62
    7
 10
864.50004283065493
 20
272.89196397346871
 11
864.3059952194626
 21
273.09775680188511
  0
LINE
  8
_3-1_
  6
CONTINUOUS
 62
    7
 10
864.3059952194626
 20
273.09775680188511
 11
857.70881387717941
 21
273.29178254116459
  0
LINE
  8
_3-1_
  6
CONTINUOUS
 62
    7
 10
857.70881387717941
 20
273.29178254116459
 11
857.50304292067597
 21
273.09775680188511
  0
LINE
  8
_3-1_
  6
CONTINUOUS
 62
    7
 10
857.50304292067597
 20
273.09775680188511
 11
857.6970905318683
 21
272.89196397346871
  0
LINE
  8
_3-1_
  6
CONTINUOUS
 62
    7
 10
857.6970905318683
 20
272.89196397346871
 11
864.29418438650009
 21
272.69791636227637
  0
LINE
  8
_3-1_
  6
CONTINUOUS
 62
    7
 10
864.29418438650009
 20
272.69791636227637
 11
864.50004283065493
 21
272.89196397346871
  0
LINE
  8
_3-1_
  6
CONTINUOUS
 62
    7
 10
864.50004283065493
 20
273.49195428796719
 11
864.3059952194626
 21
273.69774711638343
  0
LINE
  8
_3-1_
  6
CONTINUOUS
 62
    7
 10
864.3059952194626
 20
273.69774711638343
 11
857.70881387717941
 21
273.89177285566291
  0
LINE
  8
_3-1_
  6
CONTINUOUS
 62
    7
 10
857.70881387717941
 20
273.89177285566291
 11
857.50304292067597
 21
273.69774711638343
  0
LINE
  8
_3-1_
  6
CONTINUOUS
 62
    7
 10
857.50304292067597
 20
273.69774711638343
 11
857.6970905318683
 21
273.49195428796719
  0
LINE
  8
_3-1_
  6
CONTINUOUS
 62
    7
 10
857.6970905318683
 20
273.49195428796719
 11
864.29418438650009
 21
273.29792854868771
  0
LINE
  8
_3-1_
  6
CONTINUOUS
 62
    7
 10
864.29418438650009
 20
273.29792854868771
 11
864.50004283065493
 21
273.49195428796719
  0
LINE
  8
_3-1_
  6
CONTINUOUS
 62
    7
 10
864.50004283065493
 20
274.09194460246556
 11
864.3059952194626
 21
274.29773743088174
  0
LINE
  8
_3-1_
  6
CONTINUOUS
 62
    7
 10
864.3059952194626
 20
274.29773743088174
 11
857.70881387717941
 21
274.49178504207424
  0
LINE
  8
_3-1_
  6
CONTINUOUS
 62
    7
 10
857.70881387717941
 20
274.49178504207424
 11
857.50304292067597
 21
274.29773743088174
  0
LINE
  8
_3-1_
  6
CONTINUOUS
 62
    7
 10
857.50304292067597
 20
274.29773743088174
 11
857.6970905318683
 21
274.09194460246556
  0
LINE
  8
_3-1_
  6
CONTINUOUS
 62
    7
 10
857.6970905318683
 20
274.09194460246556
 11
864.29418438650009
 21
273.89791886318608
  0
LINE
  8
_3-1_
  6
CONTINUOUS
 62
    7
 10
864.29418438650009
 20
273.89791886318608
 11
864.50004283065493
 21
274.09194460246556
  0
LINE
  8
_3-1_
  6
CONTINUOUS
 62
    7
 10
858.05797709461342
 20
272.09195501555797
 11
861.45800969775576
 21
272.09195501555797
  0
LINE
  8
_3-1_
  6
CONTINUOUS
 62
    7
 10
861.45800969775576
 20
272.09195501555797
 11
861.45800969775576
 21
271.29194605764735
  0
LINE
  8
_3-1_
  6
CONTINUOUS
 62
    7
 10
861.45800969775576
 20
271.29194605764735
 11
858.05797709461342
 21
271.29194605764735
  0
LINE
  8
_3-1_
  6
CONTINUOUS
 62
    7
 10
858.05797709461342
 20
271.29194605764735
 11
858.05797709461342
 21
272.09195501555797
  0
LINE
  8
_3-1_
  6
CONTINUOUS
 62
    7
 10
861.45800969775576
 20
271.29194605764735
 11
860.75802099750763
 21
269.69195001373873
  0
LINE
  8
_3-1_
  6
CONTINUOUS
 62
    7
 10
860.75802099750763
 20
269.69195001373873
 11
858.75796579486155
 21
269.69195001373873
  0
LINE
  8
_3-1_
  6
CONTINUOUS
 62
    7
 10
858.75796579486155
 20
269.69195001373873
 11
858.05797709461342
 21
271.29194605764735
  0
LINE
  8
_3-1_
  6
CONTINUOUS
 62
    7
 10
854.35541219232618
 20
284.06494634031787
 11
867.15538054359456
 21
284.06494634031787
  0
LINE
  8
_3-1_
  6
CONTINUOUS
 62
    7
 10
867.15538054359456
 20
284.06494634031787
 11
867.15538054359456
 21
283.66495279731896
  0
LINE
  8
_3-1_
  6
CONTINUOUS
 62
    7
 10
867.15538054359456
 20
283.66495279731896
 11
854.35541219232618
 21
283.66495279731896
  0
LINE
  8
_3-1_
  6
CONTINUOUS
 62
    7
 10
854.35541219232618
 20
283.66495279731896
 11
854.35541219232618
 21
284.06494634031787
  0
LINE
  8
_3-1_
  6
CONTINUOUS
 62
    7
 10
854.35541219232618
 20
285.66494238422649
 11
867.15538054359456
 21
285.66494238422649
  0
LINE
  8
_3-1_
  6
CONTINUOUS
 62
    7
 10
867.15538054359456
 20
285.66494238422649
 11
867.15538054359456
 21
284.06494634031787
  0
LINE
  8
_3-1_
  6
CONTINUOUS
 62
    7
 10
867.15538054359456
 20
284.06494634031787
 11
854.35541219232618
 21
284.06494634031787
  0
LINE
  8
_3-1_
  6
CONTINUOUS
 62
    7
 10
854.35541219232618
 20
284.06494634031787
 11
854.35541219232618
 21
285.66494238422649
  0
LINE
  8
_3-1_
  6
CONTINUOUS
 62
    7
 10
851.7554541628333
 20
284.99275288526621
 11
869.75542606073918
 21
284.99275288526621
  0
LINE
  8
_3-1_
  6
CONTINUOUS
 62
    7
 10
869.75542606073918
 20
284.99275288526621
 11
869.75542606073918
 21
284.59275934226724
  0
LINE
  8
_3-1_
  6
CONTINUOUS
 62
    7
 10
869.75542606073918
 20
284.59275934226724
 11
851.7554541628333
 21
284.59275934226724
  0
LINE
  8
_3-1_
  6
CONTINUOUS
 62
    7
 10
851.7554541628333
 20
284.59275934226724
 11
851.7554541628333
 21
284.99275288526621
  0
LINE
  8
_3-1_
  6
CONTINUOUS
 62
    7
 10
846.75544738769531
 20
291.66493301686171
 11
874.75543283587717
 21
291.66493301686171
  0
LINE
  8
_3-1_
  6
CONTINUOUS
 62
    7
 10
874.75543283587717
 20
291.66493301686171
 11
874.75543283587717
 21
291.2649394738628
  0
LINE
  8
_3-1_
  6
CONTINUOUS
 62
    7
 10
874.75543283587717
 20
291.2649394738628
 11
846.75544738769531
 21
291.2649394738628
  0
LINE
  8
_3-1_
  6
CONTINUOUS
 62
    7
 10
846.75544738769531
 20
291.2649394738628
 11
846.75544738769531
 21
291.66493301686171
  0
LINE
  8
_3-1_
  6
CONTINUOUS
 62
    7
 10
854.35541219232618
 20
291.2649394738628
 11
867.15538054359456
 21
291.2649394738628
  0
LINE
  8
_3-1_
  6
CONTINUOUS
 62
    7
 10
867.15538054359456
 20
291.2649394738628
 11
867.15538054359456
 21
285.66494238422649
  0
LINE
  8
_3-1_
  6
CONTINUOUS
 62
    7
 10
867.15538054359456
 20
285.66494238422649
 11
854.35541219232618
 21
285.66494238422649
  0
LINE
  8
_3-1_
  6
CONTINUOUS
 62
    7
 10
854.35541219232618
 20
285.66494238422649
 11
854.35541219232618
 21
291.2649394738628
  0
LINE
  8
_3-1_
  6
CONTINUOUS
 62
    7
 10
846.99997537384615
 20
287.66495384304676
 11
874.99996082202802
 21
287.66495384304676
  0
LINE
  8
_3-1_
  6
CONTINUOUS
 62
    7
 10
874.99996082202802
 20
287.66495384304676
 11
874.99996082202802
 21
286.98493419927058
  0
LINE
  8
_3-1_
  6
CONTINUOUS
 62
    7
 10
874.99996082202802
 20
286.98493419927058
 11
846.99997537384615
 21
286.98493419927058
  0
LINE
  8
_3-1_
  6
CONTINUOUS
 62
    7
 10
846.99997537384615
 20
286.98493419927058
 11
846.99997537384615
 21
287.66495384304676
  0
LINE
  8
_3-1_
  6
CONTINUOUS
 62
    7
 10
851.79998537748475
 20
286.98493419927058
 11
870.20003830604105
 21
286.98493419927058
  0
LINE
  8
_3-1_
  6
CONTINUOUS
 62
    7
 10
870.20003830604105
 20
286.98493419927058
 11
870.20003830604105
 21
272.98494147517971
  0
LINE
  8
_3-1_
  6
CONTINUOUS
 62
    7
 10
870.20003830604105
 20
272.98494147517971
 11
851.79998537748475
 21
272.98494147517971
  0
LINE
  8
_3-1_
  6
CONTINUOUS
 62
    7
 10
851.79998537748475
 20
272.98494147517971
 11
851.79998537748475
 21
286.98493419927058
  0
LINE
  8
_3-1_
  6
CONTINUOUS
 62
    7
 10
870.20003830604105
 20
286.58494065627167
 11
870.60003184903985
 21
286.98493419927058
  0
LINE
  8
_3-1_
  6
CONTINUOUS
 62
    7
 10
870.60003184903985
 20
286.98493419927058
 11
851.39999183448583
 21
286.98493419927058
  0
LINE
  8
_3-1_
  6
CONTINUOUS
 62
    7
 10
851.39999183448583
 20
286.98493419927058
 11
851.79998537748475
 21
286.58494065627167
  0
LINE
  8
_3-1_
  6
CONTINUOUS
 62
    7
 10
870.20003830604105
 20
286.58494065627167
 11
851.79998537748475
 21
286.58494065627167
  0
LINE
  8
_3-1_
  6
CONTINUOUS
 62
    7
 10
870.4010849293594
 20
273.18386652294737
 11
870.20327534914929
 21
273.38600674191042
  0
LINE
  8
_3-1_
  6
CONTINUOUS
 62
    7
 10
870.20327534914929
 20
273.38600674191042
 11
851.80435976006356
 21
273.58488804585221
  0
LINE
  8
_3-1_
  6
CONTINUOUS
 62
    7
 10
851.80435976006356
 20
273.58488804585221
 11
851.60217579727464
 21
273.38707846564216
  0
LINE
  8
_3-1_
  6
CONTINUOUS
 62
    7
 10
851.60217579727464
 20
273.38707846564216
 11
851.79998537748475
 21
273.18491637476626
  0
LINE
  8
_3-1_
  6
CONTINUOUS
 62
    7
 10
851.79998537748475
 20
273.18491637476626
 11
870.19890096657059
 21
272.9860350708243
  0
LINE
  8
_3-1_
  6
CONTINUOUS
 62
    7
 10
870.19890096657059
 20
272.9860350708243
 11
870.4010849293594
 21
273.18386652294737
  0
LINE
  8
_3-1_
  6
CONTINUOUS
 62
    7
 10
870.4010849293594
 20
274.1838503804446
 11
870.20327534914929
 21
274.38601247132056
  0
LINE
  8
_3-1_
  6
CONTINUOUS
 62
    7
 10
870.20327534914929
 20
274.38601247132056
 11
851.80435976006356
 21
274.58489377526234
  0
LINE
  8
_3-1_
  6
CONTINUOUS
 62
    7
 10
851.80435976006356
 20
274.58489377526234
 11
851.60217579727464
 21
274.3870623231395
  0
LINE
  8
_3-1_
  6
CONTINUOUS
 62
    7
 10
851.60217579727464
 20
274.3870623231395
 11
851.79998537748475
 21
274.18492210417639
  0
LINE
  8
_3-1_
  6
CONTINUOUS
 62
    7
 10
851.79998537748475
 20
274.18492210417639
 11
870.19890096657059
 21
273.98604080023449
  0
LINE
  8
_3-1_
  6
CONTINUOUS
 62
    7
 10
870.19890096657059
 20
273.98604080023449
 11
870.4010849293594
 21
274.1838503804446
  0
LINE
  8
_3-1_
  6
CONTINUOUS
 62
    7
 10
870.4010849293594
 20
275.18385610985479
 11
870.20327534914929
 21
275.38599632881784
  0
LINE
  8
_3-1_
  6
CONTINUOUS
 62
    7
 10
870.20327534914929
 20
275.38599632881784
 11
851.80435976006356
 21
275.58489950467265
  0
LINE
  8
_3-1_
  6
CONTINUOUS
 62
    7
 10
851.80435976006356
 20
275.58489950467265
 11
851.60217579727464
 21
275.38706805254958
  0
LINE
  8
_3-1_
  6
CONTINUOUS
 62
    7
 10
851.60217579727464
 20
275.38706805254958
 11
851.79998537748475
 21
275.18492783358653
  0
LINE
  8
_3-1_
  6
CONTINUOUS
 62
    7
 10
851.79998537748475
 20
275.18492783358653
 11
870.19890096657059
 21
274.98602465773172
  0
LINE
  8
_3-1_
  6
CONTINUOUS
 62
    7
 10
870.19890096657059
 20
274.98602465773172
 11
870.4010849293594
 21
275.18385610985479
  0
LINE
  8
_3-1_
  6
CONTINUOUS
 62
    7
 10
870.4010849293594
 20
276.18386183926503
 11
870.20327534914929
 21
276.38600205822797
  0
LINE
  8
_3-1_
  6
CONTINUOUS
 62
    7
 10
870.20327534914929
 20
276.38600205822797
 11
851.80435976006356
 21
276.58490523408273
  0
LINE
  8
_3-1_
  6
CONTINUOUS
 62
    7
 10
851.80435976006356
 20
276.58490523408273
 11
851.60217579727464
 21
276.38707378195977
  0
LINE
  8
_3-1_
  6
CONTINUOUS
 62
    7
 10
851.60217579727464
 20
276.38707378195977
 11
851.79998537748475
 21
276.18491169108381
  0
LINE
  8
_3-1_
  6
CONTINUOUS
 62
    7
 10
851.79998537748475
 20
276.18491169108381
 11
870.19890096657059
 21
275.98603038714202
  0
LINE
  8
_3-1_
  6
CONTINUOUS
 62
    7
 10
870.19890096657059
 20
275.98603038714202
 11
870.4010849293594
 21
276.18386183926503
  0
LINE
  8
_3-1_
  6
CONTINUOUS
 62
    7
 10
870.4010849293594
 20
277.18386756867517
 11
870.20327534914929
 21
277.38600778763811
  0
LINE
  8
_3-1_
  6
CONTINUOUS
 62
    7
 10
870.20327534914929
 20
277.38600778763811
 11
851.80435976006356
 21
277.58488909158007
  0
LINE
  8
_3-1_
  6
CONTINUOUS
 62
    7
 10
851.80435976006356
 20
277.58488909158007
 11
851.60217579727464
 21
277.38707951137002
  0
LINE
  8
_3-1_
  6
CONTINUOUS
 62
    7
 10
851.60217579727464
 20
277.38707951137002
 11
851.79998537748475
 21
277.18491742049395
  0
LINE
  8
_3-1_
  6
CONTINUOUS
 62
    7
 10
851.79998537748475
 20
277.18491742049395
 11
870.19890096657059
 21
276.98603611655216
  0
LINE
  8
_3-1_
  6
CONTINUOUS
 62
    7
 10
870.19890096657059
 20
276.98603611655216
 11
870.4010849293594
 21
277.18386756867517
  0
LINE
  8
_3-1_
  6
CONTINUOUS
 62
    7
 10
870.4010849293594
 20
278.18385142617245
 11
870.20327534914929
 21
278.38601351704835
  0
LINE
  8
_3-1_
  6
CONTINUOUS
 62
    7
 10
870.20327534914929
 20
278.38601351704835
 11
851.80435976006356
 21
278.58489482099031
  0
LINE
  8
_3-1_
  6
CONTINUOUS
 62
    7
 10
851.80435976006356
 20
278.58489482099031
 11
851.60217579727464
 21
278.3870633688673
  0
LINE
  8
_3-1_
  6
CONTINUOUS
 62
    7
 10
851.60217579727464
 20
278.3870633688673
 11
851.79998537748475
 21
278.18492314990419
  0
LINE
  8
_3-1_
  6
CONTINUOUS
 62
    7
 10
851.79998537748475
 20
278.18492314990419
 11
870.19890096657059
 21
277.98601997404944
  0
LINE
  8
_3-1_
  6
CONTINUOUS
 62
    7
 10
870.19890096657059
 20
277.98601997404944
 11
870.4010849293594
 21
278.18385142617245
  0
LINE
  8
_3-1_
  6
CONTINUOUS
 62
    7
 10
870.4010849293594
 20
279.18385715558259
 11
870.20327534914929
 21
279.3859973745457
  0
LINE
  8
_3-1_
  6
CONTINUOUS
 62
    7
 10
870.20327534914929
 20
279.3859973745457
 11
851.80435976006356
 21
279.58490055040045
  0
LINE
  8
_3-1_
  6
CONTINUOUS
 62
    7
 10
851.80435976006356
 20
279.58490055040045
 11
851.60217579727464
 21
279.38706909827744
  0
LINE
  8
_3-1_
  6
CONTINUOUS
 62
    7
 10
851.60217579727464
 20
279.38706909827744
 11
851.79998537748475
 21
279.18492887931438
  0
LINE
  8
_3-1_
  6
CONTINUOUS
 62
    7
 10
851.79998537748475
 20
279.18492887931438
 11
870.19890096657059
 21
278.98602570345957
  0
LINE
  8
_3-1_
  6
CONTINUOUS
 62
    7
 10
870.19890096657059
 20
278.98602570345957
 11
870.4010849293594
 21
279.18385715558259
  0
LINE
  8
_3-1_
  6
CONTINUOUS
 62
    7
 10
870.4010849293594
 20
280.18386288499272
 11
870.20327534914929
 21
280.38600310395577
  0
LINE
  8
_3-1_
  6
CONTINUOUS
 62
    7
 10
870.20327534914929
 20
280.38600310395577
 11
851.80435976006356
 21
280.58490627981058
  0
LINE
  8
_3-1_
  6
CONTINUOUS
 62
    7
 10
851.80435976006356
 20
280.58490627981058
 11
851.60217579727464
 21
280.38707482768757
  0
LINE
  8
_3-1_
  6
CONTINUOUS
 62
    7
 10
851.60217579727464
 20
280.38707482768757
 11
851.79998537748475
 21
280.18491273681161
  0
LINE
  8
_3-1_
  6
CONTINUOUS
 62
    7
 10
851.79998537748475
 20
280.18491273681161
 11
870.19890096657059
 21
279.98603143286971
  0
LINE
  8
_3-1_
  6
CONTINUOUS
 62
    7
 10
870.19890096657059
 20
279.98603143286971
 11
870.4010849293594
 21
280.18386288499272
  0
LINE
  8
_3-1_
  6
CONTINUOUS
 62
    7
 10
870.4010849293594
 20
281.18384674249
 11
870.20327534914929
 21
281.38600883336608
  0
LINE
  8
_3-1_
  6
CONTINUOUS
 62
    7
 10
870.20327534914929
 20
281.38600883336608
 11
851.80435976006356
 21
281.58489013730787
  0
LINE
  8
_3-1_
  6
CONTINUOUS
 62
    7
 10
851.80435976006356
 20
281.58489013730787
 11
851.60217579727464
 21
281.3870805570977
  0
LINE
  8
_3-1_
  6
CONTINUOUS
 62
    7
 10
851.60217579727464
 20
281.3870805570977
 11
851.79998537748475
 21
281.18491846622192
  0
LINE
  8
_3-1_
  6
CONTINUOUS
 62
    7
 10
851.79998537748475
 20
281.18491846622192
 11
870.19890096657059
 21
280.98603716228001
  0
LINE
  8
_3-1_
  6
CONTINUOUS
 62
    7
 10
870.19890096657059
 20
280.98603716228001
 11
870.4010849293594
 21
281.18384674249
  0
LINE
  8
_3-1_
  6
CONTINUOUS
 62
    7
 10
870.4010849293594
 20
282.18385247190031
 11
870.20327534914929
 21
282.38601456277621
  0
LINE
  8
_3-1_
  6
CONTINUOUS
 62
    7
 10
870.20327534914929
 20
282.38601456277621
 11
851.80435976006356
 21
282.584895866718
  0
LINE
  8
_3-1_
  6
CONTINUOUS
 62
    7
 10
851.80435976006356
 20
282.584895866718
 11
851.60217579727464
 21
282.38706441459499
  0
LINE
  8
_3-1_
  6
CONTINUOUS
 62
    7
 10
851.60217579727464
 20
282.38706441459499
 11
851.79998537748475
 21
282.18492419563205
  0
LINE
  8
_3-1_
  6
CONTINUOUS
 62
    7
 10
851.79998537748475
 20
282.18492419563205
 11
870.19890096657059
 21
281.98602101977724
  0
LINE
  8
_3-1_
  6
CONTINUOUS
 62
    7
 10
870.19890096657059
 20
281.98602101977724
 11
870.4010849293594
 21
282.18385247190031
  0
LINE
  8
_3-1_
  6
CONTINUOUS
 62
    7
 10
870.4010849293594
 20
283.18385820131039
 11
870.20327534914929
 21
283.38599842027349
  0
LINE
  8
_3-1_
  6
CONTINUOUS
 62
    7
 10
870.20327534914929
 20
283.38599842027349
 11
851.80435976006356
 21
283.58490159612825
  0
LINE
  8
_3-1_
  6
CONTINUOUS
 62
    7
 10
851.80435976006356
 20
283.58490159612825
 11
851.60217579727464
 21
283.38707014400529
  0
LINE
  8
_3-1_
  6
CONTINUOUS
 62
    7
 10
851.60217579727464
 20
283.38707014400529
 11
851.79998537748475
 21
283.18492992504218
  0
LINE
  8
_3-1_
  6
CONTINUOUS
 62
    7
 10
851.79998537748475
 20
283.18492992504218
 11
870.19890096657059
 21
282.98602674918743
  0
LINE
  8
_3-1_
  6
CONTINUOUS
 62
    7
 10
870.19890096657059
 20
282.98602674918743
 11
870.4010849293594
 21
283.18385820131039
  0
LINE
  8
_3-1_
  6
CONTINUOUS
 62
    7
 10
870.4010849293594
 20
284.18386393072069
 11
870.20327534914929
 21
284.38600414968363
  0
LINE
  8
_3-1_
  6
CONTINUOUS
 62
    7
 10
870.20327534914929
 20
284.38600414968363
 11
851.80435976006356
 21
284.58490732553844
  0
LINE
  8
_3-1_
  6
CONTINUOUS
 62
    7
 10
851.80435976006356
 20
284.58490732553844
 11
851.60217579727464
 21
284.38707587341537
  0
LINE
  8
_3-1_
  6
CONTINUOUS
 62
    7
 10
851.60217579727464
 20
284.38707587341537
 11
851.79998537748475
 21
284.18491378253947
  0
LINE
  8
_3-1_
  6
CONTINUOUS
 62
    7
 10
851.79998537748475
 20
284.18491378253947
 11
870.19890096657059
 21
283.98603247859768
  0
LINE
  8
_3-1_
  6
CONTINUOUS
 62
    7
 10
870.19890096657059
 20
283.98603247859768
 11
870.4010849293594
 21
284.18386393072069
  0
LINE
  8
_3-1_
  6
CONTINUOUS
 62
    7
 10
870.4010849293594
 20
285.18384778821797
 11
870.20327534914929
 21
285.38600987909376
  0
LINE
  8
_3-1_
  6
CONTINUOUS
 62
    7
 10
870.20327534914929
 20
285.38600987909376
 11
851.80435976006356
 21
285.58489118303567
  0
LINE
  8
_3-1_
  6
CONTINUOUS
 62
    7
 10
851.80435976006356
 20
285.58489118303567
 11
851.60217579727464
 21
285.38705973091271
  0
LINE
  8
_3-1_
  6
CONTINUOUS
 62
    7
 10
851.60217579727464
 20
285.38705973091271
 11
851.79998537748475
 21
285.1849195119496
  0
LINE
  8
_3-1_
  6
CONTINUOUS
 62
    7
 10
851.79998537748475
 20
285.1849195119496
 11
870.19890096657059
 21
284.98603820800781
  0
LINE
  8
_3-1_
  6
CONTINUOUS
 62
    7
 10
870.19890096657059
 20
284.98603820800781
 11
870.4010849293594
 21
285.18384778821797
  0
LINE
  8
_3-1_
  6
CONTINUOUS
 62
    7
 10
848.00380868801267
 20
274.32555850408249
 11
874.00382642120007
 21
274.32555850408249
  0
LINE
  8
_3-1_
  6
CONTINUOUS
 62
    7
 10
874.00382642120007
 20
274.32555850408249
 11
874.00382642120007
 21
273.47043232567984
  0
LINE
  8
_3-1_
  6
CONTINUOUS
 62
    7
 10
874.00382642120007
 20
273.47043232567984
 11
848.00380868801267
 21
273.47043232567984
  0
LINE
  8
_3-1_
  6
CONTINUOUS
 62
    7
 10
848.00380868801267
 20
273.47043232567984
 11
848.00380868801267
 21
274.32555850408249
  0
LINE
  8
_3-1_
  6
CONTINUOUS
 62
    7
 10
850.93516994167021
 20
273.47043232567984
 11
871.07237767989102
 21
273.47043232567984
  0
LINE
  8
_3-1_
  6
CONTINUOUS
 62
    7
 10
871.07237767989102
 20
273.47043232567984
 11
871.07237767989102
 21
271.33258407180364
  0
LINE
  8
_3-1_
  6
CONTINUOUS
 62
    7
 10
871.07237767989102
 20
271.33258407180364
 11
850.93516994167021
 21
271.33258407180364
  0
LINE
  8
_3-1_
  6
CONTINUOUS
 62
    7
 10
850.93516994167021
 20
271.33258407180364
 11
850.93516994167021
 21
273.47043232567984
  0
LINE
  8
_3-1_
  6
CONTINUOUS
 62
    7
 10
866.03807574533573
 20
271.33258407180364
 11
866.03807574533573
 21
273.47043232567984
  0
LINE
  8
_3-1_
  6
CONTINUOUS
 62
    7
 10
855.96947187622527
 20
271.33258407180364
 11
855.96947187622527
 21
273.47043232567984
  0
LINE
  8
_3-1_
  6
CONTINUOUS
 62
    7
 10
848.2586602170494
 20
274.72391165361444
 11
873.74888740451172
 21
274.72391165361444
  0
LINE
  8
_3-1_
  6
CONTINUOUS
 62
    7
 10
873.74888740451172
 20
274.72391165361444
 11
873.74888740451172
 21
274.29635950036953
  0
LINE
  8
_3-1_
  6
CONTINUOUS
 62
    7
 10
873.74888740451172
 20
274.29635950036953
 11
848.2586602170494
 21
274.29635950036953
  0
LINE
  8
_3-1_
  6
CONTINUOUS
 62
    7
 10
848.2586602170494
 20
274.29635950036953
 11
848.2586602170494
 21
274.72391165361444
  0
ARC
  8
_1-1_
  6
CONTINUOUS
 62
    7
 10
871.39127016988039
 20
278.72325654195549
 40
4.0000000204819051
 50
268.95835876464844
 51
322.75639343261719
  0
ARC
  8
_1-1_
  6
CONTINUOUS
 62
    7
 10
869.04380150283157
 20
283.56672603651361
 40
4.0000000204819051
 50
268.95835876464844
 51
322.75639343261719
  0
ARC
  8
_1-1_
  6
CONTINUOUS
 62
    7
 10
842.95655858102452
 20
284.04104033952507
 40
4.0000000204819051
 50
36.49365234375
 51
88.958358764648438
  0
ARC
  8
_1-1_
  6
CONTINUOUS
 62
    7
 10
840.50445468269254
 20
279.28483977741251
 40
4.0000000204819051
 50
36.49365234375
 51
88.958358764648438
  0
ARC
  8
_1-1_
  6
CONTINUOUS
 62
    7
 10
853.04344736931398
 20
283.85764434991188
 40
4.0000000204819051
 50
216.49365234375
 51
268.95835876464844
  0
ARC
  8
_1-1_
  6
CONTINUOUS
 62
    7
 10
850.59134347098211
 20
279.10144378779933
 40
4.0000000204819051
 50
216.49365234375
 51
268.95835876464844
  0
ARC
  8
_1-1_
  6
CONTINUOUS
 62
    7
 10
878.95615242622989
 20
283.38650147427006
 40
4.0000000204819051
 50
88.958358764648438
 51
142.75639343261719
  0
ARC
  8
_1-1_
  6
CONTINUOUS
 62
    7
 10
881.30362109327859
 20
278.54303197971177
 40
4.0000000204819051
 50
88.958358764648438
 51
142.75639343261719
  0
ARC
  8
_1-0_
  6
CONTINUOUS
 62
    7
 10
910.54601868147085
 20
298.02231070617904
 40
16.00000008192762
 50
268.85423278808594
 51
353.90174865722656
  0
ARC
  8
_1-0_
  6
CONTINUOUS
 62
    7
 10
908.64937388298586
 20
302.86120897094247
 40
16.00000008192762
 50
268.85423278808594
 51
353.90174865722656
  0
ARC
  8
_1-0_
  6
CONTINUOUS
 62
    7
 10
871.39127016988039
 20
278.82034596329021
 40
4.0000000204819051
 50
268.95835876464844
 51
322.75639343261719
  0
ARC
  8
_1-0_
  6
CONTINUOUS
 62
    7
 10
869.04380150283157
 20
283.6638154578485
 40
4.0000000204819051
 50
268.95835876464844
 51
322.75639343261719
  0
ARC
  8
_1-0_
  6
CONTINUOUS
 62
    7
 10
842.95655858102452
 20
284.13812976086007
 40
4.0000000204819051
 50
36.49365234375
 51
88.958358764648438
  0
ARC
  8
_1-0_
  6
CONTINUOUS
 62
    7
 10
840.50445468269254
 20
279.38190732683449
 40
4.0000000204819051
 50
36.49365234375
 51
88.958358764648438
  0
ARC
  8
_1-0_
  6
CONTINUOUS
 62
    7
 10
853.04344736931398
 20
283.95473377124688
 40
4.0000000204819051
 50
216.49365234375
 51
268.95835876464844
  0
ARC
  8
_1-0_
  6
CONTINUOUS
 62
    7
 10
850.59134347098211
 20
279.19851133722136
 40
4.0000000204819051
 50
216.49365234375
 51
268.95835876464844
  0
ARC
  8
_1-0_
  6
CONTINUOUS
 62
    7
 10
878.95615242622989
 20
283.48359089560489
 40
4.0000000204819051
 50
88.958358764648438
 51
142.75639343261719
  0
ARC
  8
_1-0_
  6
CONTINUOUS
 62
    7
 10
881.30362109327859
 20
278.6401214010466
 40
4.0000000204819051
 50
88.958358764648438
 51
142.75639343261719
  0
ARC
  8
_1-0_
  6
CONTINUOUS
 62
    7
 10
533.47165950937153
 20
310.36373440363235
 40
16.00000008192762
 50
204.05744934082031
 51
268.84832763671875
  0
ARC
  8
_1-0_
  6
CONTINUOUS
 62
    7
 10
532.984615753056
 20
305.56728952179537
 40
16.00000008192762
 50
204.05744934082031
 51
268.84846496582031
  0
ARC
  8
_1-0_
  6
CONTINUOUS
 62
    7
 10
969.0000182045012
 20
1027.0002192788143
 40
4.0000000204819051
 50
0
 51
90
  0
ARC
  8
_1-0_
  6
CONTINUOUS
 62
    7
 10
455.00000412399697
 20
773.00020755487981
 40
12.000000403194353
 50
180
 51
270
  0
ARC
  8
_1-0_
  6
CONTINUOUS
 62
    7
 10
931.00001920604325
 20
773.00020755487981
 40
12.000000403194353
 50
270
 51
0
  0
ARC
  8
_1-0_
  6
CONTINUOUS
 62
    7
 10
931.00001920604325
 20
989.00022028035642
 40
12.000000403194353
 50
0
 51
90
  0
ARC
  8
_1-0_
  6
CONTINUOUS
 62
    7
 10
910.99999210549129
 20
793.00014716778026
 40
12.000000403194353
 50
270
 51
0
  0
ARC
  8
_1-0_
  6
CONTINUOUS
 62
    7
 10
910.99999210549129
 20
969.00019317980434
 40
12.000000403194353
 50
0
 51
90
  0
ARC
  8
_1-0_
  6
CONTINUOUS
 62
    7
 10
417.00000512553913
 20
1027.0002192788143
 40
4.0000000204819051
 50
90
 51
180
  0
ARC
  8
_1-0_
  6
CONTINUOUS
 62
    7
 10
455.00000412399697
 20
989.00022028035642
 40
12.000000403194353
 50
90
 51
180
  0
ARC
  8
_1-0_
  6
CONTINUOUS
 62
    7
 10
534.99998129472772
 20
793.00014716778026
 40
12.000000403194353
 50
180
 51
270
  0
ARC
  8
_1-0_
  6
CONTINUOUS
 62
    7
 10
534.99998129472772
 20
969.00019317980434
 40
12.000000403194353
 50
90
 51
180
  0
ARC
  8
_1-0_
  6
CONTINUOUS
 62
    7
 10
417.00000512553913
 20
735.00020855642197
 40
4.0000000204819051
 50
180
 51
270
  0
ARC
  8
_1-0_
  6
CONTINUOUS
 62
    7
 10
969.0000182045012
 20
735.00020855642197
 40
4.0000000204819051
 50
270
 51
0
  0
CIRCLE
  8
_1-0_
  6
CONTINUOUS
 62
    7
 10
861.0000118417629
 20
881.000213917618
 40
16.00000008192762
  0
CIRCLE
  8
_1-0_
  6
CONTINUOUS
 62
    7
 10
861.0000118417629
 20
881.000213917618
 40
9.9999998803304422
  0
ARC
  8
_1-0_
  6
CONTINUOUS
 62
    7
 10
1365.4808445050448
 20
297.77004006286376
 40
16.00000008192762
 50
186.09820556640622
 51
270
  0
ARC
  8
_1-0_
  6
CONTINUOUS
 62
    7
 10
1538.6183820452006
 20
302.57005006650246
 40
16.00000008192762
 50
270
 51
353.90177917480469
  0
ARC
  8
_1-0_
  6
CONTINUOUS
 62
    7
 10
1367.3816887108055
 20
302.57005006650246
 40
16.00000008192762
 50
186.09820556640622
 51
270
  0
ARC
  8
_1-0_
  6
CONTINUOUS
 62
    7
 10
1540.5191387633099
 20
297.77004006286376
 40
16.00000008192762
 50
270
 51
353.90177917480469
  0
CIRCLE
  8
_3-1_
  6
CONTINUOUS
 62
    7
 10
861.0000118417629
 20
282.89195565183195
 40
1.0000000051204763
  0
ARC
  8
_3-1_
  6
CONTINUOUS
 62
    7
 10
860.75539636796043
 20
243.6649423400408
 40
50.000002135641324
 50
73.739791870117188
 51
106.26019287109375
  0
TEXT
  8
_0-0_
 62
    6
 10
2068.0662218484176
 20
1789.0034914937257
 40
100
 41
1
 50
0
  1
T 505-140w75_
  0
ENDSEC
  0
EOF
