  0
SECTION
  2
HEADER
  9
$ACADVER
  1
AC1015
  9
$ACADMAINTVER
 70
               6
  9
$DWGCODEPAGE
  3
ANSI_932
  9
$INSBASE
 10
0.0
 20
0.0
 30
0.0
  9
$EXTMIN
 10
1025.0042042160474
 20
311.19811563091639
 30
-7.2143055555555557
  9
$EXTMAX
 10
1868.1697078404118
 20
1720.5247021271136
 30
7.2143055555555557
  9
$LIMMIN
 10
0.0
 20
0.0
  9
$LIMMAX
 10
0.0
 20
0.0
  9
$ORTHOMODE
 70
               0
  9
$REGENMODE
 70
               1
  9
$FILLMODE
 70
               1
  9
$QTEXTMODE
 70
               0
  9
$MIRRTEXT
 70
               1
  9
$LTSCALE
 40
25.399999999999999
  9
$ATTMODE
 70
               1
  9
$TEXTSIZE
 40
0.2
  9
$TRACEWID
 40
1.0
  9
$TEXTSTYLE
  7
Standard
  9
$CLAYER
  8
一般
  9
$CELTYPE
  6
Continuous
  9
$CECOLOR
 62
             256
  9
$CELTSCALE
 40
1.0
  9
$DISPSILH
 70
               0
  9
$DIMSCALE
 40
1.0
  9
$DIMASZ
 40
0.18
  9
$DIMEXO
 40
0.0625
  9
$DIMDLI
 40
0.38
  9
$DIMRND
 40
0.0
  9
$DIMDLE
 40
0.0
  9
$DIMEXE
 40
0.18
  9
$DIMTP
 40
0.0
  9
$DIMTM
 40
0.0
  9
$DIMTXT
 40
0.18
  9
$DIMCEN
 40
0.09
  9
$DIMTSZ
 40
0.0
  9
$DIMTOL
 70
               0
  9
$DIMLIM
 70
               0
  9
$DIMTIH
 70
               1
  9
$DIMTOH
 70
               1
  9
$DIMSE1
 70
               0
  9
$DIMSE2
 70
               0
  9
$DIMTAD
 70
               0
  9
$DIMZIN
 70
               0
  9
$DIMBLK
  1

  9
$DIMASO
 70
               1
  9
$DIMSHO
 70
               1
  9
$DIMPOST
  1

  9
$DIMAPOST
  1

  9
$DIMALT
 70
               0
  9
$DIMALTD
 70
               2
  9
$DIMALTF
 40
25.399999999999999
  9
$DIMLFAC
 40
1.0
  9
$DIMTOFL
 70
               0
  9
$DIMTVP
 40
0.0
  9
$DIMTIX
 70
               0
  9
$DIMSOXD
 70
               0
  9
$DIMSAH
 70
               0
  9
$DIMBLK1
  1

  9
$DIMBLK2
  1

  9
$DIMSTYLE
  2
Standard
  9
$DIMCLRD
 70
               0
  9
$DIMCLRE
 70
               0
  9
$DIMCLRT
 70
               0
  9
$DIMTFAC
 40
1.0
  9
$DIMGAP
 40
0.09
  9
$DIMJUST
 70
               0
  9
$DIMSD1
 70
               0
  9
$DIMSD2
 70
               0
  9
$DIMTOLJ
 70
               1
  9
$DIMTZIN
 70
               0
  9
$DIMALTZ
 70
               0
  9
$DIMALTTZ
 70
               0
  9
$DIMUPT
 70
               0
  9
$DIMDEC
 70
               4
  9
$DIMTDEC
 70
               4
  9
$DIMALTU
 70
               2
  9
$DIMALTTD
 70
               2
  9
$DIMTXSTY
  7
Standard
  9
$DIMAUNIT
 70
               0
  9
$DIMADEC
 70
               0
  9
$DIMALTRND
 40
0.0
  9
$DIMAZIN
 70
               0
  9
$DIMDSEP
 70
               0
  9
$DIMATFIT
 70
               3
  9
$DIMFRAC
 70
               0
  9
$DIMLDRBLK
  1

  9
$DIMLUNIT
 70
               2
  9
$DIMLWD
 70
               0
  9
$DIMLWE
 70
               0
  9
$DIMTMOVE
 70
               0
  9
$LUNITS
 70
               2
  9
$LUPREC
 70
               4
  9
$SKETCHINC
 40
0.1
  9
$FILLETRAD
 40
0.0
  9
$AUNITS
 70
               0
  9
$AUPREC
 70
               0
  9
$MENU
  1
acad
  9
$ELEVATION
 40
0.0
  9
$PELEVATION
 40
0.0
  9
$THICKNESS
 40
0.0
  9
$LIMCHECK
 70
               0
  9
$CHAMFERA
 40
0.0
  9
$CHAMFERB
 40
0.0
  9
$CHAMFERC
 40
0.0
  9
$CHAMFERD
 40
0.0
  9
$SKPOLY
 70
               0
  9
$TDCREATE
 40
2455551.733564815
  9
$TDUCREATE
 40
0.000000000
  9
$TDUPDATE
 40
2455551.733564815
  9
$TDUUPDATE
 40
0.000000000
  9
$TDINDWG
 40
0.0000000000
  9
$TDUSRTIMER
 40
0.0000000000
  9
$USRTIMER
 70
               1
  9
$ANGBASE
 50
0.0
  9
$ANGDIR
 70
               0
  9
$PDMODE
 70
               1
  9
$PDSIZE
 40
-2.0
  9
$PLINEWID
 40
0.0
  9
$SPLFRAME
 70
               0
  9
$SPLINETYPE
 70
               6
  9
$SPLINESEGS
 70
               8
  9
$HANDSEED
  5
324
  9
$SURFTAB1
 70
               6
  9
$SURFTAB2
 70
               6
  9
$SURFTYPE
 70
               6
  9
$SURFU
 70
               6
  9
$SURFV
 70
               6
  9
$UCSBASE
  2

  9
$UCSNAME
  2

  9
$UCSORG
 10
0.0
 20
0.0
 30
0.0
  9
$UCSXDIR
 10
1.0
 20
0.0
 30
0.0
  9
$UCSYDIR
 10
0.0
 20
1.0
 30
0.0
  9
$UCSORTHOREF
  2

  9
$UCSORTHOVIEW
 70
               0
  9
$UCSORGTOP
 10
0.0
 20
0.0
 30
0.0
  9
$UCSORGBOTTOM
 10
0.0
 20
0.0
 30
0.0
  9
$UCSORGLEFT
 10
0.0
 20
0.0
 30
0.0
  9
$UCSORGRIGHT
 10
0.0
 20
0.0
 30
0.0
  9
$UCSORGFRONT
 10
0.0
 20
0.0
 30
0.0
  9
$UCSORGBACK
 10
0.0
 20
0.0
 30
0.0
  9
$PUCSBASE
  2

  9
$PUCSNAME
  2

  9
$PUCSORG
 10
0.0
 20
0.0
 30
0.0
  9
$PUCSXDIR
 10
1.0
 20
0.0
 30
0.0
  9
$PUCSYDIR
 10
0.0
 20
1.0
 30
0.0
  9
$PUCSORTHOREF
  2

  9
$PUCSORTHOVIEW
 70
               0
  9
$PUCSORGTOP
 10
0.0
 20
0.0
 30
0.0
  9
$PUCSORGBOTTOM
 10
0.0
 20
0.0
 30
0.0
  9
$PUCSORGLEFT
 10
0.0
 20
0.0
 30
0.0
  9
$PUCSORGRIGHT
 10
0.0
 20
0.0
 30
0.0
  9
$PUCSORGFRONT
 10
0.0
 20
0.0
 30
0.0
  9
$PUCSORGBACK
 10
0.0
 20
0.0
 30
0.0
  9
$USERI1
 70
               0
  9
$USERI2
 70
               0
  9
$USERI3
 70
               0
  9
$USERI4
 70
               0
  9
$USERI5
 70
               0
  9
$USERR1
 40
0.0
  9
$USERR2
 40
0.0
  9
$USERR3
 40
0.0
  9
$USERR4
 40
0.0
  9
$USERR5
 40
0.0
  9
$WORLDVIEW
 70
               1
  9
$SHADEDGE
 70
               3
  9
$SHADEDIF
 70
              70
  9
$TILEMODE
 70
               1
  9
$MAXACTVP
 70
              64
  9
$PINSBASE
 10
0.0
 20
0.0
 30
0.0
  9
$PLIMCHECK
 70
               0
  9
$PEXTMIN
 10
1.0000000000000000E+20
 20
1.0000000000000000E+20
 30
1.0000000000000000E+20
  9
$PEXTMAX
 10
-1.0000000000000000E+20
 20
-1.0000000000000000E+20
 30
-1.0000000000000000E+20
  9
$PLIMMIN
 10
0.0
 20
0.0
  9
$PLIMMAX
 10
12.0
 20
9.0
  9
$UNITMODE
 70
               0
  9
$VISRETAIN
 70
               0
  9
$PLINEGEN
 70
               1
  9
$PSLTSCALE
 70
               0
  9
$TREEDEPTH
 70
            3020
  9
$CMLSTYLE
  2
Standard
  9
$CMLJUST
 70
               0
  9
$CMLSCALE
 40
1.0
  9
$PROXYGRAPHICS
 70
               0
  9
$MEASUREMENT
 70
               1
  9
$CELWEIGHT
370
               0
  9
$ENDCAPS
280
               0
  9
$JOINSTYLE
280
               0
  9
$LWDISPLAY
290
               1
  9
$INSUNITS
 70
               4
  9
$HYPERLINKBASE
  1

  9
$STYLESHEET
  1

  9
$XEDIT
290
               1
  9
$CEPSNTYPE
380
               0
  9
$PSTYLEMODE
290
               1
  9
$FINGERPRINTGUID
  2

  9
$VERSIONGUID
  2

  9
$EXTNAMES
290
               1
  9
$PSVPSCALE
 40
0.0
  0
ENDSEC
  0
SECTION
  2
CLASSES
  0
CLASS
  1
LWPOLYLINE
  2
AcDbPolyline
  3
AutoCAD 2000
 90
        0
280
               0
281
               1
  0
CLASS
  1
IMAGE
  2
AcDbRasterImage
  3
ISM
 90
    32895
280
               0
281
               1
  0
CLASS
  1
OLE2FRAME
  2
AcDbOle2Frame
  3
AutoCAD 2000
 90
    32768
280
               0
281
               1
  0
CLASS
  1
HATCH
  2
AcDbHatch
  3
AutoCAD 2000
 90
    32768
280
               0
281
               1
  0
CLASS
  1
DICTIONARYVAR
  2
AcDbDictionaryVar
  3
AutoCAD 2000
 90
    32768
280
               0
281
               0
  0
CLASS
  1
RASTERVARIABLES
  2
AcDbRasterVariables
  3
ISM
 90
    32768
280
               0
281
               0
  0
CLASS
  1
IMAGEDEF
  2
AcDbRasterImageDef
  3
ISM
 90
    32768
280
               0
281
               0
  0
CLASS
  1
IMAGEDEF_REACTOR
  2
AcDbRasterImageDefReactor
  3
ISM
 90
    32769
280
               0
281
               0
  0
CLASS
  1
IDBUFFER
  2
AcDbIdBuffer
  3
AutoCAD 2000
 90
    32768
280
               0
281
               0
  0
CLASS
  1
SPATIAL_FILTER
  2
AcDbSpatialFilter
  3
AutoCAD 2000
 90
    32768
280
               0
281
               0
  0
CLASS
  1
XRECORD
  2
AcDbXrecord
  3
AutoCAD 2000
 90
    32768
280
               0
281
               0
  0
CLASS
  1
SORTENTSTABLE
  2
AcDbSortentsTable
  3
AutoCAD 2000
 90
    32768
280
               0
281
               0
  0
CLASS
  1
LAYER_INDEX
  2
AcDbLayerIndex
  3
AutoCAD 2000
 90
    32768
280
               0
281
               0
  0
CLASS
  1
SPATIAL_INDEX
  2
AcDbSpatialIndex
  3
AutoCAD 2000
 90
    32768
280
               0
281
               0
  0
CLASS
  1
OBJECT_PTR
  2
CAseDLPNTableRecord
  3
"ASE-LPNTableRecord"
 90
    32769
280
               0
281
               0
  0
CLASS
  1
LAYOUT
  2
AcDbLayout
  3
AutoCAD 2000
 90
        0
280
               0
281
               0
  0
CLASS
  1
PLOTSETTINGS
  2
AcDbPlotSettings
  3
AutoCAD 2000
 90
    32768
280
               0
281
               0
  0
CLASS
  1
ACDBDICTIONARYWDFLT
  2
AcDbDictionaryWithDefault
  3
AutoCAD 2000
 90
        0
280
               0
281
               0
  0
CLASS
  1
ACDBPLACEHOLDER
  2
AcDbPlaceHolder
  3
AutoCAD 2000
 90
        0
280
               0
281
               0
  0
CLASS
  1
VBA_PROJECT
  2
AcDbVbaProject
  3
acadvba
 90
    32768
280
               0
281
               0
  0
CLASS
  1
WIPEOUT
  2
AcDbWipeout
  3
WipeOut|AutoCAD Express Tool|expresstools@autodesk.com
 90
    32895
280
               0
281
               1
  0
CLASS
  1
WIPEOUTVARIABLES
  2
AcDbWipeoutVariables
  3
WipeOut|AutoCAD Express Tool|expresstools@autodesk.com
 90
        0
280
               0
281
               0
  0
CLASS
  1
RTEXT
  2
RText
  3
RText|AutoCAD Express Tool|expresstools@autodesk.com
 90
    32768
280
               0
281
               1
  0
CLASS
  1
ARCALIGNEDTEXT
  2
AcDbArcAlignedText
  3
ATEXT|AutoCAD Express Tool|expresstools@autodesk.com
 90
    32768
280
               0
281
               1
  0
ENDSEC
  0
SECTION
  2
TABLES
  0
TABLE
  2
VPORT
  5
7
100
AcDbSymbolTable
 70
               1
  0
VPORT
  5
15
100
AcDbSymbolTableRecord
100
AcDbViewportTableRecord
  2
*ACTIVE
 70
               0
 10
0.0
 20
0.0
 11
1.0
 21
1.0
 12
1446.5869560282295
 22
1015.861408879015
 13
0.0
 23
0.0
 14
1.0
 24
1.0
 15
0.0
 25
0.0
 16
0.0
 26
0.0
 36
1.0
 17
0.0
 27
0.0
 37
0.0
 40
1409.3265864961973
 41
0.688564
 42
50.0
 43
0.0
 44
0.0
 50
0.0
 51
0.0
 71
               0
 72
            2000
 73
               1
 74
               1
 75
               0
 76
               0
 77
               0
 78
               0
281
               0
 65
               0
110
0.0
120
0.0
130
0.0
111
1.0
121
0.0
131
0.0
112
0.0
122
1.0
132
0.0
345
0
346
0
 79
               0
146
0.0
  0
ENDTAB
  0
TABLE
  2
LTYPE
  5
4
100
AcDbSymbolTable
 70
              14
  0
LTYPE
  5
11
100
AcDbSymbolTableRecord
100
AcDbLinetypeTableRecord
  2
ByBlock
 70
              64
  3

 72
              65
 73
               0
 40
0.0
  0
LTYPE
  5
12
100
AcDbSymbolTableRecord
100
AcDbLinetypeTableRecord
  2
ByLayer
 70
              64
  3

 72
              65
 73
               0
 40
0.0
  0
LTYPE
  5
13
100
AcDbSymbolTableRecord
100
AcDbLinetypeTableRecord
  2
Continuous
 70
              64
  3
Solid line
 72
              65
 73
               0
 40
0.0
  0
LTYPE
  5
2C
100
AcDbSymbolTableRecord
100
AcDbLinetypeTableRecord
  2
STYLE_01
 70
               0
  3

 72
              65
 73
               2
 40
0.41664
 49
0.20828
 74
               0
 49
-0.20836
 74
               0
  0
LTYPE
  5
2D
100
AcDbSymbolTableRecord
100
AcDbLinetypeTableRecord
  2
STYLE_02
 70
               0
  3

 72
              65
 73
               2
 40
0.6944250000000001
 49
0.48607
 74
               0
 49
-0.2083550000000001
 74
               0
  0
LTYPE
  5
2E
100
AcDbSymbolTableRecord
100
AcDbLinetypeTableRecord
  2
STYLE_03
 70
               0
  3

 72
              65
 73
               2
 40
1.25
 49
1.0416400000000001
 74
               0
 49
-0.2083599999999999
 74
               0
  0
LTYPE
  5
2F
100
AcDbSymbolTableRecord
100
AcDbLinetypeTableRecord
  2
STYLE_04
 70
               0
  3

 72
              65
 73
               2
 40
1.5277099999999999
 49
1.3194249999999998
 74
               0
 49
-0.208285
 74
               0
  0
LTYPE
  5
30
100
AcDbSymbolTableRecord
100
AcDbLinetypeTableRecord
  2
STYLE_05
 70
               0
  3

 72
              65
 73
               2
 40
0.20828
 49
0.069425
 74
               0
 49
-0.138855
 74
               0
  0
LTYPE
  5
31
100
AcDbSymbolTableRecord
100
AcDbLinetypeTableRecord
  2
STYLE_06
 70
               0
  3

 72
              65
 73
               4
 40
1.0416400000000001
 49
0.625
 74
               0
 49
-0.20828
 74
               0
 49
0.06943
 74
               0
 49
-0.13893
 74
               0
  0
LTYPE
  5
32
100
AcDbSymbolTableRecord
100
AcDbLinetypeTableRecord
  2
STYLE_07
 70
               0
  3

 72
              65
 73
               6
 40
1.875
 49
0.625
 74
               0
 49
-0.20828
 74
               0
 49
0.6250000000000001
 74
               0
 49
-0.2083599999999999
 74
               0
 49
0.06943
 74
               0
 49
-0.1389299999999999
 74
               0
  0
LTYPE
  5
33
100
AcDbSymbolTableRecord
100
AcDbLinetypeTableRecord
  2
STYLE_08
 70
               0
  3

 72
              65
 73
               6
 40
1.25
 49
0.625
 74
               0
 49
-0.20828
 74
               0
 49
0.06943
 74
               0
 49
-0.13893
 74
               0
 49
0.0694299999999999
 74
               0
 49
-0.13893
 74
               0
  0
LTYPE
  5
34
100
AcDbSymbolTableRecord
100
AcDbLinetypeTableRecord
  2
STYLE_09
 70
               0
  3

 72
              65
 73
               4
 40
5.0
 49
3.75
 74
               0
 49
-0.2777849999999998
 74
               0
 49
0.6944300000000003
 74
               0
 49
-0.2777849999999998
 74
               0
  0
LTYPE
  5
35
100
AcDbSymbolTableRecord
100
AcDbLinetypeTableRecord
  2
STYLE_10
 70
               0
  3

 72
              65
 73
               6
 40
5.9375
 49
3.75
 74
               0
 49
-0.2777849999999998
 74
               0
 49
0.6944300000000003
 74
               0
 49
-0.2777849999999998
 74
               0
 49
0.625
 74
               0
 49
-0.3125
 74
               0
  0
LTYPE
  5
36
100
AcDbSymbolTableRecord
100
AcDbLinetypeTableRecord
  2
STYLE_11
 70
               0
  3

 72
              65
 73
               4
 40
0.6
 49
0.375
 74
               0
 49
-0.075
 74
               0
 49
0.075
 74
               0
 49
-0.075
 74
               0
  0
ENDTAB
  0
TABLE
  2
LAYER
  5
2
100
AcDbSymbolTable
 70
               8
  0
LAYER
  5
14
100
AcDbSymbolTableRecord
100
AcDbLayerTableRecord
  2
0
 70
               0
 62
               7
  6
Continuous
290
               1
370
              15
390
1D
  0
LAYER
  5
37
100
AcDbSymbolTableRecord
100
AcDbLayerTableRecord
  2
一般
 70
               0
 62
               7
  6
Continuous
290
               1
370
               5
390
1D
  0
LAYER
  5
38
100
AcDbSymbolTableRecord
100
AcDbLayerTableRecord
  2
寸法
 70
               0
 62
               7
  6
Continuous
290
               1
370
               5
390
1D
  0
LAYER
  5
39
100
AcDbSymbolTableRecord
100
AcDbLayerTableRecord
  2
dim
 70
               0
 62
               3
  6
Continuous
290
               1
370
              15
390
1D
  0
LAYER
  5
3A
100
AcDbSymbolTableRecord
100
AcDbLayerTableRecord
  2
CENTER
 70
               0
 62
               1
  6
STYLE_11
290
               1
370
              15
390
1D
  0
LAYER
  5
3B
100
AcDbSymbolTableRecord
100
AcDbLayerTableRecord
  2
補助グリッド
 70
               0
 62
             203
  6
Continuous
290
               1
370
              13
390
1D
  0
LAYER
  5
3C
100
AcDbSymbolTableRecord
100
AcDbLayerTableRecord
  2
KIKI
 70
               0
 62
               1
  6
Continuous
290
               1
370
              15
390
1D
  0
LAYER
  5
3D
100
AcDbSymbolTableRecord
100
AcDbLayerTableRecord
  2
KI
 70
               0
 62
               7
  6
Continuous
290
               1
370
              13
390
1D
  0
ENDTAB
  0
TABLE
  2
STYLE
  5
3
100
AcDbSymbolTable
 70
               3
  0
STYLE
  5
17
100
AcDbSymbolTableRecord
100
AcDbTextStyleTableRecord
  2
Standard
 70
               0
 40
0.0
 41
1.0
 50
0.0
 71
               0
 42
0.0
  3
txt
  4
BIGFONT.SHX
  0
STYLE
  5
2A
100
AcDbSymbolTableRecord
100
AcDbTextStyleTableRecord
  2
Arial
 70
               0
 40
0.0
 41
1.0
 50
0.0
 71
               0
 42
0.0
  3

  4
Arial
1001
ACAD
1000
Arial
1071
        0
  0
STYLE
  5
2B
100
AcDbSymbolTableRecord
100
AcDbTextStyleTableRecord
  2
ＭＳ ゴシック
 70
               0
 40
0.0
 41
1.0
 50
0.0
 71
               0
 42
0.0
  3

  4
ＭＳ ゴシック
1001
ACAD
1000
ＭＳ ゴシック
1071
        0
  0
ENDTAB
  0
TABLE
  2
VIEW
  5
5
100
AcDbSymbolTable
 70
               0
  0
ENDTAB
  0
TABLE
  2
UCS
  5
6
100
AcDbSymbolTable
 70
               0
  0
ENDTAB
  0
TABLE
  2
APPID
  5
8
100
AcDbSymbolTable
 70
               1
  0
APPID
  5
16
100
AcDbSymbolTableRecord
100
AcDbRegAppTableRecord
  2
ACAD
 70
               0
  0
ENDTAB
  0
TABLE
  2
DIMSTYLE
  5
9
100
AcDbSymbolTable
 70
               1
100
AcDbDimStyleTable
 71
               0
  0
DIMSTYLE
105
18
100
AcDbSymbolTableRecord
100
AcDbDimStyleTableRecord
  2
Standard
 70
               0
  3

  4

 40
1.0
 41
0.18
 42
0.0625
 43
0.38
 44
0.18
 45
0.0
 46
0.0
 47
0.0
 48
0.0
 71
               0
 72
               0
 73
               1
 74
               1
 75
               0
 76
               0
 77
               0
 78
               0
 79
               0
140
0.18
141
0.09
142
0.0
143
25.399999999999999
144
1.0
145
0.0
146
1.0
147
0.09
148
0.0
170
               0
171
               2
172
               0
173
               0
174
               0
175
               0
176
               0
177
               0
178
               0
179
               0
271
               4
272
               4
273
               2
274
               2
275
               0
276
               0
277
               2
278
              46
279
               0
280
               0
281
               0
282
               0
283
               1
284
               0
285
               0
286
               0
288
               0
340
17
341
0
342
0
343
0
344
0
371
              -2
372
              -2
  0
ENDTAB
  0
TABLE
  2
BLOCK_RECORD
  5
1
100
AcDbSymbolTable
 70
               6
  0
BLOCK_RECORD
  5
A
100
AcDbSymbolTableRecord
100
AcDbBlockTableRecord
  2
*MODEL_SPACE
340
20
  0
BLOCK_RECORD
  5
B
100
AcDbSymbolTableRecord
100
AcDbBlockTableRecord
  2
*PAPER_SPACE
340
21
  0
BLOCK_RECORD
  5
24
100
AcDbSymbolTableRecord
100
AcDbBlockTableRecord
  2
グループ
340
0
102
{BLKREFS
331
4B
102
}
  0
BLOCK_RECORD
  5
25
100
AcDbSymbolTableRecord
100
AcDbBlockTableRecord
  2
scal 1_5
340
0
102
{BLKREFS
331
138
102
}
  0
BLOCK_RECORD
  5
26
100
AcDbSymbolTableRecord
100
AcDbBlockTableRecord
  2
グループ-1
340
0
102
{BLKREFS
331
139
102
}
  0
BLOCK_RECORD
  5
27
100
AcDbSymbolTableRecord
100
AcDbBlockTableRecord
  2
21
340
0
102
{BLKREFS
331
25C
102
}
  0
BLOCK_RECORD
  5
28
100
AcDbSymbolTableRecord
100
AcDbBlockTableRecord
  2
XCVB
340
0
102
{BLKREFS
331
25E
102
}
  0
BLOCK_RECORD
  5
29
100
AcDbSymbolTableRecord
100
AcDbBlockTableRecord
  2
グループ-2
340
0
102
{BLKREFS
331
322
102
}
  0
ENDTAB
  0
ENDSEC
  0
SECTION
  2
BLOCKS
  0
BLOCK
  5
D
100
AcDbEntity
  8
0
100
AcDbBlockBegin
  2
*MODEL_SPACE
 70
               0
 10
0.0
 20
0.0
 30
0.0
  3
*MODEL_SPACE
  1

  0
ENDBLK
  5
E
100
AcDbEntity
  8
0
100
AcDbBlockEnd
  0
BLOCK
  5
F
100
AcDbEntity
 67
               1
  8
0
100
AcDbBlockBegin
  2
*PAPER_SPACE
 70
               0
 10
0.0
 20
0.0
 30
0.0
  3
*PAPER_SPACE
  1

  0
ENDBLK
  5
10
100
AcDbEntity
 67
               1
  8
0
100
AcDbBlockEnd
  0
BLOCK
  5
3E
100
AcDbEntity
  8
一般
100
AcDbBlockBegin
  2
グループ
 70
               0
 10
0.0
 20
0.0
 30
0.0
  3
グループ
  1

  0
MTEXT
  5
3F
100
AcDbEntity
  8
一般
 62
               8
100
AcDbMText
 10
-61.590303983041849
 20
6.8342057291666851
 30
0.0
 40
8.1442057291666661
 41
7.3612159321675676
 71
               1
 72
               1
  1
0
  7
ＭＳ ゴシック
 73
               1
 44
0.7828267384257843
  0
MTEXT
  5
40
100
AcDbEntity
  8
一般
 62
               8
100
AcDbMText
 10
-12.909696016958151
 20
6.8342057291666851
 30
0.0
 40
8.1442057291666661
 41
12.75
 71
               1
 72
               1
  1
50
  7
ＭＳ ゴシック
 73
               1
 44
0.7828267384257843
  0
MTEXT
  5
41
100
AcDbEntity
  8
一般
 62
               8
100
AcDbMText
 10
33.590303983041849
 20
6.8342057291666851
 30
0.0
 40
8.1442057291666661
 41
27.999999999999972
 71
               1
 72
               1
  1
100mm
  7
ＭＳ ゴシック
 73
               1
 44
0.7828267384257843
  0
LINE
  5
42
100
AcDbEntity
  8
寸法
370
              15
 62
               8
100
AcDbLine
 10
-7.9096960169581507
 20
-2.7916666666666288
 30
0.0
 11
-7.9096960169581507
 21
-7.7916666666666288
 31
0.0
  0
POLYLINE
  5
43
100
AcDbEntity
  8
一般
370
              15
  6
Continuous
 62
               9
100
AcDb2dPolyline
 66
               1
 10
0.0
 20
0.0
 30
0.0
 75
               5
  0
VERTEX
  5
44
100
AcDbEntity
  8
一般
370
              15
  6
Continuous
 62
               9
100
AcDbVertex
100
AcDb2dVertex
 10
-57.909696016958037
 20
-2.7916666666666288
 30
0.0
  0
VERTEX
  5
45
100
AcDbEntity
  8
一般
370
              15
  6
Continuous
 62
               9
100
AcDbVertex
100
AcDb2dVertex
 10
-57.909696016958151
 20
-7.7916666666666288
 30
0.0
  0
VERTEX
  5
46
100
AcDbEntity
  8
一般
370
              15
  6
Continuous
 62
               9
100
AcDbVertex
100
AcDb2dVertex
 10
42.090303983041849
 20
-7.7916666666666288
 30
0.0
  0
VERTEX
  5
47
100
AcDbEntity
  8
一般
370
              15
  6
Continuous
 62
               9
100
AcDbVertex
100
AcDb2dVertex
 10
42.090303983041849
 20
-2.7916666666666288
 30
0.0
  0
SEQEND
  5
48
100
AcDbEntity
  8
一般
370
              15
  6
Continuous
 62
               9
  0
ENDBLK
  5
49
100
AcDbEntity
  8
一般
100
AcDbBlockEnd
  0
BLOCK
  5
4A
100
AcDbEntity
  8
一般
100
AcDbBlockBegin
  2
scal 1_5
 70
               0
 10
0.0
 20
0.0
 30
0.0
  3
scal 1_5
  1

  0
INSERT
  5
4B
100
AcDbEntity
  8
一般
 62
               7
100
AcDbBlockReference
  2
グループ
 10
0.0
 20
0.0
 30
0.0
  0
ENDBLK
  5
4C
100
AcDbEntity
  8
一般
100
AcDbBlockEnd
  0
BLOCK
  5
4D
100
AcDbEntity
  8
一般
100
AcDbBlockBegin
  2
グループ-1
 70
               0
 10
0.0
 20
0.0
 30
0.0
  3
グループ-1
  1

  0
LINE
  5
4E
100
AcDbEntity
  8
一般
370
              15
  6
Continuous
 62
               7
100
AcDbLine
 10
-341.37664888209457
 20
-693.04017817279987
 30
0.0
 11
-325.61494268581083
 21
-708.80188436908361
 31
0.0
  0
LINE
  5
4F
100
AcDbEntity
  8
一般
370
              15
  6
Continuous
 62
               7
100
AcDbLine
 10
-325.61494268581083
 20
-693.04017817279987
 30
0.0
 11
-341.37664888209457
 21
-708.80188436908361
 31
0.0
  0
ENDBLK
  5
50
100
AcDbEntity
  8
一般
100
AcDbBlockEnd
  0
BLOCK
  5
51
100
AcDbEntity
  8
一般
100
AcDbBlockBegin
  2
21
 70
               0
 10
0.0
 20
0.0
 30
0.0
  3
21
  1

  0
LINE
  5
52
100
AcDbEntity
  8
0
370
              15
  6
Continuous
 62
               7
100
AcDbLine
 10
9881.494307123583
 20
3192.284776226983
 30
0.0
 11
9881.494307123583
 21
3422.276847343283
 31
0.0
  0
LINE
  5
53
100
AcDbEntity
  8
0
370
              15
  6
Continuous
 62
               7
100
AcDbLine
 10
9851.494307123583
 20
3192.284776226983
 30
0.0
 11
9851.494307123583
 21
3422.276847343283
 31
0.0
  0
POLYLINE
  5
54
100
AcDbEntity
  8
0
370
              15
  6
Continuous
 62
               7
100
AcDb2dPolyline
 66
               1
 10
0.0
 20
0.0
 30
0.0
 75
               5
  0
VERTEX
  5
55
100
AcDbEntity
  8
0
370
              15
  6
Continuous
 62
               7
100
AcDbVertex
100
AcDb2dVertex
 10
9866.494307123583
 20
3346.1670619035831
 30
0.0
  0
VERTEX
  5
56
100
AcDbEntity
  8
0
370
              15
  6
Continuous
 62
               7
100
AcDbVertex
100
AcDb2dVertex
 10
9863.1564931142821
 20
3346.0697248960828
 30
0.0
  0
VERTEX
  5
57
100
AcDbEntity
  8
0
370
              15
  6
Continuous
 62
               7
100
AcDbVertex
100
AcDb2dVertex
 10
9859.9860510368817
 20
3345.7825947578831
 30
0.0
  0
VERTEX
  5
58
100
AcDbEntity
  8
0
370
              15
  6
Continuous
 62
               7
100
AcDbVertex
100
AcDb2dVertex
 10
9857.1419600957815
 20
3345.3200693928829
 30
0.0
  0
VERTEX
  5
59
100
AcDbEntity
  8
0
370
              15
  6
Continuous
 62
               7
100
AcDbVertex
100
AcDb2dVertex
 10
9854.7668348865809
 20
3344.7053417541829
 30
0.0
  0
VERTEX
  5
5A
100
AcDbEntity
  8
0
370
              15
  6
Continuous
 62
               7
100
AcDbVertex
100
AcDb2dVertex
 10
9852.9797741050825
 20
3343.969236852683
 30
0.0
  0
VERTEX
  5
5B
100
AcDbEntity
  8
0
370
              15
  6
Continuous
 62
               7
100
AcDbVertex
100
AcDb2dVertex
 10
9851.8703884408824
 20
3343.1486660615833
 30
0.0
  0
VERTEX
  5
5C
100
AcDbEntity
  8
0
370
              15
  6
Continuous
 62
               7
100
AcDbVertex
100
AcDb2dVertex
 10
9851.494307123583
 20
3342.284776226983
 30
0.0
  0
SEQEND
  5
5D
100
AcDbEntity
  8
0
370
              15
  6
Continuous
 62
               7
  0
POLYLINE
  5
5E
100
AcDbEntity
  8
0
370
              15
  6
Continuous
 62
               7
100
AcDb2dPolyline
 66
               1
 10
0.0
 20
0.0
 30
0.0
 75
               5
  0
VERTEX
  5
5F
100
AcDbEntity
  8
0
370
              15
  6
Continuous
 62
               7
100
AcDbVertex
100
AcDb2dVertex
 10
9851.4943946764834
 20
3342.284776226983
 30
0.0
  0
VERTEX
  5
60
100
AcDbEntity
  8
0
370
              15
  6
Continuous
 62
               7
100
AcDbVertex
100
AcDb2dVertex
 10
9851.5239061971824
 20
3342.5285469615833
 30
0.0
  0
VERTEX
  5
61
100
AcDbEntity
  8
0
370
              15
  6
Continuous
 62
               7
100
AcDbVertex
100
AcDb2dVertex
 10
9851.7599983626824
 20
3343.0122440206828
 30
0.0
  0
VERTEX
  5
62
100
AcDbEntity
  8
0
370
              15
  6
Continuous
 62
               7
100
AcDbVertex
100
AcDb2dVertex
 10
9852.228459379181
 20
3343.4844684780833
 30
0.0
  0
VERTEX
  5
63
100
AcDbEntity
  8
0
370
              15
  6
Continuous
 62
               7
100
AcDbVertex
100
AcDb2dVertex
 10
9852.9219013365819
 20
3343.937773071983
 30
0.0
  0
VERTEX
  5
64
100
AcDbEntity
  8
0
370
              15
  6
Continuous
 62
               7
100
AcDbVertex
100
AcDb2dVertex
 10
9853.8293882410817
 20
3344.3650089182829
 30
0.0
  0
VERTEX
  5
65
100
AcDbEntity
  8
0
370
              15
  6
Continuous
 62
               7
100
AcDbVertex
100
AcDb2dVertex
 10
9854.9366084819812
 20
3344.759438252283
 30
0.0
  0
VERTEX
  5
66
100
AcDbEntity
  8
0
370
              15
  6
Continuous
 62
               7
100
AcDbVertex
100
AcDb2dVertex
 10
9856.2261005346809
 20
3345.1148406878833
 30
0.0
  0
VERTEX
  5
67
100
AcDbEntity
  8
0
370
              15
  6
Continuous
 62
               7
100
AcDbVertex
100
AcDb2dVertex
 10
9857.6775283391817
 20
3345.4256113163833
 30
0.0
  0
VERTEX
  5
68
100
AcDbEntity
  8
0
370
              15
  6
Continuous
 62
               7
100
AcDbVertex
100
AcDb2dVertex
 10
9859.2680020120824
 20
3345.6868490991833
 30
0.0
  0
VERTEX
  5
69
100
AcDbEntity
  8
0
370
              15
  6
Continuous
 62
               7
100
AcDbVertex
100
AcDb2dVertex
 10
9860.9724388333816
 20
3345.8944341605829
 30
0.0
  0
VERTEX
  5
6A
100
AcDbEntity
  8
0
370
              15
  6
Continuous
 62
               7
100
AcDbVertex
100
AcDb2dVertex
 10
9862.7639588161819
 20
3346.0450927599832
 30
0.0
  0
VERTEX
  5
6B
100
AcDbEntity
  8
0
370
              15
  6
Continuous
 62
               7
100
AcDbVertex
100
AcDb2dVertex
 10
9864.614308620181
 20
3346.1364489213829
 30
0.0
  0
VERTEX
  5
6C
100
AcDbEntity
  8
0
370
              15
  6
Continuous
 62
               7
100
AcDbVertex
100
AcDb2dVertex
 10
9866.494307123583
 20
3346.1670619035831
 30
0.0
  0
SEQEND
  5
6D
100
AcDbEntity
  8
0
370
              15
  6
Continuous
 62
               7
  0
POLYLINE
  5
6E
100
AcDbEntity
  8
0
370
              15
  6
Continuous
 62
               7
100
AcDb2dPolyline
 66
               1
 10
0.0
 20
0.0
 30
0.0
 75
               5
  0
VERTEX
  5
6F
100
AcDbEntity
  8
0
370
              15
  6
Continuous
 62
               7
100
AcDbVertex
100
AcDb2dVertex
 10
9876.1334967519833
 20
3320.758455155983
 30
0.0
  0
VERTEX
  5
70
100
AcDbEntity
  8
0
370
              15
  6
Continuous
 62
               7
100
AcDbVertex
100
AcDb2dVertex
 10
9876.3278446946824
 20
3320.6238185035832
 30
0.0
  0
VERTEX
  5
71
100
AcDbEntity
  8
0
370
              15
  6
Continuous
 62
               7
100
AcDbVertex
100
AcDb2dVertex
 10
9876.639655221883
 20
3320.2534220227831
 30
0.0
  0
VERTEX
  5
72
100
AcDbEntity
  8
0
370
              15
  6
Continuous
 62
               7
100
AcDbVertex
100
AcDb2dVertex
 10
9876.7443071230809
 20
3319.875300611583
 30
0.0
  0
VERTEX
  5
73
100
AcDbEntity
  8
0
370
              15
  6
Continuous
 62
               7
100
AcDbVertex
100
AcDb2dVertex
 10
9876.6396591683824
 20
3319.4971791923831
 30
0.0
  0
VERTEX
  5
74
100
AcDbEntity
  8
0
370
              15
  6
Continuous
 62
               7
100
AcDbVertex
100
AcDb2dVertex
 10
9876.3278526155809
 20
3319.1267825890832
 30
0.0
  0
VERTEX
  5
75
100
AcDbEntity
  8
0
370
              15
  6
Continuous
 62
               7
100
AcDbVertex
100
AcDb2dVertex
 10
9875.8152420007827
 20
3318.7716630143832
 30
0.0
  0
VERTEX
  5
76
100
AcDbEntity
  8
0
370
              15
  6
Continuous
 62
               7
100
AcDbVertex
100
AcDb2dVertex
 10
9875.1122715442816
 20
3318.4390684930831
 30
0.0
  0
VERTEX
  5
77
100
AcDbEntity
  8
0
370
              15
  6
Continuous
 62
               7
100
AcDbVertex
100
AcDb2dVertex
 10
9874.2333965534817
 20
3318.1358290862831
 30
0.0
  0
VERTEX
  5
78
100
AcDbEntity
  8
0
370
              15
  6
Continuous
 62
               7
100
AcDbVertex
100
AcDb2dVertex
 10
9873.1966610809832
 20
3317.868139927783
 30
0.0
  0
VERTEX
  5
79
100
AcDbEntity
  8
0
370
              15
  6
Continuous
 62
               7
100
AcDbVertex
100
AcDb2dVertex
 10
9872.0226757990822
 20
3317.6413477906831
 30
0.0
  0
VERTEX
  5
7A
100
AcDbEntity
  8
0
370
              15
  6
Continuous
 62
               7
100
AcDbVertex
100
AcDb2dVertex
 10
9870.7350040482816
 20
3317.4600980344831
 30
0.0
  0
VERTEX
  5
7B
100
AcDbEntity
  8
0
370
              15
  6
Continuous
 62
               7
100
AcDbVertex
100
AcDb2dVertex
 10
9869.3626168109822
 20
3317.3283903202832
 30
0.0
  0
VERTEX
  5
7C
100
AcDbEntity
  8
0
370
              15
  6
Continuous
 62
               7
100
AcDbVertex
100
AcDb2dVertex
 10
9867.9379525009826
 20
3317.248845906583
 30
0.0
  0
VERTEX
  5
7D
100
AcDbEntity
  8
0
370
              15
  6
Continuous
 62
               7
100
AcDbVertex
100
AcDb2dVertex
 10
9866.494307123583
 20
3317.2224018447828
 30
0.0
  0
SEQEND
  5
7E
100
AcDbEntity
  8
0
370
              15
  6
Continuous
 62
               7
  0
POLYLINE
  5
7F
100
AcDbEntity
  8
0
370
              15
  6
Continuous
 62
               7
100
AcDb2dPolyline
 66
               1
 10
0.0
 20
0.0
 30
0.0
 75
               5
  0
VERTEX
  5
80
100
AcDbEntity
  8
0
370
              15
  6
Continuous
 62
               7
100
AcDbVertex
100
AcDb2dVertex
 10
9854.2444069074809
 20
3318.8127786481832
 30
0.0
  0
VERTEX
  5
81
100
AcDbEntity
  8
0
370
              15
  6
Continuous
 62
               7
100
AcDbVertex
100
AcDb2dVertex
 10
9854.2728647010808
 20
3319.0291434923829
 30
0.0
  0
VERTEX
  5
82
100
AcDbEntity
  8
0
370
              15
  6
Continuous
 62
               7
100
AcDbVertex
100
AcDb2dVertex
 10
9854.5005270494821
 20
3319.4578427131833
 30
0.0
  0
VERTEX
  5
83
100
AcDbEntity
  8
0
370
              15
  6
Continuous
 62
               7
100
AcDbVertex
100
AcDb2dVertex
 10
9854.9516108276821
 20
3319.8745256108832
 30
0.0
  0
VERTEX
  5
84
100
AcDbEntity
  8
0
370
              15
  6
Continuous
 62
               7
100
AcDbVertex
100
AcDb2dVertex
 10
9855.6177131981822
 20
3320.2714301715828
 30
0.0
  0
VERTEX
  5
85
100
AcDbEntity
  8
0
370
              15
  6
Continuous
 62
               7
100
AcDbVertex
100
AcDb2dVertex
 10
9856.486425934283
 20
3320.6411628143828
 30
0.0
  0
VERTEX
  5
86
100
AcDbEntity
  8
0
370
              15
  6
Continuous
 62
               7
100
AcDbVertex
100
AcDb2dVertex
 10
9857.5415665611818
 20
3320.9768361194833
 30
0.0
  0
VERTEX
  5
87
100
AcDbEntity
  8
0
370
              15
  6
Continuous
 62
               7
100
AcDbVertex
100
AcDb2dVertex
 10
9858.7634798055824
 20
3321.2721971284832
 30
0.0
  0
VERTEX
  5
88
100
AcDbEntity
  8
0
370
              15
  6
Continuous
 62
               7
100
AcDbVertex
100
AcDb2dVertex
 10
9860.129403735682
 20
3321.5217438245832
 30
0.0
  0
VERTEX
  5
89
100
AcDbEntity
  8
0
370
              15
  6
Continuous
 62
               7
100
AcDbVertex
100
AcDb2dVertex
 10
9861.6138937729811
 20
3321.720827624983
 30
0.0
  0
VERTEX
  5
8A
100
AcDbEntity
  8
0
370
              15
  6
Continuous
 62
               7
100
AcDbVertex
100
AcDb2dVertex
 10
9863.189296676981
 20
3321.8657399752833
 30
0.0
  0
VERTEX
  5
8B
100
AcDbEntity
  8
0
370
              15
  6
Continuous
 62
               7
100
AcDbVertex
100
AcDb2dVertex
 10
9864.8262656721818
 20
3321.953781432383
 30
0.0
  0
VERTEX
  5
8C
100
AcDbEntity
  8
0
370
              15
  6
Continuous
 62
               7
100
AcDbVertex
100
AcDb2dVertex
 10
9866.494307123583
 20
3321.9833119506829
 30
0.0
  0
SEQEND
  5
8D
100
AcDbEntity
  8
0
370
              15
  6
Continuous
 62
               7
  0
POLYLINE
  5
8E
100
AcDbEntity
  8
0
370
              15
  6
Continuous
 62
               7
100
AcDb2dPolyline
 66
               1
 10
0.0
 20
0.0
 30
0.0
 75
               5
  0
VERTEX
  5
8F
100
AcDbEntity
  8
0
370
              15
  6
Continuous
 62
               7
100
AcDbVertex
100
AcDb2dVertex
 10
9851.4943946764834
 20
3318.8127786481832
 30
0.0
  0
VERTEX
  5
90
100
AcDbEntity
  8
0
370
              15
  6
Continuous
 62
               7
100
AcDbVertex
100
AcDb2dVertex
 10
9851.5239061971824
 20
3319.056549382783
 30
0.0
  0
VERTEX
  5
91
100
AcDbEntity
  8
0
370
              15
  6
Continuous
 62
               7
100
AcDbVertex
100
AcDb2dVertex
 10
9851.7599983626824
 20
3319.540246441883
 30
0.0
  0
VERTEX
  5
92
100
AcDbEntity
  8
0
370
              15
  6
Continuous
 62
               7
100
AcDbVertex
100
AcDb2dVertex
 10
9852.228459379181
 20
3320.012470899283
 30
0.0
  0
VERTEX
  5
93
100
AcDbEntity
  8
0
370
              15
  6
Continuous
 62
               7
100
AcDbVertex
100
AcDb2dVertex
 10
9852.9219013365819
 20
3320.4657754931832
 30
0.0
  0
VERTEX
  5
94
100
AcDbEntity
  8
0
370
              15
  6
Continuous
 62
               7
100
AcDbVertex
100
AcDb2dVertex
 10
9853.8293882410817
 20
3320.8930113393831
 30
0.0
  0
VERTEX
  5
95
100
AcDbEntity
  8
0
370
              15
  6
Continuous
 62
               7
100
AcDbVertex
100
AcDb2dVertex
 10
9854.9366084819812
 20
3321.2874406734832
 30
0.0
  0
VERTEX
  5
96
100
AcDbEntity
  8
0
370
              15
  6
Continuous
 62
               7
100
AcDbVertex
100
AcDb2dVertex
 10
9856.2261005346809
 20
3321.6428431090831
 30
0.0
  0
VERTEX
  5
97
100
AcDbEntity
  8
0
370
              15
  6
Continuous
 62
               7
100
AcDbVertex
100
AcDb2dVertex
 10
9857.6775283391817
 20
3321.953613737483
 30
0.0
  0
VERTEX
  5
98
100
AcDbEntity
  8
0
370
              15
  6
Continuous
 62
               7
100
AcDbVertex
100
AcDb2dVertex
 10
9859.2680020120824
 20
3322.214851520383
 30
0.0
  0
VERTEX
  5
99
100
AcDbEntity
  8
0
370
              15
  6
Continuous
 62
               7
100
AcDbVertex
100
AcDb2dVertex
 10
9860.9724388333816
 20
3322.4224365816831
 30
0.0
  0
VERTEX
  5
9A
100
AcDbEntity
  8
0
370
              15
  6
Continuous
 62
               7
100
AcDbVertex
100
AcDb2dVertex
 10
9862.7639588161819
 20
3322.5730951811829
 30
0.0
  0
VERTEX
  5
9B
100
AcDbEntity
  8
0
370
              15
  6
Continuous
 62
               7
100
AcDbVertex
100
AcDb2dVertex
 10
9864.614308620181
 20
3322.6644513425831
 30
0.0
  0
VERTEX
  5
9C
100
AcDbEntity
  8
0
370
              15
  6
Continuous
 62
               7
100
AcDbVertex
100
AcDb2dVertex
 10
9866.494307123583
 20
3322.6950643246832
 30
0.0
  0
SEQEND
  5
9D
100
AcDbEntity
  8
0
370
              15
  6
Continuous
 62
               7
  0
LWPOLYLINE
  5
9E
100
AcDbEntity
  8
0
370
              15
  6
Continuous
 62
               7
100
AcDbPolyline
 90
       64
 70
             128
 10
9855.3938121925821
 20
3320.1407233187829
 42
0.0098541869243709
 10
9855.4371654518436
 20
3320.0501970498985
 10
9855.4463542979211
 20
3320.0319421847971
 42
0.0215904819066613
 10
9855.5151922529894
 20
3319.9087345665321
 10
9855.5354920885202
 20
3319.8758232466384
 42
0.0180786628575729
 10
9855.6009908214419
 20
3319.7777526007576
 10
9855.6098151556125
 20
3319.7655215567197
 42
0.0100461532840362
 10
9855.6626225400069
 20
3319.6953431614293
 42
0.0095970460623612
 10
9855.7181464184778
 20
3319.627291723938
 10
9855.7324114479015
 20
3319.6104775662375
 42
0.0173635260831494
 10
9855.8211596777546
 20
3319.5129465357963
 10
9855.8365497295381
 20
3319.4971703104634
 42
0.0152697927216052
 10
9855.963196778237
 20
3319.375038373591
 10
9855.9683786222595
 20
3319.3703380180796
 42
0.0157171386108711
 10
9856.1129911404623
 20
3319.2472209337548
 10
9856.1185862915645
 20
3319.2427529780134
 42
0.0139982781961206
 10
9856.281702693741
 20
3319.1198144879781
 10
9856.2867436418637
 20
3319.1162319628666
 42
0.0121738373451154
 10
9856.4464340424038
 20
3319.0084955868492
 10
9856.4626036425871
 20
3318.9981503499685
 42
0.009287555101606
 10
9856.5940777789401
 20
3318.9174354711708
 42
0.0061476257679237
 10
9856.7279935031147
 20
3318.8408095393643
 10
9856.74441928327
 20
3318.8316770062638
 42
0.0110264138821231
 10
9856.9141027496353
 20
3318.7421750532676
 10
9856.9427281311491
 20
3318.727873909058
 42
0.0094679381109457
 10
9857.1737192657092
 20
3318.6178865345832
 10
9857.1771390202503
 20
3318.6163369393262
 42
0.0083531730107274
 10
9857.4188014096308
 20
3318.5116623632216
 10
9857.4310725590112
 20
3318.5065889260177
 42
0.0084050934631789
 10
9857.7008122936277
 20
3318.4003397484275
 10
9857.7097340847395
 20
3318.3969976169319
 42
0.0074315761126839
 10
9858.0006419125766
 20
3318.2929261395584
 42
0.0064124308497667
 10
9858.2943190078586
 20
3318.1969484526844
 10
9858.2995843150329
 20
3318.1953021086515
 42
0.0059881162361581
 10
9858.6061228232065
 20
3318.1034695647886
 10
9858.612905252181
 20
3318.1015258951866
 42
0.0055565629391211
 10
9858.9350916516287
 20
3318.0130579287702
 10
9858.9365816349018
 20
3318.0126665530065
 42
0.0050106898498475
 10
9859.2635569019003
 20
3317.930273269234
 10
9859.2654230619664
 20
3317.9298228618741
 42
0.0045530758702517
 10
9859.597657478118
 20
3317.8528310286688
 10
9859.604317344736
 20
3317.8513514439733
 42
0.0044341252858635
 10
9859.9512275324651
 20
3317.7775024280509
 10
9859.9560307117463
 20
3317.7765243872618
 42
0.0041110972215161
 10
9860.3137751563718
 20
3317.7067375012884
 42
0.003773675455203
 10
9860.672576647723
 20
3317.6426003191805
 10
9860.6772597889212
 20
3317.6417996152891
 42
0.0036730141174965
 10
9861.0463547473555
 20
3317.5814804832971
 10
9861.052361869446
 20
3317.5805440261479
 42
0.0035218053727067
 10
9861.434314197526
 20
3317.5237537553271
 10
9861.4356302343294
 20
3317.5235675462468
 42
0.0033464575293869
 10
9861.8209619710105
 20
3317.4716742356109
 10
9861.9235759297408
 20
3317.458553651727
 42
0.0062922102708279
 10
9862.5153400409217
 20
3317.3904454980702
 10
9862.6217288328808
 20
3317.3795555162728
 42
0.0058946361285367
 10
9863.4279875473458
 20
3317.3066202360906
 10
9863.535880732441
 20
3317.2981411384908
 42
0.0056390143205917
 10
9864.165643278493
 20
3317.2557896736243
 42
0.0027067180518233
 10
9864.7960558243831
 20
3317.2239536376819
 10
9864.839119178785
 20
3317.222012577537
 42
0.0063461797386812
 10
9865.5561253096312
 20
3317.1988080104329
 10
9865.7039176011785
 20
3317.1959020905047
 42
0.0049529231267341
 10
9866.4809059162708
 20
3317.1883231914062
 10
9866.4943071230809
 20
3317.1883276710828
  0
POLYLINE
  5
9F
100
AcDbEntity
  8
0
370
              15
  6
Continuous
 62
               7
100
AcDb2dPolyline
 66
               1
 10
0.0
 20
0.0
 30
0.0
 75
               5
  0
VERTEX
  5
A0
100
AcDbEntity
  8
0
370
              15
  6
Continuous
 62
               7
100
AcDbVertex
100
AcDb2dVertex
 10
9866.494307123583
 20
3317.2224018447828
 30
0.0
  0
VERTEX
  5
A1
100
AcDbEntity
  8
0
370
              15
  6
Continuous
 62
               7
100
AcDbVertex
100
AcDb2dVertex
 10
9865.0506524840821
 20
3317.2488462704828
 30
0.0
  0
VERTEX
  5
A2
100
AcDbEntity
  8
0
370
              15
  6
Continuous
 62
               7
100
AcDbVertex
100
AcDb2dVertex
 10
9863.6260138109828
 20
3317.3283890588832
 30
0.0
  0
VERTEX
  5
A3
100
AcDbEntity
  8
0
370
              15
  6
Continuous
 62
               7
100
AcDbVertex
100
AcDb2dVertex
 10
9862.2536380601814
 20
3317.4600947548829
 30
0.0
  0
VERTEX
  5
A4
100
AcDbEntity
  8
0
370
              15
  6
Continuous
 62
               7
100
AcDbVertex
100
AcDb2dVertex
 10
9860.9659654115821
 20
3317.6413433097828
 30
0.0
  0
VERTEX
  5
A5
100
AcDbEntity
  8
0
370
              15
  6
Continuous
 62
               7
100
AcDbVertex
100
AcDb2dVertex
 10
9859.7919754309823
 20
3317.8681349400831
 30
0.0
  0
VERTEX
  5
A6
100
AcDbEntity
  8
0
370
              15
  6
Continuous
 62
               7
100
AcDbVertex
100
AcDb2dVertex
 10
9858.7552364497824
 20
3318.135823487883
 30
0.0
  0
VERTEX
  5
A7
100
AcDbEntity
  8
0
370
              15
  6
Continuous
 62
               7
100
AcDbVertex
100
AcDb2dVertex
 10
9857.876358296282
 20
3318.4390622174828
 30
0.0
  0
VERTEX
  5
A8
100
AcDbEntity
  8
0
370
              15
  6
Continuous
 62
               7
100
AcDbVertex
100
AcDb2dVertex
 10
9857.1733841302812
 20
3318.7716562831829
 30
0.0
  0
VERTEX
  5
A9
100
AcDbEntity
  8
0
370
              15
  6
Continuous
 62
               7
100
AcDbVertex
100
AcDb2dVertex
 10
9856.6607695525818
 20
3319.1267756105831
 30
0.0
  0
VERTEX
  5
AA
100
AcDbEntity
  8
0
370
              15
  6
Continuous
 62
               7
100
AcDbVertex
100
AcDb2dVertex
 10
9856.3489590253812
 20
3319.4971720913832
 30
0.0
  0
VERTEX
  5
AB
100
AcDbEntity
  8
0
370
              15
  6
Continuous
 62
               7
100
AcDbVertex
100
AcDb2dVertex
 10
9856.2443071241833
 20
3319.8752935025832
 30
0.0
  0
VERTEX
  5
AC
100
AcDbEntity
  8
0
370
              15
  6
Continuous
 62
               7
100
AcDbVertex
100
AcDb2dVertex
 10
9856.3489550787817
 20
3320.2534149217831
 30
0.0
  0
VERTEX
  5
AD
100
AcDbEntity
  8
0
370
              15
  6
Continuous
 62
               7
100
AcDbVertex
100
AcDb2dVertex
 10
9856.6607616315814
 20
3320.6238115250831
 30
0.0
  0
VERTEX
  5
AE
100
AcDbEntity
  8
0
370
              15
  6
Continuous
 62
               7
100
AcDbVertex
100
AcDb2dVertex
 10
9856.8551184468815
 20
3320.7584554586829
 30
0.0
  0
SEQEND
  5
AF
100
AcDbEntity
  8
0
370
              15
  6
Continuous
 62
               7
  0
POLYLINE
  5
B0
100
AcDbEntity
  8
0
370
              15
  6
Continuous
 62
               7
100
AcDb2dPolyline
 66
               1
 10
0.0
 20
0.0
 30
0.0
 75
               5
  0
VERTEX
  5
B1
100
AcDbEntity
  8
0
370
              15
  6
Continuous
 62
               7
100
AcDbVertex
100
AcDb2dVertex
 10
9866.494307123583
 20
3315.642245345683
 30
0.0
  0
VERTEX
  5
B2
100
AcDbEntity
  8
0
370
              15
  6
Continuous
 62
               7
100
AcDbVertex
100
AcDb2dVertex
 10
9864.8262656721818
 20
3315.6717758639829
 30
0.0
  0
VERTEX
  5
B3
100
AcDbEntity
  8
0
370
              15
  6
Continuous
 62
               7
100
AcDbVertex
100
AcDb2dVertex
 10
9863.189296676981
 20
3315.7598173210831
 30
0.0
  0
VERTEX
  5
B4
100
AcDbEntity
  8
0
370
              15
  6
Continuous
 62
               7
100
AcDbVertex
100
AcDb2dVertex
 10
9861.6138937729811
 20
3315.9047296712829
 30
0.0
  0
VERTEX
  5
B5
100
AcDbEntity
  8
0
370
              15
  6
Continuous
 62
               7
100
AcDbVertex
100
AcDb2dVertex
 10
9860.129403735682
 20
3316.1038134717833
 30
0.0
  0
VERTEX
  5
B6
100
AcDbEntity
  8
0
370
              15
  6
Continuous
 62
               7
100
AcDbVertex
100
AcDb2dVertex
 10
9858.7634798055824
 20
3316.3533601678832
 30
0.0
  0
VERTEX
  5
B7
100
AcDbEntity
  8
0
370
              15
  6
Continuous
 62
               7
100
AcDbVertex
100
AcDb2dVertex
 10
9857.5415665611818
 20
3316.6487211768831
 30
0.0
  0
VERTEX
  5
B8
100
AcDbEntity
  8
0
370
              15
  6
Continuous
 62
               7
100
AcDbVertex
100
AcDb2dVertex
 10
9856.486425934283
 20
3316.9843944819831
 30
0.0
  0
VERTEX
  5
B9
100
AcDbEntity
  8
0
370
              15
  6
Continuous
 62
               7
100
AcDbVertex
100
AcDb2dVertex
 10
9855.6177131981822
 20
3317.3541271246831
 30
0.0
  0
VERTEX
  5
BA
100
AcDbEntity
  8
0
370
              15
  6
Continuous
 62
               7
100
AcDbVertex
100
AcDb2dVertex
 10
9854.9516108276821
 20
3317.7510316854832
 30
0.0
  0
VERTEX
  5
BB
100
AcDbEntity
  8
0
370
              15
  6
Continuous
 62
               7
100
AcDbVertex
100
AcDb2dVertex
 10
9854.5005270494821
 20
3318.1677145831832
 30
0.0
  0
VERTEX
  5
BC
100
AcDbEntity
  8
0
370
              15
  6
Continuous
 62
               7
100
AcDbVertex
100
AcDb2dVertex
 10
9854.2728647010808
 20
3318.5964138039831
 30
0.0
  0
VERTEX
  5
BD
100
AcDbEntity
  8
0
370
              15
  6
Continuous
 62
               7
100
AcDbVertex
100
AcDb2dVertex
 10
9854.2444069074809
 20
3318.8127786481832
 30
0.0
  0
SEQEND
  5
BE
100
AcDbEntity
  8
0
370
              15
  6
Continuous
 62
               7
  0
POLYLINE
  5
BF
100
AcDbEntity
  8
0
370
              15
  6
Continuous
 62
               7
100
AcDb2dPolyline
 66
               1
 10
0.0
 20
0.0
 30
0.0
 75
               5
  0
VERTEX
  5
C0
100
AcDbEntity
  8
0
370
              15
  6
Continuous
 62
               7
100
AcDbVertex
100
AcDb2dVertex
 10
9866.494307123583
 20
3314.9304929716832
 30
0.0
  0
VERTEX
  5
C1
100
AcDbEntity
  8
0
370
              15
  6
Continuous
 62
               7
100
AcDbVertex
100
AcDb2dVertex
 10
9864.614308620181
 20
3314.9611059537833
 30
0.0
  0
VERTEX
  5
C2
100
AcDbEntity
  8
0
370
              15
  6
Continuous
 62
               7
100
AcDbVertex
100
AcDb2dVertex
 10
9862.7639588161819
 20
3315.0524621151831
 30
0.0
  0
VERTEX
  5
C3
100
AcDbEntity
  8
0
370
              15
  6
Continuous
 62
               7
100
AcDbVertex
100
AcDb2dVertex
 10
9860.9724388333816
 20
3315.2031207145833
 30
0.0
  0
VERTEX
  5
C4
100
AcDbEntity
  8
0
370
              15
  6
Continuous
 62
               7
100
AcDbVertex
100
AcDb2dVertex
 10
9859.2680020120824
 20
3315.4107057759829
 30
0.0
  0
VERTEX
  5
C5
100
AcDbEntity
  8
0
370
              15
  6
Continuous
 62
               7
100
AcDbVertex
100
AcDb2dVertex
 10
9857.6775283391817
 20
3315.671943558883
 30
0.0
  0
VERTEX
  5
C6
100
AcDbEntity
  8
0
370
              15
  6
Continuous
 62
               7
100
AcDbVertex
100
AcDb2dVertex
 10
9856.2261005346809
 20
3315.9827141872829
 30
0.0
  0
VERTEX
  5
C7
100
AcDbEntity
  8
0
370
              15
  6
Continuous
 62
               7
100
AcDbVertex
100
AcDb2dVertex
 10
9854.9366084819812
 20
3316.3381166228833
 30
0.0
  0
VERTEX
  5
C8
100
AcDbEntity
  8
0
370
              15
  6
Continuous
 62
               7
100
AcDbVertex
100
AcDb2dVertex
 10
9853.8293882410817
 20
3316.7325459568833
 30
0.0
  0
VERTEX
  5
C9
100
AcDbEntity
  8
0
370
              15
  6
Continuous
 62
               7
100
AcDbVertex
100
AcDb2dVertex
 10
9852.9219013365819
 20
3317.1597818031828
 30
0.0
  0
VERTEX
  5
CA
100
AcDbEntity
  8
0
370
              15
  6
Continuous
 62
               7
100
AcDbVertex
100
AcDb2dVertex
 10
9852.228459379181
 20
3317.613086397083
 30
0.0
  0
VERTEX
  5
CB
100
AcDbEntity
  8
0
370
              15
  6
Continuous
 62
               7
100
AcDbVertex
100
AcDb2dVertex
 10
9851.7599983626824
 20
3318.0853108544829
 30
0.0
  0
VERTEX
  5
CC
100
AcDbEntity
  8
0
370
              15
  6
Continuous
 62
               7
100
AcDbVertex
100
AcDb2dVertex
 10
9851.5239061971824
 20
3318.5690079135829
 30
0.0
  0
VERTEX
  5
CD
100
AcDbEntity
  8
0
370
              15
  6
Continuous
 62
               7
100
AcDbVertex
100
AcDb2dVertex
 10
9851.4943946764834
 20
3318.8127786481832
 30
0.0
  0
SEQEND
  5
CE
100
AcDbEntity
  8
0
370
              15
  6
Continuous
 62
               7
  0
POLYLINE
  5
CF
100
AcDbEntity
  8
0
370
              15
  6
Continuous
 62
               7
100
AcDb2dPolyline
 66
               1
 10
0.0
 20
0.0
 30
0.0
 75
               5
  0
VERTEX
  5
D0
100
AcDbEntity
  8
0
370
              15
  6
Continuous
 62
               7
100
AcDbVertex
100
AcDb2dVertex
 10
9881.494307123583
 20
3342.284776226983
 30
0.0
  0
VERTEX
  5
D1
100
AcDbEntity
  8
0
370
              15
  6
Continuous
 62
               7
100
AcDbVertex
100
AcDb2dVertex
 10
9881.1182258063818
 20
3343.1486660615833
 30
0.0
  0
VERTEX
  5
D2
100
AcDbEntity
  8
0
370
              15
  6
Continuous
 62
               7
100
AcDbVertex
100
AcDb2dVertex
 10
9880.0088401421817
 20
3343.969236852683
 30
0.0
  0
VERTEX
  5
D3
100
AcDbEntity
  8
0
370
              15
  6
Continuous
 62
               7
100
AcDbVertex
100
AcDb2dVertex
 10
9878.2217793606833
 20
3344.7053417541829
 30
0.0
  0
VERTEX
  5
D4
100
AcDbEntity
  8
0
370
              15
  6
Continuous
 62
               7
100
AcDbVertex
100
AcDb2dVertex
 10
9875.8466541514827
 20
3345.3200693928829
 30
0.0
  0
VERTEX
  5
D5
100
AcDbEntity
  8
0
370
              15
  6
Continuous
 62
               7
100
AcDbVertex
100
AcDb2dVertex
 10
9873.0025632103825
 20
3345.7825947578831
 30
0.0
  0
VERTEX
  5
D6
100
AcDbEntity
  8
0
370
              15
  6
Continuous
 62
               7
100
AcDbVertex
100
AcDb2dVertex
 10
9869.8321211329821
 20
3346.0697248960828
 30
0.0
  0
VERTEX
  5
D7
100
AcDbEntity
  8
0
370
              15
  6
Continuous
 62
               7
100
AcDbVertex
100
AcDb2dVertex
 10
9866.494307123583
 20
3346.1670619035831
 30
0.0
  0
SEQEND
  5
D8
100
AcDbEntity
  8
0
370
              15
  6
Continuous
 62
               7
  0
POLYLINE
  5
D9
100
AcDbEntity
  8
0
370
              15
  6
Continuous
 62
               7
100
AcDb2dPolyline
 66
               1
 10
0.0
 20
0.0
 30
0.0
 75
               5
  0
VERTEX
  5
DA
100
AcDbEntity
  8
0
370
              15
  6
Continuous
 62
               7
100
AcDbVertex
100
AcDb2dVertex
 10
9881.4942195706826
 20
3342.284776226983
 30
0.0
  0
VERTEX
  5
DB
100
AcDbEntity
  8
0
370
              15
  6
Continuous
 62
               7
100
AcDbVertex
100
AcDb2dVertex
 10
9881.4647080500818
 20
3342.5285469615833
 30
0.0
  0
VERTEX
  5
DC
100
AcDbEntity
  8
0
370
              15
  6
Continuous
 62
               7
100
AcDbVertex
100
AcDb2dVertex
 10
9881.2286158845818
 20
3343.0122440206828
 30
0.0
  0
VERTEX
  5
DD
100
AcDbEntity
  8
0
370
              15
  6
Continuous
 62
               7
100
AcDbVertex
100
AcDb2dVertex
 10
9880.7601548680832
 20
3343.4844684780833
 30
0.0
  0
VERTEX
  5
DE
100
AcDbEntity
  8
0
370
              15
  6
Continuous
 62
               7
100
AcDbVertex
100
AcDb2dVertex
 10
9880.0667129105823
 20
3343.937773071983
 30
0.0
  0
VERTEX
  5
DF
100
AcDbEntity
  8
0
370
              15
  6
Continuous
 62
               7
100
AcDbVertex
100
AcDb2dVertex
 10
9879.1592260061825
 20
3344.3650089182829
 30
0.0
  0
VERTEX
  5
E0
100
AcDbEntity
  8
0
370
              15
  6
Continuous
 62
               7
100
AcDbVertex
100
AcDb2dVertex
 10
9878.052005765283
 20
3344.759438252283
 30
0.0
  0
VERTEX
  5
E1
100
AcDbEntity
  8
0
370
              15
  6
Continuous
 62
               7
100
AcDbVertex
100
AcDb2dVertex
 10
9876.7625137125833
 20
3345.1148406878833
 30
0.0
  0
VERTEX
  5
E2
100
AcDbEntity
  8
0
370
              15
  6
Continuous
 62
               7
100
AcDbVertex
100
AcDb2dVertex
 10
9875.3110859079825
 20
3345.4256113163833
 30
0.0
  0
VERTEX
  5
E3
100
AcDbEntity
  8
0
370
              15
  6
Continuous
 62
               7
100
AcDbVertex
100
AcDb2dVertex
 10
9873.7206122351818
 20
3345.6868490991833
 30
0.0
  0
VERTEX
  5
E4
100
AcDbEntity
  8
0
370
              15
  6
Continuous
 62
               7
100
AcDbVertex
100
AcDb2dVertex
 10
9872.0161754138826
 20
3345.8944341605829
 30
0.0
  0
VERTEX
  5
E5
100
AcDbEntity
  8
0
370
              15
  6
Continuous
 62
               7
100
AcDbVertex
100
AcDb2dVertex
 10
9870.2246554310823
 20
3346.0450927599832
 30
0.0
  0
VERTEX
  5
E6
100
AcDbEntity
  8
0
370
              15
  6
Continuous
 62
               7
100
AcDbVertex
100
AcDb2dVertex
 10
9868.3743056270832
 20
3346.1364489213829
 30
0.0
  0
VERTEX
  5
E7
100
AcDbEntity
  8
0
370
              15
  6
Continuous
 62
               7
100
AcDbVertex
100
AcDb2dVertex
 10
9866.494307123583
 20
3346.1670619035831
 30
0.0
  0
SEQEND
  5
E8
100
AcDbEntity
  8
0
370
              15
  6
Continuous
 62
               7
  0
POLYLINE
  5
E9
100
AcDbEntity
  8
0
370
              15
  6
Continuous
 62
               7
100
AcDb2dPolyline
 66
               1
 10
0.0
 20
0.0
 30
0.0
 75
               5
  0
VERTEX
  5
EA
100
AcDbEntity
  8
0
370
              15
  6
Continuous
 62
               7
100
AcDbVertex
100
AcDb2dVertex
 10
9881.4942195706826
 20
3318.8127786481832
 30
0.0
  0
VERTEX
  5
EB
100
AcDbEntity
  8
0
370
              15
  6
Continuous
 62
               7
100
AcDbVertex
100
AcDb2dVertex
 10
9881.4647080500818
 20
3319.056549382783
 30
0.0
  0
VERTEX
  5
EC
100
AcDbEntity
  8
0
370
              15
  6
Continuous
 62
               7
100
AcDbVertex
100
AcDb2dVertex
 10
9881.2286158845818
 20
3319.540246441883
 30
0.0
  0
VERTEX
  5
ED
100
AcDbEntity
  8
0
370
              15
  6
Continuous
 62
               7
100
AcDbVertex
100
AcDb2dVertex
 10
9880.7601548680832
 20
3320.012470899283
 30
0.0
  0
VERTEX
  5
EE
100
AcDbEntity
  8
0
370
              15
  6
Continuous
 62
               7
100
AcDbVertex
100
AcDb2dVertex
 10
9880.0667129105823
 20
3320.4657754931832
 30
0.0
  0
VERTEX
  5
EF
100
AcDbEntity
  8
0
370
              15
  6
Continuous
 62
               7
100
AcDbVertex
100
AcDb2dVertex
 10
9879.1592260061825
 20
3320.8930113393831
 30
0.0
  0
VERTEX
  5
F0
100
AcDbEntity
  8
0
370
              15
  6
Continuous
 62
               7
100
AcDbVertex
100
AcDb2dVertex
 10
9878.052005765283
 20
3321.2874406734832
 30
0.0
  0
VERTEX
  5
F1
100
AcDbEntity
  8
0
370
              15
  6
Continuous
 62
               7
100
AcDbVertex
100
AcDb2dVertex
 10
9876.7625137125833
 20
3321.6428431090831
 30
0.0
  0
VERTEX
  5
F2
100
AcDbEntity
  8
0
370
              15
  6
Continuous
 62
               7
100
AcDbVertex
100
AcDb2dVertex
 10
9875.3110859079825
 20
3321.953613737483
 30
0.0
  0
VERTEX
  5
F3
100
AcDbEntity
  8
0
370
              15
  6
Continuous
 62
               7
100
AcDbVertex
100
AcDb2dVertex
 10
9873.7206122351818
 20
3322.214851520383
 30
0.0
  0
VERTEX
  5
F4
100
AcDbEntity
  8
0
370
              15
  6
Continuous
 62
               7
100
AcDbVertex
100
AcDb2dVertex
 10
9872.0161754138826
 20
3322.4224365816831
 30
0.0
  0
VERTEX
  5
F5
100
AcDbEntity
  8
0
370
              15
  6
Continuous
 62
               7
100
AcDbVertex
100
AcDb2dVertex
 10
9870.2246554310823
 20
3322.5730951811829
 30
0.0
  0
VERTEX
  5
F6
100
AcDbEntity
  8
0
370
              15
  6
Continuous
 62
               7
100
AcDbVertex
100
AcDb2dVertex
 10
9868.3743056270832
 20
3322.6644513425831
 30
0.0
  0
VERTEX
  5
F7
100
AcDbEntity
  8
0
370
              15
  6
Continuous
 62
               7
100
AcDbVertex
100
AcDb2dVertex
 10
9866.494307123583
 20
3322.6950643246832
 30
0.0
  0
SEQEND
  5
F8
100
AcDbEntity
  8
0
370
              15
  6
Continuous
 62
               7
  0
POLYLINE
  5
F9
100
AcDbEntity
  8
0
370
              15
  6
Continuous
 62
               7
100
AcDb2dPolyline
 66
               1
 10
0.0
 20
0.0
 30
0.0
 75
               5
  0
VERTEX
  5
FA
100
AcDbEntity
  8
0
370
              15
  6
Continuous
 62
               7
100
AcDbVertex
100
AcDb2dVertex
 10
9878.7442073397833
 20
3318.8127786481832
 30
0.0
  0
VERTEX
  5
FB
100
AcDbEntity
  8
0
370
              15
  6
Continuous
 62
               7
100
AcDbVertex
100
AcDb2dVertex
 10
9878.7157495461815
 20
3319.0291434923829
 30
0.0
  0
VERTEX
  5
FC
100
AcDbEntity
  8
0
370
              15
  6
Continuous
 62
               7
100
AcDbVertex
100
AcDb2dVertex
 10
9878.488087197682
 20
3319.4578427131833
 30
0.0
  0
VERTEX
  5
FD
100
AcDbEntity
  8
0
370
              15
  6
Continuous
 62
               7
100
AcDbVertex
100
AcDb2dVertex
 10
9878.0370034195821
 20
3319.8745256108832
 30
0.0
  0
VERTEX
  5
FE
100
AcDbEntity
  8
0
370
              15
  6
Continuous
 62
               7
100
AcDbVertex
100
AcDb2dVertex
 10
9877.370901049082
 20
3320.2714301715828
 30
0.0
  0
VERTEX
  5
FF
100
AcDbEntity
  8
0
370
              15
  6
Continuous
 62
               7
100
AcDbVertex
100
AcDb2dVertex
 10
9876.5021883129812
 20
3320.6411628143828
 30
0.0
  0
VERTEX
  5
100
100
AcDbEntity
  8
0
370
              15
  6
Continuous
 62
               7
100
AcDbVertex
100
AcDb2dVertex
 10
9875.4470476859824
 20
3320.9768361194833
 30
0.0
  0
VERTEX
  5
101
100
AcDbEntity
  8
0
370
              15
  6
Continuous
 62
               7
100
AcDbVertex
100
AcDb2dVertex
 10
9874.2251344415818
 20
3321.2721971284832
 30
0.0
  0
VERTEX
  5
102
100
AcDbEntity
  8
0
370
              15
  6
Continuous
 62
               7
100
AcDbVertex
100
AcDb2dVertex
 10
9872.8592105115822
 20
3321.5217438245832
 30
0.0
  0
VERTEX
  5
103
100
AcDbEntity
  8
0
370
              15
  6
Continuous
 62
               7
100
AcDbVertex
100
AcDb2dVertex
 10
9871.3747204742831
 20
3321.720827624983
 30
0.0
  0
VERTEX
  5
104
100
AcDbEntity
  8
0
370
              15
  6
Continuous
 62
               7
100
AcDbVertex
100
AcDb2dVertex
 10
9869.7993175702832
 20
3321.8657399752833
 30
0.0
  0
VERTEX
  5
105
100
AcDbEntity
  8
0
370
              15
  6
Continuous
 62
               7
100
AcDbVertex
100
AcDb2dVertex
 10
9868.1623485750824
 20
3321.953781432383
 30
0.0
  0
VERTEX
  5
106
100
AcDbEntity
  8
0
370
              15
  6
Continuous
 62
               7
100
AcDbVertex
100
AcDb2dVertex
 10
9866.494307123583
 20
3321.9833119506829
 30
0.0
  0
SEQEND
  5
107
100
AcDbEntity
  8
0
370
              15
  6
Continuous
 62
               7
  0
LWPOLYLINE
  5
108
100
AcDbEntity
  8
0
370
              15
  6
Continuous
 62
               7
100
AcDbPolyline
 90
       63
 70
             128
 10
9866.4943071230809
 20
3317.1883276710828
 42
0.0048018912798764
 10
9867.2750122900434
 20
3317.1957027453432
 10
9867.4004599266955
 20
3317.1980928258527
 42
0.0082266744592799
 10
9868.4313870322057
 20
3317.2347093081139
 10
9868.6787897883478
 20
3317.2475749608566
 42
0.0056552301752954
 10
9869.3071862549441
 20
3317.2873844754345
 10
9869.4162470567808
 20
3317.2955329872425
 42
0.0028853499240249
 10
9869.8258812986314
 20
3317.3285170547751
 42
0.0029570988634865
 10
9870.2351018271729
 20
3317.3662852505227
 10
9870.3397963314364
 20
3317.3765726265283
 42
0.0062895240156595
 10
9870.9376055035609
 20
3317.4429160660229
 10
9871.0425322507599
 20
3317.4558986418706
 42
0.003274609897456
 10
9871.4293230665608
 20
3317.5063303026704
 42
0.0034690173124291
 10
9871.8153983430784
 20
3317.5619739161684
 10
9871.82055400639
 20
3317.5627535330477
 42
0.0036690143680108
 10
9872.1954959836185
 20
3317.6222680322976
 10
9872.2015930432481
 20
3317.6232817396567
 42
0.0037191162187931
 10
9872.5634360820568
 20
3317.6862117060896
 10
9872.5643864484555
 20
3317.686384281546
 42
0.0040175207054182
 10
9872.9233129800814
 20
3317.7545446430154
 10
9872.9256471684512
 20
3317.7550073684411
 42
0.0043497477207915
 10
9873.2787209100716
 20
3317.8281979366707
 10
9873.285490371487
 20
3317.829662748647
 42
0.0045621699545163
 10
9873.623691174409
 20
3317.9060812377538
 10
9873.6281175573949
 20
3317.9071239438513
 42
0.004843632166374
 10
9873.9559875458963
 20
3317.9877191818427
 42
0.0053885071330376
 10
9874.2821360537237
 20
3318.0750056667862
 10
9874.3459729685346
 20
3318.0928296161915
 42
0.0075139379802209
 10
9874.620989517869
 20
3318.1740913150115
 10
9874.6474342803122
 20
3318.1823392525107
 42
0.0030401144993997
 10
9874.8679129686607
 20
3318.2525787975956
 42
0.0068637846098017
 10
9875.08694063443
 20
3318.3271657750888
 10
9875.1282105483224
 20
3318.3418549325042
 42
0.0078892591634632
 10
9875.4073728174117
 20
3318.4462079955556
 10
9875.4497209865222
 20
3318.4628042016534
 42
0.0082862514249064
 10
9875.6412352733514
 20
3318.5415439826679
 10
9875.6491138360216
 20
3318.5449368957361
 42
0.0039706460171159
 10
9875.8229584058499
 20
3318.6214455118943
 42
0.0091686439333755
 10
9875.9947092303028
 20
3318.7024844093989
 10
9876.0234411116271
 20
3318.716691097794
 42
0.010745914289178
 10
9876.2472088529648
 20
3318.8333846450123
 10
9876.2582528090188
 20
3318.8394493650685
 42
0.0121829104893556
 10
9876.4546423820884
 20
3318.9536091090331
 10
9876.4866486338942
 20
3318.9732726193879
 42
0.011401265939156
 10
9876.6143615299552
 20
3319.0558038021413
 42
0.0062840428595096
 10
9876.7391067755743
 20
3319.142820977564
 42
0.0139754961961839
 10
9876.8601952177833
 20
3319.2347967929659
 10
9876.8853092774789
 20
3319.2550040189089
 42
0.0156699711742413
 10
9877.0282211639442
 20
3319.3775647890375
 10
9877.0494216366005
 20
3319.396931477339
 42
0.0153353862527105
 10
9877.1432931492218
 20
3319.4881186102757
 10
9877.1584857175494
 20
3319.5038104319156
 42
0.0084279385740731
 10
9877.2181010588138
 20
3319.5674986509284
 42
0.0087738971430711
 10
9877.2754898192688
 20
3319.6331989339351
 10
9877.2895174627702
 20
3319.6498386564726
 42
0.0194989880974046
 10
9877.369785590432
 20
3319.7529569934291
 10
9877.3876237554177
 20
3319.7778149787728
 42
0.0164396567317582
 10
9877.4523419055895
 20
3319.8745640803304
 42
0.0117467882631685
 10
9877.5115221701035
 20
3319.9748321934444
 10
9877.5185233121792
 20
3319.9873572389688
 42
0.0208737248021872
 10
9877.5839436888236
 20
3320.1167983155106
 10
9877.5935194858848
 20
3320.1378877569009
 10
9877.5947943279825
 20
3320.1406981970831
  0
POLYLINE
  5
109
100
AcDbEntity
  8
0
370
              15
  6
Continuous
 62
               7
100
AcDb2dPolyline
 66
               1
 10
0.0
 20
0.0
 30
0.0
 75
               5
  0
VERTEX
  5
10A
100
AcDbEntity
  8
0
370
              15
  6
Continuous
 62
               7
100
AcDbVertex
100
AcDb2dVertex
 10
9866.494307123583
 20
3314.9304929716832
 30
0.0
  0
VERTEX
  5
10B
100
AcDbEntity
  8
0
370
              15
  6
Continuous
 62
               7
100
AcDbVertex
100
AcDb2dVertex
 10
9868.3743056270832
 20
3314.9611059537833
 30
0.0
  0
VERTEX
  5
10C
100
AcDbEntity
  8
0
370
              15
  6
Continuous
 62
               7
100
AcDbVertex
100
AcDb2dVertex
 10
9870.2246554310823
 20
3315.0524621151831
 30
0.0
  0
VERTEX
  5
10D
100
AcDbEntity
  8
0
370
              15
  6
Continuous
 62
               7
100
AcDbVertex
100
AcDb2dVertex
 10
9872.0161754138826
 20
3315.2031207145833
 30
0.0
  0
VERTEX
  5
10E
100
AcDbEntity
  8
0
370
              15
  6
Continuous
 62
               7
100
AcDbVertex
100
AcDb2dVertex
 10
9873.7206122351818
 20
3315.4107057759829
 30
0.0
  0
VERTEX
  5
10F
100
AcDbEntity
  8
0
370
              15
  6
Continuous
 62
               7
100
AcDbVertex
100
AcDb2dVertex
 10
9875.3110859079825
 20
3315.671943558883
 30
0.0
  0
VERTEX
  5
110
100
AcDbEntity
  8
0
370
              15
  6
Continuous
 62
               7
100
AcDbVertex
100
AcDb2dVertex
 10
9876.7625137125833
 20
3315.9827141872829
 30
0.0
  0
VERTEX
  5
111
100
AcDbEntity
  8
0
370
              15
  6
Continuous
 62
               7
100
AcDbVertex
100
AcDb2dVertex
 10
9878.052005765283
 20
3316.3381166228833
 30
0.0
  0
VERTEX
  5
112
100
AcDbEntity
  8
0
370
              15
  6
Continuous
 62
               7
100
AcDbVertex
100
AcDb2dVertex
 10
9879.1592260061825
 20
3316.7325459568833
 30
0.0
  0
VERTEX
  5
113
100
AcDbEntity
  8
0
370
              15
  6
Continuous
 62
               7
100
AcDbVertex
100
AcDb2dVertex
 10
9880.0667129105823
 20
3317.1597818031828
 30
0.0
  0
VERTEX
  5
114
100
AcDbEntity
  8
0
370
              15
  6
Continuous
 62
               7
100
AcDbVertex
100
AcDb2dVertex
 10
9880.7601548680832
 20
3317.613086397083
 30
0.0
  0
VERTEX
  5
115
100
AcDbEntity
  8
0
370
              15
  6
Continuous
 62
               7
100
AcDbVertex
100
AcDb2dVertex
 10
9881.2286158845818
 20
3318.0853108544829
 30
0.0
  0
VERTEX
  5
116
100
AcDbEntity
  8
0
370
              15
  6
Continuous
 62
               7
100
AcDbVertex
100
AcDb2dVertex
 10
9881.4647080500818
 20
3318.5690079135829
 30
0.0
  0
VERTEX
  5
117
100
AcDbEntity
  8
0
370
              15
  6
Continuous
 62
               7
100
AcDbVertex
100
AcDb2dVertex
 10
9881.4942195706826
 20
3318.8127786481832
 30
0.0
  0
SEQEND
  5
118
100
AcDbEntity
  8
0
370
              15
  6
Continuous
 62
               7
  0
POLYLINE
  5
119
100
AcDbEntity
  8
0
370
              15
  6
Continuous
 62
               7
100
AcDb2dPolyline
 66
               1
 10
0.0
 20
0.0
 30
0.0
 75
               5
  0
VERTEX
  5
11A
100
AcDbEntity
  8
0
370
              15
  6
Continuous
 62
               7
100
AcDbVertex
100
AcDb2dVertex
 10
9866.494307123583
 20
3315.642245345683
 30
0.0
  0
VERTEX
  5
11B
100
AcDbEntity
  8
0
370
              15
  6
Continuous
 62
               7
100
AcDbVertex
100
AcDb2dVertex
 10
9868.1623485750824
 20
3315.6717758639829
 30
0.0
  0
VERTEX
  5
11C
100
AcDbEntity
  8
0
370
              15
  6
Continuous
 62
               7
100
AcDbVertex
100
AcDb2dVertex
 10
9869.7993175702832
 20
3315.7598173210831
 30
0.0
  0
VERTEX
  5
11D
100
AcDbEntity
  8
0
370
              15
  6
Continuous
 62
               7
100
AcDbVertex
100
AcDb2dVertex
 10
9871.3747204742831
 20
3315.9047296712829
 30
0.0
  0
VERTEX
  5
11E
100
AcDbEntity
  8
0
370
              15
  6
Continuous
 62
               7
100
AcDbVertex
100
AcDb2dVertex
 10
9872.8592105115822
 20
3316.1038134717833
 30
0.0
  0
VERTEX
  5
11F
100
AcDbEntity
  8
0
370
              15
  6
Continuous
 62
               7
100
AcDbVertex
100
AcDb2dVertex
 10
9874.2251344415818
 20
3316.3533601678832
 30
0.0
  0
VERTEX
  5
120
100
AcDbEntity
  8
0
370
              15
  6
Continuous
 62
               7
100
AcDbVertex
100
AcDb2dVertex
 10
9875.4470476859824
 20
3316.6487211768831
 30
0.0
  0
VERTEX
  5
121
100
AcDbEntity
  8
0
370
              15
  6
Continuous
 62
               7
100
AcDbVertex
100
AcDb2dVertex
 10
9876.5021883129812
 20
3316.9843944819831
 30
0.0
  0
VERTEX
  5
122
100
AcDbEntity
  8
0
370
              15
  6
Continuous
 62
               7
100
AcDbVertex
100
AcDb2dVertex
 10
9877.370901049082
 20
3317.3541271246831
 30
0.0
  0
VERTEX
  5
123
100
AcDbEntity
  8
0
370
              15
  6
Continuous
 62
               7
100
AcDbVertex
100
AcDb2dVertex
 10
9878.0370034195821
 20
3317.7510316854832
 30
0.0
  0
VERTEX
  5
124
100
AcDbEntity
  8
0
370
              15
  6
Continuous
 62
               7
100
AcDbVertex
100
AcDb2dVertex
 10
9878.488087197682
 20
3318.1677145831832
 30
0.0
  0
VERTEX
  5
125
100
AcDbEntity
  8
0
370
              15
  6
Continuous
 62
               7
100
AcDbVertex
100
AcDb2dVertex
 10
9878.7157495461815
 20
3318.5964138039831
 30
0.0
  0
VERTEX
  5
126
100
AcDbEntity
  8
0
370
              15
  6
Continuous
 62
               7
100
AcDbVertex
100
AcDb2dVertex
 10
9878.7442073397833
 20
3318.8127786481832
 30
0.0
  0
SEQEND
  5
127
100
AcDbEntity
  8
0
370
              15
  6
Continuous
 62
               7
  0
ARC
  5
128
100
AcDbEntity
  8
0
370
              15
  6
Continuous
 62
               7
100
AcDbCircle
 10
9866.494307123583
 20
3422.284776226983
 30
0.0
 40
15.0
100
AcDbArc
 50
0.0
 51
180.0
  0
ENDBLK
  5
129
100
AcDbEntity
  8
一般
100
AcDbBlockEnd
  0
BLOCK
  5
12A
100
AcDbEntity
  8
一般
100
AcDbBlockBegin
  2
XCVB
 70
               0
 10
0.0
 20
0.0
 30
0.0
  3
XCVB
  1

  0
LINE
  5
12B
100
AcDbEntity
  8
0
370
              15
  6
Continuous
 62
               7
100
AcDbLine
 10
10073.011933866754
 20
3192.284776226983
 30
0.0
 11
10073.011933866754
 21
3329.7359351137829
 31
0.0
  0
LINE
  5
12C
100
AcDbEntity
  8
0
370
              15
  6
Continuous
 62
               7
100
AcDbLine
 10
10043.011933866754
 20
3192.284776226983
 30
0.0
 11
10043.011933866754
 21
3329.7359351137829
 31
0.0
  0
ARC
  5
12D
100
AcDbEntity
  8
0
370
              15
  6
Continuous
 62
               7
100
AcDbCircle
 10
10150.560774979855
 20
3329.7359351137829
 30
0.0
 40
77.548841113200041
100
AcDbArc
 50
14.999999999994543
 51
180.0
  0
ARC
  5
12E
100
AcDbEntity
  8
0
370
              15
  6
Continuous
 62
               7
100
AcDbCircle
 10
10150.560774979855
 20
3329.7359351137829
 30
0.0
 40
107.54884111320008
100
AcDbArc
 50
14.999999999994518
 51
180.0
  0
LINE
  5
12F
100
AcDbEntity
  8
0
370
              15
  6
Continuous
 62
               7
100
AcDbLine
 10
10257.500821261054
 20
3346.1670619035831
 30
0.0
 11
10228.523046472354
 21
3338.402490550483
 31
0.0
  0
LINE
  5
130
100
AcDbEntity
  8
0
370
              15
  6
Continuous
 62
               7
100
AcDbLine
 10
10234.812349268354
 20
3314.9304929716832
 30
0.0
 11
10225.467203409953
 21
3349.8070521195832
 31
0.0
  0
LINE
  5
131
100
AcDbEntity
  8
0
370
              15
  6
Continuous
 62
               7
100
AcDbLine
 10
10234.812349268354
 20
3314.9304929716832
 30
0.0
 11
10263.790124057054
 21
3322.6950643246832
 31
0.0
  0
LINE
  5
132
100
AcDbEntity
  8
0
370
              15
  6
Continuous
 62
               7
100
AcDbLine
 10
10263.790124057054
 20
3322.6950643246832
 30
0.0
 11
10254.444978198553
 21
3357.5716234725828
 31
0.0
  0
ENDBLK
  5
133
100
AcDbEntity
  8
一般
100
AcDbBlockEnd
  0
BLOCK
  5
134
100
AcDbEntity
  8
一般
100
AcDbBlockBegin
  2
グループ-2
 70
               0
 10
0.0
 20
0.0
 30
0.0
  3
グループ-2
  1

  0
LINE
  5
135
100
AcDbEntity
  8
一般
370
              15
  6
Continuous
 62
               7
100
AcDbLine
 10
120.12335111800731
 20
-693.04017817279987
 30
0.0
 11
135.88505731429103
 21
-708.80188436908361
 31
0.0
  0
LINE
  5
136
100
AcDbEntity
  8
一般
370
              15
  6
Continuous
 62
               7
100
AcDbLine
 10
135.88505731429103
 20
-693.04017817279987
 30
0.0
 11
120.12335111800731
 21
-708.80188436908361
 31
0.0
  0
ENDBLK
  5
137
100
AcDbEntity
  8
一般
100
AcDbBlockEnd
  0
ENDSEC
  0
SECTION
  2
ENTITIES
  0
INSERT
  5
138
100
AcDbEntity
  8
一般
 62
               7
100
AcDbBlockReference
  2
scal 1_5
 10
1806.5794038573699
 20
336.87063539572489
 30
0.0
  0
INSERT
  5
139
100
AcDbEntity
  8
一般
 62
               7
100
AcDbBlockReference
  2
グループ-1
 10
1450.0
 20
1020.0
 30
0.0
  0
LWPOLYLINE
  5
13A
100
AcDbEntity
  8
一般
370
              15
  6
Continuous
 62
               7
100
AcDbPolyline
 90
        6
 70
             128
 10
1027.0042042160474
 20
1149.5789687290587
 10
1025.0042042160474
 20
1149.5789687290587
 10
1025.0042042160474
 20
1334.5789687290587
 10
1053.0042042160474
 20
1334.5789687290587
 10
1053.0042042160474
 20
1149.5789687290587
 10
1027.0042042160474
 20
1149.5789687290587
  0
LINE
  5
13B
100
AcDbEntity
  8
一般
370
               5
  6
Continuous
 62
               7
100
AcDbLine
 10
1025.0042042160474
 20
1331.5789687290587
 30
0.0
 11
1053.0042042160474
 21
1331.5789687290587
 31
0.0
  0
POLYLINE
  5
13C
100
AcDbEntity
  8
一般
370
              15
  6
Continuous
 62
               7
100
AcDb2dPolyline
 66
               1
 10
0.0
 20
0.0
 30
0.0
 70
               1
 75
               5
  0
VERTEX
  5
13D
100
AcDbEntity
  8
一般
370
              15
  6
Continuous
 62
               7
100
AcDbVertex
100
AcDb2dVertex
 10
1026.5042042160474
 20
1323.5789687290587
 30
0.0
  0
VERTEX
  5
13E
100
AcDbEntity
  8
一般
370
              15
  6
Continuous
 62
               7
100
AcDbVertex
100
AcDb2dVertex
 10
1051.5042042160474
 20
1323.5789687290587
 30
0.0
  0
VERTEX
  5
13F
100
AcDbEntity
  8
一般
370
              15
  6
Continuous
 62
               7
100
AcDbVertex
100
AcDb2dVertex
 10
1051.5042042160474
 20
1264.5789687290587
 30
0.0
  0
VERTEX
  5
140
100
AcDbEntity
  8
一般
370
              15
  6
Continuous
 62
               7
100
AcDbVertex
100
AcDb2dVertex
 10
1026.5042042160474
 20
1264.5789687290587
 30
0.0
  0
SEQEND
  5
141
100
AcDbEntity
  8
一般
370
              15
  6
Continuous
 62
               7
  0
CIRCLE
  5
142
100
AcDbEntity
  8
一般
370
               5
  6
Continuous
 62
               7
100
AcDbCircle
 10
1029.0042042160474
 20
1321.0789687290587
 30
0.0
 40
1.0
  0
CIRCLE
  5
143
100
AcDbEntity
  8
一般
370
               5
  6
Continuous
 62
               7
100
AcDbCircle
 10
1029.0042042160474
 20
1321.0789687290587
 30
0.0
 40
0.25
  0
CIRCLE
  5
144
100
AcDbEntity
  8
一般
370
               5
  6
Continuous
 62
               7
100
AcDbCircle
 10
1034.0042042160474
 20
1321.0789687290587
 30
0.0
 40
1.0
  0
CIRCLE
  5
145
100
AcDbEntity
  8
一般
370
               5
  6
Continuous
 62
               7
100
AcDbCircle
 10
1034.0042042160474
 20
1321.0789687290587
 30
0.0
 40
0.25
  0
CIRCLE
  5
146
100
AcDbEntity
  8
一般
370
               5
  6
Continuous
 62
               7
100
AcDbCircle
 10
1039.0042042160474
 20
1321.0789687290587
 30
0.0
 40
1.0
  0
CIRCLE
  5
147
100
AcDbEntity
  8
一般
370
               5
  6
Continuous
 62
               7
100
AcDbCircle
 10
1039.0042042160474
 20
1321.0789687290587
 30
0.0
 40
0.25
  0
CIRCLE
  5
148
100
AcDbEntity
  8
一般
370
               5
  6
Continuous
 62
               7
100
AcDbCircle
 10
1044.0042042160474
 20
1321.0789687290587
 30
0.0
 40
1.0
  0
CIRCLE
  5
149
100
AcDbEntity
  8
一般
370
               5
  6
Continuous
 62
               7
100
AcDbCircle
 10
1044.0042042160474
 20
1321.0789687290587
 30
0.0
 40
0.25
  0
CIRCLE
  5
14A
100
AcDbEntity
  8
一般
370
               5
  6
Continuous
 62
               7
100
AcDbCircle
 10
1049.0042042160474
 20
1321.0789687290587
 30
0.0
 40
1.0
  0
CIRCLE
  5
14B
100
AcDbEntity
  8
一般
370
               5
  6
Continuous
 62
               7
100
AcDbCircle
 10
1049.0042042160474
 20
1321.0789687290587
 30
0.0
 40
0.25
  0
CIRCLE
  5
14C
100
AcDbEntity
  8
一般
370
               5
  6
Continuous
 62
               7
100
AcDbCircle
 10
1031.2042042160474
 20
1318.0789687290587
 30
0.0
 40
1.0
  0
CIRCLE
  5
14D
100
AcDbEntity
  8
一般
370
               5
  6
Continuous
 62
               7
100
AcDbCircle
 10
1031.2042042160474
 20
1318.0789687290587
 30
0.0
 40
0.25
  0
CIRCLE
  5
14E
100
AcDbEntity
  8
一般
370
               5
  6
Continuous
 62
               7
100
AcDbCircle
 10
1036.2042042160474
 20
1318.0789687290587
 30
0.0
 40
1.0
  0
CIRCLE
  5
14F
100
AcDbEntity
  8
一般
370
               5
  6
Continuous
 62
               7
100
AcDbCircle
 10
1036.2042042160474
 20
1318.0789687290587
 30
0.0
 40
0.25
  0
CIRCLE
  5
150
100
AcDbEntity
  8
一般
370
               5
  6
Continuous
 62
               7
100
AcDbCircle
 10
1041.2042042160474
 20
1318.0789687290587
 30
0.0
 40
1.0
  0
CIRCLE
  5
151
100
AcDbEntity
  8
一般
370
               5
  6
Continuous
 62
               7
100
AcDbCircle
 10
1041.2042042160474
 20
1318.0789687290587
 30
0.0
 40
0.25
  0
CIRCLE
  5
152
100
AcDbEntity
  8
一般
370
               5
  6
Continuous
 62
               7
100
AcDbCircle
 10
1046.2042042160474
 20
1318.0789687290587
 30
0.0
 40
1.0
  0
CIRCLE
  5
153
100
AcDbEntity
  8
一般
370
               5
  6
Continuous
 62
               7
100
AcDbCircle
 10
1046.2042042160474
 20
1318.0789687290587
 30
0.0
 40
0.25
  0
CIRCLE
  5
154
100
AcDbEntity
  8
一般
370
               5
  6
Continuous
 62
               7
100
AcDbCircle
 10
1029.0042042160474
 20
1315.0789687290587
 30
0.0
 40
1.0
  0
CIRCLE
  5
155
100
AcDbEntity
  8
一般
370
               5
  6
Continuous
 62
               7
100
AcDbCircle
 10
1029.0042042160474
 20
1315.0789687290587
 30
0.0
 40
0.25
  0
CIRCLE
  5
156
100
AcDbEntity
  8
一般
370
               5
  6
Continuous
 62
               7
100
AcDbCircle
 10
1034.0042042160474
 20
1315.0789687290587
 30
0.0
 40
1.0
  0
CIRCLE
  5
157
100
AcDbEntity
  8
一般
370
               5
  6
Continuous
 62
               7
100
AcDbCircle
 10
1034.0042042160474
 20
1315.0789687290587
 30
0.0
 40
0.25
  0
CIRCLE
  5
158
100
AcDbEntity
  8
一般
370
               5
  6
Continuous
 62
               7
100
AcDbCircle
 10
1039.0042042160474
 20
1315.0789687290587
 30
0.0
 40
1.0
  0
CIRCLE
  5
159
100
AcDbEntity
  8
一般
370
               5
  6
Continuous
 62
               7
100
AcDbCircle
 10
1039.0042042160474
 20
1315.0789687290587
 30
0.0
 40
0.25
  0
CIRCLE
  5
15A
100
AcDbEntity
  8
一般
370
               5
  6
Continuous
 62
               7
100
AcDbCircle
 10
1044.0042042160474
 20
1315.0789687290587
 30
0.0
 40
1.0
  0
CIRCLE
  5
15B
100
AcDbEntity
  8
一般
370
               5
  6
Continuous
 62
               7
100
AcDbCircle
 10
1044.0042042160474
 20
1315.0789687290587
 30
0.0
 40
0.25
  0
CIRCLE
  5
15C
100
AcDbEntity
  8
一般
370
               5
  6
Continuous
 62
               7
100
AcDbCircle
 10
1049.0042042160474
 20
1315.0789687290587
 30
0.0
 40
1.0
  0
CIRCLE
  5
15D
100
AcDbEntity
  8
一般
370
               5
  6
Continuous
 62
               7
100
AcDbCircle
 10
1049.0042042160474
 20
1315.0789687290587
 30
0.0
 40
0.25
  0
CIRCLE
  5
15E
100
AcDbEntity
  8
一般
370
               5
  6
Continuous
 62
               7
100
AcDbCircle
 10
1031.2042042160474
 20
1312.0789687290587
 30
0.0
 40
1.0
  0
CIRCLE
  5
15F
100
AcDbEntity
  8
一般
370
               5
  6
Continuous
 62
               7
100
AcDbCircle
 10
1031.2042042160474
 20
1312.0789687290587
 30
0.0
 40
0.25
  0
CIRCLE
  5
160
100
AcDbEntity
  8
一般
370
               5
  6
Continuous
 62
               7
100
AcDbCircle
 10
1036.2042042160474
 20
1312.0789687290587
 30
0.0
 40
1.0
  0
CIRCLE
  5
161
100
AcDbEntity
  8
一般
370
               5
  6
Continuous
 62
               7
100
AcDbCircle
 10
1036.2042042160474
 20
1312.0789687290587
 30
0.0
 40
0.25
  0
CIRCLE
  5
162
100
AcDbEntity
  8
一般
370
               5
  6
Continuous
 62
               7
100
AcDbCircle
 10
1041.2042042160474
 20
1312.0789687290587
 30
0.0
 40
1.0
  0
CIRCLE
  5
163
100
AcDbEntity
  8
一般
370
               5
  6
Continuous
 62
               7
100
AcDbCircle
 10
1041.2042042160474
 20
1312.0789687290587
 30
0.0
 40
0.25
  0
CIRCLE
  5
164
100
AcDbEntity
  8
一般
370
               5
  6
Continuous
 62
               7
100
AcDbCircle
 10
1046.2042042160474
 20
1312.0789687290587
 30
0.0
 40
1.0
  0
CIRCLE
  5
165
100
AcDbEntity
  8
一般
370
               5
  6
Continuous
 62
               7
100
AcDbCircle
 10
1046.2042042160474
 20
1312.0789687290587
 30
0.0
 40
0.25
  0
CIRCLE
  5
166
100
AcDbEntity
  8
一般
370
               5
  6
Continuous
 62
               7
100
AcDbCircle
 10
1029.0042042160474
 20
1309.0789687290587
 30
0.0
 40
1.0
  0
CIRCLE
  5
167
100
AcDbEntity
  8
一般
370
               5
  6
Continuous
 62
               7
100
AcDbCircle
 10
1029.0042042160474
 20
1309.0789687290587
 30
0.0
 40
0.25
  0
CIRCLE
  5
168
100
AcDbEntity
  8
一般
370
               5
  6
Continuous
 62
               7
100
AcDbCircle
 10
1034.0042042160474
 20
1309.0789687290587
 30
0.0
 40
1.0
  0
CIRCLE
  5
169
100
AcDbEntity
  8
一般
370
               5
  6
Continuous
 62
               7
100
AcDbCircle
 10
1034.0042042160474
 20
1309.0789687290587
 30
0.0
 40
0.25
  0
CIRCLE
  5
16A
100
AcDbEntity
  8
一般
370
               5
  6
Continuous
 62
               7
100
AcDbCircle
 10
1039.0042042160474
 20
1309.0789687290587
 30
0.0
 40
1.0
  0
CIRCLE
  5
16B
100
AcDbEntity
  8
一般
370
               5
  6
Continuous
 62
               7
100
AcDbCircle
 10
1039.0042042160474
 20
1309.0789687290587
 30
0.0
 40
0.25
  0
CIRCLE
  5
16C
100
AcDbEntity
  8
一般
370
               5
  6
Continuous
 62
               7
100
AcDbCircle
 10
1044.0042042160474
 20
1309.0789687290587
 30
0.0
 40
1.0
  0
CIRCLE
  5
16D
100
AcDbEntity
  8
一般
370
               5
  6
Continuous
 62
               7
100
AcDbCircle
 10
1044.0042042160474
 20
1309.0789687290587
 30
0.0
 40
0.25
  0
CIRCLE
  5
16E
100
AcDbEntity
  8
一般
370
               5
  6
Continuous
 62
               7
100
AcDbCircle
 10
1049.0042042160474
 20
1309.0789687290587
 30
0.0
 40
1.0
  0
CIRCLE
  5
16F
100
AcDbEntity
  8
一般
370
               5
  6
Continuous
 62
               7
100
AcDbCircle
 10
1049.0042042160474
 20
1309.0789687290587
 30
0.0
 40
0.25
  0
CIRCLE
  5
170
100
AcDbEntity
  8
一般
370
               5
  6
Continuous
 62
               7
100
AcDbCircle
 10
1031.2042042160474
 20
1306.0789687290587
 30
0.0
 40
1.0
  0
CIRCLE
  5
171
100
AcDbEntity
  8
一般
370
               5
  6
Continuous
 62
               7
100
AcDbCircle
 10
1031.2042042160474
 20
1306.0789687290587
 30
0.0
 40
0.25
  0
CIRCLE
  5
172
100
AcDbEntity
  8
一般
370
               5
  6
Continuous
 62
               7
100
AcDbCircle
 10
1036.2042042160474
 20
1306.0789687290587
 30
0.0
 40
1.0
  0
CIRCLE
  5
173
100
AcDbEntity
  8
一般
370
               5
  6
Continuous
 62
               7
100
AcDbCircle
 10
1036.2042042160474
 20
1306.0789687290587
 30
0.0
 40
0.25
  0
CIRCLE
  5
174
100
AcDbEntity
  8
一般
370
               5
  6
Continuous
 62
               7
100
AcDbCircle
 10
1041.2042042160474
 20
1306.0789687290587
 30
0.0
 40
1.0
  0
CIRCLE
  5
175
100
AcDbEntity
  8
一般
370
               5
  6
Continuous
 62
               7
100
AcDbCircle
 10
1041.2042042160474
 20
1306.0789687290587
 30
0.0
 40
0.25
  0
CIRCLE
  5
176
100
AcDbEntity
  8
一般
370
               5
  6
Continuous
 62
               7
100
AcDbCircle
 10
1046.2042042160474
 20
1306.0789687290587
 30
0.0
 40
1.0
  0
CIRCLE
  5
177
100
AcDbEntity
  8
一般
370
               5
  6
Continuous
 62
               7
100
AcDbCircle
 10
1046.2042042160474
 20
1306.0789687290587
 30
0.0
 40
0.25
  0
CIRCLE
  5
178
100
AcDbEntity
  8
一般
370
               5
  6
Continuous
 62
               7
100
AcDbCircle
 10
1029.0042042160474
 20
1303.0789687290587
 30
0.0
 40
1.0
  0
CIRCLE
  5
179
100
AcDbEntity
  8
一般
370
               5
  6
Continuous
 62
               7
100
AcDbCircle
 10
1029.0042042160474
 20
1303.0789687290587
 30
0.0
 40
0.25
  0
CIRCLE
  5
17A
100
AcDbEntity
  8
一般
370
               5
  6
Continuous
 62
               7
100
AcDbCircle
 10
1034.0042042160474
 20
1303.0789687290587
 30
0.0
 40
1.0
  0
CIRCLE
  5
17B
100
AcDbEntity
  8
一般
370
               5
  6
Continuous
 62
               7
100
AcDbCircle
 10
1034.0042042160474
 20
1303.0789687290587
 30
0.0
 40
0.25
  0
CIRCLE
  5
17C
100
AcDbEntity
  8
一般
370
               5
  6
Continuous
 62
               7
100
AcDbCircle
 10
1039.0042042160474
 20
1303.0789687290587
 30
0.0
 40
1.0
  0
CIRCLE
  5
17D
100
AcDbEntity
  8
一般
370
               5
  6
Continuous
 62
               7
100
AcDbCircle
 10
1039.0042042160474
 20
1303.0789687290587
 30
0.0
 40
0.25
  0
CIRCLE
  5
17E
100
AcDbEntity
  8
一般
370
               5
  6
Continuous
 62
               7
100
AcDbCircle
 10
1044.0042042160474
 20
1303.0789687290587
 30
0.0
 40
1.0
  0
CIRCLE
  5
17F
100
AcDbEntity
  8
一般
370
               5
  6
Continuous
 62
               7
100
AcDbCircle
 10
1044.0042042160474
 20
1303.0789687290587
 30
0.0
 40
0.25
  0
CIRCLE
  5
180
100
AcDbEntity
  8
一般
370
               5
  6
Continuous
 62
               7
100
AcDbCircle
 10
1049.0042042160474
 20
1303.0789687290587
 30
0.0
 40
1.0
  0
CIRCLE
  5
181
100
AcDbEntity
  8
一般
370
               5
  6
Continuous
 62
               7
100
AcDbCircle
 10
1049.0042042160474
 20
1303.0789687290587
 30
0.0
 40
0.25
  0
CIRCLE
  5
182
100
AcDbEntity
  8
一般
370
               5
  6
Continuous
 62
               7
100
AcDbCircle
 10
1031.2042042160474
 20
1300.0789687290587
 30
0.0
 40
1.0
  0
CIRCLE
  5
183
100
AcDbEntity
  8
一般
370
               5
  6
Continuous
 62
               7
100
AcDbCircle
 10
1031.2042042160474
 20
1300.0789687290587
 30
0.0
 40
0.25
  0
CIRCLE
  5
184
100
AcDbEntity
  8
一般
370
               5
  6
Continuous
 62
               7
100
AcDbCircle
 10
1036.2042042160474
 20
1300.0789687290587
 30
0.0
 40
1.0
  0
CIRCLE
  5
185
100
AcDbEntity
  8
一般
370
               5
  6
Continuous
 62
               7
100
AcDbCircle
 10
1036.2042042160474
 20
1300.0789687290587
 30
0.0
 40
0.25
  0
CIRCLE
  5
186
100
AcDbEntity
  8
一般
370
               5
  6
Continuous
 62
               7
100
AcDbCircle
 10
1041.2042042160474
 20
1300.0789687290587
 30
0.0
 40
1.0
  0
CIRCLE
  5
187
100
AcDbEntity
  8
一般
370
               5
  6
Continuous
 62
               7
100
AcDbCircle
 10
1041.2042042160474
 20
1300.0789687290587
 30
0.0
 40
0.25
  0
CIRCLE
  5
188
100
AcDbEntity
  8
一般
370
               5
  6
Continuous
 62
               7
100
AcDbCircle
 10
1046.2042042160474
 20
1300.0789687290587
 30
0.0
 40
1.0
  0
CIRCLE
  5
189
100
AcDbEntity
  8
一般
370
               5
  6
Continuous
 62
               7
100
AcDbCircle
 10
1046.2042042160474
 20
1300.0789687290587
 30
0.0
 40
0.25
  0
CIRCLE
  5
18A
100
AcDbEntity
  8
一般
370
               5
  6
Continuous
 62
               7
100
AcDbCircle
 10
1029.0042042160474
 20
1297.0789687290587
 30
0.0
 40
1.0
  0
CIRCLE
  5
18B
100
AcDbEntity
  8
一般
370
               5
  6
Continuous
 62
               7
100
AcDbCircle
 10
1029.0042042160474
 20
1297.0789687290587
 30
0.0
 40
0.25
  0
CIRCLE
  5
18C
100
AcDbEntity
  8
一般
370
               5
  6
Continuous
 62
               7
100
AcDbCircle
 10
1034.0042042160474
 20
1297.0789687290587
 30
0.0
 40
1.0
  0
CIRCLE
  5
18D
100
AcDbEntity
  8
一般
370
               5
  6
Continuous
 62
               7
100
AcDbCircle
 10
1034.0042042160474
 20
1297.0789687290587
 30
0.0
 40
0.25
  0
CIRCLE
  5
18E
100
AcDbEntity
  8
一般
370
               5
  6
Continuous
 62
               7
100
AcDbCircle
 10
1039.0042042160474
 20
1297.0789687290587
 30
0.0
 40
1.0
  0
CIRCLE
  5
18F
100
AcDbEntity
  8
一般
370
               5
  6
Continuous
 62
               7
100
AcDbCircle
 10
1039.0042042160474
 20
1297.0789687290587
 30
0.0
 40
0.25
  0
CIRCLE
  5
190
100
AcDbEntity
  8
一般
370
               5
  6
Continuous
 62
               7
100
AcDbCircle
 10
1044.0042042160474
 20
1297.0789687290587
 30
0.0
 40
1.0
  0
CIRCLE
  5
191
100
AcDbEntity
  8
一般
370
               5
  6
Continuous
 62
               7
100
AcDbCircle
 10
1044.0042042160474
 20
1297.0789687290587
 30
0.0
 40
0.25
  0
CIRCLE
  5
192
100
AcDbEntity
  8
一般
370
               5
  6
Continuous
 62
               7
100
AcDbCircle
 10
1049.0042042160474
 20
1297.0789687290587
 30
0.0
 40
1.0
  0
CIRCLE
  5
193
100
AcDbEntity
  8
一般
370
               5
  6
Continuous
 62
               7
100
AcDbCircle
 10
1049.0042042160474
 20
1297.0789687290587
 30
0.0
 40
0.25
  0
CIRCLE
  5
194
100
AcDbEntity
  8
一般
370
               5
  6
Continuous
 62
               7
100
AcDbCircle
 10
1031.2042042160474
 20
1294.0789687290587
 30
0.0
 40
1.0
  0
CIRCLE
  5
195
100
AcDbEntity
  8
一般
370
               5
  6
Continuous
 62
               7
100
AcDbCircle
 10
1031.2042042160474
 20
1294.0789687290587
 30
0.0
 40
0.25
  0
CIRCLE
  5
196
100
AcDbEntity
  8
一般
370
               5
  6
Continuous
 62
               7
100
AcDbCircle
 10
1036.2042042160474
 20
1294.0789687290587
 30
0.0
 40
1.0
  0
CIRCLE
  5
197
100
AcDbEntity
  8
一般
370
               5
  6
Continuous
 62
               7
100
AcDbCircle
 10
1036.2042042160474
 20
1294.0789687290587
 30
0.0
 40
0.25
  0
CIRCLE
  5
198
100
AcDbEntity
  8
一般
370
               5
  6
Continuous
 62
               7
100
AcDbCircle
 10
1041.2042042160474
 20
1294.0789687290587
 30
0.0
 40
1.0
  0
CIRCLE
  5
199
100
AcDbEntity
  8
一般
370
               5
  6
Continuous
 62
               7
100
AcDbCircle
 10
1041.2042042160474
 20
1294.0789687290587
 30
0.0
 40
0.25
  0
CIRCLE
  5
19A
100
AcDbEntity
  8
一般
370
               5
  6
Continuous
 62
               7
100
AcDbCircle
 10
1046.2042042160474
 20
1294.0789687290587
 30
0.0
 40
1.0
  0
CIRCLE
  5
19B
100
AcDbEntity
  8
一般
370
               5
  6
Continuous
 62
               7
100
AcDbCircle
 10
1046.2042042160474
 20
1294.0789687290587
 30
0.0
 40
0.25
  0
CIRCLE
  5
19C
100
AcDbEntity
  8
一般
370
               5
  6
Continuous
 62
               7
100
AcDbCircle
 10
1029.0042042160474
 20
1291.0789687290587
 30
0.0
 40
1.0
  0
CIRCLE
  5
19D
100
AcDbEntity
  8
一般
370
               5
  6
Continuous
 62
               7
100
AcDbCircle
 10
1029.0042042160474
 20
1291.0789687290587
 30
0.0
 40
0.25
  0
CIRCLE
  5
19E
100
AcDbEntity
  8
一般
370
               5
  6
Continuous
 62
               7
100
AcDbCircle
 10
1034.0042042160474
 20
1291.0789687290587
 30
0.0
 40
1.0
  0
CIRCLE
  5
19F
100
AcDbEntity
  8
一般
370
               5
  6
Continuous
 62
               7
100
AcDbCircle
 10
1034.0042042160474
 20
1291.0789687290587
 30
0.0
 40
0.25
  0
CIRCLE
  5
1A0
100
AcDbEntity
  8
一般
370
               5
  6
Continuous
 62
               7
100
AcDbCircle
 10
1039.0042042160474
 20
1291.0789687290587
 30
0.0
 40
1.0
  0
CIRCLE
  5
1A1
100
AcDbEntity
  8
一般
370
               5
  6
Continuous
 62
               7
100
AcDbCircle
 10
1039.0042042160474
 20
1291.0789687290587
 30
0.0
 40
0.25
  0
CIRCLE
  5
1A2
100
AcDbEntity
  8
一般
370
               5
  6
Continuous
 62
               7
100
AcDbCircle
 10
1044.0042042160474
 20
1291.0789687290587
 30
0.0
 40
1.0
  0
CIRCLE
  5
1A3
100
AcDbEntity
  8
一般
370
               5
  6
Continuous
 62
               7
100
AcDbCircle
 10
1044.0042042160474
 20
1291.0789687290587
 30
0.0
 40
0.25
  0
CIRCLE
  5
1A4
100
AcDbEntity
  8
一般
370
               5
  6
Continuous
 62
               7
100
AcDbCircle
 10
1049.0042042160474
 20
1291.0789687290587
 30
0.0
 40
1.0
  0
CIRCLE
  5
1A5
100
AcDbEntity
  8
一般
370
               5
  6
Continuous
 62
               7
100
AcDbCircle
 10
1049.0042042160474
 20
1291.0789687290587
 30
0.0
 40
0.25
  0
CIRCLE
  5
1A6
100
AcDbEntity
  8
一般
370
               5
  6
Continuous
 62
               7
100
AcDbCircle
 10
1031.2042042160474
 20
1288.0789687290587
 30
0.0
 40
1.0
  0
CIRCLE
  5
1A7
100
AcDbEntity
  8
一般
370
               5
  6
Continuous
 62
               7
100
AcDbCircle
 10
1031.2042042160474
 20
1288.0789687290587
 30
0.0
 40
0.25
  0
CIRCLE
  5
1A8
100
AcDbEntity
  8
一般
370
               5
  6
Continuous
 62
               7
100
AcDbCircle
 10
1036.2042042160474
 20
1288.0789687290587
 30
0.0
 40
1.0
  0
CIRCLE
  5
1A9
100
AcDbEntity
  8
一般
370
               5
  6
Continuous
 62
               7
100
AcDbCircle
 10
1036.2042042160474
 20
1288.0789687290587
 30
0.0
 40
0.25
  0
CIRCLE
  5
1AA
100
AcDbEntity
  8
一般
370
               5
  6
Continuous
 62
               7
100
AcDbCircle
 10
1041.2042042160474
 20
1288.0789687290587
 30
0.0
 40
1.0
  0
CIRCLE
  5
1AB
100
AcDbEntity
  8
一般
370
               5
  6
Continuous
 62
               7
100
AcDbCircle
 10
1041.2042042160474
 20
1288.0789687290587
 30
0.0
 40
0.25
  0
CIRCLE
  5
1AC
100
AcDbEntity
  8
一般
370
               5
  6
Continuous
 62
               7
100
AcDbCircle
 10
1046.2042042160474
 20
1288.0789687290587
 30
0.0
 40
1.0
  0
CIRCLE
  5
1AD
100
AcDbEntity
  8
一般
370
               5
  6
Continuous
 62
               7
100
AcDbCircle
 10
1046.2042042160474
 20
1288.0789687290587
 30
0.0
 40
0.25
  0
CIRCLE
  5
1AE
100
AcDbEntity
  8
一般
370
               5
  6
Continuous
 62
               7
100
AcDbCircle
 10
1029.0042042160474
 20
1285.0789687290587
 30
0.0
 40
1.0
  0
CIRCLE
  5
1AF
100
AcDbEntity
  8
一般
370
               5
  6
Continuous
 62
               7
100
AcDbCircle
 10
1029.0042042160474
 20
1285.0789687290587
 30
0.0
 40
0.25
  0
CIRCLE
  5
1B0
100
AcDbEntity
  8
一般
370
               5
  6
Continuous
 62
               7
100
AcDbCircle
 10
1034.0042042160474
 20
1285.0789687290587
 30
0.0
 40
1.0
  0
CIRCLE
  5
1B1
100
AcDbEntity
  8
一般
370
               5
  6
Continuous
 62
               7
100
AcDbCircle
 10
1034.0042042160474
 20
1285.0789687290587
 30
0.0
 40
0.25
  0
CIRCLE
  5
1B2
100
AcDbEntity
  8
一般
370
               5
  6
Continuous
 62
               7
100
AcDbCircle
 10
1039.0042042160474
 20
1285.0789687290587
 30
0.0
 40
1.0
  0
CIRCLE
  5
1B3
100
AcDbEntity
  8
一般
370
               5
  6
Continuous
 62
               7
100
AcDbCircle
 10
1039.0042042160474
 20
1285.0789687290587
 30
0.0
 40
0.25
  0
CIRCLE
  5
1B4
100
AcDbEntity
  8
一般
370
               5
  6
Continuous
 62
               7
100
AcDbCircle
 10
1044.0042042160474
 20
1285.0789687290587
 30
0.0
 40
1.0
  0
CIRCLE
  5
1B5
100
AcDbEntity
  8
一般
370
               5
  6
Continuous
 62
               7
100
AcDbCircle
 10
1044.0042042160474
 20
1285.0789687290587
 30
0.0
 40
0.25
  0
CIRCLE
  5
1B6
100
AcDbEntity
  8
一般
370
               5
  6
Continuous
 62
               7
100
AcDbCircle
 10
1049.0042042160474
 20
1285.0789687290587
 30
0.0
 40
1.0
  0
CIRCLE
  5
1B7
100
AcDbEntity
  8
一般
370
               5
  6
Continuous
 62
               7
100
AcDbCircle
 10
1049.0042042160474
 20
1285.0789687290587
 30
0.0
 40
0.25
  0
CIRCLE
  5
1B8
100
AcDbEntity
  8
一般
370
               5
  6
Continuous
 62
               7
100
AcDbCircle
 10
1031.2042042160474
 20
1282.0789687290587
 30
0.0
 40
1.0
  0
CIRCLE
  5
1B9
100
AcDbEntity
  8
一般
370
               5
  6
Continuous
 62
               7
100
AcDbCircle
 10
1031.2042042160474
 20
1282.0789687290587
 30
0.0
 40
0.25
  0
CIRCLE
  5
1BA
100
AcDbEntity
  8
一般
370
               5
  6
Continuous
 62
               7
100
AcDbCircle
 10
1036.2042042160474
 20
1282.0789687290587
 30
0.0
 40
1.0
  0
CIRCLE
  5
1BB
100
AcDbEntity
  8
一般
370
               5
  6
Continuous
 62
               7
100
AcDbCircle
 10
1036.2042042160474
 20
1282.0789687290587
 30
0.0
 40
0.25
  0
CIRCLE
  5
1BC
100
AcDbEntity
  8
一般
370
               5
  6
Continuous
 62
               7
100
AcDbCircle
 10
1041.2042042160474
 20
1282.0789687290587
 30
0.0
 40
1.0
  0
CIRCLE
  5
1BD
100
AcDbEntity
  8
一般
370
               5
  6
Continuous
 62
               7
100
AcDbCircle
 10
1041.2042042160474
 20
1282.0789687290587
 30
0.0
 40
0.25
  0
CIRCLE
  5
1BE
100
AcDbEntity
  8
一般
370
               5
  6
Continuous
 62
               7
100
AcDbCircle
 10
1046.2042042160474
 20
1282.0789687290587
 30
0.0
 40
1.0
  0
CIRCLE
  5
1BF
100
AcDbEntity
  8
一般
370
               5
  6
Continuous
 62
               7
100
AcDbCircle
 10
1046.2042042160474
 20
1282.0789687290587
 30
0.0
 40
0.25
  0
CIRCLE
  5
1C0
100
AcDbEntity
  8
一般
370
               5
  6
Continuous
 62
               7
100
AcDbCircle
 10
1029.0042042160474
 20
1279.0789687290587
 30
0.0
 40
1.0
  0
CIRCLE
  5
1C1
100
AcDbEntity
  8
一般
370
               5
  6
Continuous
 62
               7
100
AcDbCircle
 10
1029.0042042160474
 20
1279.0789687290587
 30
0.0
 40
0.25
  0
CIRCLE
  5
1C2
100
AcDbEntity
  8
一般
370
               5
  6
Continuous
 62
               7
100
AcDbCircle
 10
1034.0042042160474
 20
1279.0789687290587
 30
0.0
 40
1.0
  0
CIRCLE
  5
1C3
100
AcDbEntity
  8
一般
370
               5
  6
Continuous
 62
               7
100
AcDbCircle
 10
1034.0042042160474
 20
1279.0789687290587
 30
0.0
 40
0.25
  0
CIRCLE
  5
1C4
100
AcDbEntity
  8
一般
370
               5
  6
Continuous
 62
               7
100
AcDbCircle
 10
1039.0042042160474
 20
1279.0789687290587
 30
0.0
 40
1.0
  0
CIRCLE
  5
1C5
100
AcDbEntity
  8
一般
370
               5
  6
Continuous
 62
               7
100
AcDbCircle
 10
1039.0042042160474
 20
1279.0789687290587
 30
0.0
 40
0.25
  0
CIRCLE
  5
1C6
100
AcDbEntity
  8
一般
370
               5
  6
Continuous
 62
               7
100
AcDbCircle
 10
1044.0042042160474
 20
1279.0789687290587
 30
0.0
 40
1.0
  0
CIRCLE
  5
1C7
100
AcDbEntity
  8
一般
370
               5
  6
Continuous
 62
               7
100
AcDbCircle
 10
1044.0042042160474
 20
1279.0789687290587
 30
0.0
 40
0.25
  0
CIRCLE
  5
1C8
100
AcDbEntity
  8
一般
370
               5
  6
Continuous
 62
               7
100
AcDbCircle
 10
1049.0042042160474
 20
1279.0789687290587
 30
0.0
 40
1.0
  0
CIRCLE
  5
1C9
100
AcDbEntity
  8
一般
370
               5
  6
Continuous
 62
               7
100
AcDbCircle
 10
1049.0042042160474
 20
1279.0789687290587
 30
0.0
 40
0.25
  0
CIRCLE
  5
1CA
100
AcDbEntity
  8
一般
370
               5
  6
Continuous
 62
               7
100
AcDbCircle
 10
1031.2042042160474
 20
1276.0789687290587
 30
0.0
 40
1.0
  0
CIRCLE
  5
1CB
100
AcDbEntity
  8
一般
370
               5
  6
Continuous
 62
               7
100
AcDbCircle
 10
1031.2042042160474
 20
1276.0789687290587
 30
0.0
 40
0.25
  0
CIRCLE
  5
1CC
100
AcDbEntity
  8
一般
370
               5
  6
Continuous
 62
               7
100
AcDbCircle
 10
1036.2042042160474
 20
1276.0789687290587
 30
0.0
 40
1.0
  0
CIRCLE
  5
1CD
100
AcDbEntity
  8
一般
370
               5
  6
Continuous
 62
               7
100
AcDbCircle
 10
1036.2042042160474
 20
1276.0789687290587
 30
0.0
 40
0.25
  0
CIRCLE
  5
1CE
100
AcDbEntity
  8
一般
370
               5
  6
Continuous
 62
               7
100
AcDbCircle
 10
1041.2042042160474
 20
1276.0789687290587
 30
0.0
 40
1.0
  0
CIRCLE
  5
1CF
100
AcDbEntity
  8
一般
370
               5
  6
Continuous
 62
               7
100
AcDbCircle
 10
1041.2042042160474
 20
1276.0789687290587
 30
0.0
 40
0.25
  0
CIRCLE
  5
1D0
100
AcDbEntity
  8
一般
370
               5
  6
Continuous
 62
               7
100
AcDbCircle
 10
1046.2042042160474
 20
1276.0789687290587
 30
0.0
 40
1.0
  0
CIRCLE
  5
1D1
100
AcDbEntity
  8
一般
370
               5
  6
Continuous
 62
               7
100
AcDbCircle
 10
1046.2042042160474
 20
1276.0789687290587
 30
0.0
 40
0.25
  0
CIRCLE
  5
1D2
100
AcDbEntity
  8
一般
370
               5
  6
Continuous
 62
               7
100
AcDbCircle
 10
1029.0042042160474
 20
1273.0789687290587
 30
0.0
 40
1.0
  0
CIRCLE
  5
1D3
100
AcDbEntity
  8
一般
370
               5
  6
Continuous
 62
               7
100
AcDbCircle
 10
1029.0042042160474
 20
1273.0789687290587
 30
0.0
 40
0.25
  0
CIRCLE
  5
1D4
100
AcDbEntity
  8
一般
370
               5
  6
Continuous
 62
               7
100
AcDbCircle
 10
1034.0042042160474
 20
1273.0789687290587
 30
0.0
 40
1.0
  0
CIRCLE
  5
1D5
100
AcDbEntity
  8
一般
370
               5
  6
Continuous
 62
               7
100
AcDbCircle
 10
1034.0042042160474
 20
1273.0789687290587
 30
0.0
 40
0.25
  0
CIRCLE
  5
1D6
100
AcDbEntity
  8
一般
370
               5
  6
Continuous
 62
               7
100
AcDbCircle
 10
1039.0042042160474
 20
1273.0789687290587
 30
0.0
 40
1.0
  0
CIRCLE
  5
1D7
100
AcDbEntity
  8
一般
370
               5
  6
Continuous
 62
               7
100
AcDbCircle
 10
1039.0042042160474
 20
1273.0789687290587
 30
0.0
 40
0.25
  0
CIRCLE
  5
1D8
100
AcDbEntity
  8
一般
370
               5
  6
Continuous
 62
               7
100
AcDbCircle
 10
1044.0042042160474
 20
1273.0789687290587
 30
0.0
 40
1.0
  0
CIRCLE
  5
1D9
100
AcDbEntity
  8
一般
370
               5
  6
Continuous
 62
               7
100
AcDbCircle
 10
1044.0042042160474
 20
1273.0789687290587
 30
0.0
 40
0.25
  0
CIRCLE
  5
1DA
100
AcDbEntity
  8
一般
370
               5
  6
Continuous
 62
               7
100
AcDbCircle
 10
1049.0042042160474
 20
1273.0789687290587
 30
0.0
 40
1.0
  0
CIRCLE
  5
1DB
100
AcDbEntity
  8
一般
370
               5
  6
Continuous
 62
               7
100
AcDbCircle
 10
1049.0042042160474
 20
1273.0789687290587
 30
0.0
 40
0.25
  0
CIRCLE
  5
1DC
100
AcDbEntity
  8
一般
370
               5
  6
Continuous
 62
               7
100
AcDbCircle
 10
1031.2042042160474
 20
1270.0789687290587
 30
0.0
 40
1.0
  0
CIRCLE
  5
1DD
100
AcDbEntity
  8
一般
370
               5
  6
Continuous
 62
               7
100
AcDbCircle
 10
1031.2042042160474
 20
1270.0789687290587
 30
0.0
 40
0.25
  0
CIRCLE
  5
1DE
100
AcDbEntity
  8
一般
370
               5
  6
Continuous
 62
               7
100
AcDbCircle
 10
1036.2042042160474
 20
1270.0789687290587
 30
0.0
 40
1.0
  0
CIRCLE
  5
1DF
100
AcDbEntity
  8
一般
370
               5
  6
Continuous
 62
               7
100
AcDbCircle
 10
1036.2042042160474
 20
1270.0789687290587
 30
0.0
 40
0.25
  0
CIRCLE
  5
1E0
100
AcDbEntity
  8
一般
370
               5
  6
Continuous
 62
               7
100
AcDbCircle
 10
1041.2042042160474
 20
1270.0789687290587
 30
0.0
 40
1.0
  0
CIRCLE
  5
1E1
100
AcDbEntity
  8
一般
370
               5
  6
Continuous
 62
               7
100
AcDbCircle
 10
1041.2042042160474
 20
1270.0789687290587
 30
0.0
 40
0.25
  0
CIRCLE
  5
1E2
100
AcDbEntity
  8
一般
370
               5
  6
Continuous
 62
               7
100
AcDbCircle
 10
1046.2042042160474
 20
1270.0789687290587
 30
0.0
 40
1.0
  0
CIRCLE
  5
1E3
100
AcDbEntity
  8
一般
370
               5
  6
Continuous
 62
               7
100
AcDbCircle
 10
1046.2042042160474
 20
1270.0789687290587
 30
0.0
 40
0.25
  0
CIRCLE
  5
1E4
100
AcDbEntity
  8
一般
370
               5
  6
Continuous
 62
               7
100
AcDbCircle
 10
1029.0042042160474
 20
1267.0789687290587
 30
0.0
 40
1.0
  0
CIRCLE
  5
1E5
100
AcDbEntity
  8
一般
370
               5
  6
Continuous
 62
               7
100
AcDbCircle
 10
1029.0042042160474
 20
1267.0789687290587
 30
0.0
 40
0.25
  0
CIRCLE
  5
1E6
100
AcDbEntity
  8
一般
370
               5
  6
Continuous
 62
               7
100
AcDbCircle
 10
1034.0042042160474
 20
1267.0789687290587
 30
0.0
 40
1.0
  0
CIRCLE
  5
1E7
100
AcDbEntity
  8
一般
370
               5
  6
Continuous
 62
               7
100
AcDbCircle
 10
1034.0042042160474
 20
1267.0789687290587
 30
0.0
 40
0.25
  0
CIRCLE
  5
1E8
100
AcDbEntity
  8
一般
370
               5
  6
Continuous
 62
               7
100
AcDbCircle
 10
1039.0042042160474
 20
1267.0789687290587
 30
0.0
 40
1.0
  0
CIRCLE
  5
1E9
100
AcDbEntity
  8
一般
370
               5
  6
Continuous
 62
               7
100
AcDbCircle
 10
1039.0042042160474
 20
1267.0789687290587
 30
0.0
 40
0.25
  0
CIRCLE
  5
1EA
100
AcDbEntity
  8
一般
370
               5
  6
Continuous
 62
               7
100
AcDbCircle
 10
1044.0042042160474
 20
1267.0789687290587
 30
0.0
 40
1.0
  0
CIRCLE
  5
1EB
100
AcDbEntity
  8
一般
370
               5
  6
Continuous
 62
               7
100
AcDbCircle
 10
1044.0042042160474
 20
1267.0789687290587
 30
0.0
 40
0.25
  0
CIRCLE
  5
1EC
100
AcDbEntity
  8
一般
370
               5
  6
Continuous
 62
               7
100
AcDbCircle
 10
1049.0042042160474
 20
1267.0789687290587
 30
0.0
 40
1.0
  0
CIRCLE
  5
1ED
100
AcDbEntity
  8
一般
370
               5
  6
Continuous
 62
               7
100
AcDbCircle
 10
1049.0042042160474
 20
1267.0789687290587
 30
0.0
 40
0.25
  0
LINE
  5
1EE
100
AcDbEntity
  8
一般
370
               5
  6
Continuous
 62
               7
100
AcDbLine
 10
1033.0042042160474
 20
1119.5789687290585
 30
0.0
 11
1033.0042042160474
 21
1065.7025729582174
 31
0.0
  0
LINE
  5
1EF
100
AcDbEntity
  8
一般
370
               5
  6
Continuous
 62
               7
100
AcDbLine
 10
1045.0042042160474
 20
1119.5789687290585
 30
0.0
 11
1045.0042042160474
 21
1065.7025729582174
 31
0.0
  0
POLYLINE
  5
1F0
100
AcDbEntity
  8
一般
370
               5
  6
Continuous
 62
               7
100
AcDb2dPolyline
 66
               1
 10
0.0
 20
0.0
 30
0.0
 70
               1
 75
               5
  0
VERTEX
  5
1F1
100
AcDbEntity
  8
一般
370
               5
  6
Continuous
 62
               7
100
AcDbVertex
100
AcDb2dVertex
 10
1045.5042042160474
 20
1099.078968729058
 30
0.0
  0
VERTEX
  5
1F2
100
AcDbEntity
  8
一般
370
               5
  6
Continuous
 62
               7
100
AcDbVertex
100
AcDb2dVertex
 10
1045.7749487781014
 20
1101.5642649653482
 30
0.0
  0
VERTEX
  5
1F3
100
AcDbEntity
  8
一般
370
               5
  6
Continuous
 62
               7
100
AcDbVertex
100
AcDb2dVertex
 10
1032.8514083493922
 20
1102.9721366880287
 30
0.0
  0
VERTEX
  5
1F4
100
AcDbEntity
  8
一般
370
               5
  6
Continuous
 62
               7
100
AcDbVertex
100
AcDb2dVertex
 10
1032.5806637873384
 20
1100.4868404517385
 30
0.0
  0
SEQEND
  5
1F5
100
AcDbEntity
  8
一般
370
               5
  6
Continuous
 62
               7
  0
POLYLINE
  5
1F6
100
AcDbEntity
  8
一般
370
               5
  6
Continuous
 62
               7
100
AcDb2dPolyline
 66
               1
 10
0.0
 20
0.0
 30
0.0
 70
               1
 75
               5
  0
VERTEX
  5
1F7
100
AcDbEntity
  8
一般
370
               5
  6
Continuous
 62
               7
100
AcDbVertex
100
AcDb2dVertex
 10
1045.5042042160474
 20
1103.578968729058
 30
0.0
  0
VERTEX
  5
1F8
100
AcDbEntity
  8
一般
370
               5
  6
Continuous
 62
               7
100
AcDbVertex
100
AcDb2dVertex
 10
1045.7749487781014
 20
1106.0642649653482
 30
0.0
  0
VERTEX
  5
1F9
100
AcDbEntity
  8
一般
370
               5
  6
Continuous
 62
               7
100
AcDbVertex
100
AcDb2dVertex
 10
1032.8514083493922
 20
1107.4721366880287
 30
0.0
  0
VERTEX
  5
1FA
100
AcDbEntity
  8
一般
370
               5
  6
Continuous
 62
               7
100
AcDbVertex
100
AcDb2dVertex
 10
1032.5806637873384
 20
1104.9868404517385
 30
0.0
  0
SEQEND
  5
1FB
100
AcDbEntity
  8
一般
370
               5
  6
Continuous
 62
               7
  0
POLYLINE
  5
1FC
100
AcDbEntity
  8
一般
370
               5
  6
Continuous
 62
               7
100
AcDb2dPolyline
 66
               1
 10
0.0
 20
0.0
 30
0.0
 70
               1
 75
               5
  0
VERTEX
  5
1FD
100
AcDbEntity
  8
一般
370
               5
  6
Continuous
 62
               7
100
AcDbVertex
100
AcDb2dVertex
 10
1045.5042042160474
 20
1108.078968729058
 30
0.0
  0
VERTEX
  5
1FE
100
AcDbEntity
  8
一般
370
               5
  6
Continuous
 62
               7
100
AcDbVertex
100
AcDb2dVertex
 10
1045.7749487781014
 20
1110.5642649653482
 30
0.0
  0
VERTEX
  5
1FF
100
AcDbEntity
  8
一般
370
               5
  6
Continuous
 62
               7
100
AcDbVertex
100
AcDb2dVertex
 10
1032.8514083493922
 20
1111.9721366880287
 30
0.0
  0
VERTEX
  5
200
100
AcDbEntity
  8
一般
370
               5
  6
Continuous
 62
               7
100
AcDbVertex
100
AcDb2dVertex
 10
1032.5806637873384
 20
1109.4868404517385
 30
0.0
  0
SEQEND
  5
201
100
AcDbEntity
  8
一般
370
               5
  6
Continuous
 62
               7
  0
POLYLINE
  5
202
100
AcDbEntity
  8
一般
370
               5
  6
Continuous
 62
               7
100
AcDb2dPolyline
 66
               1
 10
0.0
 20
0.0
 30
0.0
 70
               1
 75
               5
  0
VERTEX
  5
203
100
AcDbEntity
  8
一般
370
               5
  6
Continuous
 62
               7
100
AcDbVertex
100
AcDb2dVertex
 10
1045.5042042160474
 20
1112.578968729058
 30
0.0
  0
VERTEX
  5
204
100
AcDbEntity
  8
一般
370
               5
  6
Continuous
 62
               7
100
AcDbVertex
100
AcDb2dVertex
 10
1045.7749487781014
 20
1115.0642649653482
 30
0.0
  0
VERTEX
  5
205
100
AcDbEntity
  8
一般
370
               5
  6
Continuous
 62
               7
100
AcDbVertex
100
AcDb2dVertex
 10
1032.8514083493922
 20
1116.4721366880287
 30
0.0
  0
VERTEX
  5
206
100
AcDbEntity
  8
一般
370
               5
  6
Continuous
 62
               7
100
AcDbVertex
100
AcDb2dVertex
 10
1032.5806637873384
 20
1113.9868404517385
 30
0.0
  0
SEQEND
  5
207
100
AcDbEntity
  8
一般
370
               5
  6
Continuous
 62
               7
  0
LWPOLYLINE
  5
208
100
AcDbEntity
  8
一般
370
               5
  6
Continuous
 62
               7
100
AcDbPolyline
 90
        4
 70
             128
 10
1032.6996386555381
 20
1119.5789687290585
 10
1032.5806637873384
 20
1118.4868404517385
 10
1045.5042042160474
 20
1117.078968729058
 10
1045.6399757676318
 20
1119.5789687290585
  0
POLYLINE
  5
209
100
AcDbEntity
  8
一般
370
               5
  6
Continuous
 62
               7
100
AcDb2dPolyline
 66
               1
 10
0.0
 20
0.0
 30
0.0
 70
               1
 75
               5
  0
VERTEX
  5
20A
100
AcDbEntity
  8
一般
370
               5
  6
Continuous
 62
               7
100
AcDbVertex
100
AcDb2dVertex
 10
1045.5042042160474
 20
1094.578968729058
 30
0.0
  0
VERTEX
  5
20B
100
AcDbEntity
  8
一般
370
               5
  6
Continuous
 62
               7
100
AcDbVertex
100
AcDb2dVertex
 10
1045.7749487781014
 20
1097.0642649653482
 30
0.0
  0
VERTEX
  5
20C
100
AcDbEntity
  8
一般
370
               5
  6
Continuous
 62
               7
100
AcDbVertex
100
AcDb2dVertex
 10
1032.8514083493922
 20
1098.4721366880287
 30
0.0
  0
VERTEX
  5
20D
100
AcDbEntity
  8
一般
370
               5
  6
Continuous
 62
               7
100
AcDbVertex
100
AcDb2dVertex
 10
1032.5806637873384
 20
1095.9868404517388
 30
0.0
  0
SEQEND
  5
20E
100
AcDbEntity
  8
一般
370
               5
  6
Continuous
 62
               7
  0
POLYLINE
  5
20F
100
AcDbEntity
  8
一般
370
               5
  6
Continuous
 62
               7
100
AcDb2dPolyline
 66
               1
 10
0.0
 20
0.0
 30
0.0
 70
               1
 75
               5
  0
VERTEX
  5
210
100
AcDbEntity
  8
一般
370
               5
  6
Continuous
 62
               7
100
AcDbVertex
100
AcDb2dVertex
 10
1045.5042042160474
 20
1090.0789687290583
 30
0.0
  0
VERTEX
  5
211
100
AcDbEntity
  8
一般
370
               5
  6
Continuous
 62
               7
100
AcDbVertex
100
AcDb2dVertex
 10
1045.7749487781014
 20
1092.5642649653482
 30
0.0
  0
VERTEX
  5
212
100
AcDbEntity
  8
一般
370
               5
  6
Continuous
 62
               7
100
AcDbVertex
100
AcDb2dVertex
 10
1032.8514083493922
 20
1093.972136688029
 30
0.0
  0
VERTEX
  5
213
100
AcDbEntity
  8
一般
370
               5
  6
Continuous
 62
               7
100
AcDbVertex
100
AcDb2dVertex
 10
1032.5806637873384
 20
1091.4868404517388
 30
0.0
  0
SEQEND
  5
214
100
AcDbEntity
  8
一般
370
               5
  6
Continuous
 62
               7
  0
POLYLINE
  5
215
100
AcDbEntity
  8
一般
370
               5
  6
Continuous
 62
               7
100
AcDb2dPolyline
 66
               1
 10
0.0
 20
0.0
 30
0.0
 70
               1
 75
               5
  0
VERTEX
  5
216
100
AcDbEntity
  8
一般
370
               5
  6
Continuous
 62
               7
100
AcDbVertex
100
AcDb2dVertex
 10
1045.5042042160474
 20
1085.5789687290583
 30
0.0
  0
VERTEX
  5
217
100
AcDbEntity
  8
一般
370
               5
  6
Continuous
 62
               7
100
AcDbVertex
100
AcDb2dVertex
 10
1045.7749487781014
 20
1088.0642649653485
 30
0.0
  0
VERTEX
  5
218
100
AcDbEntity
  8
一般
370
               5
  6
Continuous
 62
               7
100
AcDbVertex
100
AcDb2dVertex
 10
1032.8514083493922
 20
1089.472136688029
 30
0.0
  0
VERTEX
  5
219
100
AcDbEntity
  8
一般
370
               5
  6
Continuous
 62
               7
100
AcDbVertex
100
AcDb2dVertex
 10
1032.5806637873384
 20
1086.9868404517388
 30
0.0
  0
SEQEND
  5
21A
100
AcDbEntity
  8
一般
370
               5
  6
Continuous
 62
               7
  0
POLYLINE
  5
21B
100
AcDbEntity
  8
一般
370
               5
  6
Continuous
 62
               7
100
AcDb2dPolyline
 66
               1
 10
0.0
 20
0.0
 30
0.0
 70
               1
 75
               5
  0
VERTEX
  5
21C
100
AcDbEntity
  8
一般
370
               5
  6
Continuous
 62
               7
100
AcDbVertex
100
AcDb2dVertex
 10
1045.5042042160474
 20
1081.0789687290583
 30
0.0
  0
VERTEX
  5
21D
100
AcDbEntity
  8
一般
370
               5
  6
Continuous
 62
               7
100
AcDbVertex
100
AcDb2dVertex
 10
1045.7749487781014
 20
1083.5642649653485
 30
0.0
  0
VERTEX
  5
21E
100
AcDbEntity
  8
一般
370
               5
  6
Continuous
 62
               7
100
AcDbVertex
100
AcDb2dVertex
 10
1032.8514083493922
 20
1084.972136688029
 30
0.0
  0
VERTEX
  5
21F
100
AcDbEntity
  8
一般
370
               5
  6
Continuous
 62
               7
100
AcDbVertex
100
AcDb2dVertex
 10
1032.5806637873384
 20
1082.4868404517388
 30
0.0
  0
SEQEND
  5
220
100
AcDbEntity
  8
一般
370
               5
  6
Continuous
 62
               7
  0
LWPOLYLINE
  5
221
100
AcDbEntity
  8
一般
370
              15
  6
Continuous
 62
               7
100
AcDbPolyline
 90
        3
 70
             128
 10
1027.0042042160474
 20
1147.1037212043063
 10
1025.4792042160473
 20
1143.3289687290587
 10
1027.0042042160474
 20
1139.5542162538111
  0
SPLINE
  5
222
100
AcDbEntity
  8
一般
370
               5
  6
Continuous
 62
               7
100
AcDbSpline
210
0.0
220
0.0
230
1.0
 70
               8
 71
               2
 72
              12
 73
               9
 74
               0
 42
0.000001
 43
0.000001
 40
0.0
 40
0.0
 40
0.0
 40
1.0
 40
2.0
 40
3.0
 40
4.0
 40
5.0
 40
5.0
 40
6.0
 40
6.0
 40
6.0
 10
1027.0042042160474
 20
1138.1889783464035
 30
0.0
 10
1027.2457813900235
 20
1137.9221360530839
 30
0.0
 10
1026.3232441722052
 20
1138.9366638836455
 30
0.0
 10
1025.4792042160473
 20
1141.721273574472
 30
0.0
 10
1025.4792042160473
 20
1144.9366638836455
 30
0.0
 10
1026.3232441722052
 20
1147.721273574472
 30
0.0
 10
1027.0542042160473
 20
1148.5251211517652
 30
0.0
 10
1027.0292042160472
 20
1148.4970401317396
 30
0.0
 10
1027.0042042160474
 20
1148.468959111714
 30
0.0
  0
ARC
  5
223
100
AcDbEntity
  8
一般
370
              15
  6
Continuous
 62
               7
100
AcDbCircle
 10
1183.0042042160474
 20
1074.0789687290587
 30
0.0
 40
20.999999999999982
100
AcDbArc
 50
56.854470868777852
 51
89.999639999999744
  0
ARC
  5
224
100
AcDbEntity
  8
一般
370
              15
  6
Continuous
 62
               7
100
AcDbCircle
 10
1183.0042042160474
 20
1074.0789687290587
 30
0.0
 40
20.999999999999986
100
AcDbArc
 50
270.0
 51
280.98057542761217
  0
POLYLINE
  5
225
100
AcDbEntity
  8
一般
370
              15
  6
Continuous
 62
               7
100
AcDb2dPolyline
 66
               1
 10
0.0
 20
0.0
 30
0.0
 70
               1
 75
               5
  0
VERTEX
  5
226
100
AcDbEntity
  8
一般
370
              15
  6
Continuous
 62
               7
100
AcDbVertex
100
AcDb2dVertex
 10
1092.0042042160474
 20
1174.5789687290587
 30
0.0
  0
VERTEX
  5
227
100
AcDbEntity
  8
一般
370
              15
  6
Continuous
 62
               7
100
AcDbVertex
100
AcDb2dVertex
 10
1141.0042042160474
 20
1174.5789687290587
 30
0.0
  0
VERTEX
  5
228
100
AcDbEntity
  8
一般
370
              15
  6
Continuous
 62
               7
100
AcDbVertex
100
AcDb2dVertex
 10
1141.0042042160474
 20
1024.5789687290587
 30
0.0
  0
VERTEX
  5
229
100
AcDbEntity
  8
一般
370
              15
  6
Continuous
 62
               7
100
AcDbVertex
100
AcDb2dVertex
 10
1092.0042042160474
 20
1024.5789687290587
 30
0.0
  0
SEQEND
  5
22A
100
AcDbEntity
  8
一般
370
              15
  6
Continuous
 62
               7
  0
POLYLINE
  5
22B
100
AcDbEntity
  8
一般
370
              15
  6
Continuous
 62
               7
100
AcDb2dPolyline
 66
               1
 10
0.0
 20
0.0
 30
0.0
 70
               1
 75
               5
  0
VERTEX
  5
22C
100
AcDbEntity
  8
一般
370
              15
  6
Continuous
 62
               7
100
AcDbVertex
100
AcDb2dVertex
 10
1141.0042042160474
 20
1146.5789687290587
 30
0.0
  0
VERTEX
  5
22D
100
AcDbEntity
  8
一般
370
              15
  6
Continuous
 62
               7
100
AcDbVertex
100
AcDb2dVertex
 10
1146.0042042160474
 20
1146.5789687290587
 30
0.0
  0
VERTEX
  5
22E
100
AcDbEntity
  8
一般
370
              15
  6
Continuous
 62
               7
100
AcDbVertex
100
AcDb2dVertex
 10
1146.0042042160474
 20
1122.5789687290585
 30
0.0
  0
VERTEX
  5
22F
100
AcDbEntity
  8
一般
370
              15
  6
Continuous
 62
               7
100
AcDbVertex
100
AcDb2dVertex
 10
1141.0042042160474
 20
1122.5789687290585
 30
0.0
  0
SEQEND
  5
230
100
AcDbEntity
  8
一般
370
              15
  6
Continuous
 62
               7
  0
POLYLINE
  5
231
100
AcDbEntity
  8
一般
370
              15
  6
Continuous
 62
               7
100
AcDb2dPolyline
 66
               1
 10
0.0
 20
0.0
 30
0.0
 70
               1
 75
               5
  0
VERTEX
  5
232
100
AcDbEntity
  8
一般
370
              15
  6
Continuous
 62
               7
100
AcDbVertex
100
AcDb2dVertex
 10
1146.0042042160474
 20
1143.5789687290587
 30
0.0
  0
VERTEX
  5
233
100
AcDbEntity
  8
一般
370
              15
  6
Continuous
 62
               7
100
AcDbVertex
100
AcDb2dVertex
 10
1148.0042042160474
 20
1143.5789687290587
 30
0.0
  0
VERTEX
  5
234
100
AcDbEntity
  8
一般
370
              15
  6
Continuous
 62
               7
100
AcDbVertex
100
AcDb2dVertex
 10
1148.0042042160474
 20
1125.5789687290585
 30
0.0
  0
VERTEX
  5
235
100
AcDbEntity
  8
一般
370
              15
  6
Continuous
 62
               7
100
AcDbVertex
100
AcDb2dVertex
 10
1146.0042042160474
 20
1125.5789687290585
 30
0.0
  0
SEQEND
  5
236
100
AcDbEntity
  8
一般
370
              15
  6
Continuous
 62
               7
  0
POLYLINE
  5
237
100
AcDbEntity
  8
一般
370
              15
  6
Continuous
 62
               7
100
AcDb2dPolyline
 66
               1
 10
0.0
 20
0.0
 30
0.0
 70
               1
 75
               5
  0
VERTEX
  5
238
100
AcDbEntity
  8
一般
370
              15
  6
Continuous
 62
               7
100
AcDbVertex
100
AcDb2dVertex
 10
1148.0042042160474
 20
1146.5789687290587
 30
0.0
  0
VERTEX
  5
239
100
AcDbEntity
  8
一般
370
              15
  6
Continuous
 62
               7
100
AcDbVertex
100
AcDb2dVertex
 10
1164.0042042160474
 20
1146.5789687290587
 30
0.0
  0
VERTEX
  5
23A
100
AcDbEntity
  8
一般
370
              15
  6
Continuous
 62
               7
100
AcDbVertex
100
AcDb2dVertex
 10
1164.0042042160474
 20
1122.5789687290585
 30
0.0
  0
VERTEX
  5
23B
100
AcDbEntity
  8
一般
370
              15
  6
Continuous
 62
               7
100
AcDbVertex
100
AcDb2dVertex
 10
1148.0042042160474
 20
1122.5789687290585
 30
0.0
  0
SEQEND
  5
23C
100
AcDbEntity
  8
一般
370
              15
  6
Continuous
 62
               7
  0
LWPOLYLINE
  5
23D
100
AcDbEntity
  8
一般
370
              15
  6
Continuous
 62
               7
100
AcDbPolyline
 90
        8
 70
             129
 10
1164.0042042160474
 20
1147.5789687290587
 42
-0.414213562373095
 10
1165.0042042160474
 20
1148.5789687290587
 10
1173.0042042160474
 20
1148.5789687290587
 42
-0.414213562373095
 10
1174.0042042160474
 20
1147.5789687290587
 10
1174.0042042160474
 20
1121.5789687290585
 42
-0.414213562373095
 10
1173.0042042160474
 20
1120.5789687290585
 10
1165.0042042160474
 20
1120.5789687290585
 42
-0.414213562373095
 10
1164.0042042160474
 20
1121.5789687290585
  0
LWPOLYLINE
  5
23E
100
AcDbEntity
  8
一般
370
              15
  6
Continuous
 62
               7
100
AcDbPolyline
 90
        6
 70
             128
 10
1183.0042042160474
 20
1050.5789687290587
 10
1183.0042042160474
 20
1097.5789687290585
 10
1183.0042042160474
 20
1050.5789687290587
 10
1141.0042042160474
 20
1050.5789687290587
 10
1141.0042042160474
 20
1097.5789687290585
 10
1183.0042042160474
 20
1097.5789687290585
  0
LINE
  5
23F
100
AcDbEntity
  8
一般
370
              15
  6
Continuous
 62
               7
100
AcDbLine
 10
1183.0042042160474
 20
1097.5789687290585
 30
0.0
 11
1183.0042042160474
 21
1050.5789687290587
 31
0.0
  0
LWPOLYLINE
  5
240
100
AcDbEntity
  8
一般
370
              15
  6
Continuous
 62
               7
100
AcDbPolyline
 90
        3
 70
             128
 10
1190.3238856722476
 20
1081.8802201511292
 10
1187.0042042160474
 20
1074.0789687290587
 10
1187.0042042160474
 20
1050.5789687290587
  0
LWPOLYLINE
  5
241
100
AcDbEntity
  8
一般
370
              15
  6
Continuous
 62
               7
100
AcDbPolyline
 90
        5
 70
             128
 10
1187.0042042160474
 20
1050.5789687290587
 10
1217.0042042160474
 20
1050.5789687290587
 10
1217.0042042160474
 20
1097.5789687290585
 10
1197.0042042160474
 20
1097.5789687290585
 10
1190.3238856722476
 20
1081.8802201511292
  0
POLYLINE
  5
242
100
AcDbEntity
  8
一般
370
              15
  6
Continuous
 62
               7
100
AcDb2dPolyline
 66
               1
 10
0.0
 20
0.0
 30
0.0
 70
               1
 75
               5
  0
VERTEX
  5
243
100
AcDbEntity
  8
一般
370
              15
  6
Continuous
 62
               7
100
AcDbVertex
100
AcDb2dVertex
 10
1197.0042042160474
 20
1050.5789687290587
 30
0.0
  0
VERTEX
  5
244
100
AcDbEntity
  8
一般
370
              15
  6
Continuous
 62
               7
100
AcDbVertex
100
AcDb2dVertex
 10
1207.0042042160474
 20
1050.5789687290587
 30
0.0
  0
VERTEX
  5
245
100
AcDbEntity
  8
一般
370
              15
  6
Continuous
 62
               7
100
AcDbVertex
100
AcDb2dVertex
 10
1207.0042042160474
 20
1038.5789687290587
 30
0.0
  0
VERTEX
  5
246
100
AcDbEntity
  8
一般
370
              15
  6
Continuous
 62
               7
100
AcDbVertex
100
AcDb2dVertex
 10
1197.0042042160474
 20
1038.5789687290587
 30
0.0
  0
SEQEND
  5
247
100
AcDbEntity
  8
一般
370
              15
  6
Continuous
 62
               7
  0
POLYLINE
  5
248
100
AcDbEntity
  8
一般
370
              15
  6
Continuous
 62
               7
100
AcDb2dPolyline
 66
               1
 10
0.0
 20
0.0
 30
0.0
 70
               1
 75
               5
  0
VERTEX
  5
249
100
AcDbEntity
  8
一般
370
              15
  6
Continuous
 62
               7
100
AcDbVertex
100
AcDb2dVertex
 10
1194.0042042160474
 20
1038.5789687290587
 30
0.0
  0
VERTEX
  5
24A
100
AcDbEntity
  8
一般
370
              15
  6
Continuous
 62
               7
100
AcDbVertex
100
AcDb2dVertex
 10
1210.0042042160474
 20
1038.5789687290587
 30
0.0
  0
VERTEX
  5
24B
100
AcDbEntity
  8
一般
370
              15
  6
Continuous
 62
               7
100
AcDbVertex
100
AcDb2dVertex
 10
1210.0042042160474
 20
968.57896872905872
 30
0.0
  0
VERTEX
  5
24C
100
AcDbEntity
  8
一般
370
              15
  6
Continuous
 62
               7
100
AcDbVertex
100
AcDb2dVertex
 10
1194.0042042160474
 20
968.57896872905872
 30
0.0
  0
SEQEND
  5
24D
100
AcDbEntity
  8
一般
370
              15
  6
Continuous
 62
               7
  0
LWPOLYLINE
  5
24E
100
AcDbEntity
  8
一般
370
              15
  6
Continuous
 62
               7
100
AcDbPolyline
 90
        4
 70
             128
 10
1027.0042042160474
 20
1119.5789687290585
 10
1092.0042042160474
 20
1119.5789687290585
 10
1092.0042042160474
 20
1149.5789687290587
 10
1027.0042042160474
 20
1149.5789687290587
  0
LINE
  5
24F
100
AcDbEntity
  8
一般
370
              15
  6
Continuous
 62
               7
100
AcDbLine
 10
1027.0042042160474
 20
1149.5789687290587
 30
0.0
 11
1027.0042042160474
 21
1119.5789687290585
 31
0.0
  0
POLYLINE
  5
250
100
AcDbEntity
  8
一般
370
              15
  6
Continuous
 62
               7
100
AcDb2dPolyline
 66
               1
 10
0.0
 20
0.0
 30
0.0
 75
               5
  0
VERTEX
  5
251
100
AcDbEntity
  8
一般
370
              15
  6
Continuous
 62
               7
100
AcDbVertex
100
AcDb2dVertex
 10
1092.0042042160474
 20
359.07896872905826
 30
0.0
  0
VERTEX
  5
252
100
AcDbEntity
  8
一般
370
              15
  6
Continuous
 62
               7
100
AcDbVertex
100
AcDb2dVertex
 10
1092.0042042160474
 20
1024.5789687290587
 30
0.0
  0
VERTEX
  5
253
100
AcDbEntity
  8
一般
370
              15
  6
Continuous
 62
               7
100
AcDbVertex
100
AcDb2dVertex
 10
1141.0042042160474
 20
1024.5789687290587
 30
0.0
  0
VERTEX
  5
254
100
AcDbEntity
  8
一般
370
              15
  6
Continuous
 62
               7
100
AcDbVertex
100
AcDb2dVertex
 10
1141.0042042160474
 20
359.07896872905826
 30
0.0
  0
SEQEND
  5
255
100
AcDbEntity
  8
一般
370
              15
  6
Continuous
 62
               7
  0
POLYLINE
  5
256
100
AcDbEntity
  8
一般
370
              15
  6
Continuous
 62
               7
100
AcDb2dPolyline
 66
               1
 10
0.0
 20
0.0
 30
0.0
 70
               1
 75
               5
  0
VERTEX
  5
257
100
AcDbEntity
  8
一般
370
              15
  6
Continuous
 62
               7
100
AcDbVertex
100
AcDb2dVertex
 10
1071.5042042160474
 20
359.07896872905826
 30
0.0
  0
VERTEX
  5
258
100
AcDbEntity
  8
一般
370
              15
  6
Continuous
 62
               7
100
AcDbVertex
100
AcDb2dVertex
 10
1161.5042042160474
 20
359.07896872905826
 30
0.0
  0
VERTEX
  5
259
100
AcDbEntity
  8
一般
370
              15
  6
Continuous
 62
               7
100
AcDbVertex
100
AcDb2dVertex
 10
1161.5042042160474
 20
319.07896872905826
 30
0.0
  0
VERTEX
  5
25A
100
AcDbEntity
  8
一般
370
              15
  6
Continuous
 62
               7
100
AcDbVertex
100
AcDb2dVertex
 10
1071.5042042160474
 20
319.07896872905826
 30
0.0
  0
SEQEND
  5
25B
100
AcDbEntity
  8
一般
370
              15
  6
Continuous
 62
               7
  0
INSERT
  5
25C
100
AcDbEntity
  8
0
 62
               7
100
AcDbBlockReference
  2
21
 10
-8749.9901029075354
 20
-2017.705807497925
 30
0.0
  0
LINE
  5
25D
100
AcDbEntity
  8
0
370
              15
  6
Continuous
 62
               7
100
AcDbLine
 10
1141.5042042160474
 20
1174.5789687290587
 30
0.0
 11
1091.5042042160474
 21
1174.5789687290587
 31
0.0
  0
INSERT
  5
25E
100
AcDbEntity
  8
0
 62
               7
100
AcDbBlockReference
  2
XCVB
 10
11636.016138082805
 20
-2017.7058074979241
 30
0.0
 41
-1.0
  0
LWPOLYLINE
  5
25F
100
AcDbEntity
  8
一般
370
              15
  6
Continuous
 62
               7
100
AcDbPolyline
 90
        6
 70
             128
 10
1570.0042042161492
 20
1024.5789687290587
 10
1553.5042042161492
 20
1024.5789687290587
 10
1553.5042042161492
 20
1174.5789687290587
 10
1602.5042042161492
 20
1174.5789687290587
 10
1602.5042042161492
 20
1024.5789687290587
 10
1586.0042042161492
 20
1024.5789687290587
  0
POLYLINE
  5
260
100
AcDbEntity
  8
一般
370
              15
  6
Continuous
 62
               7
100
AcDb2dPolyline
 66
               1
 10
0.0
 20
0.0
 30
0.0
 75
               5
  0
VERTEX
  5
261
100
AcDbEntity
  8
一般
370
              15
  6
Continuous
 62
               7
100
AcDbVertex
100
AcDb2dVertex
 10
1602.5042042161492
 20
359.07896872905826
 30
0.0
  0
VERTEX
  5
262
100
AcDbEntity
  8
一般
370
              15
  6
Continuous
 62
               7
100
AcDbVertex
100
AcDb2dVertex
 10
1602.5042042161492
 20
1024.5789687290587
 30
0.0
  0
VERTEX
  5
263
100
AcDbEntity
  8
一般
370
              15
  6
Continuous
 62
               7
100
AcDbVertex
100
AcDb2dVertex
 10
1586.0042042161492
 20
1024.5789687290587
 30
0.0
  0
SEQEND
  5
264
100
AcDbEntity
  8
一般
370
              15
  6
Continuous
 62
               7
  0
POLYLINE
  5
265
100
AcDbEntity
  8
一般
370
              15
  6
Continuous
 62
               7
100
AcDb2dPolyline
 66
               1
 10
0.0
 20
0.0
 30
0.0
 75
               5
  0
VERTEX
  5
266
100
AcDbEntity
  8
一般
370
              15
  6
Continuous
 62
               7
100
AcDbVertex
100
AcDb2dVertex
 10
1553.5042042161492
 20
359.07896872905826
 30
0.0
  0
VERTEX
  5
267
100
AcDbEntity
  8
一般
370
              15
  6
Continuous
 62
               7
100
AcDbVertex
100
AcDb2dVertex
 10
1553.5042042161492
 20
1024.5789687290587
 30
0.0
  0
VERTEX
  5
268
100
AcDbEntity
  8
一般
370
              15
  6
Continuous
 62
               7
100
AcDbVertex
100
AcDb2dVertex
 10
1570.0042042161492
 20
1024.5789687290587
 30
0.0
  0
SEQEND
  5
269
100
AcDbEntity
  8
一般
370
              15
  6
Continuous
 62
               7
  0
POLYLINE
  5
26A
100
AcDbEntity
  8
一般
370
              15
  6
Continuous
 62
               7
100
AcDb2dPolyline
 66
               1
 10
0.0
 20
0.0
 30
0.0
 70
               1
 75
               5
  0
VERTEX
  5
26B
100
AcDbEntity
  8
一般
370
              15
  6
Continuous
 62
               7
100
AcDbVertex
100
AcDb2dVertex
 10
1533.0042042161492
 20
359.07896872905826
 30
0.0
  0
VERTEX
  5
26C
100
AcDbEntity
  8
一般
370
              15
  6
Continuous
 62
               7
100
AcDbVertex
100
AcDb2dVertex
 10
1623.0042042161492
 20
359.07896872905826
 30
0.0
  0
VERTEX
  5
26D
100
AcDbEntity
  8
一般
370
              15
  6
Continuous
 62
               7
100
AcDbVertex
100
AcDb2dVertex
 10
1623.0042042161492
 20
319.07896872905826
 30
0.0
  0
VERTEX
  5
26E
100
AcDbEntity
  8
一般
370
              15
  6
Continuous
 62
               7
100
AcDbVertex
100
AcDb2dVertex
 10
1533.0042042161492
 20
319.07896872905826
 30
0.0
  0
SEQEND
  5
26F
100
AcDbEntity
  8
一般
370
              15
  6
Continuous
 62
               7
  0
POLYLINE
  5
270
100
AcDbEntity
  8
一般
370
              15
  6
Continuous
 62
               7
100
AcDb2dPolyline
 66
               1
 10
0.0
 20
0.0
 30
0.0
 70
               1
 75
               5
  0
VERTEX
  5
271
100
AcDbEntity
  8
一般
370
              15
  6
Continuous
 62
               7
100
AcDbVertex
100
AcDb2dVertex
 10
1554.5042042161492
 20
1097.5789687290585
 30
0.0
  0
VERTEX
  5
272
100
AcDbEntity
  8
一般
370
              15
  6
Continuous
 62
               7
100
AcDbVertex
100
AcDb2dVertex
 10
1601.5042042161492
 20
1097.5789687290585
 30
0.0
  0
VERTEX
  5
273
100
AcDbEntity
  8
一般
370
              15
  6
Continuous
 62
               7
100
AcDbVertex
100
AcDb2dVertex
 10
1601.5042042161492
 20
1050.5789687290587
 30
0.0
  0
VERTEX
  5
274
100
AcDbEntity
  8
一般
370
              15
  6
Continuous
 62
               7
100
AcDbVertex
100
AcDb2dVertex
 10
1554.5042042161492
 20
1050.5789687290587
 30
0.0
  0
SEQEND
  5
275
100
AcDbEntity
  8
一般
370
              15
  6
Continuous
 62
               7
  0
POLYLINE
  5
276
100
AcDbEntity
  8
一般
370
              15
  6
Continuous
 62
               7
100
AcDb2dPolyline
 66
               1
 10
0.0
 20
0.0
 30
0.0
 70
               1
 75
               5
  0
VERTEX
  5
277
100
AcDbEntity
  8
一般
370
              15
  6
Continuous
 62
               7
100
AcDbVertex
100
AcDb2dVertex
 10
1573.0042042161492
 20
1050.5789687290587
 30
0.0
  0
VERTEX
  5
278
100
AcDbEntity
  8
一般
370
              15
  6
Continuous
 62
               7
100
AcDbVertex
100
AcDb2dVertex
 10
1583.0042042161492
 20
1050.5789687290587
 30
0.0
  0
VERTEX
  5
279
100
AcDbEntity
  8
一般
370
              15
  6
Continuous
 62
               7
100
AcDbVertex
100
AcDb2dVertex
 10
1583.0042042161492
 20
1038.5789687290587
 30
0.0
  0
VERTEX
  5
27A
100
AcDbEntity
  8
一般
370
              15
  6
Continuous
 62
               7
100
AcDbVertex
100
AcDb2dVertex
 10
1573.0042042161492
 20
1038.5789687290587
 30
0.0
  0
SEQEND
  5
27B
100
AcDbEntity
  8
一般
370
              15
  6
Continuous
 62
               7
  0
LWPOLYLINE
  5
27C
100
AcDbEntity
  8
一般
370
              15
  6
Continuous
 62
               7
100
AcDbPolyline
 90
        5
 70
             128
 10
1570.0042042161492
 20
1038.5789687290587
 10
1570.0042042161492
 20
968.57896872905872
 10
1586.0042042161492
 20
968.57896872905872
 10
1586.0042042161492
 20
1038.5789687290587
 10
1570.0042042161492
 20
1038.5789687290587
  0
CIRCLE
  5
27D
100
AcDbEntity
  8
一般
370
              15
  6
Continuous
 62
               7
100
AcDbCircle
 10
1578.0042042161492
 20
1134.5789687290585
 30
0.0
 40
14.0
  0
POLYLINE
  5
27E
100
AcDbEntity
  8
一般
370
              15
  6
Continuous
 62
               7
100
AcDb2dPolyline
 66
               1
 10
0.0
 20
0.0
 30
0.0
 70
               1
 75
               5
  0
VERTEX
  5
27F
100
AcDbEntity
  8
一般
370
              15
  6
Continuous
 62
               7
100
AcDbVertex
100
AcDb2dVertex
 10
1069.7542042160474
 20
1107.0789687290585
 30
0.0
  0
VERTEX
  5
280
100
AcDbEntity
  8
一般
370
              15
  6
Continuous
 62
               7
100
AcDbVertex
100
AcDb2dVertex
 10
1069.7542042160474
 20
1101.0789687290585
 30
0.0
  0
VERTEX
  5
281
100
AcDbEntity
  8
一般
370
              15
  6
Continuous
 62
               7
100
AcDbVertex
100
AcDb2dVertex
 10
1069.5042042160474
 20
1098.0789687290583
 30
0.0
  0
VERTEX
  5
282
100
AcDbEntity
  8
一般
370
              15
  6
Continuous
 62
               7
100
AcDbVertex
100
AcDb2dVertex
 10
1069.5042042160474
 20
1091.078968729058
 30
0.0
  0
VERTEX
  5
283
100
AcDbEntity
  8
一般
370
              15
  6
Continuous
 62
               7
100
AcDbVertex
100
AcDb2dVertex
 10
1054.5042042160474
 20
1091.078968729058
 30
0.0
  0
VERTEX
  5
284
100
AcDbEntity
  8
一般
370
              15
  6
Continuous
 62
               7
100
AcDbVertex
100
AcDb2dVertex
 10
1054.5042042160474
 20
1098.0789687290583
 30
0.0
  0
VERTEX
  5
285
100
AcDbEntity
  8
一般
370
              15
  6
Continuous
 62
               7
100
AcDbVertex
100
AcDb2dVertex
 10
1054.2542042160474
 20
1101.0789687290585
 30
0.0
  0
VERTEX
  5
286
100
AcDbEntity
  8
一般
370
              15
  6
Continuous
 62
               7
100
AcDbVertex
100
AcDb2dVertex
 10
1054.2542042160474
 20
1107.0789687290585
 30
0.0
  0
SEQEND
  5
287
100
AcDbEntity
  8
一般
370
              15
  6
Continuous
 62
               7
  0
LINE
  5
288
100
AcDbEntity
  8
一般
370
               5
  6
Continuous
 62
               7
100
AcDbLine
 10
1056.0042042160474
 20
1091.078968729058
 30
0.0
 11
1056.0042042160474
 21
1035.7025729582174
 31
0.0
  0
LINE
  5
289
100
AcDbEntity
  8
一般
370
               5
  6
Continuous
 62
               7
100
AcDbLine
 10
1068.0042042160474
 20
1091.078968729058
 30
0.0
 11
1068.0042042160474
 21
1035.7025729582174
 31
0.0
  0
POLYLINE
  5
28A
100
AcDbEntity
  8
一般
370
               5
  6
Continuous
 62
               7
100
AcDb2dPolyline
 66
               1
 10
0.0
 20
0.0
 30
0.0
 70
               1
 75
               5
  0
VERTEX
  5
28B
100
AcDbEntity
  8
一般
370
               5
  6
Continuous
 62
               7
100
AcDbVertex
100
AcDb2dVertex
 10
1068.5042042160474
 20
1069.078968729058
 30
0.0
  0
VERTEX
  5
28C
100
AcDbEntity
  8
一般
370
               5
  6
Continuous
 62
               7
100
AcDbVertex
100
AcDb2dVertex
 10
1068.7749487781014
 20
1071.5642649653482
 30
0.0
  0
VERTEX
  5
28D
100
AcDbEntity
  8
一般
370
               5
  6
Continuous
 62
               7
100
AcDbVertex
100
AcDb2dVertex
 10
1055.8514083493922
 20
1072.9721366880287
 30
0.0
  0
VERTEX
  5
28E
100
AcDbEntity
  8
一般
370
               5
  6
Continuous
 62
               7
100
AcDbVertex
100
AcDb2dVertex
 10
1055.5806637873386
 20
1070.4868404517388
 30
0.0
  0
SEQEND
  5
28F
100
AcDbEntity
  8
一般
370
               5
  6
Continuous
 62
               7
  0
POLYLINE
  5
290
100
AcDbEntity
  8
一般
370
               5
  6
Continuous
 62
               7
100
AcDb2dPolyline
 66
               1
 10
0.0
 20
0.0
 30
0.0
 70
               1
 75
               5
  0
VERTEX
  5
291
100
AcDbEntity
  8
一般
370
               5
  6
Continuous
 62
               7
100
AcDbVertex
100
AcDb2dVertex
 10
1068.5042042160474
 20
1073.578968729058
 30
0.0
  0
VERTEX
  5
292
100
AcDbEntity
  8
一般
370
               5
  6
Continuous
 62
               7
100
AcDbVertex
100
AcDb2dVertex
 10
1068.7749487781014
 20
1076.0642649653482
 30
0.0
  0
VERTEX
  5
293
100
AcDbEntity
  8
一般
370
               5
  6
Continuous
 62
               7
100
AcDbVertex
100
AcDb2dVertex
 10
1055.8514083493922
 20
1077.4721366880287
 30
0.0
  0
VERTEX
  5
294
100
AcDbEntity
  8
一般
370
               5
  6
Continuous
 62
               7
100
AcDbVertex
100
AcDb2dVertex
 10
1055.5806637873386
 20
1074.9868404517385
 30
0.0
  0
SEQEND
  5
295
100
AcDbEntity
  8
一般
370
               5
  6
Continuous
 62
               7
  0
POLYLINE
  5
296
100
AcDbEntity
  8
一般
370
               5
  6
Continuous
 62
               7
100
AcDb2dPolyline
 66
               1
 10
0.0
 20
0.0
 30
0.0
 70
               1
 75
               5
  0
VERTEX
  5
297
100
AcDbEntity
  8
一般
370
               5
  6
Continuous
 62
               7
100
AcDbVertex
100
AcDb2dVertex
 10
1068.5042042160474
 20
1078.078968729058
 30
0.0
  0
VERTEX
  5
298
100
AcDbEntity
  8
一般
370
               5
  6
Continuous
 62
               7
100
AcDbVertex
100
AcDb2dVertex
 10
1068.7749487781014
 20
1080.5642649653482
 30
0.0
  0
VERTEX
  5
299
100
AcDbEntity
  8
一般
370
               5
  6
Continuous
 62
               7
100
AcDbVertex
100
AcDb2dVertex
 10
1055.8514083493922
 20
1081.9721366880287
 30
0.0
  0
VERTEX
  5
29A
100
AcDbEntity
  8
一般
370
               5
  6
Continuous
 62
               7
100
AcDbVertex
100
AcDb2dVertex
 10
1055.5806637873386
 20
1079.4868404517385
 30
0.0
  0
SEQEND
  5
29B
100
AcDbEntity
  8
一般
370
               5
  6
Continuous
 62
               7
  0
POLYLINE
  5
29C
100
AcDbEntity
  8
一般
370
               5
  6
Continuous
 62
               7
100
AcDb2dPolyline
 66
               1
 10
0.0
 20
0.0
 30
0.0
 70
               1
 75
               5
  0
VERTEX
  5
29D
100
AcDbEntity
  8
一般
370
               5
  6
Continuous
 62
               7
100
AcDbVertex
100
AcDb2dVertex
 10
1068.5042042160474
 20
1082.578968729058
 30
0.0
  0
VERTEX
  5
29E
100
AcDbEntity
  8
一般
370
               5
  6
Continuous
 62
               7
100
AcDbVertex
100
AcDb2dVertex
 10
1068.7749487781014
 20
1085.0642649653482
 30
0.0
  0
VERTEX
  5
29F
100
AcDbEntity
  8
一般
370
               5
  6
Continuous
 62
               7
100
AcDbVertex
100
AcDb2dVertex
 10
1055.8514083493922
 20
1086.4721366880287
 30
0.0
  0
VERTEX
  5
2A0
100
AcDbEntity
  8
一般
370
               5
  6
Continuous
 62
               7
100
AcDbVertex
100
AcDb2dVertex
 10
1055.5806637873386
 20
1083.9868404517385
 30
0.0
  0
SEQEND
  5
2A1
100
AcDbEntity
  8
一般
370
               5
  6
Continuous
 62
               7
  0
POLYLINE
  5
2A2
100
AcDbEntity
  8
一般
370
               5
  6
Continuous
 62
               7
100
AcDb2dPolyline
 66
               1
 10
0.0
 20
0.0
 30
0.0
 70
               1
 75
               5
  0
VERTEX
  5
2A3
100
AcDbEntity
  8
一般
370
               5
  6
Continuous
 62
               7
100
AcDbVertex
100
AcDb2dVertex
 10
1068.5042042160474
 20
1087.078968729058
 30
0.0
  0
VERTEX
  5
2A4
100
AcDbEntity
  8
一般
370
               5
  6
Continuous
 62
               7
100
AcDbVertex
100
AcDb2dVertex
 10
1068.7749487781014
 20
1089.5642649653482
 30
0.0
  0
VERTEX
  5
2A5
100
AcDbEntity
  8
一般
370
               5
  6
Continuous
 62
               7
100
AcDbVertex
100
AcDb2dVertex
 10
1055.8514083493922
 20
1090.9721366880287
 30
0.0
  0
VERTEX
  5
2A6
100
AcDbEntity
  8
一般
370
               5
  6
Continuous
 62
               7
100
AcDbVertex
100
AcDb2dVertex
 10
1055.5806637873386
 20
1088.4868404517385
 30
0.0
  0
SEQEND
  5
2A7
100
AcDbEntity
  8
一般
370
               5
  6
Continuous
 62
               7
  0
POLYLINE
  5
2A8
100
AcDbEntity
  8
一般
370
               5
  6
Continuous
 62
               7
100
AcDb2dPolyline
 66
               1
 10
0.0
 20
0.0
 30
0.0
 70
               1
 75
               5
  0
VERTEX
  5
2A9
100
AcDbEntity
  8
一般
370
               5
  6
Continuous
 62
               7
100
AcDbVertex
100
AcDb2dVertex
 10
1068.5042042160474
 20
1064.5789687290583
 30
0.0
  0
VERTEX
  5
2AA
100
AcDbEntity
  8
一般
370
               5
  6
Continuous
 62
               7
100
AcDbVertex
100
AcDb2dVertex
 10
1068.7749487781014
 20
1067.0642649653482
 30
0.0
  0
VERTEX
  5
2AB
100
AcDbEntity
  8
一般
370
               5
  6
Continuous
 62
               7
100
AcDbVertex
100
AcDb2dVertex
 10
1055.8514083493922
 20
1068.472136688029
 30
0.0
  0
VERTEX
  5
2AC
100
AcDbEntity
  8
一般
370
               5
  6
Continuous
 62
               7
100
AcDbVertex
100
AcDb2dVertex
 10
1055.5806637873386
 20
1065.9868404517388
 30
0.0
  0
SEQEND
  5
2AD
100
AcDbEntity
  8
一般
370
               5
  6
Continuous
 62
               7
  0
POLYLINE
  5
2AE
100
AcDbEntity
  8
一般
370
               5
  6
Continuous
 62
               7
100
AcDb2dPolyline
 66
               1
 10
0.0
 20
0.0
 30
0.0
 70
               1
 75
               5
  0
VERTEX
  5
2AF
100
AcDbEntity
  8
一般
370
               5
  6
Continuous
 62
               7
100
AcDbVertex
100
AcDb2dVertex
 10
1068.5042042160474
 20
1060.0789687290583
 30
0.0
  0
VERTEX
  5
2B0
100
AcDbEntity
  8
一般
370
               5
  6
Continuous
 62
               7
100
AcDbVertex
100
AcDb2dVertex
 10
1068.7749487781014
 20
1062.5642649653485
 30
0.0
  0
VERTEX
  5
2B1
100
AcDbEntity
  8
一般
370
               5
  6
Continuous
 62
               7
100
AcDbVertex
100
AcDb2dVertex
 10
1055.8514083493922
 20
1063.972136688029
 30
0.0
  0
VERTEX
  5
2B2
100
AcDbEntity
  8
一般
370
               5
  6
Continuous
 62
               7
100
AcDbVertex
100
AcDb2dVertex
 10
1055.5806637873386
 20
1061.4868404517388
 30
0.0
  0
SEQEND
  5
2B3
100
AcDbEntity
  8
一般
370
               5
  6
Continuous
 62
               7
  0
POLYLINE
  5
2B4
100
AcDbEntity
  8
一般
370
               5
  6
Continuous
 62
               7
100
AcDb2dPolyline
 66
               1
 10
0.0
 20
0.0
 30
0.0
 70
               1
 75
               5
  0
VERTEX
  5
2B5
100
AcDbEntity
  8
一般
370
               5
  6
Continuous
 62
               7
100
AcDbVertex
100
AcDb2dVertex
 10
1068.5042042160474
 20
1055.5789687290583
 30
0.0
  0
VERTEX
  5
2B6
100
AcDbEntity
  8
一般
370
               5
  6
Continuous
 62
               7
100
AcDbVertex
100
AcDb2dVertex
 10
1068.7749487781014
 20
1058.0642649653485
 30
0.0
  0
VERTEX
  5
2B7
100
AcDbEntity
  8
一般
370
               5
  6
Continuous
 62
               7
100
AcDbVertex
100
AcDb2dVertex
 10
1055.8514083493922
 20
1059.472136688029
 30
0.0
  0
VERTEX
  5
2B8
100
AcDbEntity
  8
一般
370
               5
  6
Continuous
 62
               7
100
AcDbVertex
100
AcDb2dVertex
 10
1055.5806637873386
 20
1056.9868404517388
 30
0.0
  0
SEQEND
  5
2B9
100
AcDbEntity
  8
一般
370
               5
  6
Continuous
 62
               7
  0
POLYLINE
  5
2BA
100
AcDbEntity
  8
一般
370
               5
  6
Continuous
 62
               7
100
AcDb2dPolyline
 66
               1
 10
0.0
 20
0.0
 30
0.0
 70
               1
 75
               5
  0
VERTEX
  5
2BB
100
AcDbEntity
  8
一般
370
               5
  6
Continuous
 62
               7
100
AcDbVertex
100
AcDb2dVertex
 10
1068.5042042160474
 20
1051.0789687290585
 30
0.0
  0
VERTEX
  5
2BC
100
AcDbEntity
  8
一般
370
               5
  6
Continuous
 62
               7
100
AcDbVertex
100
AcDb2dVertex
 10
1068.7749487781014
 20
1053.5642649653485
 30
0.0
  0
VERTEX
  5
2BD
100
AcDbEntity
  8
一般
370
               5
  6
Continuous
 62
               7
100
AcDbVertex
100
AcDb2dVertex
 10
1055.8514083493922
 20
1054.972136688029
 30
0.0
  0
VERTEX
  5
2BE
100
AcDbEntity
  8
一般
370
               5
  6
Continuous
 62
               7
100
AcDbVertex
100
AcDb2dVertex
 10
1055.5806637873386
 20
1052.4868404517388
 30
0.0
  0
SEQEND
  5
2BF
100
AcDbEntity
  8
一般
370
               5
  6
Continuous
 62
               7
  0
LWPOLYLINE
  5
2C0
100
AcDbEntity
  8
一般
370
              15
  6
Continuous
 62
               7
100
AcDbPolyline
 90
        7
 70
             128
 10
1051.0042042160474
 20
1119.5789687290585
 10
1073.0042042160474
 20
1119.5789687290585
 10
1075.5292042160474
 20
1113.3289687290585
 10
1073.0042042160474
 20
1107.0789687290585
 10
1051.0042042160474
 20
1107.0789687290585
 10
1048.4792042160473
 20
1113.3289687290585
 10
1051.0042042160474
 20
1119.5789687290585
  0
CIRCLE
  5
2C1
100
AcDbEntity
  8
一般
370
               5
  6
Continuous
 62
               7
100
AcDbCircle
 10
1062.0292042160474
 20
1113.3289687290585
 30
0.0
 40
6.0
  0
SPLINE
  5
2C2
100
AcDbEntity
  8
一般
370
               5
  6
Continuous
 62
               7
100
AcDbSpline
210
0.0
220
0.0
230
1.0
 70
               9
 71
               2
 72
              17
 73
              14
 74
               0
 42
0.000001
 43
0.000001
 40
0.0
 40
0.0
 40
0.0
 40
1.0
 40
2.0
 40
3.0
 40
4.0
 40
5.0
 40
6.0
 40
7.0
 40
8.0
 40
9.0
 40
10.0
 40
11.0
 40
12.0
 40
12.0
 40
12.0
 10
1070.8042042160473
 20
1118.5251211517652
 30
0.0
 10
1071.5351642598894
 20
1119.3289687290585
 30
0.0
 10
1073.2232441722053
 20
1119.3289687290585
 30
0.0
 10
1074.6851642598895
 20
1117.721273574472
 30
0.0
 10
1075.5292042160474
 20
1114.9366638836455
 30
0.0
 10
1075.5292042160474
 20
1111.721273574472
 30
0.0
 10
1074.6851642598895
 20
1108.9366638836455
 30
0.0
 10
1073.2232441722053
 20
1107.3289687290585
 30
0.0
 10
1071.5351642598894
 20
1107.3289687290585
 30
0.0
 10
1070.0732441722052
 20
1108.9366638836455
 30
0.0
 10
1069.2292042160473
 20
1111.721273574472
 30
0.0
 10
1069.2292042160473
 20
1114.9366638836455
 30
0.0
 10
1070.0732441722052
 20
1117.721273574472
 30
0.0
 10
1070.8042042160473
 20
1118.5251211517652
 30
0.0
  0
SPLINE
  5
2C3
100
AcDbEntity
  8
一般
370
               5
  6
Continuous
 62
               7
100
AcDbSpline
210
0.0
220
0.0
230
1.0
 70
               9
 71
               2
 72
              17
 73
              14
 74
               0
 42
0.000001
 43
0.000001
 40
0.0
 40
0.0
 40
0.0
 40
1.0
 40
2.0
 40
3.0
 40
4.0
 40
5.0
 40
6.0
 40
7.0
 40
8.0
 40
9.0
 40
10.0
 40
11.0
 40
12.0
 40
12.0
 40
12.0
 10
1050.0542042160473
 20
1118.5251211517652
 30
0.0
 10
1050.7851642598894
 20
1119.3289687290585
 30
0.0
 10
1052.4732441722053
 20
1119.3289687290585
 30
0.0
 10
1053.9351642598895
 20
1117.721273574472
 30
0.0
 10
1054.7792042160474
 20
1114.9366638836455
 30
0.0
 10
1054.7792042160474
 20
1111.721273574472
 30
0.0
 10
1053.9351642598895
 20
1108.9366638836455
 30
0.0
 10
1052.4732441722053
 20
1107.3289687290585
 30
0.0
 10
1050.7851642598894
 20
1107.3289687290585
 30
0.0
 10
1049.3232441722052
 20
1108.9366638836455
 30
0.0
 10
1048.4792042160473
 20
1111.721273574472
 30
0.0
 10
1048.4792042160473
 20
1114.9366638836455
 30
0.0
 10
1049.3232441722052
 20
1117.721273574472
 30
0.0
 10
1050.0542042160473
 20
1118.5251211517652
 30
0.0
  0
LWPOLYLINE
  5
2C4
100
AcDbEntity
  8
一般
370
              15
  6
STYLE_06
 62
               7
100
AcDbPolyline
 90
        5
 70
             128
 10
1039.0424340016928
 20
1081.7829045903986
 10
1039.0424340016928
 20
392.78732491321955
 42
0.4142135623730936
 10
1050.5424340016928
 20
381.28732491321944
 42
0.4142135623730922
 10
1062.042434001693
 20
392.78732491321955
 10
1062.042434001693
 20
1051.7829045903986
  0
POLYLINE
  5
2C5
100
AcDbEntity
  8
一般
370
              15
  6
Continuous
 62
               7
100
AcDb2dPolyline
 66
               1
 10
0.0
 20
0.0
 30
0.0
 75
               5
  0
VERTEX
  5
2C6
100
AcDbEntity
  8
一般
370
              15
  6
Continuous
 62
               7
100
AcDbVertex
100
AcDb2dVertex
 10
1071.5042042160474
 20
1660.5247021271136
 30
0.0
  0
VERTEX
  5
2C7
100
AcDbEntity
  8
一般
370
              15
  6
Continuous
 62
               7
100
AcDbVertex
100
AcDb2dVertex
 10
1071.5042042160474
 20
1630.5247021271136
 30
0.0
  0
VERTEX
  5
2C8
100
AcDbEntity
  8
一般
370
              15
  6
Continuous
 62
               7
100
AcDbVertex
100
AcDb2dVertex
 10
1101.5042042160474
 20
1630.5247021271136
 30
0.0
  0
SEQEND
  5
2C9
100
AcDbEntity
  8
一般
370
              15
  6
Continuous
 62
               7
  0
POLYLINE
  5
2CA
100
AcDbEntity
  8
一般
370
              15
  6
Continuous
 62
               7
100
AcDb2dPolyline
 66
               1
 10
0.0
 20
0.0
 30
0.0
 75
               5
  0
VERTEX
  5
2CB
100
AcDbEntity
  8
一般
370
              15
  6
Continuous
 62
               7
100
AcDbVertex
100
AcDb2dVertex
 10
1161.5042042160474
 20
1699.0247021271136
 30
0.0
  0
VERTEX
  5
2CC
100
AcDbEntity
  8
一般
370
              15
  6
Continuous
 62
               7
100
AcDbVertex
100
AcDb2dVertex
 10
1161.5042042160474
 20
1720.5247021271136
 30
0.0
  0
VERTEX
  5
2CD
100
AcDbEntity
  8
一般
370
              15
  6
Continuous
 62
               7
100
AcDbVertex
100
AcDb2dVertex
 10
1071.5042042160474
 20
1720.5247021271136
 30
0.0
  0
VERTEX
  5
2CE
100
AcDbEntity
  8
一般
370
              15
  6
Continuous
 62
               7
100
AcDbVertex
100
AcDb2dVertex
 10
1071.5042042160474
 20
1690.5247021271136
 30
0.0
  0
SEQEND
  5
2CF
100
AcDbEntity
  8
一般
370
              15
  6
Continuous
 62
               7
  0
POLYLINE
  5
2D0
100
AcDbEntity
  8
一般
370
              15
  6
Continuous
 62
               7
100
AcDb2dPolyline
 66
               1
 10
0.0
 20
0.0
 30
0.0
 75
               5
  0
VERTEX
  5
2D1
100
AcDbEntity
  8
一般
370
              15
  6
Continuous
 62
               7
100
AcDbVertex
100
AcDb2dVertex
 10
1161.5042042160474
 20
1652.0247021271136
 30
0.0
  0
VERTEX
  5
2D2
100
AcDbEntity
  8
一般
370
              15
  6
Continuous
 62
               7
100
AcDbVertex
100
AcDb2dVertex
 10
1161.5042042160474
 20
1630.5247021271136
 30
0.0
  0
VERTEX
  5
2D3
100
AcDbEntity
  8
一般
370
              15
  6
Continuous
 62
               7
100
AcDbVertex
100
AcDb2dVertex
 10
1131.5042042160474
 20
1630.5247021271136
 30
0.0
  0
SEQEND
  5
2D4
100
AcDbEntity
  8
一般
370
              15
  6
Continuous
 62
               7
  0
POLYLINE
  5
2D5
100
AcDbEntity
  8
一般
370
              15
  6
Continuous
 62
               7
100
AcDb2dPolyline
 66
               1
 10
0.0
 20
0.0
 30
0.0
 75
               5
  0
VERTEX
  5
2D6
100
AcDbEntity
  8
一般
370
              15
  6
Continuous
 62
               7
100
AcDbVertex
100
AcDb2dVertex
 10
1101.5042042160474
 20
1651.0247021271136
 30
0.0
  0
VERTEX
  5
2D7
100
AcDbEntity
  8
一般
370
              15
  6
Continuous
 62
               7
100
AcDbVertex
100
AcDb2dVertex
 10
1092.0042042160474
 20
1651.0247021271136
 30
0.0
  0
VERTEX
  5
2D8
100
AcDbEntity
  8
一般
370
              15
  6
Continuous
 62
               7
100
AcDbVertex
100
AcDb2dVertex
 10
1092.0042042160474
 20
1700.0247021271136
 30
0.0
  0
VERTEX
  5
2D9
100
AcDbEntity
  8
一般
370
              15
  6
Continuous
 62
               7
100
AcDbVertex
100
AcDb2dVertex
 10
1141.0042042160474
 20
1700.0247021271136
 30
0.0
  0
VERTEX
  5
2DA
100
AcDbEntity
  8
一般
370
              15
  6
Continuous
 62
               7
100
AcDbVertex
100
AcDb2dVertex
 10
1141.0042042160474
 20
1651.0247021271136
 30
0.0
  0
VERTEX
  5
2DB
100
AcDbEntity
  8
一般
370
              15
  6
Continuous
 62
               7
100
AcDbVertex
100
AcDb2dVertex
 10
1131.5042042160474
 20
1651.0247021271136
 30
0.0
  0
SEQEND
  5
2DC
100
AcDbEntity
  8
一般
370
              15
  6
Continuous
 62
               7
  0
POLYLINE
  5
2DD
100
AcDbEntity
  8
一般
370
              15
  6
Continuous
 62
               7
100
AcDb2dPolyline
 66
               1
 10
0.0
 20
0.0
 30
0.0
 75
               5
  0
VERTEX
  5
2DE
100
AcDbEntity
  8
一般
370
              15
  6
Continuous
 62
               7
100
AcDbVertex
100
AcDb2dVertex
 10
1187.0042042160474
 20
1696.1402302552001
 30
0.0
  0
VERTEX
  5
2DF
100
AcDbEntity
  8
一般
370
              15
  6
Continuous
 62
               7
100
AcDbVertex
100
AcDb2dVertex
 10
1187.0042042160474
 20
1699.0247021271136
 30
0.0
  0
VERTEX
  5
2E0
100
AcDbEntity
  8
一般
370
              15
  6
Continuous
 62
               7
100
AcDbVertex
100
AcDb2dVertex
 10
1217.0042042160474
 20
1699.0247021271136
 30
0.0
  0
VERTEX
  5
2E1
100
AcDbEntity
  8
一般
370
              15
  6
Continuous
 62
               7
100
AcDbVertex
100
AcDb2dVertex
 10
1217.0042042160474
 20
1652.0247021271136
 30
0.0
  0
VERTEX
  5
2E2
100
AcDbEntity
  8
一般
370
              15
  6
Continuous
 62
               7
100
AcDbVertex
100
AcDb2dVertex
 10
1187.0042042160474
 20
1652.0247021271136
 30
0.0
  0
VERTEX
  5
2E3
100
AcDbEntity
  8
一般
370
              15
  6
Continuous
 62
               7
100
AcDbVertex
100
AcDb2dVertex
 10
1187.0042042160474
 20
1654.9091739990272
 30
0.0
  0
SEQEND
  5
2E4
100
AcDbEntity
  8
一般
370
              15
  6
Continuous
 62
               7
  0
ARC
  5
2E5
100
AcDbEntity
  8
一般
370
              15
  6
Continuous
 62
               7
100
AcDbCircle
 10
1183.0042042160474
 20
1675.5247021271136
 30
0.0
 40
21.0
100
AcDbArc
 50
270.0
 51
311.81031489578288
  0
ARC
  5
2E6
100
AcDbEntity
  8
一般
370
              15
  6
Continuous
 62
               7
100
AcDbCircle
 10
1183.0042042160474
 20
1675.5247021271136
 30
0.0
 40
21.000000000000021
100
AcDbArc
 50
48.189685104216885
 51
90.0
  0
POLYLINE
  5
2E7
100
AcDbEntity
  8
一般
370
              15
  6
Continuous
 62
               7
100
AcDb2dPolyline
 66
               1
 10
0.0
 20
0.0
 30
0.0
 70
               1
 75
               5
  0
VERTEX
  5
2E8
100
AcDbEntity
  8
一般
370
              15
  6
Continuous
 62
               7
100
AcDbVertex
100
AcDb2dVertex
 10
1141.0042042160474
 20
1699.0247021271136
 30
0.0
  0
VERTEX
  5
2E9
100
AcDbEntity
  8
一般
370
              15
  6
Continuous
 62
               7
100
AcDbVertex
100
AcDb2dVertex
 10
1183.0042042160474
 20
1699.0247021271136
 30
0.0
  0
VERTEX
  5
2EA
100
AcDbEntity
  8
一般
370
              15
  6
Continuous
 62
               7
100
AcDbVertex
100
AcDb2dVertex
 10
1183.0042042160474
 20
1652.0247021271136
 30
0.0
  0
VERTEX
  5
2EB
100
AcDbEntity
  8
一般
370
              15
  6
Continuous
 62
               7
100
AcDbVertex
100
AcDb2dVertex
 10
1141.0042042160474
 20
1652.0247021271136
 30
0.0
  0
SEQEND
  5
2EC
100
AcDbEntity
  8
一般
370
              15
  6
Continuous
 62
               7
  0
POLYLINE
  5
2ED
100
AcDbEntity
  8
一般
370
              15
  6
Continuous
 62
               7
100
AcDb2dPolyline
 66
               1
 10
0.0
 20
0.0
 30
0.0
 70
               1
 75
               5
  0
VERTEX
  5
2EE
100
AcDbEntity
  8
一般
370
              15
  6
Continuous
 62
               7
100
AcDbVertex
100
AcDb2dVertex
 10
1197.0042042160474
 20
1699.0247021271136
 30
0.0
  0
VERTEX
  5
2EF
100
AcDbEntity
  8
一般
370
              15
  6
Continuous
 62
               7
100
AcDbVertex
100
AcDb2dVertex
 10
1217.0042042160474
 20
1699.0247021271136
 30
0.0
  0
VERTEX
  5
2F0
100
AcDbEntity
  8
一般
370
              15
  6
Continuous
 62
               7
100
AcDbVertex
100
AcDb2dVertex
 10
1217.0042042160474
 20
1652.0247021271136
 30
0.0
  0
VERTEX
  5
2F1
100
AcDbEntity
  8
一般
370
              15
  6
Continuous
 62
               7
100
AcDbVertex
100
AcDb2dVertex
 10
1197.0042042160474
 20
1652.0247021271136
 30
0.0
  0
SEQEND
  5
2F2
100
AcDbEntity
  8
一般
370
              15
  6
Continuous
 62
               7
  0
POLYLINE
  5
2F3
100
AcDbEntity
  8
一般
370
              15
  6
Continuous
 62
               7
100
AcDb2dPolyline
 66
               1
 10
0.0
 20
0.0
 30
0.0
 70
               1
 75
               5
  0
VERTEX
  5
2F4
100
AcDbEntity
  8
一般
370
              15
  6
Continuous
 62
               7
100
AcDbVertex
100
AcDb2dVertex
 10
1141.0042042160474
 20
1687.5247021271136
 30
0.0
  0
VERTEX
  5
2F5
100
AcDbEntity
  8
一般
370
              15
  6
Continuous
 62
               7
100
AcDbVertex
100
AcDb2dVertex
 10
1146.0042042160474
 20
1687.5247021271136
 30
0.0
  0
VERTEX
  5
2F6
100
AcDbEntity
  8
一般
370
              15
  6
Continuous
 62
               7
100
AcDbVertex
100
AcDb2dVertex
 10
1146.0042042160474
 20
1663.5247021271136
 30
0.0
  0
VERTEX
  5
2F7
100
AcDbEntity
  8
一般
370
              15
  6
Continuous
 62
               7
100
AcDbVertex
100
AcDb2dVertex
 10
1141.0042042160474
 20
1663.5247021271136
 30
0.0
  0
SEQEND
  5
2F8
100
AcDbEntity
  8
一般
370
              15
  6
Continuous
 62
               7
  0
POLYLINE
  5
2F9
100
AcDbEntity
  8
一般
370
              15
  6
Continuous
 62
               7
100
AcDb2dPolyline
 66
               1
 10
0.0
 20
0.0
 30
0.0
 70
               1
 75
               5
  0
VERTEX
  5
2FA
100
AcDbEntity
  8
一般
370
              15
  6
Continuous
 62
               7
100
AcDbVertex
100
AcDb2dVertex
 10
1146.0042042160474
 20
1684.5247021271136
 30
0.0
  0
VERTEX
  5
2FB
100
AcDbEntity
  8
一般
370
              15
  6
Continuous
 62
               7
100
AcDbVertex
100
AcDb2dVertex
 10
1148.0042042160474
 20
1684.5247021271136
 30
0.0
  0
VERTEX
  5
2FC
100
AcDbEntity
  8
一般
370
              15
  6
Continuous
 62
               7
100
AcDbVertex
100
AcDb2dVertex
 10
1148.0042042160474
 20
1666.5247021271136
 30
0.0
  0
VERTEX
  5
2FD
100
AcDbEntity
  8
一般
370
              15
  6
Continuous
 62
               7
100
AcDbVertex
100
AcDb2dVertex
 10
1146.0042042160474
 20
1666.5247021271136
 30
0.0
  0
SEQEND
  5
2FE
100
AcDbEntity
  8
一般
370
              15
  6
Continuous
 62
               7
  0
POLYLINE
  5
2FF
100
AcDbEntity
  8
一般
370
              15
  6
Continuous
 62
               7
100
AcDb2dPolyline
 66
               1
 10
0.0
 20
0.0
 30
0.0
 70
               1
 75
               5
  0
VERTEX
  5
300
100
AcDbEntity
  8
一般
370
              15
  6
Continuous
 62
               7
100
AcDbVertex
100
AcDb2dVertex
 10
1148.0042042160474
 20
1687.5247021271136
 30
0.0
  0
VERTEX
  5
301
100
AcDbEntity
  8
一般
370
              15
  6
Continuous
 62
               7
100
AcDbVertex
100
AcDb2dVertex
 10
1164.0042042160474
 20
1687.5247021271136
 30
0.0
  0
VERTEX
  5
302
100
AcDbEntity
  8
一般
370
              15
  6
Continuous
 62
               7
100
AcDbVertex
100
AcDb2dVertex
 10
1164.0042042160474
 20
1663.5247021271136
 30
0.0
  0
VERTEX
  5
303
100
AcDbEntity
  8
一般
370
              15
  6
Continuous
 62
               7
100
AcDbVertex
100
AcDb2dVertex
 10
1148.0042042160474
 20
1663.5247021271136
 30
0.0
  0
SEQEND
  5
304
100
AcDbEntity
  8
一般
370
              15
  6
Continuous
 62
               7
  0
LWPOLYLINE
  5
305
100
AcDbEntity
  8
一般
370
              15
  6
Continuous
 62
               7
100
AcDbPolyline
 90
        8
 70
             129
 10
1164.0042042160474
 20
1688.5247021271136
 42
-0.414213562373095
 10
1165.0042042160474
 20
1689.5247021271136
 10
1173.0042042160474
 20
1689.5247021271136
 42
-0.4142135623731117
 10
1174.0042042160474
 20
1688.5247021271136
 10
1174.0042042160474
 20
1662.5247021271136
 42
-0.414213562373095
 10
1173.0042042160474
 20
1661.5247021271136
 10
1165.0042042160474
 20
1661.5247021271136
 42
-0.4142135623730784
 10
1164.0042042160474
 20
1662.5247021271136
  0
LINE
  5
306
100
AcDbEntity
  8
一般
370
              15
  6
Continuous
 62
               7
100
AcDbLine
 10
1037.1641119739418
 20
1660.5247021271136
 30
0.0
 11
1038.0042042160476
 21
1660.5247021271136
 31
0.0
  0
LINE
  5
307
100
AcDbEntity
  8
一般
370
              15
  6
Continuous
 62
               7
100
AcDbLine
 10
1040.0042042160469
 20
1660.5247021271136
 30
0.0
 11
1040.2191498162983
 21
1660.5247021271136
 31
0.0
  0
POLYLINE
  5
308
100
AcDbEntity
  8
一般
370
              15
  6
Continuous
 62
               7
100
AcDb2dPolyline
 66
               1
 10
0.0
 20
0.0
 30
0.0
 75
               5
  0
VERTEX
  5
309
100
AcDbEntity
  8
一般
370
              15
  6
Continuous
 62
               7
100
AcDbVertex
100
AcDb2dVertex
 10
1042.1892586157965
 20
1660.5247021271136
 30
0.0
  0
VERTEX
  5
30A
100
AcDbEntity
  8
一般
370
              15
  6
Continuous
 62
               7
100
AcDbVertex
100
AcDb2dVertex
 10
1092.0042042160474
 20
1660.5247021271136
 30
0.0
  0
VERTEX
  5
30B
100
AcDbEntity
  8
一般
370
              15
  6
Continuous
 62
               7
100
AcDbVertex
100
AcDb2dVertex
 10
1092.0042042160474
 20
1690.5247021271136
 30
0.0
  0
VERTEX
  5
30C
100
AcDbEntity
  8
一般
370
              15
  6
Continuous
 62
               7
100
AcDbVertex
100
AcDb2dVertex
 10
1027.0042042160474
 20
1690.5247021271136
 30
0.0
  0
VERTEX
  5
30D
100
AcDbEntity
  8
一般
370
              15
  6
Continuous
 62
               7
100
AcDbVertex
100
AcDb2dVertex
 10
1027.0042042160474
 20
1682.7358046780485
 30
0.0
  0
SEQEND
  5
30E
100
AcDbEntity
  8
一般
370
              15
  6
Continuous
 62
               7
  0
POLYLINE
  5
30F
100
AcDbEntity
  8
一般
370
              15
  6
Continuous
 62
               7
100
AcDb2dPolyline
 66
               1
 10
0.0
 20
0.0
 30
0.0
 75
               5
  0
VERTEX
  5
310
100
AcDbEntity
  8
一般
370
              15
  6
Continuous
 62
               7
100
AcDbVertex
100
AcDb2dVertex
 10
1035.2442964581528
 20
1660.5247021271136
 30
0.0
  0
VERTEX
  5
311
100
AcDbEntity
  8
一般
370
              15
  6
Continuous
 62
               7
100
AcDbVertex
100
AcDb2dVertex
 10
1027.0042042160474
 20
1660.5247021271136
 30
0.0
  0
VERTEX
  5
312
100
AcDbEntity
  8
一般
370
              15
  6
Continuous
 62
               7
100
AcDbVertex
100
AcDb2dVertex
 10
1027.0042042160474
 20
1668.3135995761786
 30
0.0
  0
SEQEND
  5
313
100
AcDbEntity
  8
一般
370
              15
  6
Continuous
 62
               7
  0
CIRCLE
  5
314
100
AcDbEntity
  8
一般
370
              15
  6
Continuous
 62
               7
100
AcDbCircle
 10
1039.0042042160474
 20
1675.5247021271136
 30
0.0
 40
14.0
  0
ARC
  5
315
100
AcDbEntity
  8
一般
370
               5
  6
Continuous
 62
               7
100
AcDbCircle
 10
1039.0042042160474
 20
1675.5247021271136
 30
0.0
 40
14.300000000000024
100
AcDbArc
 50
209.05830866680375
 51
330.94169133319633
  0
LINE
  5
316
100
AcDbEntity
  8
一般
370
               5
  6
Continuous
 62
               7
100
AcDbLine
 10
1026.5042042160474
 20
1668.5791999854396
 30
0.0
 11
1026.5042042160474
 21
1669.2199420206543
 31
0.0
  0
LINE
  5
317
100
AcDbEntity
  8
一般
370
               5
  6
Continuous
 62
               7
100
AcDbLine
 10
1051.5042042160474
 20
1668.5791999854396
 30
0.0
 11
1051.5042042160474
 21
1669.2199420206543
 31
0.0
  0
LWPOLYLINE
  5
318
100
AcDbEntity
  8
一般
370
               5
  6
Continuous
 62
               7
100
AcDbPolyline
 90
        6
 70
             128
 10
1048.0042042160474
 20
1664.4120966720459
 10
1048.0042042160474
 20
1664.0919591804152
 42
0.4142135623730742
 10
1048.8042042160473
 20
1663.2919591804152
 10
1049.2042042160474
 20
1663.2919591804152
 42
0.414213562373095
 10
1050.0042042160474
 20
1664.0919591804152
 10
1050.0042042160474
 20
1666.3874158779038
  0
LWPOLYLINE
  5
319
100
AcDbEntity
  8
一般
370
               5
  6
Continuous
 62
               7
100
AcDbPolyline
 90
        6
 70
             128
 10
1045.2042042160474
 20
1662.6386631701648
 10
1045.2042042160474
 20
1662.2562939868835
 42
0.4142135623731159
 10
1046.0042042160474
 20
1661.4562939868838
 10
1046.4042042160472
 20
1661.4562939868838
 42
0.4142135623730534
 10
1047.2042042160474
 20
1662.2562939868835
 10
1047.2042042160474
 20
1663.8093276132536
  0
LWPOLYLINE
  5
31A
100
AcDbEntity
  8
一般
370
               5
  6
Continuous
 62
               7
100
AcDbPolyline
 90
        6
 70
             128
 10
1043.0042042160474
 20
1661.7955360927181
 10
1043.0042042160474
 20
1661.3367069309575
 42
0.4142135623730742
 10
1043.8042042160473
 20
1660.5367069309575
 10
1044.2042042160474
 20
1660.5367069309575
 42
0.414213562373095
 10
1045.0042042160474
 20
1661.3367069309575
 10
1045.0042042160474
 20
1662.5443323326895
  0
LWPOLYLINE
  5
31B
100
AcDbEntity
  8
一般
370
               5
  6
Continuous
 62
               7
100
AcDbPolyline
 90
        6
 70
             128
 10
1040.2042042160474
 20
1661.2786163546273
 10
1040.2042042160474
 20
1660.6786163546271
 42
0.4142135623731159
 10
1041.0042042160474
 20
1659.8786163546274
 10
1041.4042042160472
 20
1659.8786163546274
 42
0.4142135623730534
 10
1042.2042042160474
 20
1660.6786163546271
 10
1042.2042042160474
 20
1661.5873422623472
  0
LWPOLYLINE
  5
31C
100
AcDbEntity
  8
一般
370
               5
  6
Continuous
 62
               7
100
AcDbPolyline
 90
        6
 70
             128
 10
1038.0042042160474
 20
1661.2597100135513
 10
1038.0042042160474
 20
1660.5247021271136
 42
0.4142135623730742
 10
1038.8042042160473
 20
1659.7247021271137
 10
1039.2042042160474
 20
1659.7247021271137
 42
0.414213562373095
 10
1040.0042042160474
 20
1660.5247021271136
 10
1040.0042042160474
 20
1661.2597100135513
  0
LWPOLYLINE
  5
31D
100
AcDbEntity
  8
一般
370
               5
  6
Continuous
 62
               7
100
AcDbPolyline
 90
        6
 70
             128
 10
1035.2042042160474
 20
1661.7388398037042
 10
1035.2042042160474
 20
1660.7747825131735
 42
0.4142135623731159
 10
1036.0042042160474
 20
1659.9747825131735
 10
1036.4042042160472
 20
1659.9747825131735
 42
0.4142135623730534
 10
1037.2042042160474
 20
1660.7747825131735
 10
1037.2042042160474
 20
1661.3384411680026
  0
LWPOLYLINE
  5
31E
100
AcDbEntity
  8
一般
370
               5
  6
Continuous
 62
               7
100
AcDbPolyline
 90
        6
 70
             128
 10
1033.0042042160474
 20
1662.5367069309575
 10
1033.0042042160474
 20
1661.3367069309575
 42
0.414213562373095
 10
1033.8042042160473
 20
1660.5367069309575
 10
1034.2042042160474
 20
1660.5367069309575
 42
0.414213562373095
 10
1035.0042042160474
 20
1661.3367069309575
 10
1035.0042042160474
 20
1661.7955360927181
  0
LWPOLYLINE
  5
31F
100
AcDbEntity
  8
一般
370
               5
  6
Continuous
 62
               7
100
AcDbPolyline
 90
        6
 70
             128
 10
1030.2042042160474
 20
1664.2530562845582
 10
1030.2042042160474
 20
1662.5910347499969
 42
0.4125618652986733
 10
1030.9996902097239
 20
1661.7910474852565
 10
1031.399690209724
 20
1661.7887904461647
 42
0.4158671907634002
 10
1032.2042042160474
 20
1662.5887777109051
 10
1032.2042042160474
 20
1662.9449565017044
  0
LWPOLYLINE
  5
320
100
AcDbEntity
  8
一般
370
               5
  6
Continuous
 62
               7
100
AcDbPolyline
 90
        6
 70
             128
 10
1027.9997137532894
 20
1666.3928244639455
 10
1027.9997137532894
 20
1664.0919591804152
 42
0.4142135623730742
 10
1028.7997137532893
 20
1663.2919591804152
 10
1029.1997137532892
 20
1663.2919591804152
 42
0.4142135623730534
 10
1029.9997137532894
 20
1664.0919591804152
 10
1029.9997137532894
 20
1664.415734960626
  0
SPLINE
  5
321
100
AcDbEntity
  8
一般
370
              15
  6
Continuous
 62
               7
100
AcDbSpline
210
0.0
220
0.0
230
1.0
 70
              13
 71
               2
 72
              19
 73
              16
 74
               0
 42
0.000001
 43
0.000001
 40
0.0
 40
0.0
 40
0.0
 40
1.0
 40
2.0
 40
3.0
 40
4.0
 40
5.0
 40
6.0
 40
6.0
 40
7.0
 40
7.0
 40
8.0
 40
8.0
 40
9.0
 40
9.0
 40
10.0
 40
10.0
 40
10.0
 10
1131.5042042160474
 20
1484.246511936615
 30
0.0
 41
1.0
 10
1131.5042042160474
 20
1480.3612486463635
 30
0.0
 41
1.0
 10
1127.4849663295804
 20
1473.631775226866
 30
0.0
 41
1.0
 10
1120.5234421025141
 20
1469.7465119366148
 30
0.0
 41
1.0
 10
1112.4849663295804
 20
1469.7465119366148
 30
0.0
 41
1.0
 10
1105.5234421025141
 20
1473.631775226866
 30
0.0
 41
1.0
 10
1101.5042042160474
 20
1480.3612486463635
 30
0.0
 41
1.0
 10
1101.5042042160474
 20
1484.246511936615
 30
0.0
 41
1.0
 10
1101.5042042160474
 20
1579.8856070318643
 30
0.0
 41
1.0
 10
1101.5042042160474
 20
1675.5247021271136
 30
0.0
 41
1.0
 10
1101.5042042160474
 20
1690.5247021271136
 30
0.0
 41
0.7071067811865476
 10
1116.5042042160474
 20
1690.5247021271136
 30
0.0
 41
1.0
 10
1131.5042042160474
 20
1690.5247021271136
 30
0.0
 41
0.7071067811865462
 10
1131.5042042160474
 20
1675.5247021271136
 30
0.0
 41
1.0
 10
1131.5042042160474
 20
1579.8856070318643
 30
0.0
 41
1.0
 10
1131.5042042160474
 20
1484.246511936615
 30
0.0
 41
1.0
  0
INSERT
  5
322
100
AcDbEntity
  8
一般
 62
               7
100
AcDbBlockReference
  2
グループ-2
 10
1450.0
 20
1020.0
 30
0.0
  0
MTEXT
  5
323
100
AcDbEntity
  8
一般
 62
               7
100
AcDbMText
 10
1646.1324865405218
 20
1613.6169754020784
 30
0.0
 40
35.36964699074074
 41
0.0
 71
               1
 72
               1
  1
TX-7551
  7
Arial
 73
               1
 44
0.9673603504928806
  0
ENDSEC
  0
SECTION
  2
OBJECTS
  0
DICTIONARY
  5
19
100
AcDbDictionary
280
               0
281
               1
  3
ACAD_GROUP
350
1A
  3
ACAD_MLINESTYLE
350
1B
  3
ACAD_LAYOUT
350
1E
  3
ACAD_PLOTSETTINGS
350
22
  3
ACAD_PLOTSTYLENAME
350
1F
  3
ACAD_WIPEOUT_VARS
350
23
  0
DICTIONARY
  5
1A
102
{ACAD_REACTORS
330
19
102
}
100
AcDbDictionary
280
               0
281
               1
  0
DICTIONARY
  5
1B
102
{ACAD_REACTORS
330
19
102
}
100
AcDbDictionary
280
               0
281
               1
  3
Standard
350
1C
  0
MLINESTYLE
  5
1C
102
{ACAD_REACTORS
330
1B
102
}
100
AcDbMlineStyle
  2
Standard
 70
               0
  3

 62
               0
 51
90.0
 52
90.0
 71
               2
 49
0.5
 62
             256
  6
ByLayer
 49
-0.5
 62
             256
  6
ByLayer
  0
ACDBDICTIONARYWDFLT
  5
1F
102
{ACAD_REACTORS
330
19
102
}
100
AcDbDictionary
281
               1
  3
Normal
350
1D
100
AcDbDictionaryWithDefault
340
1D
  0
ACDBPLACEHOLDER
  5
1D
102
{ACAD_REACTORS
330
1F
102
}
  0
LAYOUT
  5
20
102
{ACAD_REACTORS
330
1E
102
}
100
AcDbPlotSettings
  1

  2

  4

  6

 40
0.0
 41
0.0
 42
0.0
 43
0.0
 44
0.0
 45
0.0
 46
0.0
 47
0.0
 48
0.0
 49
0.0
140
0.0
141
0.0
142
1.0
143
1.0
 70
            1024
 72
               0
 73
               0
 74
               0
  7

 75
               0
147
1.0
148
0.0
149
0.0
100
AcDbLayout
  1
Model
 70
               0
 71
               0
 10
0.0
 20
0.0
 11
0.0
 21
0.0
 12
0.0
 22
0.0
 32
0.0
 14
0.0
 24
0.0
 34
0.0
 15
0.0
 25
0.0
 35
0.0
146
0.0
 13
0.0
 23
0.0
 33
0.0
 16
0.0
 26
0.0
 36
0.0
 17
0.0
 27
0.0
 37
0.0
 76
               0
330
A
331
0
345
0
346
0
  0
LAYOUT
  5
21
102
{ACAD_REACTORS
330
1E
102
}
100
AcDbPlotSettings
  1

  2

  4

  6

 40
0.0
 41
0.0
 42
0.0
 43
0.0
 44
0.0
 45
0.0
 46
0.0
 47
0.0
 48
0.0
 49
0.0
140
0.0
141
0.0
142
1.0
143
1.0
 70
               0
 72
               0
 73
               0
 74
               0
  7

 75
               0
147
1.0
148
0.0
149
0.0
100
AcDbLayout
  1
Layout1
 70
               0
 71
               0
 10
0.0
 20
0.0
 11
0.0
 21
0.0
 12
0.0
 22
0.0
 32
0.0
 14
0.0
 24
0.0
 34
0.0
 15
0.0
 25
0.0
 35
0.0
146
0.0
 13
0.0
 23
0.0
 33
0.0
 16
0.0
 26
0.0
 36
0.0
 17
0.0
 27
0.0
 37
0.0
 76
               0
330
B
331
0
345
0
346
0
  0
DICTIONARY
  5
1E
102
{ACAD_REACTORS
330
19
102
}
100
AcDbDictionary
280
               0
281
               1
  3
Layout1
350
21
  3
Model
350
20
  0
DICTIONARY
  5
22
102
{ACAD_REACTORS
330
19
102
}
100
AcDbDictionary
280
               0
281
               1
  0
WIPEOUTVARIABLES
  5
23
100
AcDbWipeoutVariables
 70
               0
  0
ENDSEC
  0
EOF
