  0
SECTION
  2
HEADER
  9
$ACADVER
  1
AC1015
  9
$ACADMAINTVER
 70
               6
  9
$DWGCODEPAGE
  3
ANSI_932
  9
$INSBASE
 10
0.0
 20
0.0
 30
0.0
  9
$EXTMIN
 10
969.99999999999977
 20
325.0
 30
-7.2143055555555557
  9
$EXTMAX
 10
1836.2797141457058
 20
1641.6364009184078
 30
7.2143055555555557
  9
$LIMMIN
 10
0.0
 20
0.0
  9
$LIMMAX
 10
0.0
 20
0.0
  9
$ORTHOMODE
 70
               0
  9
$REGENMODE
 70
               1
  9
$FILLMODE
 70
               1
  9
$QTEXTMODE
 70
               0
  9
$MIRRTEXT
 70
               1
  9
$LTSCALE
 40
25.399999999999999
  9
$ATTMODE
 70
               1
  9
$TEXTSIZE
 40
0.2
  9
$TRACEWID
 40
1.0
  9
$TEXTSTYLE
  7
Standard
  9
$CLAYER
  8
一般
  9
$CELTYPE
  6
Continuous
  9
$CECOLOR
 62
             256
  9
$CELTSCALE
 40
1.0
  9
$DISPSILH
 70
               0
  9
$DIMSCALE
 40
1.0
  9
$DIMASZ
 40
0.18
  9
$DIMEXO
 40
0.0625
  9
$DIMDLI
 40
0.38
  9
$DIMRND
 40
0.0
  9
$DIMDLE
 40
0.0
  9
$DIMEXE
 40
0.18
  9
$DIMTP
 40
0.0
  9
$DIMTM
 40
0.0
  9
$DIMTXT
 40
0.18
  9
$DIMCEN
 40
0.09
  9
$DIMTSZ
 40
0.0
  9
$DIMTOL
 70
               0
  9
$DIMLIM
 70
               0
  9
$DIMTIH
 70
               1
  9
$DIMTOH
 70
               1
  9
$DIMSE1
 70
               0
  9
$DIMSE2
 70
               0
  9
$DIMTAD
 70
               0
  9
$DIMZIN
 70
               0
  9
$DIMBLK
  1

  9
$DIMASO
 70
               1
  9
$DIMSHO
 70
               1
  9
$DIMPOST
  1

  9
$DIMAPOST
  1

  9
$DIMALT
 70
               0
  9
$DIMALTD
 70
               2
  9
$DIMALTF
 40
25.399999999999999
  9
$DIMLFAC
 40
1.0
  9
$DIMTOFL
 70
               0
  9
$DIMTVP
 40
0.0
  9
$DIMTIX
 70
               0
  9
$DIMSOXD
 70
               0
  9
$DIMSAH
 70
               0
  9
$DIMBLK1
  1

  9
$DIMBLK2
  1

  9
$DIMSTYLE
  2
Standard
  9
$DIMCLRD
 70
               0
  9
$DIMCLRE
 70
               0
  9
$DIMCLRT
 70
               0
  9
$DIMTFAC
 40
1.0
  9
$DIMGAP
 40
0.09
  9
$DIMJUST
 70
               0
  9
$DIMSD1
 70
               0
  9
$DIMSD2
 70
               0
  9
$DIMTOLJ
 70
               1
  9
$DIMTZIN
 70
               0
  9
$DIMALTZ
 70
               0
  9
$DIMALTTZ
 70
               0
  9
$DIMUPT
 70
               0
  9
$DIMDEC
 70
               4
  9
$DIMTDEC
 70
               4
  9
$DIMALTU
 70
               2
  9
$DIMALTTD
 70
               2
  9
$DIMTXSTY
  7
Standard
  9
$DIMAUNIT
 70
               0
  9
$DIMADEC
 70
               0
  9
$DIMALTRND
 40
0.0
  9
$DIMAZIN
 70
               0
  9
$DIMDSEP
 70
               0
  9
$DIMATFIT
 70
               3
  9
$DIMFRAC
 70
               0
  9
$DIMLDRBLK
  1

  9
$DIMLUNIT
 70
               2
  9
$DIMLWD
 70
               0
  9
$DIMLWE
 70
               0
  9
$DIMTMOVE
 70
               0
  9
$LUNITS
 70
               2
  9
$LUPREC
 70
               4
  9
$SKETCHINC
 40
0.1
  9
$FILLETRAD
 40
0.0
  9
$AUNITS
 70
               0
  9
$AUPREC
 70
               0
  9
$MENU
  1
acad
  9
$ELEVATION
 40
0.0
  9
$PELEVATION
 40
0.0
  9
$THICKNESS
 40
0.0
  9
$LIMCHECK
 70
               0
  9
$CHAMFERA
 40
0.0
  9
$CHAMFERB
 40
0.0
  9
$CHAMFERC
 40
0.0
  9
$CHAMFERD
 40
0.0
  9
$SKPOLY
 70
               0
  9
$TDCREATE
 40
2455680.502210648
  9
$TDUCREATE
 40
0.000000000
  9
$TDUPDATE
 40
2455680.502210648
  9
$TDUUPDATE
 40
0.000000000
  9
$TDINDWG
 40
0.0000000000
  9
$TDUSRTIMER
 40
0.0000000000
  9
$USRTIMER
 70
               1
  9
$ANGBASE
 50
0.0
  9
$ANGDIR
 70
               0
  9
$PDMODE
 70
               1
  9
$PDSIZE
 40
-2.0
  9
$PLINEWID
 40
0.0
  9
$SPLFRAME
 70
               0
  9
$SPLINETYPE
 70
               6
  9
$SPLINESEGS
 70
               8
  9
$HANDSEED
  5
263
  9
$SURFTAB1
 70
               6
  9
$SURFTAB2
 70
               6
  9
$SURFTYPE
 70
               6
  9
$SURFU
 70
               6
  9
$SURFV
 70
               6
  9
$UCSBASE
  2

  9
$UCSNAME
  2

  9
$UCSORG
 10
0.0
 20
0.0
 30
0.0
  9
$UCSXDIR
 10
1.0
 20
0.0
 30
0.0
  9
$UCSYDIR
 10
0.0
 20
1.0
 30
0.0
  9
$UCSORTHOREF
  2

  9
$UCSORTHOVIEW
 70
               0
  9
$UCSORGTOP
 10
0.0
 20
0.0
 30
0.0
  9
$UCSORGBOTTOM
 10
0.0
 20
0.0
 30
0.0
  9
$UCSORGLEFT
 10
0.0
 20
0.0
 30
0.0
  9
$UCSORGRIGHT
 10
0.0
 20
0.0
 30
0.0
  9
$UCSORGFRONT
 10
0.0
 20
0.0
 30
0.0
  9
$UCSORGBACK
 10
0.0
 20
0.0
 30
0.0
  9
$PUCSBASE
  2

  9
$PUCSNAME
  2

  9
$PUCSORG
 10
0.0
 20
0.0
 30
0.0
  9
$PUCSXDIR
 10
1.0
 20
0.0
 30
0.0
  9
$PUCSYDIR
 10
0.0
 20
1.0
 30
0.0
  9
$PUCSORTHOREF
  2

  9
$PUCSORTHOVIEW
 70
               0
  9
$PUCSORGTOP
 10
0.0
 20
0.0
 30
0.0
  9
$PUCSORGBOTTOM
 10
0.0
 20
0.0
 30
0.0
  9
$PUCSORGLEFT
 10
0.0
 20
0.0
 30
0.0
  9
$PUCSORGRIGHT
 10
0.0
 20
0.0
 30
0.0
  9
$PUCSORGFRONT
 10
0.0
 20
0.0
 30
0.0
  9
$PUCSORGBACK
 10
0.0
 20
0.0
 30
0.0
  9
$USERI1
 70
               0
  9
$USERI2
 70
               0
  9
$USERI3
 70
               0
  9
$USERI4
 70
               0
  9
$USERI5
 70
               0
  9
$USERR1
 40
0.0
  9
$USERR2
 40
0.0
  9
$USERR3
 40
0.0
  9
$USERR4
 40
0.0
  9
$USERR5
 40
0.0
  9
$WORLDVIEW
 70
               1
  9
$SHADEDGE
 70
               3
  9
$SHADEDIF
 70
              70
  9
$TILEMODE
 70
               1
  9
$MAXACTVP
 70
              64
  9
$PINSBASE
 10
0.0
 20
0.0
 30
0.0
  9
$PLIMCHECK
 70
               0
  9
$PEXTMIN
 10
1.0000000000000000E+20
 20
1.0000000000000000E+20
 30
1.0000000000000000E+20
  9
$PEXTMAX
 10
-1.0000000000000000E+20
 20
-1.0000000000000000E+20
 30
-1.0000000000000000E+20
  9
$PLIMMIN
 10
0.0
 20
0.0
  9
$PLIMMAX
 10
12.0
 20
9.0
  9
$UNITMODE
 70
               0
  9
$VISRETAIN
 70
               0
  9
$PLINEGEN
 70
               1
  9
$PSLTSCALE
 70
               0
  9
$TREEDEPTH
 70
            3020
  9
$CMLSTYLE
  2
Standard
  9
$CMLJUST
 70
               0
  9
$CMLSCALE
 40
1.0
  9
$PROXYGRAPHICS
 70
               0
  9
$MEASUREMENT
 70
               1
  9
$CELWEIGHT
370
               0
  9
$ENDCAPS
280
               0
  9
$JOINSTYLE
280
               0
  9
$LWDISPLAY
290
               1
  9
$INSUNITS
 70
               4
  9
$HYPERLINKBASE
  1

  9
$STYLESHEET
  1

  9
$XEDIT
290
               1
  9
$CEPSNTYPE
380
               0
  9
$PSTYLEMODE
290
               1
  9
$FINGERPRINTGUID
  2

  9
$VERSIONGUID
  2

  9
$EXTNAMES
290
               1
  9
$PSVPSCALE
 40
0.0
  0
ENDSEC
  0
SECTION
  2
CLASSES
  0
CLASS
  1
LWPOLYLINE
  2
AcDbPolyline
  3
AutoCAD 2000
 90
        0
280
               0
281
               1
  0
CLASS
  1
IMAGE
  2
AcDbRasterImage
  3
ISM
 90
    32895
280
               0
281
               1
  0
CLASS
  1
OLE2FRAME
  2
AcDbOle2Frame
  3
AutoCAD 2000
 90
    32768
280
               0
281
               1
  0
CLASS
  1
HATCH
  2
AcDbHatch
  3
AutoCAD 2000
 90
    32768
280
               0
281
               1
  0
CLASS
  1
DICTIONARYVAR
  2
AcDbDictionaryVar
  3
AutoCAD 2000
 90
    32768
280
               0
281
               0
  0
CLASS
  1
RASTERVARIABLES
  2
AcDbRasterVariables
  3
ISM
 90
    32768
280
               0
281
               0
  0
CLASS
  1
IMAGEDEF
  2
AcDbRasterImageDef
  3
ISM
 90
    32768
280
               0
281
               0
  0
CLASS
  1
IMAGEDEF_REACTOR
  2
AcDbRasterImageDefReactor
  3
ISM
 90
    32769
280
               0
281
               0
  0
CLASS
  1
IDBUFFER
  2
AcDbIdBuffer
  3
AutoCAD 2000
 90
    32768
280
               0
281
               0
  0
CLASS
  1
SPATIAL_FILTER
  2
AcDbSpatialFilter
  3
AutoCAD 2000
 90
    32768
280
               0
281
               0
  0
CLASS
  1
XRECORD
  2
AcDbXrecord
  3
AutoCAD 2000
 90
    32768
280
               0
281
               0
  0
CLASS
  1
SORTENTSTABLE
  2
AcDbSortentsTable
  3
AutoCAD 2000
 90
    32768
280
               0
281
               0
  0
CLASS
  1
LAYER_INDEX
  2
AcDbLayerIndex
  3
AutoCAD 2000
 90
    32768
280
               0
281
               0
  0
CLASS
  1
SPATIAL_INDEX
  2
AcDbSpatialIndex
  3
AutoCAD 2000
 90
    32768
280
               0
281
               0
  0
CLASS
  1
OBJECT_PTR
  2
CAseDLPNTableRecord
  3
"ASE-LPNTableRecord"
 90
    32769
280
               0
281
               0
  0
CLASS
  1
LAYOUT
  2
AcDbLayout
  3
AutoCAD 2000
 90
        0
280
               0
281
               0
  0
CLASS
  1
PLOTSETTINGS
  2
AcDbPlotSettings
  3
AutoCAD 2000
 90
    32768
280
               0
281
               0
  0
CLASS
  1
ACDBDICTIONARYWDFLT
  2
AcDbDictionaryWithDefault
  3
AutoCAD 2000
 90
        0
280
               0
281
               0
  0
CLASS
  1
ACDBPLACEHOLDER
  2
AcDbPlaceHolder
  3
AutoCAD 2000
 90
        0
280
               0
281
               0
  0
CLASS
  1
VBA_PROJECT
  2
AcDbVbaProject
  3
acadvba
 90
    32768
280
               0
281
               0
  0
CLASS
  1
WIPEOUT
  2
AcDbWipeout
  3
WipeOut|AutoCAD Express Tool|expresstools@autodesk.com
 90
    32895
280
               0
281
               1
  0
CLASS
  1
WIPEOUTVARIABLES
  2
AcDbWipeoutVariables
  3
WipeOut|AutoCAD Express Tool|expresstools@autodesk.com
 90
        0
280
               0
281
               0
  0
CLASS
  1
RTEXT
  2
RText
  3
RText|AutoCAD Express Tool|expresstools@autodesk.com
 90
    32768
280
               0
281
               1
  0
CLASS
  1
ARCALIGNEDTEXT
  2
AcDbArcAlignedText
  3
ATEXT|AutoCAD Express Tool|expresstools@autodesk.com
 90
    32768
280
               0
281
               1
  0
ENDSEC
  0
SECTION
  2
TABLES
  0
TABLE
  2
VPORT
  5
7
100
AcDbSymbolTable
 70
               1
  0
VPORT
  5
15
100
AcDbSymbolTableRecord
100
AcDbViewportTableRecord
  2
*ACTIVE
 70
               0
 10
0.0
 20
0.0
 11
1.0
 21
1.0
 12
1403.1398570728529
 22
983.31820045920392
 13
0.0
 23
0.0
 14
1.0
 24
1.0
 15
0.0
 25
0.0
 16
0.0
 26
0.0
 36
1.0
 17
0.0
 27
0.0
 37
0.0
 40
1316.6364009184078
 41
0.688564
 42
50.0
 43
0.0
 44
0.0
 50
0.0
 51
0.0
 71
               0
 72
            2000
 73
               1
 74
               1
 75
               0
 76
               0
 77
               0
 78
               0
281
               0
 65
               0
110
0.0
120
0.0
130
0.0
111
1.0
121
0.0
131
0.0
112
0.0
122
1.0
132
0.0
345
0
346
0
 79
               0
146
0.0
  0
ENDTAB
  0
TABLE
  2
LTYPE
  5
4
100
AcDbSymbolTable
 70
              14
  0
LTYPE
  5
11
100
AcDbSymbolTableRecord
100
AcDbLinetypeTableRecord
  2
ByBlock
 70
              64
  3

 72
              65
 73
               0
 40
0.0
  0
LTYPE
  5
12
100
AcDbSymbolTableRecord
100
AcDbLinetypeTableRecord
  2
ByLayer
 70
              64
  3

 72
              65
 73
               0
 40
0.0
  0
LTYPE
  5
13
100
AcDbSymbolTableRecord
100
AcDbLinetypeTableRecord
  2
Continuous
 70
              64
  3
Solid line
 72
              65
 73
               0
 40
0.0
  0
LTYPE
  5
2B
100
AcDbSymbolTableRecord
100
AcDbLinetypeTableRecord
  2
STYLE_01
 70
               0
  3

 72
              65
 73
               2
 40
0.41664
 49
0.20828
 74
               0
 49
-0.20836
 74
               0
  0
LTYPE
  5
2C
100
AcDbSymbolTableRecord
100
AcDbLinetypeTableRecord
  2
STYLE_02
 70
               0
  3

 72
              65
 73
               2
 40
0.6944250000000001
 49
0.48607
 74
               0
 49
-0.2083550000000001
 74
               0
  0
LTYPE
  5
2D
100
AcDbSymbolTableRecord
100
AcDbLinetypeTableRecord
  2
STYLE_03
 70
               0
  3

 72
              65
 73
               2
 40
1.25
 49
1.0416400000000001
 74
               0
 49
-0.2083599999999999
 74
               0
  0
LTYPE
  5
2E
100
AcDbSymbolTableRecord
100
AcDbLinetypeTableRecord
  2
STYLE_04
 70
               0
  3

 72
              65
 73
               2
 40
1.5277099999999999
 49
1.3194249999999998
 74
               0
 49
-0.208285
 74
               0
  0
LTYPE
  5
2F
100
AcDbSymbolTableRecord
100
AcDbLinetypeTableRecord
  2
STYLE_05
 70
               0
  3

 72
              65
 73
               2
 40
0.20828
 49
0.069425
 74
               0
 49
-0.138855
 74
               0
  0
LTYPE
  5
30
100
AcDbSymbolTableRecord
100
AcDbLinetypeTableRecord
  2
STYLE_06
 70
               0
  3

 72
              65
 73
               4
 40
1.0416400000000001
 49
0.625
 74
               0
 49
-0.20828
 74
               0
 49
0.06943
 74
               0
 49
-0.13893
 74
               0
  0
LTYPE
  5
31
100
AcDbSymbolTableRecord
100
AcDbLinetypeTableRecord
  2
STYLE_07
 70
               0
  3

 72
              65
 73
               6
 40
1.875
 49
0.625
 74
               0
 49
-0.20828
 74
               0
 49
0.6250000000000001
 74
               0
 49
-0.2083599999999999
 74
               0
 49
0.06943
 74
               0
 49
-0.1389299999999999
 74
               0
  0
LTYPE
  5
32
100
AcDbSymbolTableRecord
100
AcDbLinetypeTableRecord
  2
STYLE_08
 70
               0
  3

 72
              65
 73
               6
 40
1.25
 49
0.625
 74
               0
 49
-0.20828
 74
               0
 49
0.06943
 74
               0
 49
-0.13893
 74
               0
 49
0.0694299999999999
 74
               0
 49
-0.13893
 74
               0
  0
LTYPE
  5
33
100
AcDbSymbolTableRecord
100
AcDbLinetypeTableRecord
  2
STYLE_09
 70
               0
  3

 72
              65
 73
               4
 40
5.0
 49
3.75
 74
               0
 49
-0.2777849999999998
 74
               0
 49
0.6944300000000003
 74
               0
 49
-0.2777849999999998
 74
               0
  0
LTYPE
  5
34
100
AcDbSymbolTableRecord
100
AcDbLinetypeTableRecord
  2
STYLE_10
 70
               0
  3

 72
              65
 73
               6
 40
5.9375
 49
3.75
 74
               0
 49
-0.2777849999999998
 74
               0
 49
0.6944300000000003
 74
               0
 49
-0.2777849999999998
 74
               0
 49
0.625
 74
               0
 49
-0.3125
 74
               0
  0
LTYPE
  5
35
100
AcDbSymbolTableRecord
100
AcDbLinetypeTableRecord
  2
STYLE_11
 70
               0
  3

 72
              65
 73
               4
 40
0.6
 49
0.375
 74
               0
 49
-0.075
 74
               0
 49
0.075
 74
               0
 49
-0.075
 74
               0
  0
ENDTAB
  0
TABLE
  2
LAYER
  5
2
100
AcDbSymbolTable
 70
               8
  0
LAYER
  5
14
100
AcDbSymbolTableRecord
100
AcDbLayerTableRecord
  2
0
 70
               0
 62
               7
  6
Continuous
290
               1
370
              15
390
1D
  0
LAYER
  5
36
100
AcDbSymbolTableRecord
100
AcDbLayerTableRecord
  2
一般
 70
               0
 62
               7
  6
Continuous
290
               1
370
               5
390
1D
  0
LAYER
  5
37
100
AcDbSymbolTableRecord
100
AcDbLayerTableRecord
  2
寸法
 70
               0
 62
               7
  6
Continuous
290
               1
370
               5
390
1D
  0
LAYER
  5
38
100
AcDbSymbolTableRecord
100
AcDbLayerTableRecord
  2
dim
 70
               0
 62
               3
  6
Continuous
290
               1
370
              15
390
1D
  0
LAYER
  5
39
100
AcDbSymbolTableRecord
100
AcDbLayerTableRecord
  2
CENTER
 70
               0
 62
               1
  6
STYLE_11
290
               1
370
              15
390
1D
  0
LAYER
  5
3A
100
AcDbSymbolTableRecord
100
AcDbLayerTableRecord
  2
補助グリッド
 70
               0
 62
             203
  6
Continuous
290
               1
370
              13
390
1D
  0
LAYER
  5
3B
100
AcDbSymbolTableRecord
100
AcDbLayerTableRecord
  2
KIKI
 70
               0
 62
               1
  6
Continuous
290
               1
370
              15
390
1D
  0
LAYER
  5
3C
100
AcDbSymbolTableRecord
100
AcDbLayerTableRecord
  2
KI
 70
               0
 62
               7
  6
Continuous
290
               1
370
              13
390
1D
  0
ENDTAB
  0
TABLE
  2
STYLE
  5
3
100
AcDbSymbolTable
 70
               3
  0
STYLE
  5
17
100
AcDbSymbolTableRecord
100
AcDbTextStyleTableRecord
  2
Standard
 70
               0
 40
0.0
 41
1.0
 50
0.0
 71
               0
 42
0.0
  3
txt
  4
BIGFONT.SHX
  0
STYLE
  5
29
100
AcDbSymbolTableRecord
100
AcDbTextStyleTableRecord
  2
Arial
 70
               0
 40
0.0
 41
1.0
 50
0.0
 71
               0
 42
0.0
  3

  4
Arial
1001
ACAD
1000
Arial
1071
        0
  0
STYLE
  5
2A
100
AcDbSymbolTableRecord
100
AcDbTextStyleTableRecord
  2
ＭＳ ゴシック
 70
               0
 40
0.0
 41
1.0
 50
0.0
 71
               0
 42
0.0
  3

  4
ＭＳ ゴシック
1001
ACAD
1000
ＭＳ ゴシック
1071
        0
  0
ENDTAB
  0
TABLE
  2
VIEW
  5
5
100
AcDbSymbolTable
 70
               0
  0
ENDTAB
  0
TABLE
  2
UCS
  5
6
100
AcDbSymbolTable
 70
               0
  0
ENDTAB
  0
TABLE
  2
APPID
  5
8
100
AcDbSymbolTable
 70
               1
  0
APPID
  5
16
100
AcDbSymbolTableRecord
100
AcDbRegAppTableRecord
  2
ACAD
 70
               0
  0
ENDTAB
  0
TABLE
  2
DIMSTYLE
  5
9
100
AcDbSymbolTable
 70
               1
100
AcDbDimStyleTable
 71
               0
  0
DIMSTYLE
105
18
100
AcDbSymbolTableRecord
100
AcDbDimStyleTableRecord
  2
Standard
 70
               0
  3

  4

 40
1.0
 41
0.18
 42
0.0625
 43
0.38
 44
0.18
 45
0.0
 46
0.0
 47
0.0
 48
0.0
 71
               0
 72
               0
 73
               1
 74
               1
 75
               0
 76
               0
 77
               0
 78
               0
 79
               0
140
0.18
141
0.09
142
0.0
143
25.399999999999999
144
1.0
145
0.0
146
1.0
147
0.09
148
0.0
170
               0
171
               2
172
               0
173
               0
174
               0
175
               0
176
               0
177
               0
178
               0
179
               0
271
               4
272
               4
273
               2
274
               2
275
               0
276
               0
277
               2
278
              46
279
               0
280
               0
281
               0
282
               0
283
               1
284
               0
285
               0
286
               0
288
               0
340
17
341
0
342
0
343
0
344
0
371
              -2
372
              -2
  0
ENDTAB
  0
TABLE
  2
BLOCK_RECORD
  5
1
100
AcDbSymbolTable
 70
               5
  0
BLOCK_RECORD
  5
A
100
AcDbSymbolTableRecord
100
AcDbBlockTableRecord
  2
*MODEL_SPACE
340
20
  0
BLOCK_RECORD
  5
B
100
AcDbSymbolTableRecord
100
AcDbBlockTableRecord
  2
*PAPER_SPACE
340
21
  0
BLOCK_RECORD
  5
24
100
AcDbSymbolTableRecord
100
AcDbBlockTableRecord
  2
グループ
340
0
102
{BLKREFS
331
4A
102
}
  0
BLOCK_RECORD
  5
25
100
AcDbSymbolTableRecord
100
AcDbBlockTableRecord
  2
scal 1_5
340
0
102
{BLKREFS
331
215
102
}
  0
BLOCK_RECORD
  5
26
100
AcDbSymbolTableRecord
100
AcDbBlockTableRecord
  2
グループ-1
340
0
102
{BLKREFS
331
260
102
}
  0
BLOCK_RECORD
  5
27
100
AcDbSymbolTableRecord
100
AcDbBlockTableRecord
  2
グループ-2
340
0
102
{BLKREFS
331
261
102
}
  0
BLOCK_RECORD
  5
28
100
AcDbSymbolTableRecord
100
AcDbBlockTableRecord
  2
グループ-3
340
0
102
{BLKREFS
331
262
102
}
  0
ENDTAB
  0
ENDSEC
  0
SECTION
  2
BLOCKS
  0
BLOCK
  5
D
100
AcDbEntity
  8
0
100
AcDbBlockBegin
  2
*MODEL_SPACE
 70
               0
 10
0.0
 20
0.0
 30
0.0
  3
*MODEL_SPACE
  1

  0
ENDBLK
  5
E
100
AcDbEntity
  8
0
100
AcDbBlockEnd
  0
BLOCK
  5
F
100
AcDbEntity
 67
               1
  8
0
100
AcDbBlockBegin
  2
*PAPER_SPACE
 70
               0
 10
0.0
 20
0.0
 30
0.0
  3
*PAPER_SPACE
  1

  0
ENDBLK
  5
10
100
AcDbEntity
 67
               1
  8
0
100
AcDbBlockEnd
  0
BLOCK
  5
3D
100
AcDbEntity
  8
一般
100
AcDbBlockBegin
  2
グループ
 70
               0
 10
0.0
 20
0.0
 30
0.0
  3
グループ
  1

  0
MTEXT
  5
3E
100
AcDbEntity
  8
一般
 62
               8
100
AcDbMText
 10
-61.590303983041849
 20
6.8342057291666851
 30
0.0
 40
8.1442057291666661
 41
7.3612159321675676
 71
               1
 72
               1
  1
0
  7
ＭＳ ゴシック
 73
               1
 44
0.7828267384257843
  0
MTEXT
  5
3F
100
AcDbEntity
  8
一般
 62
               8
100
AcDbMText
 10
-12.909696016958151
 20
6.8342057291666851
 30
0.0
 40
8.1442057291666661
 41
12.75
 71
               1
 72
               1
  1
50
  7
ＭＳ ゴシック
 73
               1
 44
0.7828267384257843
  0
MTEXT
  5
40
100
AcDbEntity
  8
一般
 62
               8
100
AcDbMText
 10
33.590303983041849
 20
6.8342057291666851
 30
0.0
 40
8.1442057291666661
 41
27.999999999999972
 71
               1
 72
               1
  1
100mm
  7
ＭＳ ゴシック
 73
               1
 44
0.7828267384257843
  0
LINE
  5
41
100
AcDbEntity
  8
寸法
370
              15
 62
               8
100
AcDbLine
 10
-7.9096960169581507
 20
-2.7916666666666288
 30
0.0
 11
-7.9096960169581507
 21
-7.7916666666666288
 31
0.0
  0
POLYLINE
  5
42
100
AcDbEntity
  8
一般
370
              15
  6
Continuous
 62
               9
100
AcDb2dPolyline
 66
               1
 10
0.0
 20
0.0
 30
0.0
 75
               5
  0
VERTEX
  5
43
100
AcDbEntity
  8
一般
370
              15
  6
Continuous
 62
               9
100
AcDbVertex
100
AcDb2dVertex
 10
-57.909696016958037
 20
-2.7916666666666288
 30
0.0
  0
VERTEX
  5
44
100
AcDbEntity
  8
一般
370
              15
  6
Continuous
 62
               9
100
AcDbVertex
100
AcDb2dVertex
 10
-57.909696016958151
 20
-7.7916666666666288
 30
0.0
  0
VERTEX
  5
45
100
AcDbEntity
  8
一般
370
              15
  6
Continuous
 62
               9
100
AcDbVertex
100
AcDb2dVertex
 10
42.090303983041849
 20
-7.7916666666666288
 30
0.0
  0
VERTEX
  5
46
100
AcDbEntity
  8
一般
370
              15
  6
Continuous
 62
               9
100
AcDbVertex
100
AcDb2dVertex
 10
42.090303983041849
 20
-2.7916666666666288
 30
0.0
  0
SEQEND
  5
47
100
AcDbEntity
  8
一般
370
              15
  6
Continuous
 62
               9
  0
ENDBLK
  5
48
100
AcDbEntity
  8
一般
100
AcDbBlockEnd
  0
BLOCK
  5
49
100
AcDbEntity
  8
一般
100
AcDbBlockBegin
  2
scal 1_5
 70
               0
 10
0.0
 20
0.0
 30
0.0
  3
scal 1_5
  1

  0
INSERT
  5
4A
100
AcDbEntity
  8
一般
 62
               7
100
AcDbBlockReference
  2
グループ
 10
0.0
 20
0.0
 30
0.0
  0
ENDBLK
  5
4B
100
AcDbEntity
  8
一般
100
AcDbBlockEnd
  0
BLOCK
  5
4C
100
AcDbEntity
  8
一般
100
AcDbBlockBegin
  2
グループ-1
 70
               0
 10
0.0
 20
0.0
 30
0.0
  3
グループ-1
  1

  0
LINE
  5
4D
100
AcDbEntity
  8
一般
370
              15
  6
Continuous
 62
               7
100
AcDbLine
 10
-309.1308530981421
 20
584.51725401653835
 30
0.0
 11
-293.3691469018583
 21
568.75554782025449
 31
0.0
  0
LINE
  5
4E
100
AcDbEntity
  8
一般
370
              15
  6
Continuous
 62
               7
100
AcDbLine
 10
-293.3691469018583
 20
584.51725401653835
 30
0.0
 11
-309.1308530981421
 21
568.75554782025449
 31
0.0
  0
ENDBLK
  5
4F
100
AcDbEntity
  8
一般
100
AcDbBlockEnd
  0
BLOCK
  5
50
100
AcDbEntity
  8
一般
100
AcDbBlockBegin
  2
グループ-2
 70
               0
 10
0.0
 20
0.0
 30
0.0
  3
グループ-2
  1

  0
LINE
  5
51
100
AcDbEntity
  8
一般
370
              15
  6
Continuous
 62
               7
100
AcDbLine
 10
212.1191469018581
 20
-622.11914690185813
 30
0.0
 11
227.8808530981419
 21
-637.88085309814187
 31
0.0
  0
LINE
  5
52
100
AcDbEntity
  8
一般
370
              15
  6
Continuous
 62
               7
100
AcDbLine
 10
227.8808530981419
 20
-622.11914690185813
 30
0.0
 11
212.1191469018581
 21
-637.88085309814187
 31
0.0
  0
ENDBLK
  5
53
100
AcDbEntity
  8
一般
100
AcDbBlockEnd
  0
BLOCK
  5
54
100
AcDbEntity
  8
一般
100
AcDbBlockBegin
  2
グループ-3
 70
               0
 10
0.0
 20
0.0
 30
0.0
  3
グループ-3
  1

  0
LINE
  5
55
100
AcDbEntity
  8
一般
370
              15
  6
Continuous
 62
               7
100
AcDbLine
 10
-309.13085309814198
 20
-622.11914690185813
 30
0.0
 11
-293.36914690185824
 21
-637.88085309814187
 31
0.0
  0
LINE
  5
56
100
AcDbEntity
  8
一般
370
              15
  6
Continuous
 62
               7
100
AcDbLine
 10
-293.36914690185824
 20
-622.11914690185813
 30
0.0
 11
-309.13085309814198
 21
-637.88085309814187
 31
0.0
  0
ENDBLK
  5
57
100
AcDbEntity
  8
一般
100
AcDbBlockEnd
  0
ENDSEC
  0
SECTION
  2
ENTITIES
  0
LWPOLYLINE
  5
58
100
AcDbEntity
  8
一般
370
               5
  6
Continuous
 62
               7
100
AcDbPolyline
 90
        3
 70
             128
 10
1651.0
 20
961.0708155052148
 10
1646.030597082417
 20
966.04021842279781
 10
1651.0
 20
971.0096213403807
  0
LWPOLYLINE
  5
59
100
AcDbEntity
  8
一般
370
               5
  6
Continuous
 62
               7
100
AcDbPolyline
 90
        4
 70
             128
 10
1651.0
 20
963.69100693914504
 10
1647.1147604003099
 20
967.78448222965062
 10
1646.3894458920695
 20
967.09606457725067
 10
1651.0
 20
962.23840037608841
  0
LWPOLYLINE
  5
5A
100
AcDbEntity
  8
一般
370
               5
  6
Continuous
 62
               7
100
AcDbPolyline
 90
        4
 70
             128
 10
1651.0
 20
966.59523112365196
 10
1648.5289739626833
 20
969.19869579202373
 10
1647.8036594544424
 20
968.51027813962401
 10
1651.0
 20
965.1426245605951
  0
LWPOLYLINE
  5
5B
100
AcDbEntity
  8
一般
370
               5
  6
Continuous
 62
               7
100
AcDbPolyline
 90
        4
 70
             128
 10
1651.0
 20
969.49945530815842
 10
1649.9431875250561
 20
970.61290935439683
 10
1649.2178730168157
 20
969.92449170199689
 10
1651.0
 20
968.04684874510178
  0
LWPOLYLINE
  5
5C
100
AcDbEntity
  8
一般
370
              15
100
AcDbPolyline
 90
       12
 70
             128
 10
1139.75
 20
1062.0
 10
1135.75
 20
1062.0
 10
1135.75
 20
1046.0
 10
1079.75
 20
1046.0
 42
-0.414213562373095
 10
1077.75
 20
1048.0
 10
1077.75
 20
1067.0
 10
1039.75
 20
1067.0
 10
1039.75
 20
982.0
 10
1077.75
 20
982.0
 10
1077.75
 20
1006.0
 42
-0.414213562373095
 10
1079.75
 20
1008.0
 10
1135.8643934958382
 20
1008.0
  0
LWPOLYLINE
  5
5D
100
AcDbEntity
  8
一般
370
              15
100
AcDbPolyline
 90
       12
 70
             128
 10
1157.75
 20
1062.0
 10
1161.75
 20
1062.0
 10
1161.75
 20
1046.0
 10
1217.75
 20
1046.0
 42
0.414213562373095
 10
1219.75
 20
1048.0
 10
1219.75
 20
1067.0
 10
1257.75
 20
1067.0
 10
1257.75
 20
982.0
 10
1219.75
 20
982.0
 10
1219.75
 20
1006.0
 42
0.414213562373095
 10
1217.75
 20
1008.0
 10
1161.7499999999864
 20
1008.0
  0
LWPOLYLINE
  5
5E
100
AcDbEntity
  8
一般
370
              15
100
AcDbPolyline
 90
        7
 70
             128
 10
1139.75
 20
1062.0
 10
1135.75
 20
1062.0
 10
1135.75
 20
1268.9999999999991
 42
-0.414213562373095
 10
1148.75
 20
1281.9999999999991
 42
-0.414213562373095
 10
1161.75
 20
1268.9999999999991
 10
1161.75
 20
1062.0
 10
1157.75
 20
1062.0
  0
SPLINE
  5
5F
100
AcDbEntity
  8
一般
370
              15
100
AcDbSpline
210
0.0
220
0.0
230
1.0
 70
               9
 71
               2
 72
              17
 73
              14
 74
               0
 42
0.000001
 43
0.000001
 40
0.0
 40
0.0
 40
0.0
 40
1.0
 40
2.0
 40
3.0
 40
4.0
 40
5.0
 40
6.0
 40
7.0
 40
8.0
 40
9.0
 40
10.0
 40
11.0
 40
12.0
 40
12.0
 40
12.0
 10
1142.25
 20
1175.6639050856722
 30
0.0
 10
1145.2666604983954
 20
1176.1328161724268
 30
0.0
 10
1152.2333395016044
 20
1176.1328161724268
 30
0.0
 10
1158.2666604983954
 20
1175.1949939989179
 30
0.0
 10
1161.75
 20
1173.5706383459355
 30
0.0
 10
1161.75
 20
1171.6949939989179
 30
0.0
 10
1158.2666604983954
 20
1170.0706383459355
 30
0.0
 10
1152.2333395016044
 20
1169.1328161724268
 30
0.0
 10
1145.2666604983954
 20
1169.1328161724268
 30
0.0
 10
1139.2333395016044
 20
1170.0706383459355
 30
0.0
 10
1135.75
 20
1171.6949939989179
 30
0.0
 10
1135.75
 20
1173.5706383459355
 30
0.0
 10
1139.2333395016044
 20
1175.1949939989179
 30
0.0
 10
1142.25
 20
1175.6639050856722
 30
0.0
  0
SPLINE
  5
60
100
AcDbEntity
  8
一般
370
              15
100
AcDbSpline
210
0.0
220
0.0
230
1.0
 70
               8
 71
               2
 72
              16
 73
              13
 74
               0
 42
0.000001
 43
0.000001
 40
0.0
 40
0.0
 40
0.0
 40
1.0
 40
1.0
 40
2.0
 40
3.0
 40
4.0
 40
5.0
 40
6.0
 40
7.0
 40
8.0
 40
9.0
 40
10.0
 40
10.0
 40
10.0
 10
1154.0979162546537
 20
1175.7817376617054
 30
0.0
 10
1155.5947409951846
 20
1175.48304897964
 30
0.0
 10
1156.5442286340599
 20
1175.0353629754572
 30
0.0
 10
1157.75
 20
1174.4668384969136
 30
0.0
 10
1157.75
 20
1173.1538874540011
 30
0.0
 10
1155.3384572681198
 20
1172.0168384969136
 30
0.0
 10
1151.1615427318802
 20
1171.3603629754575
 30
0.0
 10
1146.3384572681198
 20
1171.3603629754575
 30
0.0
 10
1142.1615427318802
 20
1172.0168384969136
 30
0.0
 10
1139.75
 20
1173.1538874540011
 30
0.0
 10
1139.75
 20
1174.4668384969136
 30
0.0
 10
1141.8720075812084
 20
1175.4673708429705
 30
0.0
 10
1143.4500000000003
 20
1175.790487285683
 30
0.0
  0
SPLINE
  5
61
100
AcDbEntity
  8
一般
370
              15
100
AcDbSpline
210
0.0
220
0.0
230
1.0
 70
               8
 71
               2
 72
              12
 73
               9
 74
               0
 42
0.000001
 43
0.000001
 40
0.0
 40
0.0
 40
0.0
 40
1.0
 40
2.0
 40
3.0
 40
4.0
 40
5.0
 40
6.0
 40
7.0
 40
7.0
 40
7.0
 10
1135.75
 20
1193.7956084186935
 30
0.0
 10
1135.75
 20
1193.4916594632673
 30
0.0
 10
1135.75
 20
1194.7334305922025
 30
0.0
 10
1139.2333395016049
 20
1196.3577862451846
 30
0.0
 10
1145.2666604983956
 20
1197.2956084186935
 30
0.0
 10
1152.2333395016049
 20
1197.2956084186935
 30
0.0
 10
1158.2666604983956
 20
1196.3577862451846
 30
0.0
 10
1161.1855233684942
 20
1194.9966581090555
 30
0.0
 10
1161.75
 20
1193.7956084186935
 30
0.0
  0
LWPOLYLINE
  5
62
100
AcDbEntity
  8
一般
370
              15
100
AcDbPolyline
 90
        5
 70
             128
 10
1472.6661437266889
 20
1197.3768404730195
 10
1466.680492365535
 20
1176.2067677810633
 10
1491.6996691833017
 20
1169.1328161724268
 10
1497.6853205444556
 20
1190.302888864383
 10
1472.6661437266889
 20
1197.3768404730195
  0
POLYLINE
  5
63
100
AcDbEntity
  8
一般
370
              15
100
AcDb2dPolyline
 66
               1
 10
0.0
 20
0.0
 30
0.0
 75
               5
  0
VERTEX
  5
64
100
AcDbEntity
  8
一般
370
              15
100
AcDbVertex
100
AcDb2dVertex
 10
1472.6849020954999
 20
1197.4431851375098
 30
0.0
  0
VERTEX
  5
65
100
AcDbEntity
  8
一般
370
              15
100
AcDbVertex
100
AcDb2dVertex
 10
1474.2338501720249
 20
1202.921510117962
 30
0.0
  0
SEQEND
  5
66
100
AcDbEntity
  8
一般
370
              15
  0
POLYLINE
  5
67
100
AcDbEntity
  8
一般
370
              15
100
AcDb2dPolyline
 66
               1
 10
0.0
 20
0.0
 30
0.0
 75
               5
  0
VERTEX
  5
68
100
AcDbEntity
  8
一般
370
              15
100
AcDbVertex
100
AcDb2dVertex
 10
1472.6661437266889
 20
1197.3768404730195
 30
0.0
  0
VERTEX
  5
69
100
AcDbEntity
  8
一般
370
              15
100
AcDbVertex
100
AcDb2dVertex
 10
1472.6661437266889
 20
1197.3768404730195
 30
0.0
  0
VERTEX
  5
6A
100
AcDbEntity
  8
一般
370
              15
100
AcDbVertex
100
AcDb2dVertex
 10
1472.6849020954999
 20
1197.4431851375098
 30
0.0
  0
SEQEND
  5
6B
100
AcDbEntity
  8
一般
370
              15
  0
POLYLINE
  5
6C
100
AcDbEntity
  8
一般
370
              15
100
AcDb2dPolyline
 66
               1
 10
0.0
 20
0.0
 30
0.0
 75
               5
  0
VERTEX
  5
6D
100
AcDbEntity
  8
一般
370
              15
100
AcDbVertex
100
AcDb2dVertex
 10
1498.2294706681969
 20
1192.2274409272882
 30
0.0
  0
VERTEX
  5
6E
100
AcDbEntity
  8
一般
370
              15
100
AcDbVertex
100
AcDb2dVertex
 10
1497.6853205444556
 20
1190.302888864383
 30
0.0
  0
VERTEX
  5
6F
100
AcDbEntity
  8
一般
370
              15
100
AcDbVertex
100
AcDb2dVertex
 10
1472.6661437266889
 20
1197.3768404730195
 30
0.0
  0
SEQEND
  5
70
100
AcDbEntity
  8
一般
370
              15
  0
LINE
  5
71
100
AcDbEntity
  8
一般
370
              15
100
AcDbLine
 10
1657.0
 20
1067.0
 30
0.0
 11
1657.0
 21
1180.6692288743866
 31
0.0
  0
LWPOLYLINE
  5
72
100
AcDbEntity
  8
一般
370
              15
100
AcDbPolyline
 90
        4
 70
             128
 10
1683.0
 20
1096.5
 10
1683.0
 20
1182.0
 42
0.375693133008183
 10
1585.7241715137225
 20
1282.326229281156
 42
0.3655682737497202
 10
1474.233850172031
 20
1202.9215101179859
 42
0.3655682737497202
  0
POLYLINE
  5
73
100
AcDbEntity
  8
一般
370
              15
100
AcDb2dPolyline
 66
               1
 10
0.0
 20
0.0
 30
0.0
 75
               5
  0
VERTEX
  5
74
100
AcDbEntity
  8
一般
370
              15
100
AcDbVertex
100
AcDb2dVertex
 10
1656.8424814865075
 20
982.0
 30
0.0
  0
VERTEX
  5
75
100
AcDbEntity
  8
一般
370
              15
100
AcDbVertex
100
AcDb2dVertex
 10
1651.0
 20
982.0
 30
0.0
  0
VERTEX
  5
76
100
AcDbEntity
  8
一般
370
              15
100
AcDbVertex
100
AcDb2dVertex
 10
1651.0
 20
986.27813109469287
 30
0.0
  0
SEQEND
  5
77
100
AcDbEntity
  8
一般
370
              15
  0
POLYLINE
  5
78
100
AcDbEntity
  8
一般
370
              15
100
AcDb2dPolyline
 66
               1
 10
0.0
 20
0.0
 30
0.0
 75
               5
  0
VERTEX
  5
79
100
AcDbEntity
  8
一般
370
              15
100
AcDbVertex
100
AcDb2dVertex
 10
1651.0
 20
1017.99125931908
 30
0.0
  0
VERTEX
  5
7A
100
AcDbEntity
  8
一般
370
              15
100
AcDbVertex
100
AcDb2dVertex
 10
1651.0
 20
1067.0
 30
0.0
  0
VERTEX
  5
7B
100
AcDbEntity
  8
一般
370
              15
100
AcDbVertex
100
AcDb2dVertex
 10
1689.0
 20
1067.0
 30
0.0
  0
VERTEX
  5
7C
100
AcDbEntity
  8
一般
370
              15
100
AcDbVertex
100
AcDb2dVertex
 10
1689.0
 20
982.0
 30
0.0
  0
VERTEX
  5
7D
100
AcDbEntity
  8
一般
370
              15
100
AcDbVertex
100
AcDb2dVertex
 10
1681.7617022984361
 20
982.0
 30
0.0
  0
SEQEND
  5
7E
100
AcDbEntity
  8
一般
370
              15
  0
SPLINE
  5
7F
100
AcDbEntity
  8
一般
370
              15
100
AcDbSpline
210
0.0
220
0.0
230
1.0
 70
               8
 71
               2
 72
               6
 73
               3
 74
               0
 42
0.000001
 43
0.000001
 40
0.0
 40
0.0
 40
0.0
 40
1.0
 40
1.0
 40
1.0
 10
1078.708041255431
 20
1046.0
 30
0.0
 10
1069.2513253757265
 20
1029.6204876236084
 30
0.0
 10
1077.9646825316431
 20
1007.856722329243
 30
0.0
  0
SPLINE
  5
80
100
AcDbEntity
  8
一般
370
              15
100
AcDbSpline
210
0.0
220
0.0
230
1.0
 70
               8
 71
               2
 72
               6
 73
               3
 74
               0
 42
0.000001
 43
0.000001
 40
0.0
 40
0.0
 40
0.0
 40
1.0
 40
1.0
 40
1.0
 10
1220.9482464040302
 20
1046.0
 30
0.0
 10
1230.4049622837347
 20
1029.6204876236084
 30
0.0
 10
1221.6916051278181
 20
1007.856722329243
 30
0.0
  0
SPLINE
  5
81
100
AcDbEntity
  8
一般
370
              15
  6
Continuous
 62
               7
100
AcDbSpline
210
0.0
220
0.0
230
1.0
 70
               8
 71
               2
 72
              10
 73
               7
 74
               0
 42
0.000001
 43
0.000001
 40
0.0
 40
0.0
 40
0.0
 40
1.0
 40
1.0
 40
2.0
 40
2.0
 40
3.0
 40
3.0
 40
3.0
 10
1135.7499999999864
 20
966.42344954073701
 30
0.0
 10
1135.7499999999864
 20
987.21172477036851
 30
0.0
 10
1135.7499999999864
 20
1008.0
 30
0.0
 10
1135.7552948657694
 20
1008.0
 30
0.0
 10
1135.7605897315525
 20
1008.0
 30
0.0
 10
1135.7499999999864
 20
1016.2046003794601
 30
0.0
 10
1139.8360027466574
 20
1016.2046003794601
 30
0.0
  0
SPLINE
  5
82
100
AcDbEntity
  8
一般
370
              15
  6
Continuous
 62
               7
100
AcDbSpline
210
0.0
220
0.0
230
1.0
 70
               8
 71
               2
 72
              10
 73
               7
 74
               0
 42
0.000001
 43
0.000001
 40
0.0
 40
0.0
 40
0.0
 40
1.0
 40
1.0
 40
2.0
 40
2.0
 40
3.0
 40
3.0
 40
3.0
 10
1161.7499999999864
 20
966.42344954073701
 30
0.0
 10
1161.7499999999864
 20
987.21172477036851
 30
0.0
 10
1161.7499999999864
 20
1008.0
 30
0.0
 10
1161.7299042407694
 20
1008.0
 30
0.0
 10
1161.7098084815525
 20
1008.0
 30
0.0
 10
1161.7500000000132
 20
1016.2046003794601
 30
0.0
 10
1157.6639972533421
 20
1016.2046003794601
 30
0.0
  0
ARC
  5
83
100
AcDbEntity
  8
一般
370
              15
  6
Continuous
 62
               7
100
AcDbCircle
 10
1148.75
 20
1027.0
 30
0.0
 40
13.999999999999995
100
AcDbArc
 50
116.51477463425886
 51
64.627849770570705
  0
LWPOLYLINE
  5
84
100
AcDbEntity
  8
一般
370
              15
  6
Continuous
 62
               7
100
AcDbPolyline
 90
        8
 70
             128
 10
1142.4999999999998
 20
1038.9660979437742
 42
0.1773615950458675
 10
1136.25
 20
1032.0990195135928
 10
1136.25
 20
1021.900980486407
 10
1136.25
 20
1021.9009804864068
 42
0.3048167276621753
 10
1148.7499999999998
 20
1013.4999999999998
 42
0.3048167276621704
 10
1161.25
 20
1021.900980486407
 10
1161.25
 20
1032.0990195135926
 42
0.1827478422857823
 10
1154.7489439774577
 20
1039.0939104988965
 42
0.1827478422857823
  0
SPLINE
  5
85
100
AcDbEntity
  8
一般
370
              15
100
AcDbSpline
210
0.0
220
0.0
230
1.0
 70
               8
 71
               2
 72
               6
 73
               3
 74
               0
 42
0.000001
 43
0.000001
 40
0.0
 40
0.0
 40
0.0
 40
1.0
 40
1.0
 40
1.0
 10
1135.75
 20
1046.0
 30
0.0
 10
1139.1707488184768
 20
1044.1904734510956
 30
0.0
 10
1142.5000060799603
 20
1043.2662266153504
 30
0.0
  0
SPLINE
  5
86
100
AcDbEntity
  8
一般
370
              15
100
AcDbSpline
210
0.0
220
0.0
230
1.0
 70
               8
 71
               2
 72
               6
 73
               3
 74
               0
 42
0.000001
 43
0.000001
 40
0.0
 40
0.0
 40
0.0
 40
1.0
 40
1.0
 40
1.0
 10
1154.7489417954223
 20
1042.9327855355195
 30
0.0
 10
1158.3650044833632
 20
1043.7893452113776
 30
0.0
 10
1161.8609927238131
 20
1045.8077549630852
 30
0.0
  0
POLYLINE
  5
87
100
AcDbEntity
  8
一般
370
              15
100
AcDb2dPolyline
 66
               1
 10
0.0
 20
0.0
 30
0.0
 70
               1
 75
               5
  0
VERTEX
  5
88
100
AcDbEntity
  8
一般
370
              15
100
AcDbVertex
100
AcDb2dVertex
 10
1139.75
 20
1115.7499999999998
 30
0.0
  0
VERTEX
  5
89
100
AcDbEntity
  8
一般
370
              15
100
AcDbVertex
100
AcDb2dVertex
 10
1157.75
 20
1115.7499999999998
 30
0.0
  0
VERTEX
  5
8A
100
AcDbEntity
  8
一般
370
              15
100
AcDbVertex
100
AcDb2dVertex
 10
1157.75
 20
1045.7499999999998
 30
0.0
  0
VERTEX
  5
8B
100
AcDbEntity
  8
一般
370
              15
100
AcDbVertex
100
AcDb2dVertex
 10
1139.75
 20
1045.7499999999998
 30
0.0
  0
SEQEND
  5
8C
100
AcDbEntity
  8
一般
370
              15
  0
LWPOLYLINE
  5
8D
100
AcDbEntity
  8
一般
370
              15
100
AcDbPolyline
 90
        6
 70
             129
 10
1155.0
 20
1026.9999999999998
 42
-0.414213562373095
 10
1148.75
 20
1020.7499999999998
 42
-0.414213562373095
 10
1142.5
 20
1026.9999999999998
 10
1142.5
 20
1045.9539782337752
 10
1154.7489439774577
 20
1045.9539782337752
 10
1154.7489439774577
 20
1028.7536165930244
 42
-0.0712192792764001
  0
LINE
  5
8E
100
AcDbEntity
  8
一般
370
               5
  6
Continuous
 62
               7
100
AcDbLine
 10
1138.7499999999864
 20
981.0
 30
0.0
 11
1158.7499999999864
 21
981.0
 31
0.0
  0
LWPOLYLINE
  5
8F
100
AcDbEntity
  8
一般
370
              15
  6
Continuous
 62
               7
100
AcDbPolyline
 90
        6
 70
             128
 10
1257.75
 20
963.5
 10
1257.75
 20
957.0
 10
1219.75
 20
957.0
 10
1219.75
 20
982.0
 10
1257.75
 20
982.0
 10
1257.75
 20
975.5
  0
POLYLINE
  5
90
100
AcDbEntity
  8
一般
370
              15
  6
Continuous
 62
               7
100
AcDb2dPolyline
 66
               1
 10
0.0
 20
0.0
 30
0.0
 70
               1
 75
               5
  0
VERTEX
  5
91
100
AcDbEntity
  8
一般
370
              15
  6
Continuous
 62
               7
100
AcDbVertex
100
AcDb2dVertex
 10
1039.75
 20
982.0
 30
0.0
  0
VERTEX
  5
92
100
AcDbEntity
  8
一般
370
              15
  6
Continuous
 62
               7
100
AcDbVertex
100
AcDb2dVertex
 10
1077.75
 20
982.0
 30
0.0
  0
VERTEX
  5
93
100
AcDbEntity
  8
一般
370
              15
  6
Continuous
 62
               7
100
AcDbVertex
100
AcDb2dVertex
 10
1077.75
 20
957.0
 30
0.0
  0
VERTEX
  5
94
100
AcDbEntity
  8
一般
370
              15
  6
Continuous
 62
               7
100
AcDbVertex
100
AcDb2dVertex
 10
1039.75
 20
957.0
 30
0.0
  0
SEQEND
  5
95
100
AcDbEntity
  8
一般
370
              15
  6
Continuous
 62
               7
  0
LINE
  5
96
100
AcDbEntity
  8
一般
370
              15
  6
Continuous
 62
               7
100
AcDbLine
 10
1295.0289283894681
 20
977.5
 30
0.0
 11
1279.75
 21
977.5
 31
0.0
  0
POLYLINE
  5
97
100
AcDbEntity
  8
一般
370
              15
  6
Continuous
 62
               7
100
AcDb2dPolyline
 66
               1
 10
0.0
 20
0.0
 30
0.0
 75
               5
  0
VERTEX
  5
98
100
AcDbEntity
  8
一般
370
              15
  6
Continuous
 62
               7
100
AcDbVertex
100
AcDb2dVertex
 10
1307.75
 20
969.2600782438908
 30
0.0
  0
VERTEX
  5
99
100
AcDbEntity
  8
一般
370
              15
  6
Continuous
 62
               7
100
AcDbVertex
100
AcDb2dVertex
 10
1307.75
 20
961.5
 30
0.0
  0
VERTEX
  5
9A
100
AcDbEntity
  8
一般
370
              15
  6
Continuous
 62
               7
100
AcDbVertex
100
AcDb2dVertex
 10
1302.7789283894679
 20
961.5
 30
0.0
  0
SEQEND
  5
9B
100
AcDbEntity
  8
一般
370
              15
  6
Continuous
 62
               7
  0
POLYLINE
  5
9C
100
AcDbEntity
  8
一般
370
              15
  6
Continuous
 62
               7
100
AcDb2dPolyline
 66
               1
 10
0.0
 20
0.0
 30
0.0
 75
               5
  0
VERTEX
  5
9D
100
AcDbEntity
  8
一般
370
              15
  6
Continuous
 62
               7
100
AcDbVertex
100
AcDb2dVertex
 10
1307.75
 20
973.2399217561092
 30
0.0
  0
VERTEX
  5
9E
100
AcDbEntity
  8
一般
370
              15
  6
Continuous
 62
               7
100
AcDbVertex
100
AcDb2dVertex
 10
1307.75
 20
977.5
 30
0.0
  0
VERTEX
  5
9F
100
AcDbEntity
  8
一般
370
              15
  6
Continuous
 62
               7
100
AcDbVertex
100
AcDb2dVertex
 10
1295.0289283894681
 20
977.5
 30
0.0
  0
SEQEND
  5
A0
100
AcDbEntity
  8
一般
370
              15
  6
Continuous
 62
               7
  0
LINE
  5
A1
100
AcDbEntity
  8
一般
370
              15
  6
Continuous
 62
               7
100
AcDbLine
 10
1279.75
 20
977.5
 30
0.0
 11
1279.75
 21
975.5
 31
0.0
  0
POLYLINE
  5
A2
100
AcDbEntity
  8
一般
370
              15
  6
Continuous
 62
               7
100
AcDb2dPolyline
 66
               1
 10
0.0
 20
0.0
 30
0.0
 75
               5
  0
VERTEX
  5
A3
100
AcDbEntity
  8
一般
370
              15
  6
Continuous
 62
               7
100
AcDbVertex
100
AcDb2dVertex
 10
1279.75
 20
963.5
 30
0.0
  0
VERTEX
  5
A4
100
AcDbEntity
  8
一般
370
              15
  6
Continuous
 62
               7
100
AcDbVertex
100
AcDb2dVertex
 10
1279.75
 20
961.5
 30
0.0
  0
VERTEX
  5
A5
100
AcDbEntity
  8
一般
370
              15
  6
Continuous
 62
               7
100
AcDbVertex
100
AcDb2dVertex
 10
1295.0289283894681
 20
961.5
 30
0.0
  0
SEQEND
  5
A6
100
AcDbEntity
  8
一般
370
              15
  6
Continuous
 62
               7
  0
LWPOLYLINE
  5
A7
100
AcDbEntity
  8
一般
370
              15
  6
Continuous
 62
               7
100
AcDbPolyline
 90
        2
 70
             128
 10
1257.75
 20
975.5
 10
1279.6000000000001
 20
975.5
  0
LWPOLYLINE
  5
A8
100
AcDbEntity
  8
一般
370
              15
  6
Continuous
 62
               7
100
AcDbPolyline
 90
        3
 70
             128
 10
1279.6000000000001
 20
963.5
 10
1279.75
 20
963.5
 10
1257.75
 20
963.5
  0
POLYLINE
  5
A9
100
AcDbEntity
  8
一般
370
              15
  6
Continuous
 62
               7
100
AcDb2dPolyline
 66
               1
 10
0.0
 20
0.0
 30
0.0
 75
               5
  0
VERTEX
  5
AA
100
AcDbEntity
  8
一般
370
              15
  6
Continuous
 62
               7
100
AcDbVertex
100
AcDb2dVertex
 10
1279.7499999999388
 20
975.49999999511238
 30
0.0
  0
VERTEX
  5
AB
100
AcDbEntity
  8
一般
370
              15
  6
Continuous
 62
               7
100
AcDbVertex
100
AcDb2dVertex
 10
1279.75
 20
975.5
 30
0.0
  0
VERTEX
  5
AC
100
AcDbEntity
  8
一般
370
              15
  6
Continuous
 62
               7
100
AcDbVertex
100
AcDb2dVertex
 10
1279.6000000000001
 20
975.5
 30
0.0
  0
SEQEND
  5
AD
100
AcDbEntity
  8
一般
370
              15
  6
Continuous
 62
               7
  0
ARC
  5
AE
100
AcDbEntity
  8
一般
370
              15
  6
Continuous
 62
               7
100
AcDbCircle
 10
1269.3576951545865
 20
969.5
 30
0.0
 40
12.000000000000197
100
AcDbArc
 50
330.00000000000063
 51
29.999999999999492
  0
ARC
  5
AF
100
AcDbEntity
  8
一般
370
              15
  6
Continuous
 62
               7
100
AcDbCircle
 10
1268.1423048454135
 20
969.5
 30
0.0
 40
12.000000000000197
100
AcDbArc
 50
150.00000000000054
 51
209.99999999999946
  0
POLYLINE
  5
B0
100
AcDbEntity
  8
一般
370
              15
  6
Continuous
 62
               7
100
AcDb2dPolyline
 66
               1
 10
0.0
 20
0.0
 30
0.0
 75
               5
  0
VERTEX
  5
B1
100
AcDbEntity
  8
一般
370
              15
  6
Continuous
 62
               7
100
AcDbVertex
100
AcDb2dVertex
 10
1656.8424814865075
 20
982.0
 30
0.0
  0
VERTEX
  5
B2
100
AcDbEntity
  8
一般
370
              15
  6
Continuous
 62
               7
100
AcDbVertex
100
AcDb2dVertex
 10
1651.0
 20
982.0
 30
0.0
  0
VERTEX
  5
B3
100
AcDbEntity
  8
一般
370
              15
  6
Continuous
 62
               7
100
AcDbVertex
100
AcDb2dVertex
 10
1651.0
 20
957.0
 30
0.0
  0
VERTEX
  5
B4
100
AcDbEntity
  8
一般
370
              15
  6
Continuous
 62
               7
100
AcDbVertex
100
AcDb2dVertex
 10
1662.4232979737935
 20
957.0
 30
0.0
  0
SEQEND
  5
B5
100
AcDbEntity
  8
一般
370
              15
  6
Continuous
 62
               7
  0
POLYLINE
  5
B6
100
AcDbEntity
  8
一般
370
              15
  6
Continuous
 62
               7
100
AcDb2dPolyline
 66
               1
 10
0.0
 20
0.0
 30
0.0
 75
               5
  0
VERTEX
  5
B7
100
AcDbEntity
  8
一般
370
              15
  6
Continuous
 62
               7
100
AcDbVertex
100
AcDb2dVertex
 10
1681.7617022984361
 20
982.0
 30
0.0
  0
VERTEX
  5
B8
100
AcDbEntity
  8
一般
370
              15
  6
Continuous
 62
               7
100
AcDbVertex
100
AcDb2dVertex
 10
1689.0
 20
982.0
 30
0.0
  0
VERTEX
  5
B9
100
AcDbEntity
  8
一般
370
              15
  6
Continuous
 62
               7
100
AcDbVertex
100
AcDb2dVertex
 10
1689.0
 20
957.0
 30
0.0
  0
VERTEX
  5
BA
100
AcDbEntity
  8
一般
370
              15
  6
Continuous
 62
               7
100
AcDbVertex
100
AcDb2dVertex
 10
1677.5860305111682
 20
957.0
 30
0.0
  0
SEQEND
  5
BB
100
AcDbEntity
  8
一般
370
              15
  6
Continuous
 62
               7
  0
POLYLINE
  5
BC
100
AcDbEntity
  8
一般
370
              15
  6
Continuous
 62
               7
100
AcDb2dPolyline
 66
               1
 10
0.0
 20
0.0
 30
0.0
 75
               5
  0
VERTEX
  5
BD
100
AcDbEntity
  8
一般
370
              15
  6
Continuous
 62
               7
100
AcDbVertex
100
AcDb2dVertex
 10
1677.7546642424809
 20
961.5
 30
0.0
  0
VERTEX
  5
BE
100
AcDbEntity
  8
一般
370
              15
  6
Continuous
 62
               7
100
AcDbVertex
100
AcDb2dVertex
 10
1684.0
 20
961.5
 30
0.0
  0
VERTEX
  5
BF
100
AcDbEntity
  8
一般
370
              15
  6
Continuous
 62
               7
100
AcDbVertex
100
AcDb2dVertex
 10
1684.0
 20
977.5
 30
0.0
  0
VERTEX
  5
C0
100
AcDbEntity
  8
一般
370
              15
  6
Continuous
 62
               7
100
AcDbVertex
100
AcDb2dVertex
 10
1670.0046642424809
 20
977.5
 30
0.0
  0
SEQEND
  5
C1
100
AcDbEntity
  8
一般
370
              15
  6
Continuous
 62
               7
  0
LWPOLYLINE
  5
C2
100
AcDbEntity
  8
一般
370
              15
  6
Continuous
 62
               7
100
AcDbPolyline
 90
        2
 70
             128
 10
1656.0
 20
961.5
 10
1656.0
 20
977.5
  0
LINE
  5
C3
100
AcDbEntity
  8
一般
370
              15
  6
Continuous
 62
               7
100
AcDbLine
 10
1670.029664242481
 20
961.5
 30
0.0
 11
1656.0
 21
961.5
 31
0.0
  0
LINE
  5
C4
100
AcDbEntity
  8
一般
370
              15
  6
Continuous
 62
               7
100
AcDbLine
 10
1670.0000000000002
 20
977.5
 30
0.0
 11
1670.0000000000002
 21
961.5
 31
0.0
  0
POLYLINE
  5
C5
100
AcDbEntity
  8
一般
370
              15
  6
Continuous
 62
               7
100
AcDb2dPolyline
 66
               1
 10
0.0
 20
0.0
 30
0.0
 75
               5
  0
VERTEX
  5
C6
100
AcDbEntity
  8
一般
370
              15
  6
Continuous
 62
               7
100
AcDbVertex
100
AcDb2dVertex
 10
1077.75
 20
430.0
 30
0.0
  0
VERTEX
  5
C7
100
AcDbEntity
  8
一般
370
              15
  6
Continuous
 62
               7
100
AcDbVertex
100
AcDb2dVertex
 10
1077.75
 20
957.0
 30
0.0
  0
VERTEX
  5
C8
100
AcDbEntity
  8
一般
370
              15
  6
Continuous
 62
               7
100
AcDbVertex
100
AcDb2dVertex
 10
1039.75
 20
957.0
 30
0.0
  0
VERTEX
  5
C9
100
AcDbEntity
  8
一般
370
              15
  6
Continuous
 62
               7
100
AcDbVertex
100
AcDb2dVertex
 10
1039.75
 20
430.0
 30
0.0
  0
SEQEND
  5
CA
100
AcDbEntity
  8
一般
370
              15
  6
Continuous
 62
               7
  0
POLYLINE
  5
CB
100
AcDbEntity
  8
一般
370
              15
  6
Continuous
 62
               7
100
AcDb2dPolyline
 66
               1
 10
0.0
 20
0.0
 30
0.0
 75
               5
  0
VERTEX
  5
CC
100
AcDbEntity
  8
一般
370
              15
  6
Continuous
 62
               7
100
AcDbVertex
100
AcDb2dVertex
 10
1257.75
 20
430.0
 30
0.0
  0
VERTEX
  5
CD
100
AcDbEntity
  8
一般
370
              15
  6
Continuous
 62
               7
100
AcDbVertex
100
AcDb2dVertex
 10
1257.75
 20
957.0
 30
0.0
  0
VERTEX
  5
CE
100
AcDbEntity
  8
一般
370
              15
  6
Continuous
 62
               7
100
AcDbVertex
100
AcDb2dVertex
 10
1219.75
 20
957.0
 30
0.0
  0
VERTEX
  5
CF
100
AcDbEntity
  8
一般
370
              15
  6
Continuous
 62
               7
100
AcDbVertex
100
AcDb2dVertex
 10
1219.75
 20
430.0
 30
0.0
  0
SEQEND
  5
D0
100
AcDbEntity
  8
一般
370
              15
  6
Continuous
 62
               7
  0
POLYLINE
  5
D1
100
AcDbEntity
  8
一般
370
              15
  6
Continuous
 62
               7
100
AcDb2dPolyline
 66
               1
 10
0.0
 20
0.0
 30
0.0
 75
               5
  0
VERTEX
  5
D2
100
AcDbEntity
  8
一般
370
              15
  6
Continuous
 62
               7
100
AcDbVertex
100
AcDb2dVertex
 10
1651.0
 20
430.0
 30
0.0
  0
VERTEX
  5
D3
100
AcDbEntity
  8
一般
370
              15
  6
Continuous
 62
               7
100
AcDbVertex
100
AcDb2dVertex
 10
1651.0
 20
957.0
 30
0.0
  0
VERTEX
  5
D4
100
AcDbEntity
  8
一般
370
              15
  6
Continuous
 62
               7
100
AcDbVertex
100
AcDb2dVertex
 10
1662.4232979737935
 20
957.0
 30
0.0
  0
SEQEND
  5
D5
100
AcDbEntity
  8
一般
370
              15
  6
Continuous
 62
               7
  0
POLYLINE
  5
D6
100
AcDbEntity
  8
一般
370
              15
  6
Continuous
 62
               7
100
AcDb2dPolyline
 66
               1
 10
0.0
 20
0.0
 30
0.0
 75
               5
  0
VERTEX
  5
D7
100
AcDbEntity
  8
一般
370
              15
  6
Continuous
 62
               7
100
AcDbVertex
100
AcDb2dVertex
 10
1689.0
 20
430.0
 30
0.0
  0
VERTEX
  5
D8
100
AcDbEntity
  8
一般
370
              15
  6
Continuous
 62
               7
100
AcDbVertex
100
AcDb2dVertex
 10
1689.0
 20
957.0
 30
0.0
  0
VERTEX
  5
D9
100
AcDbEntity
  8
一般
370
              15
  6
Continuous
 62
               7
100
AcDbVertex
100
AcDb2dVertex
 10
1677.5860305111682
 20
957.0
 30
0.0
  0
SEQEND
  5
DA
100
AcDbEntity
  8
一般
370
              15
  6
Continuous
 62
               7
  0
LWPOLYLINE
  5
DB
100
AcDbEntity
  8
一般
370
              15
  6
Continuous
 62
               7
100
AcDbPolyline
 90
        6
 70
             128
 10
1013.75
 20
390.0
 10
1103.75
 20
390.0
 10
1013.75
 20
390.0
 10
1013.75
 20
430.0
 10
1103.75
 20
430.0
 10
1103.75
 20
390.0
  0
LWPOLYLINE
  5
DC
100
AcDbEntity
  8
一般
370
              15
  6
Continuous
 62
               7
100
AcDbPolyline
 90
        6
 70
             128
 10
1193.75
 20
390.0
 10
1283.75
 20
390.0
 10
1193.75
 20
390.0
 10
1193.75
 20
430.0
 10
1283.75
 20
430.0
 10
1283.75
 20
390.0
  0
LWPOLYLINE
  5
DD
100
AcDbEntity
  8
一般
370
              15
  6
Continuous
 62
               7
100
AcDbPolyline
 90
        6
 70
             128
 10
1625.0
 20
390.0
 10
1715.0
 20
390.0
 10
1625.0
 20
390.0
 10
1625.0
 20
430.0
 10
1715.0
 20
430.0
 10
1715.0
 20
390.0
  0
POLYLINE
  5
DE
100
AcDbEntity
  8
一般
370
              15
  6
Continuous
 62
               7
100
AcDb2dPolyline
 66
               1
 10
0.0
 20
0.0
 30
0.0
 70
               1
 75
               5
  0
VERTEX
  5
DF
100
AcDbEntity
  8
一般
370
              15
  6
Continuous
 62
               7
100
AcDbVertex
100
AcDb2dVertex
 10
1509.4869419154513
 20
1117.0797693449895
 30
0.0
  0
VERTEX
  5
E0
100
AcDbEntity
  8
一般
370
              15
  6
Continuous
 62
               7
100
AcDbVertex
100
AcDb2dVertex
 10
1493.4268016976221
 20
1094.1435121048976
 30
0.0
  0
VERTEX
  5
E1
100
AcDbEntity
  8
一般
370
              15
  6
Continuous
 62
               7
100
AcDbVertex
100
AcDb2dVertex
 10
1501.8640677537987
 20
1088.2356748104819
 30
0.0
  0
VERTEX
  5
E2
100
AcDbEntity
  8
一般
370
              15
  6
Continuous
 62
               7
100
AcDbVertex
100
AcDb2dVertex
 10
1505.1332834356508
 20
1091.6841859131944
 30
0.0
  0
VERTEX
  5
E3
100
AcDbEntity
  8
一般
370
              15
  6
Continuous
 62
               7
100
AcDbVertex
100
AcDb2dVertex
 10
1553.4632540487014
 20
1057.8431761684826
 30
0.0
  0
VERTEX
  5
E4
100
AcDbEntity
  8
一般
370
              15
  6
Continuous
 62
               7
100
AcDbVertex
100
AcDb2dVertex
 10
1551.3408512288538
 20
1053.5916580548787
 30
0.0
  0
VERTEX
  5
E5
100
AcDbEntity
  8
一般
370
              15
  6
Continuous
 62
               7
100
AcDbVertex
100
AcDb2dVertex
 10
1644.9699298910855
 20
988.03187137995417
 30
0.0
  0
VERTEX
  5
E6
100
AcDbEntity
  8
一般
370
              15
  6
Continuous
 62
               7
100
AcDbVertex
100
AcDb2dVertex
 10
1661.0300701089147
 20
1010.9681286200459
 30
0.0
  0
SEQEND
  5
E7
100
AcDbEntity
  8
一般
370
              15
  6
Continuous
 62
               7
  0
LINE
  5
E8
100
AcDbEntity
  8
一般
370
               5
  6
Continuous
 62
               7
100
AcDbLine
 10
1511.9443980483184
 20
1115.3590400359362
 30
0.0
 11
1495.8842578304889
 21
1092.4227827958446
 31
0.0
  0
LINE
  5
E9
100
AcDbEntity
  8
一般
370
              15
  6
Continuous
 62
               7
100
AcDbLine
 10
1507.5897320617257
 20
1083.8602891241846
 30
0.0
 11
1508.409041586063
 21
1083.2866024191167
 31
0.0
  0
LINE
  5
EA
100
AcDbEntity
  8
一般
370
              15
  6
Continuous
 62
               7
100
AcDbLine
 10
1510.0473456746411
 20
1082.1394495464144
 30
0.0
 11
1510.8664977189301
 21
1081.5658731100634
 31
0.0
  0
LINE
  5
EB
100
AcDbEntity
  8
一般
370
              15
  6
Continuous
 62
               7
100
AcDbLine
 10
1512.5047272134459
 20
1080.418772468686
 30
0.0
 11
1513.3239538517969
 21
1079.8451438010104
 31
0.0
  0
LINE
  5
EC
100
AcDbEntity
  8
一般
370
              15
  6
Continuous
 62
               7
100
AcDbLine
 10
1514.9622579403749
 20
1078.6979909283082
 30
0.0
 11
1515.7814135013255
 21
1078.1244120295642
 31
0.0
  0
LINE
  5
ED
100
AcDbEntity
  8
一般
370
              15
  6
Continuous
 62
               7
100
AcDbLine
 10
1517.4196607561535
 20
1076.9772989522824
 30
0.0
 11
1518.238866117531
 21
1076.4036851829039
 31
0.0
  0
LINE
  5
EE
100
AcDbEntity
  8
一般
370
              15
  6
Continuous
 62
               7
100
AcDbLine
 10
1519.877170206109
 20
1075.2565323102019
 30
0.0
 11
1520.696322250398
 21
1074.6829558738509
 31
0.0
  0
LINE
  5
EF
100
AcDbEntity
  8
一般
370
              15
  6
Continuous
 62
               7
100
AcDbLine
 10
1522.3345969265613
 20
1073.5358235959432
 30
0.0
 11
1523.1537783832648
 21
1072.9622265647977
 31
0.0
  0
LINE
  5
F0
100
AcDbEntity
  8
一般
370
              15
  6
Continuous
 62
               7
100
AcDbLine
 10
1524.7920824718428
 20
1071.8150736920957
 30
0.0
 11
1525.6112345161318
 21
1071.2414972557447
 31
0.0
  0
LINE
  5
F1
100
AcDbEntity
  8
一般
370
              15
  6
Continuous
 62
               7
100
AcDbLine
 10
1527.2495068700682
 20
1070.0943666038779
 30
0.0
 11
1528.0686906489989
 21
1069.5207679466914
 31
0.0
  0
LINE
  5
F2
100
AcDbEntity
  8
一般
370
              15
  6
Continuous
 62
               7
100
AcDbLine
 10
1529.7069947375767
 20
1068.3736150739894
 30
0.0
 11
1530.5261502772769
 21
1067.8000361901252
 31
0.0
  0
LINE
  5
F3
100
AcDbEntity
  8
一般
370
              15
  6
Continuous
 62
               7
100
AcDbLine
 10
1532.1644415218857
 20
1066.6528923108672
 30
0.0
 11
1532.9836029147327
 21
1066.0793093285852
 31
0.0
  0
LINE
  5
F4
100
AcDbEntity
  8
一般
370
              15
  6
Continuous
 62
               7
100
AcDbLine
 10
1534.6219070033108
 20
1064.9321564558832
 30
0.0
 11
1535.4410590475998
 21
1064.3585800195319
 31
0.0
  0
LINE
  5
F5
100
AcDbEntity
  8
一般
370
              15
  6
Continuous
 62
               7
100
AcDbLine
 10
1537.0792569753
 20
1063.2115014814767
 30
0.0
 11
1537.8985151804668
 21
1062.6378507104789
 31
0.0
  0
LINE
  5
F6
100
AcDbEntity
  8
一般
370
              15
  6
Continuous
 62
               7
100
AcDbLine
 10
1539.5368192690448
 20
1061.4906978377769
 30
0.0
 11
1540.3559744141639
 21
1060.917119230201
 31
0.0
  0
LINE
  5
F7
100
AcDbEntity
  8
一般
370
              15
  6
Continuous
 62
               7
100
AcDbLine
 10
1541.9942735064974
 20
1059.769969855907
 30
0.0
 11
1542.8134274462006
 21
1059.1963920923727
 31
0.0
  0
LINE
  5
F8
100
AcDbEntity
  8
一般
370
              15
  6
Continuous
 62
               7
100
AcDbLine
 10
1544.4517315347787
 20
1058.0492392196707
 30
0.0
 11
1545.2708835790677
 21
1057.4756627833194
 31
0.0
  0
LINE
  5
F9
100
AcDbEntity
  8
一般
370
              15
  6
Continuous
 62
               7
100
AcDbLine
 10
1546.9091713954465
 20
1056.3285213045338
 30
0.0
 11
1547.7283397119347
 21
1055.7549334742664
 31
0.0
  0
POLYLINE
  5
FA
100
AcDbEntity
  8
一般
370
              15
  6
Continuous
 62
               7
100
AcDb2dPolyline
 66
               1
 10
0.0
 20
0.0
 30
0.0
 75
               5
  0
VERTEX
  5
FB
100
AcDbEntity
  8
一般
370
              15
  6
Continuous
 62
               7
100
AcDbVertex
100
AcDb2dVertex
 10
1549.3666438005125
 20
1054.6077806015642
 30
0.0
  0
VERTEX
  5
FC
100
AcDbEntity
  8
一般
370
              15
  6
Continuous
 62
               7
100
AcDbVertex
100
AcDb2dVertex
 10
1550.5953718669462
 20
1053.7474159470376
 30
0.0
  0
VERTEX
  5
FD
100
AcDbEntity
  8
一般
370
              15
  6
Continuous
 62
               7
100
AcDbVertex
100
AcDb2dVertex
 10
1553.4632540487014
 20
1057.8431761684826
 30
0.0
  0
VERTEX
  5
FE
100
AcDbEntity
  8
一般
370
              15
  6
Continuous
 62
               7
100
AcDbVertex
100
AcDb2dVertex
 10
1505.1332834356508
 20
1091.6841859131944
 30
0.0
  0
VERTEX
  5
FF
100
AcDbEntity
  8
一般
370
              15
  6
Continuous
 62
               7
100
AcDbVertex
100
AcDb2dVertex
 10
1502.2654012538956
 20
1087.5884256917493
 30
0.0
  0
VERTEX
  5
100
100
AcDbEntity
  8
一般
370
              15
  6
Continuous
 62
               7
100
AcDbVertex
100
AcDb2dVertex
 10
1503.4941293203292
 20
1086.7280610372229
 30
0.0
  0
SEQEND
  5
101
100
AcDbEntity
  8
一般
370
              15
  6
Continuous
 62
               7
  0
LINE
  5
102
100
AcDbEntity
  8
一般
370
              15
  6
Continuous
 62
               7
100
AcDbLine
 10
1505.951585453196
 20
1085.0073317281697
 30
0.0
 11
1505.132433408907
 21
1085.5809081645207
 31
0.0
  0
LWPOLYLINE
  5
103
100
AcDbEntity
  8
一般
370
               5
  6
Continuous
 62
               7
100
AcDbPolyline
 90
        6
 70
             128
 10
1503.7809175385046
 20
1087.1376370593673
 10
1503.0926258148834
 20
1086.1546546062207
 42
0.4142135623730821
 10
1503.2890863012337
 20
1085.0404718217085
 10
1503.6167471189492
 20
1084.8110412471681
 42
0.4142135623730914
 10
1504.7309299034614
 20
1085.0075017335184
 10
1505.4192216270826
 20
1085.9904841866653
  0
SPLINE
  5
104
100
AcDbEntity
  8
一般
370
               5
  6
Continuous
 62
               7
100
AcDbSpline
210
0.0
220
0.0
230
1.0
 70
               8
 71
               2
 72
               6
 73
               3
 74
               0
 42
0.000001
 43
0.000001
 40
0.0
 40
0.0
 40
0.0
 40
1.0
 40
1.0
 40
1.0
 10
1503.7809175385046
 20
1087.1376370593673
 30
0.0
 10
1504.9312240927218
 20
1087.0369982762938
 30
0.0
 10
1505.4192216270826
 20
1085.9904841866653
 30
0.0
  0
LWPOLYLINE
  5
105
100
AcDbEntity
  8
一般
370
               5
  6
Continuous
 62
               7
100
AcDbPolyline
 90
        7
 70
             128
 10
1505.951585453196
 20
1085.0073317281697
 10
1505.5500819477504
 20
1084.4339252971674
 42
0.4142135623730857
 10
1505.7465424341005
 20
1083.3197425126555
 10
1506.0742032518162
 20
1083.0903119381151
 10
1506.2380336606741
 20
1082.9755966508449
 42
0.4142135623730817
 10
1507.0736707490582
 20
1083.1229420156076
 10
1507.589889541774
 20
1083.8601788554677
  0
SPLINE
  5
106
100
AcDbEntity
  8
一般
370
               5
  6
Continuous
 62
               7
100
AcDbSpline
210
0.0
220
0.0
230
1.0
 70
               8
 71
               2
 72
               6
 73
               3
 74
               0
 42
0.000001
 43
0.000001
 40
0.0
 40
0.0
 40
0.0
 40
1.0
 40
1.0
 40
1.0
 10
1505.951585453196
 20
1085.0073317281697
 30
0.0
 10
1507.1018920074132
 20
1084.9066929450962
 30
0.0
 10
1507.589889541774
 20
1083.8601788554677
 30
0.0
  0
LWPOLYLINE
  5
107
100
AcDbEntity
  8
一般
370
               5
  6
Continuous
 62
               7
100
AcDbPolyline
 90
        6
 70
             128
 10
1508.6958298042387
 20
1083.6961784412611
 10
1508.0075380806172
 20
1082.7131959881144
 42
0.4142135623730721
 10
1508.2039985669676
 20
1081.5990132036022
 10
1508.5316593846833
 20
1081.3695826290618
 42
0.4142135623730661
 10
1509.6458421691955
 20
1081.5660431154124
 10
1510.3341338928167
 20
1082.549025568559
  0
SPLINE
  5
108
100
AcDbEntity
  8
一般
370
               5
  6
Continuous
 62
               7
100
AcDbSpline
210
0.0
220
0.0
230
1.0
 70
               8
 71
               2
 72
               6
 73
               3
 74
               0
 42
0.000001
 43
0.000001
 40
0.0
 40
0.0
 40
0.0
 40
1.0
 40
1.0
 40
1.0
 10
1508.6958298042387
 20
1083.6961784412611
 30
0.0
 10
1509.8461363584556
 20
1083.5955396581876
 30
0.0
 10
1510.3341338928167
 20
1082.549025568559
 30
0.0
  0
LWPOLYLINE
  5
109
100
AcDbEntity
  8
一般
370
               5
  6
Continuous
 62
               7
100
AcDbPolyline
 90
        6
 70
             128
 10
1513.6107420699725
 20
1080.2547198231548
 10
1512.9224503463513
 20
1079.2717373700079
 42
0.4142135623730857
 10
1513.1189108327017
 20
1078.157554585496
 10
1513.4465716504174
 20
1077.9281240109556
 42
0.414213562373061
 10
1514.5607544349293
 20
1078.1245844973059
 10
1515.2490461585505
 20
1079.1075669504526
  0
SPLINE
  5
10A
100
AcDbEntity
  8
一般
370
               5
  6
Continuous
 62
               7
100
AcDbSpline
210
0.0
220
0.0
230
1.0
 70
               8
 71
               2
 72
               6
 73
               3
 74
               0
 42
0.000001
 43
0.000001
 40
0.0
 40
0.0
 40
0.0
 40
1.0
 40
1.0
 40
1.0
 10
1513.6107420699725
 20
1080.2547198231548
 30
0.0
 10
1514.7610486241897
 20
1080.1540810400811
 30
0.0
 10
1515.2490461585505
 20
1079.1075669504526
 30
0.0
  0
LWPOLYLINE
  5
10B
100
AcDbEntity
  8
一般
370
               5
  6
Continuous
 62
               7
100
AcDbPolyline
 90
        6
 70
             128
 10
1518.5256543357063
 20
1076.8132612050485
 10
1517.8373626120851
 20
1075.8302787519017
 42
0.4142135623731226
 10
1518.0338230984355
 20
1074.7160959673897
 10
1518.3614839161512
 20
1074.4866653928493
 42
0.4142135623731386
 10
1519.4756667006632
 20
1074.6831258791997
 10
1520.1639584242844
 20
1075.6661083323465
  0
SPLINE
  5
10C
100
AcDbEntity
  8
一般
370
               5
  6
Continuous
 62
               7
100
AcDbSpline
210
0.0
220
0.0
230
1.0
 70
               8
 71
               2
 72
               6
 73
               3
 74
               0
 42
0.000001
 43
0.000001
 40
0.0
 40
0.0
 40
0.0
 40
1.0
 40
1.0
 40
1.0
 10
1518.5256543357063
 20
1076.8132612050485
 30
0.0
 10
1519.6759608899235
 20
1076.7126224219751
 30
0.0
 10
1520.1639584242844
 20
1075.6661083323465
 30
0.0
  0
LWPOLYLINE
  5
10D
100
AcDbEntity
  8
一般
370
               5
  6
Continuous
 62
               7
100
AcDbPolyline
 90
        6
 70
             128
 10
1523.4405666014404
 20
1073.3718025869423
 10
1522.7522748778192
 20
1072.3888201337954
 42
0.4142135623730784
 10
1522.9487353641694
 20
1071.2746373492835
 10
1523.276396181885
 20
1071.0452067747428
 42
0.4142135623730895
 10
1524.3905789663972
 20
1071.2416672610934
 10
1525.0788706900184
 20
1072.2246497142401
  0
SPLINE
  5
10E
100
AcDbEntity
  8
一般
370
               5
  6
Continuous
 62
               7
100
AcDbSpline
210
0.0
220
0.0
230
1.0
 70
               8
 71
               2
 72
               6
 73
               3
 74
               0
 42
0.000001
 43
0.000001
 40
0.0
 40
0.0
 40
0.0
 40
1.0
 40
1.0
 40
1.0
 10
1523.4405666014404
 20
1073.3718025869423
 30
0.0
 10
1524.5908731556574
 20
1073.2711638038686
 30
0.0
 10
1525.0788706900184
 20
1072.2246497142401
 30
0.0
  0
LWPOLYLINE
  5
10F
100
AcDbEntity
  8
一般
370
               5
  6
Continuous
 62
               7
100
AcDbPolyline
 90
        6
 70
             128
 10
1528.3554788671745
 20
1069.930343968836
 10
1527.6671871435531
 20
1068.9473615156892
 42
0.4142135623730878
 10
1527.8636476299034
 20
1067.8331787311772
 10
1528.1913084476191
 20
1067.6037481566368
 42
0.4142135623731398
 10
1529.3054912321311
 20
1067.8002086429872
 10
1529.9937829557523
 20
1068.783191096134
  0
SPLINE
  5
110
100
AcDbEntity
  8
一般
370
               5
  6
Continuous
 62
               7
100
AcDbSpline
210
0.0
220
0.0
230
1.0
 70
               8
 71
               2
 72
               6
 73
               3
 74
               0
 42
0.000001
 43
0.000001
 40
0.0
 40
0.0
 40
0.0
 40
1.0
 40
1.0
 40
1.0
 10
1528.3554788671745
 20
1069.930343968836
 30
0.0
 10
1529.5057854213915
 20
1069.8297051857626
 30
0.0
 10
1529.9937829557523
 20
1068.783191096134
 30
0.0
  0
LWPOLYLINE
  5
111
100
AcDbEntity
  8
一般
370
               5
  6
Continuous
 62
               7
100
AcDbPolyline
 90
        6
 70
             128
 10
1533.2703911329083
 20
1066.4888853507296
 10
1532.5820994092871
 20
1065.5059028975829
 42
0.414213562373111
 10
1532.7785598956375
 20
1064.3917201130707
 10
1533.106220713353
 20
1064.1622895385303
 42
0.4142135623730656
 10
1534.2204034978652
 20
1064.3587500248809
 10
1534.9086952214864
 20
1065.3417324780276
  0
SPLINE
  5
112
100
AcDbEntity
  8
一般
370
               5
  6
Continuous
 62
               7
100
AcDbSpline
210
0.0
220
0.0
230
1.0
 70
               8
 71
               2
 72
               6
 73
               3
 74
               0
 42
0.000001
 43
0.000001
 40
0.0
 40
0.0
 40
0.0
 40
1.0
 40
1.0
 40
1.0
 10
1533.2703911329083
 20
1066.4888853507296
 30
0.0
 10
1534.4206976871255
 20
1066.3882465676561
 30
0.0
 10
1534.9086952214864
 20
1065.3417324780276
 30
0.0
  0
LWPOLYLINE
  5
113
100
AcDbEntity
  8
一般
370
               5
  6
Continuous
 62
               7
100
AcDbPolyline
 90
        6
 70
             128
 10
1538.1853033986422
 20
1063.0474267326235
 10
1537.497011675021
 20
1062.0644442794767
 42
0.4142135623730893
 10
1537.6934721613713
 20
1060.9502614949645
 10
1538.021132979087
 20
1060.7208309204241
 42
0.4142135623730386
 10
1539.135315763599
 20
1060.9172914067744
 10
1539.8236074872202
 20
1061.9002738599213
  0
SPLINE
  5
114
100
AcDbEntity
  8
一般
370
               5
  6
Continuous
 62
               7
100
AcDbSpline
210
0.0
220
0.0
230
1.0
 70
               8
 71
               2
 72
               6
 73
               3
 74
               0
 42
0.000001
 43
0.000001
 40
0.0
 40
0.0
 40
0.0
 40
1.0
 40
1.0
 40
1.0
 10
1538.1853033986422
 20
1063.0474267326235
 30
0.0
 10
1539.3356099528594
 20
1062.9467879495498
 30
0.0
 10
1539.8236074872202
 20
1061.9002738599213
 30
0.0
  0
LWPOLYLINE
  5
115
100
AcDbEntity
  8
一般
370
               5
  6
Continuous
 62
               7
100
AcDbPolyline
 90
        6
 70
             128
 10
1543.1002156643763
 20
1059.6059681145171
 10
1542.4119239407551
 20
1058.6229856613704
 42
0.4142135623730748
 10
1542.6083844271054
 20
1057.5088028768582
 10
1542.9360452448209
 20
1057.2793723023178
 42
0.4142135623731253
 10
1544.0502280293331
 20
1057.4758327886684
 10
1544.7385197529543
 20
1058.458815241815
  0
SPLINE
  5
116
100
AcDbEntity
  8
一般
370
               5
  6
Continuous
 62
               7
100
AcDbSpline
210
0.0
220
0.0
230
1.0
 70
               8
 71
               2
 72
               6
 73
               3
 74
               0
 42
0.000001
 43
0.000001
 40
0.0
 40
0.0
 40
0.0
 40
1.0
 40
1.0
 40
1.0
 10
1543.1002156643763
 20
1059.6059681145171
 30
0.0
 10
1544.2505222185932
 20
1059.5053293314436
 30
0.0
 10
1544.7385197529543
 20
1058.458815241815
 30
0.0
  0
LWPOLYLINE
  5
117
100
AcDbEntity
  8
一般
370
               5
  6
Continuous
 62
               7
100
AcDbPolyline
 90
        6
 70
             128
 10
1548.0151279301101
 20
1056.1645094964108
 10
1547.3268362064889
 20
1055.1815270432642
 42
0.4142135623731008
 10
1547.5232966928393
 20
1054.067344258752
 10
1547.850957510555
 20
1053.8379136842116
 42
0.4142135623730769
 10
1548.9651402950669
 20
1054.0343741705619
 10
1549.6534320186881
 20
1055.0173566237088
  0
SPLINE
  5
118
100
AcDbEntity
  8
一般
370
               5
  6
Continuous
 62
               7
100
AcDbSpline
210
0.0
220
0.0
230
1.0
 70
               8
 71
               2
 72
               6
 73
               3
 74
               0
 42
0.000001
 43
0.000001
 40
0.0
 40
0.0
 40
0.0
 40
1.0
 40
1.0
 40
1.0
 10
1548.0151279301101
 20
1056.1645094964108
 30
0.0
 10
1549.1654344843273
 20
1056.0638707133373
 30
0.0
 10
1549.6534320186881
 20
1055.0173566237088
 30
0.0
  0
LWPOLYLINE
  5
119
100
AcDbEntity
  8
一般
370
               5
  6
Continuous
 62
               7
100
AcDbPolyline
 90
        7
 70
             128
 10
1510.8664977189301
 20
1081.5658731100634
 10
1510.4649942134843
 20
1080.9924666790612
 42
0.4142135623731029
 10
1510.6614546998346
 20
1079.878283894549
 10
1510.9891155175501
 20
1079.6488533200086
 10
1511.1529459264079
 20
1079.5341380327386
 42
0.4142135623730913
 10
1511.9885830147921
 20
1079.6814833975013
 10
1512.5048018075081
 20
1080.4187202373614
  0
SPLINE
  5
11A
100
AcDbEntity
  8
一般
370
               5
  6
Continuous
 62
               7
100
AcDbSpline
210
0.0
220
0.0
230
1.0
 70
               8
 71
               2
 72
               6
 73
               3
 74
               0
 42
0.000001
 43
0.000001
 40
0.0
 40
0.0
 40
0.0
 40
1.0
 40
1.0
 40
1.0
 10
1510.8664977189301
 20
1081.5658731100634
 30
0.0
 10
1512.016804273147
 20
1081.46523432699
 30
0.0
 10
1512.5048018075081
 20
1080.4187202373614
 30
0.0
  0
LWPOLYLINE
  5
11B
100
AcDbEntity
  8
一般
370
               5
  6
Continuous
 62
               7
100
AcDbPolyline
 90
        7
 70
             128
 10
1515.7814099846639
 20
1078.1244144919572
 10
1515.3799064792183
 20
1077.5510080609549
 42
0.4142135623731117
 10
1515.5763669655687
 20
1076.4368252764427
 10
1515.9040277832842
 20
1076.2073947019026
 10
1516.067858192142
 20
1076.0926794146321
 42
0.4142135623731007
 10
1516.9034952805259
 20
1076.2400247793948
 10
1517.4197140732419
 20
1076.9772616192549
  0
SPLINE
  5
11C
100
AcDbEntity
  8
一般
370
               5
  6
Continuous
 62
               7
100
AcDbSpline
210
0.0
220
0.0
230
1.0
 70
               8
 71
               2
 72
               6
 73
               3
 74
               0
 42
0.000001
 43
0.000001
 40
0.0
 40
0.0
 40
0.0
 40
1.0
 40
1.0
 40
1.0
 10
1515.7814099846639
 20
1078.1244144919572
 30
0.0
 10
1516.9317165388811
 20
1078.0237757088835
 30
0.0
 10
1517.4197140732419
 20
1076.9772616192549
 30
0.0
  0
LWPOLYLINE
  5
11D
100
AcDbEntity
  8
一般
370
               5
  6
Continuous
 62
               7
100
AcDbPolyline
 90
        7
 70
             128
 10
1520.696322250398
 20
1074.6829558738509
 10
1520.2948187449522
 20
1074.1095494428487
 42
0.4142135623731289
 10
1520.4912792313025
 20
1072.9953666583365
 10
1520.8189400490182
 20
1072.7659360837961
 10
1520.9827704578759
 20
1072.6512207965259
 42
0.4142135623731019
 10
1521.81840754626
 20
1072.7985661612888
 10
1522.3346263389758
 20
1073.5358030011489
  0
SPLINE
  5
11E
100
AcDbEntity
  8
一般
370
               5
  6
Continuous
 62
               7
100
AcDbSpline
210
0.0
220
0.0
230
1.0
 70
               8
 71
               2
 72
               6
 73
               3
 74
               0
 42
0.000001
 43
0.000001
 40
0.0
 40
0.0
 40
0.0
 40
1.0
 40
1.0
 40
1.0
 10
1520.696322250398
 20
1074.6829558738509
 30
0.0
 10
1521.846628804615
 20
1074.5823170907775
 30
0.0
 10
1522.3346263389758
 20
1073.5358030011489
 30
0.0
  0
LWPOLYLINE
  5
11F
100
AcDbEntity
  8
一般
370
               5
  6
Continuous
 62
               7
100
AcDbPolyline
 90
        7
 70
             128
 10
1525.6112345161318
 20
1071.2414972557447
 10
1525.209731010686
 20
1070.6680908247422
 42
0.4142135623731023
 10
1525.4061914970364
 20
1069.5539080402302
 10
1525.7338523147521
 20
1069.3244774656898
 10
1525.8976827236097
 20
1069.2097621784196
 42
0.4142135623730854
 10
1526.7333198119939
 20
1069.3571075431823
 10
1527.2495386047099
 20
1070.0943443830424
  0
SPLINE
  5
120
100
AcDbEntity
  8
一般
370
               5
  6
Continuous
 62
               7
100
AcDbSpline
210
0.0
220
0.0
230
1.0
 70
               8
 71
               2
 72
               6
 73
               3
 74
               0
 42
0.000001
 43
0.000001
 40
0.0
 40
0.0
 40
0.0
 40
1.0
 40
1.0
 40
1.0
 10
1525.6112345161318
 20
1071.2414972557447
 30
0.0
 10
1526.761541070349
 20
1071.140858472671
 30
0.0
 10
1527.2495386047099
 20
1070.0943443830424
 30
0.0
  0
LWPOLYLINE
  5
121
100
AcDbEntity
  8
一般
370
               5
  6
Continuous
 62
               7
100
AcDbPolyline
 90
        7
 70
             128
 10
1530.5261467818659
 20
1067.8000386376384
 10
1530.1246432764201
 20
1067.2266322066362
 42
0.4142135623730972
 10
1530.3211037627705
 20
1066.112449422124
 10
1530.6487645804859
 20
1065.8830188475836
 10
1530.8125949893438
 20
1065.7683035603134
 42
0.4142135623731107
 10
1531.6482320777279
 20
1065.9156489250763
 10
1532.1644508704439
 20
1066.6528857649364
  0
SPLINE
  5
122
100
AcDbEntity
  8
一般
370
               5
  6
Continuous
 62
               7
100
AcDbSpline
210
0.0
220
0.0
230
1.0
 70
               8
 71
               2
 72
               6
 73
               3
 74
               0
 42
0.000001
 43
0.000001
 40
0.0
 40
0.0
 40
0.0
 40
1.0
 40
1.0
 40
1.0
 10
1530.5261467818659
 20
1067.8000386376384
 30
0.0
 10
1531.6764533360829
 20
1067.6993998545649
 30
0.0
 10
1532.1644508704439
 20
1066.6528857649364
 30
0.0
  0
LWPOLYLINE
  5
123
100
AcDbEntity
  8
一般
370
               5
  6
Continuous
 62
               7
100
AcDbPolyline
 90
        7
 70
             128
 10
1535.4410590475998
 20
1064.3585800195319
 10
1535.0395555421539
 20
1063.7851735885297
 42
0.4142135623731268
 10
1535.2360160285043
 20
1062.6709908040177
 10
1535.56367684622
 20
1062.4415602294773
 10
1535.7275072550779
 20
1062.3268449422071
 42
0.4142135623730991
 10
1536.5631443434618
 20
1062.4741903069698
 10
1537.0793631361778
 20
1063.2114271468299
  0
SPLINE
  5
124
100
AcDbEntity
  8
一般
370
               5
  6
Continuous
 62
               7
100
AcDbSpline
210
0.0
220
0.0
230
1.0
 70
               8
 71
               2
 72
               6
 73
               3
 74
               0
 42
0.000001
 43
0.000001
 40
0.0
 40
0.0
 40
0.0
 40
1.0
 40
1.0
 40
1.0
 10
1535.4410590475998
 20
1064.3585800195319
 30
0.0
 10
1536.591365601817
 20
1064.2579412364585
 30
0.0
 10
1537.0793631361778
 20
1063.2114271468299
 30
0.0
  0
LWPOLYLINE
  5
125
100
AcDbEntity
  8
一般
370
               5
  6
Continuous
 62
               7
100
AcDbPolyline
 90
        7
 70
             128
 10
1540.3559713133336
 20
1060.9171214014259
 10
1539.954467807888
 20
1060.3437149704234
 42
0.4142135623731124
 10
1540.1509282942384
 20
1059.2295321859115
 10
1540.4785891119539
 20
1059.0001016113711
 10
1540.6424195208117
 20
1058.8853863241009
 42
0.4142135623731201
 10
1541.4780566091958
 20
1059.0327316888636
 10
1541.9942754019116
 20
1059.7699685287237
  0
SPLINE
  5
126
100
AcDbEntity
  8
一般
370
               5
  6
Continuous
 62
               7
100
AcDbSpline
210
0.0
220
0.0
230
1.0
 70
               8
 71
               2
 72
               6
 73
               3
 74
               0
 42
0.000001
 43
0.000001
 40
0.0
 40
0.0
 40
0.0
 40
1.0
 40
1.0
 40
1.0
 10
1540.3559713133336
 20
1060.9171214014259
 30
0.0
 10
1541.5062778675508
 20
1060.8164826183522
 30
0.0
 10
1541.9942754019116
 20
1059.7699685287237
 30
0.0
  0
LWPOLYLINE
  5
127
100
AcDbEntity
  8
一般
370
               5
  6
Continuous
 62
               7
100
AcDbPolyline
 90
        7
 70
             128
 10
1545.2708835790677
 20
1057.4756627833194
 10
1544.8693800736219
 20
1056.9022563523172
 42
0.4142135623731341
 10
1545.0658405599722
 20
1055.7880735678052
 10
1545.3935013776879
 20
1055.5586429932648
 10
1545.5573317865455
 20
1055.4439277059946
 42
0.4142135623730874
 10
1546.3929688749297
 20
1055.5912730707573
 10
1546.9091876676457
 20
1056.3285099106174
  0
SPLINE
  5
128
100
AcDbEntity
  8
一般
370
               5
  6
Continuous
 62
               7
100
AcDbSpline
210
0.0
220
0.0
230
1.0
 70
               8
 71
               2
 72
               6
 73
               3
 74
               0
 42
0.000001
 43
0.000001
 40
0.0
 40
0.0
 40
0.0
 40
1.0
 40
1.0
 40
1.0
 10
1545.2708835790677
 20
1057.4756627833194
 30
0.0
 10
1546.4211901332847
 20
1057.375024000246
 30
0.0
 10
1546.9091876676457
 20
1056.3285099106174
 30
0.0
  0
LWPOLYLINE
  5
129
100
AcDbEntity
  8
一般
370
              15
  6
Continuous
 62
               7
100
AcDbPolyline
 90
        9
 70
             128
 10
1670.0046642424809
 20
977.5
 10
1682.0000000000002
 20
977.5
 10
1682.0000000000002
 20
978.2262649405036
 42
0.2446984432290339
 10
1669.2072930905317
 20
1002.8008262691733
 10
1659.8829172362127
 20
1009.3298245314679
 10
1646.1170827637875
 20
989.67017546853219
 10
1655.8526199195528
 20
982.90713353314743
 42
-0.2456847557062546
 10
1658.0000000000002
 20
978.80072882896013
 10
1658.0000000000002
 20
977.5
  0
LINE
  5
12A
100
AcDbEntity
  8
一般
370
              15
  6
Continuous
 62
               7
100
AcDbLine
 10
1670.0000000000002
 20
965.02360477575053
 30
0.0
 11
1670.0046642424809
 21
965.02360477575053
 31
0.0
  0
LWPOLYLINE
  5
12B
100
AcDbEntity
  8
一般
370
              15
  6
Continuous
 62
               7
100
AcDbPolyline
 90
        9
 70
             128
 10
1670.029664242481
 20
965.02360477575053
 10
1677.7546642424809
 20
965.02360477575053
 10
1677.7546642424809
 20
959.02360477575041
 10
1677.5046642424809
 20
956.0236047757503
 10
1677.5046642424809
 20
949.02360477575007
 10
1662.5046642424809
 20
949.02360477575007
 10
1662.5046642424809
 20
956.0236047757503
 10
1662.2546642424809
 20
959.02360477575041
 10
1662.2546642424809
 20
961.5
  0
LINE
  5
12C
100
AcDbEntity
  8
一般
370
               5
  6
Continuous
 62
               7
100
AcDbLine
 10
1664.0046642424809
 20
949.02360477575007
 30
0.0
 11
1664.0046642424809
 21
893.64720900490931
 31
0.0
  0
LINE
  5
12D
100
AcDbEntity
  8
一般
370
               5
  6
Continuous
 62
               7
100
AcDbLine
 10
1676.0046642424809
 20
949.02360477575007
 30
0.0
 11
1676.0046642424809
 21
893.64720900490931
 31
0.0
  0
POLYLINE
  5
12E
100
AcDbEntity
  8
一般
370
               5
  6
Continuous
 62
               7
100
AcDb2dPolyline
 66
               1
 10
0.0
 20
0.0
 30
0.0
 70
               1
 75
               5
  0
VERTEX
  5
12F
100
AcDbEntity
  8
一般
370
               5
  6
Continuous
 62
               7
100
AcDbVertex
100
AcDb2dVertex
 10
1676.5046642424809
 20
927.02360477575007
 30
0.0
  0
VERTEX
  5
130
100
AcDbEntity
  8
一般
370
               5
  6
Continuous
 62
               7
100
AcDbVertex
100
AcDb2dVertex
 10
1676.7754088045349
 20
929.50890101204027
 30
0.0
  0
VERTEX
  5
131
100
AcDbEntity
  8
一般
370
               5
  6
Continuous
 62
               7
100
AcDbVertex
100
AcDb2dVertex
 10
1663.8518683758257
 20
930.91677273472078
 30
0.0
  0
VERTEX
  5
132
100
AcDbEntity
  8
一般
370
               5
  6
Continuous
 62
               7
100
AcDbVertex
100
AcDb2dVertex
 10
1663.5811238137721
 20
928.43147649843058
 30
0.0
  0
SEQEND
  5
133
100
AcDbEntity
  8
一般
370
               5
  6
Continuous
 62
               7
  0
POLYLINE
  5
134
100
AcDbEntity
  8
一般
370
               5
  6
Continuous
 62
               7
100
AcDb2dPolyline
 66
               1
 10
0.0
 20
0.0
 30
0.0
 70
               1
 75
               5
  0
VERTEX
  5
135
100
AcDbEntity
  8
一般
370
               5
  6
Continuous
 62
               7
100
AcDbVertex
100
AcDb2dVertex
 10
1676.5046642424809
 20
931.52360477575007
 30
0.0
  0
VERTEX
  5
136
100
AcDbEntity
  8
一般
370
               5
  6
Continuous
 62
               7
100
AcDbVertex
100
AcDb2dVertex
 10
1676.7754088045349
 20
934.00890101204027
 30
0.0
  0
VERTEX
  5
137
100
AcDbEntity
  8
一般
370
               5
  6
Continuous
 62
               7
100
AcDbVertex
100
AcDb2dVertex
 10
1663.8518683758257
 20
935.41677273472078
 30
0.0
  0
VERTEX
  5
138
100
AcDbEntity
  8
一般
370
               5
  6
Continuous
 62
               7
100
AcDbVertex
100
AcDb2dVertex
 10
1663.5811238137721
 20
932.93147649843058
 30
0.0
  0
SEQEND
  5
139
100
AcDbEntity
  8
一般
370
               5
  6
Continuous
 62
               7
  0
POLYLINE
  5
13A
100
AcDbEntity
  8
一般
370
               5
  6
Continuous
 62
               7
100
AcDb2dPolyline
 66
               1
 10
0.0
 20
0.0
 30
0.0
 70
               1
 75
               5
  0
VERTEX
  5
13B
100
AcDbEntity
  8
一般
370
               5
  6
Continuous
 62
               7
100
AcDbVertex
100
AcDb2dVertex
 10
1676.5046642424809
 20
936.02360477575007
 30
0.0
  0
VERTEX
  5
13C
100
AcDbEntity
  8
一般
370
               5
  6
Continuous
 62
               7
100
AcDbVertex
100
AcDb2dVertex
 10
1676.7754088045349
 20
938.50890101204027
 30
0.0
  0
VERTEX
  5
13D
100
AcDbEntity
  8
一般
370
               5
  6
Continuous
 62
               7
100
AcDbVertex
100
AcDb2dVertex
 10
1663.8518683758257
 20
939.91677273472078
 30
0.0
  0
VERTEX
  5
13E
100
AcDbEntity
  8
一般
370
               5
  6
Continuous
 62
               7
100
AcDbVertex
100
AcDb2dVertex
 10
1663.5811238137721
 20
937.43147649843058
 30
0.0
  0
SEQEND
  5
13F
100
AcDbEntity
  8
一般
370
               5
  6
Continuous
 62
               7
  0
POLYLINE
  5
140
100
AcDbEntity
  8
一般
370
               5
  6
Continuous
 62
               7
100
AcDb2dPolyline
 66
               1
 10
0.0
 20
0.0
 30
0.0
 70
               1
 75
               5
  0
VERTEX
  5
141
100
AcDbEntity
  8
一般
370
               5
  6
Continuous
 62
               7
100
AcDbVertex
100
AcDb2dVertex
 10
1676.5046642424809
 20
940.52360477575007
 30
0.0
  0
VERTEX
  5
142
100
AcDbEntity
  8
一般
370
               5
  6
Continuous
 62
               7
100
AcDbVertex
100
AcDb2dVertex
 10
1676.7754088045349
 20
943.00890101204027
 30
0.0
  0
VERTEX
  5
143
100
AcDbEntity
  8
一般
370
               5
  6
Continuous
 62
               7
100
AcDbVertex
100
AcDb2dVertex
 10
1663.8518683758257
 20
944.41677273472078
 30
0.0
  0
VERTEX
  5
144
100
AcDbEntity
  8
一般
370
               5
  6
Continuous
 62
               7
100
AcDbVertex
100
AcDb2dVertex
 10
1663.5811238137721
 20
941.93147649843058
 30
0.0
  0
SEQEND
  5
145
100
AcDbEntity
  8
一般
370
               5
  6
Continuous
 62
               7
  0
POLYLINE
  5
146
100
AcDbEntity
  8
一般
370
               5
  6
Continuous
 62
               7
100
AcDb2dPolyline
 66
               1
 10
0.0
 20
0.0
 30
0.0
 70
               1
 75
               5
  0
VERTEX
  5
147
100
AcDbEntity
  8
一般
370
               5
  6
Continuous
 62
               7
100
AcDbVertex
100
AcDb2dVertex
 10
1676.5046642424809
 20
945.02360477575007
 30
0.0
  0
VERTEX
  5
148
100
AcDbEntity
  8
一般
370
               5
  6
Continuous
 62
               7
100
AcDbVertex
100
AcDb2dVertex
 10
1676.7754088045349
 20
947.50890101204027
 30
0.0
  0
VERTEX
  5
149
100
AcDbEntity
  8
一般
370
               5
  6
Continuous
 62
               7
100
AcDbVertex
100
AcDb2dVertex
 10
1663.8518683758257
 20
948.91677273472078
 30
0.0
  0
VERTEX
  5
14A
100
AcDbEntity
  8
一般
370
               5
  6
Continuous
 62
               7
100
AcDbVertex
100
AcDb2dVertex
 10
1663.5811238137721
 20
946.43147649843058
 30
0.0
  0
SEQEND
  5
14B
100
AcDbEntity
  8
一般
370
               5
  6
Continuous
 62
               7
  0
POLYLINE
  5
14C
100
AcDbEntity
  8
一般
370
               5
  6
Continuous
 62
               7
100
AcDb2dPolyline
 66
               1
 10
0.0
 20
0.0
 30
0.0
 70
               1
 75
               5
  0
VERTEX
  5
14D
100
AcDbEntity
  8
一般
370
               5
  6
Continuous
 62
               7
100
AcDbVertex
100
AcDb2dVertex
 10
1676.5046642424809
 20
922.52360477575007
 30
0.0
  0
VERTEX
  5
14E
100
AcDbEntity
  8
一般
370
               5
  6
Continuous
 62
               7
100
AcDbVertex
100
AcDb2dVertex
 10
1676.7754088045349
 20
925.00890101204027
 30
0.0
  0
VERTEX
  5
14F
100
AcDbEntity
  8
一般
370
               5
  6
Continuous
 62
               7
100
AcDbVertex
100
AcDb2dVertex
 10
1663.8518683758257
 20
926.41677273472078
 30
0.0
  0
VERTEX
  5
150
100
AcDbEntity
  8
一般
370
               5
  6
Continuous
 62
               7
100
AcDbVertex
100
AcDb2dVertex
 10
1663.5811238137721
 20
923.93147649843058
 30
0.0
  0
SEQEND
  5
151
100
AcDbEntity
  8
一般
370
               5
  6
Continuous
 62
               7
  0
POLYLINE
  5
152
100
AcDbEntity
  8
一般
370
               5
  6
Continuous
 62
               7
100
AcDb2dPolyline
 66
               1
 10
0.0
 20
0.0
 30
0.0
 70
               1
 75
               5
  0
VERTEX
  5
153
100
AcDbEntity
  8
一般
370
               5
  6
Continuous
 62
               7
100
AcDbVertex
100
AcDb2dVertex
 10
1676.5046642424809
 20
918.02360477575019
 30
0.0
  0
VERTEX
  5
154
100
AcDbEntity
  8
一般
370
               5
  6
Continuous
 62
               7
100
AcDbVertex
100
AcDb2dVertex
 10
1676.7754088045349
 20
920.50890101204038
 30
0.0
  0
VERTEX
  5
155
100
AcDbEntity
  8
一般
370
               5
  6
Continuous
 62
               7
100
AcDbVertex
100
AcDb2dVertex
 10
1663.8518683758257
 20
921.91677273472089
 30
0.0
  0
VERTEX
  5
156
100
AcDbEntity
  8
一般
370
               5
  6
Continuous
 62
               7
100
AcDbVertex
100
AcDb2dVertex
 10
1663.5811238137721
 20
919.4314764984307
 30
0.0
  0
SEQEND
  5
157
100
AcDbEntity
  8
一般
370
               5
  6
Continuous
 62
               7
  0
POLYLINE
  5
158
100
AcDbEntity
  8
一般
370
               5
  6
Continuous
 62
               7
100
AcDb2dPolyline
 66
               1
 10
0.0
 20
0.0
 30
0.0
 70
               1
 75
               5
  0
VERTEX
  5
159
100
AcDbEntity
  8
一般
370
               5
  6
Continuous
 62
               7
100
AcDbVertex
100
AcDb2dVertex
 10
1676.5046642424809
 20
913.5236047757503
 30
0.0
  0
VERTEX
  5
15A
100
AcDbEntity
  8
一般
370
               5
  6
Continuous
 62
               7
100
AcDbVertex
100
AcDb2dVertex
 10
1676.7754088045349
 20
916.0089010120405
 30
0.0
  0
VERTEX
  5
15B
100
AcDbEntity
  8
一般
370
               5
  6
Continuous
 62
               7
100
AcDbVertex
100
AcDb2dVertex
 10
1663.8518683758257
 20
917.41677273472089
 30
0.0
  0
VERTEX
  5
15C
100
AcDbEntity
  8
一般
370
               5
  6
Continuous
 62
               7
100
AcDbVertex
100
AcDb2dVertex
 10
1663.5811238137721
 20
914.93147649843081
 30
0.0
  0
SEQEND
  5
15D
100
AcDbEntity
  8
一般
370
               5
  6
Continuous
 62
               7
  0
POLYLINE
  5
15E
100
AcDbEntity
  8
一般
370
               5
  6
Continuous
 62
               7
100
AcDb2dPolyline
 66
               1
 10
0.0
 20
0.0
 30
0.0
 70
               1
 75
               5
  0
VERTEX
  5
15F
100
AcDbEntity
  8
一般
370
               5
  6
Continuous
 62
               7
100
AcDbVertex
100
AcDb2dVertex
 10
1676.5046642424809
 20
909.0236047757503
 30
0.0
  0
VERTEX
  5
160
100
AcDbEntity
  8
一般
370
               5
  6
Continuous
 62
               7
100
AcDbVertex
100
AcDb2dVertex
 10
1676.7754088045349
 20
911.5089010120405
 30
0.0
  0
VERTEX
  5
161
100
AcDbEntity
  8
一般
370
               5
  6
Continuous
 62
               7
100
AcDbVertex
100
AcDb2dVertex
 10
1663.8518683758257
 20
912.91677273472101
 30
0.0
  0
VERTEX
  5
162
100
AcDbEntity
  8
一般
370
               5
  6
Continuous
 62
               7
100
AcDbVertex
100
AcDb2dVertex
 10
1663.5811238137721
 20
910.43147649843081
 30
0.0
  0
SEQEND
  5
163
100
AcDbEntity
  8
一般
370
               5
  6
Continuous
 62
               7
  0
LWPOLYLINE
  5
164
100
AcDbEntity
  8
一般
370
              15
  6
Continuous
 62
               7
100
AcDbPolyline
 90
        5
 70
             128
 10
1670.029664242481
 20
965.02360477575053
 10
1681.0046642424809
 20
965.02360477575053
 10
1683.529664242481
 20
971.27360477575053
 10
1681.0046642424809
 20
977.52360477575053
 10
1670.0046642424809
 20
977.52360477575053
  0
ARC
  5
165
100
AcDbEntity
  8
一般
370
               5
  6
Continuous
 62
               7
100
AcDbCircle
 10
1670.029664242481
 20
971.27360477575053
 30
0.0
 40
6.0
100
AcDbArc
 50
270.0
 51
89.999640000000142
  0
SPLINE
  5
166
100
AcDbEntity
  8
一般
370
               5
  6
Continuous
 62
               7
100
AcDbSpline
210
0.0
220
0.0
230
1.0
 70
               8
 71
               2
 72
               8
 73
               5
 74
               0
 42
0.000001
 43
0.000001
 40
0.0
 40
0.0
 40
0.0
 40
1.0
 40
1.0
 40
2.0
 40
2.0
 40
2.0
 10
1683.529663049067
 20
971.27901124619962
 30
0.0
 10
1683.529664242481
 20
971.27630831557326
 30
0.0
 10
1683.529664242481
 20
971.27360477575053
 30
0.0
 10
1683.529664242481
 20
971.27046474616509
 30
0.0
 10
1683.5296626326026
 20
971.26732553820182
 30
0.0
  0
SPLINE
  5
167
100
AcDbEntity
  8
一般
370
               5
  6
Continuous
 62
               7
100
AcDbSpline
210
0.0
220
0.0
230
1.0
 70
               8
 71
               2
 72
              15
 73
              12
 74
               0
 42
0.000001
 43
0.000001
 40
0.0
 40
0.0
 40
0.0
 40
1.0
 40
1.0
 40
2.0
 40
3.0
 40
4.0
 40
5.0
 40
6.0
 40
7.0
 40
7.0
 40
8.0
 40
8.0
 40
8.0
 10
1681.1846683488125
 20
977.07809734487159
 30
0.0
 10
1680.7959176359291
 20
977.27360477575053
 30
0.0
 10
1680.3796642424809
 20
977.27360477575053
 30
0.0
 10
1679.5356242863229
 20
977.27360477575053
 30
0.0
 10
1678.0737041986388
 20
975.66590962116379
 30
0.0
 10
1677.2296642424808
 20
972.88129993033738
 30
0.0
 10
1677.2296642424808
 20
969.66590962116391
 30
0.0
 10
1678.0737041986388
 20
966.88129993033738
 30
0.0
 10
1679.5356242863229
 20
965.27360477575053
 30
0.0
 10
1680.3796642424809
 20
965.27360477575053
 30
0.0
 10
1680.7959176359291
 20
965.27360477575053
 30
0.0
 10
1681.1846683488125
 20
965.46911220662957
 30
0.0
  0
LWPOLYLINE
  5
168
100
AcDbEntity
  8
一般
370
              15
  6
Continuous
 62
               7
100
AcDbPolyline
 90
        4
 70
             128
 10
1670.0000000000002
 20
977.5
 10
1656.0
 20
977.5
 10
1670.0000000000002
 20
977.5
 10
1670.0000000000002
 20
961.5
  0
LWPOLYLINE
  5
169
100
AcDbEntity
  8
一般
370
              15
  6
Continuous
 62
               7
100
AcDbPolyline
 90
        2
 70
             128
 10
1656.0
 20
961.5
 10
1656.0
 20
977.5
  0
LINE
  5
16A
100
AcDbEntity
  8
一般
370
              15
  6
Continuous
 62
               7
100
AcDbLine
 10
1670.0000000000002
 20
961.5
 30
0.0
 11
1656.0
 21
961.5
 31
0.0
  0
POLYLINE
  5
16B
100
AcDbEntity
  8
一般
370
              15
  6
Continuous
 62
               7
100
AcDb2dPolyline
 66
               1
 10
0.0
 20
0.0
 30
0.0
 75
               5
  0
VERTEX
  5
16C
100
AcDbEntity
  8
一般
370
              15
  6
Continuous
 62
               7
100
AcDbVertex
100
AcDb2dVertex
 10
1283.053928389468
 20
977.5
 30
0.0
  0
VERTEX
  5
16D
100
AcDbEntity
  8
一般
370
              15
  6
Continuous
 62
               7
100
AcDbVertex
100
AcDb2dVertex
 10
1283.053928389468
 20
977.5
 30
0.0
  0
VERTEX
  5
16E
100
AcDbEntity
  8
一般
370
              15
  6
Continuous
 62
               7
100
AcDbVertex
100
AcDb2dVertex
 10
1283.053928389468
 20
993.29444885253906
 30
0.0
  0
SEQEND
  5
16F
100
AcDbEntity
  8
一般
370
              15
  6
Continuous
 62
               7
  0
POLYLINE
  5
170
100
AcDbEntity
  8
一般
370
              15
  6
Continuous
 62
               7
100
AcDb2dPolyline
 66
               1
 10
0.0
 20
0.0
 30
0.0
 75
               5
  0
VERTEX
  5
171
100
AcDbEntity
  8
一般
370
              15
  6
Continuous
 62
               7
100
AcDbVertex
100
AcDb2dVertex
 10
1307.053928389468
 20
993.29444885253906
 30
0.0
  0
VERTEX
  5
172
100
AcDbEntity
  8
一般
370
              15
  6
Continuous
 62
               7
100
AcDbVertex
100
AcDb2dVertex
 10
1307.053928389468
 20
977.5
 30
0.0
  0
VERTEX
  5
173
100
AcDbEntity
  8
一般
370
              15
  6
Continuous
 62
               7
100
AcDbVertex
100
AcDb2dVertex
 10
1295.0289283894681
 20
977.5
 30
0.0
  0
SEQEND
  5
174
100
AcDbEntity
  8
一般
370
              15
  6
Continuous
 62
               7
  0
SPLINE
  5
175
100
AcDbEntity
  8
一般
370
              15
  6
Continuous
 62
               7
100
AcDbSpline
210
0.0
220
0.0
230
1.0
 70
               8
 71
               2
 72
              15
 73
              12
 74
               0
 42
0.000001
 43
0.000001
 40
0.0
 40
0.0
 40
0.0
 40
1.0
 40
1.0
 40
2.0
 40
3.0
 40
4.0
 40
5.0
 40
6.0
 40
7.0
 40
7.0
 40
8.0
 40
8.0
 40
8.0
 10
1309.053928389468
 20
1104.0556064394505
 30
0.0
 10
1309.053928389468
 20
1051.8556064394506
 30
0.0
 10
1309.053928389468
 20
999.65560643945059
 30
0.0
 10
1309.053928389468
 20
996.34643391292627
 30
0.0
 10
1305.3026396954324
 20
990.61477896597501
 30
0.0
 10
1298.8052170835037
 20
987.30560643945068
 30
0.0
 10
1291.3026396954324
 20
987.30560643945068
 30
0.0
 10
1284.8052170835037
 20
990.61477896597501
 30
0.0
 10
1281.053928389468
 20
996.34643391292627
 30
0.0
 10
1281.053928389468
 20
999.65560643945059
 30
0.0
 10
1281.053928389468
 20
1045.3067637060708
 30
0.0
 10
1281.053928389468
 20
1090.9579209726908
 30
0.0
  0
LINE
  5
176
100
AcDbEntity
  8
一般
370
              15
  6
Continuous
 62
               7
100
AcDbLine
 10
1281.053928389468
 20
1090.9579209726908
 30
0.0
 11
1281.053928389468
 21
1104.0556064394505
 31
0.0
  0
SPLINE
  5
177
100
AcDbEntity
  8
一般
370
              15
  6
Continuous
 62
               7
100
AcDbSpline
210
0.0
220
0.0
230
1.0
 70
               9
 71
               2
 72
              18
 73
              15
 74
               0
 42
0.000001
 43
0.000001
 40
0.0
 40
0.0
 40
0.0
 40
1.0
 40
2.0
 40
3.0
 40
4.0
 40
5.0
 40
6.0
 40
7.0
 40
8.0
 40
9.0
 40
10.0
 40
11.0
 40
12.0
 40
13.0
 40
13.0
 40
13.0
 10
1281.053928389468
 20
1104.0556064394505
 30
0.0
 10
1281.053928389468
 20
1103.613044596289
 30
0.0
 10
1281.053928389468
 20
1107.3647789659749
 30
0.0
 10
1284.8052170835037
 20
1113.0964339129262
 30
0.0
 10
1291.3026396954324
 20
1116.4056064394506
 30
0.0
 10
1298.8052170835037
 20
1116.4056064394506
 30
0.0
 10
1305.3026396954324
 20
1113.0964339129262
 30
0.0
 10
1309.053928389468
 20
1107.3647789659749
 30
0.0
 10
1309.053928389468
 20
1100.7464339129262
 30
0.0
 10
1305.3026396954324
 20
1095.014778965975
 30
0.0
 10
1298.8052170835037
 20
1091.7056064394505
 30
0.0
 10
1291.3026396954324
 20
1091.7056064394505
 30
0.0
 10
1284.8052170835037
 20
1095.014778965975
 30
0.0
 10
1281.3047731588715
 20
1100.3631641140023
 30
0.0
 10
1281.053928389468
 20
1104.0556064394505
 30
0.0
  0
SPLINE
  5
178
100
AcDbEntity
  8
一般
370
              15
  6
Continuous
 62
               7
100
AcDbSpline
210
0.0
220
0.0
230
1.0
 70
               8
 71
               2
 72
               9
 73
               6
 74
               0
 42
0.000001
 43
0.000001
 40
0.0
 40
0.0
 40
0.0
 40
1.0
 40
2.0
 40
3.0
 40
4.0
 40
4.0
 40
4.0
 10
1306.0528395182353
 20
1057.5579209726909
 30
0.0
 10
1304.8550143233874
 20
1055.929916605259
 30
0.0
 10
1298.8052170835037
 20
1052.8487221050718
 30
0.0
 10
1291.3026396954324
 20
1052.8487221050718
 30
0.0
 10
1286.1498779864414
 20
1055.4730515509993
 30
0.0
 10
1284.0550172607009
 20
1057.5579209726909
 30
0.0
  0
LINE
  5
179
100
AcDbEntity
  8
一般
370
              15
  6
Continuous
 62
               7
100
AcDbLine
 10
1284.0550172607009
 20
1090.9579209726908
 30
0.0
 11
1284.0550172607009
 21
1057.5579209726909
 31
0.0
  0
LINE
  5
17A
100
AcDbEntity
  8
一般
370
              15
  6
Continuous
 62
               7
100
AcDbLine
 10
1306.0528395182353
 20
1057.5579209726909
 30
0.0
 11
1306.0528395182353
 21
1090.9579209726908
 31
0.0
  0
SPLINE
  5
17B
100
AcDbEntity
  8
一般
370
              15
  6
Continuous
 62
               7
100
AcDbSpline
210
0.0
220
0.0
230
1.0
 70
               8
 71
               2
 72
              12
 73
               9
 74
               0
 42
0.000001
 43
0.000001
 40
0.0
 40
0.0
 40
0.0
 40
1.0
 40
1.0
 40
2.0
 40
3.0
 40
4.0
 40
4.0
 40
5.0
 40
5.0
 40
5.0
 10
1306.0528395182353
 20
1090.9579209726908
 30
0.0
 10
1304.8542758227477
 20
1089.3295404828837
 30
0.0
 10
1301.8301157034457
 20
1087.7893193551654
 30
0.0
 10
1298.8052170835037
 20
1086.2487221050719
 30
0.0
 10
1291.3026396954324
 20
1086.2487221050719
 30
0.0
 10
1286.1498779864414
 20
1088.8730515509992
 30
0.0
 10
1284.0550172607009
 20
1090.9579209726908
 30
0.0
 10
1284.0550172607009
 20
1074.257920972691
 30
0.0
 10
1284.0550172607009
 20
1057.5579209726909
 30
0.0
  0
LINE
  5
17C
100
AcDbEntity
  8
一般
370
              15
  6
Continuous
 62
               7
100
AcDbLine
 10
1306.0528395182353
 20
1057.5579209726909
 30
0.0
 11
1306.0528395182353
 21
1090.9579209726908
 31
0.0
  0
LWPOLYLINE
  5
17D
100
AcDbEntity
  8
一般
370
              15
  6
Continuous
 62
               7
100
AcDbPolyline
 90
        9
 70
             128
 10
1295.0289283894681
 20
965.0
 10
1302.7789283894679
 20
965.0
 10
1302.7789283894679
 20
958.99999999999977
 10
1302.5289283894679
 20
955.99999999999977
 10
1302.5289283894679
 20
948.99999999999955
 10
1287.5289283894681
 20
948.99999999999955
 10
1287.5289283894681
 20
955.99999999999977
 10
1287.2789283894681
 20
958.99999999999977
 10
1287.2789283894681
 20
961.5
  0
LINE
  5
17E
100
AcDbEntity
  8
一般
370
               5
  6
Continuous
 62
               7
100
AcDbLine
 10
1289.0289283894681
 20
948.99999999999955
 30
0.0
 11
1289.0289283894681
 21
893.62360422915879
 31
0.0
  0
LINE
  5
17F
100
AcDbEntity
  8
一般
370
               5
  6
Continuous
 62
               7
100
AcDbLine
 10
1301.0289283894679
 20
948.99999999999955
 30
0.0
 11
1301.0289283894679
 21
893.62360422915879
 31
0.0
  0
POLYLINE
  5
180
100
AcDbEntity
  8
一般
370
               5
  6
Continuous
 62
               7
100
AcDb2dPolyline
 66
               1
 10
0.0
 20
0.0
 30
0.0
 70
               1
 75
               5
  0
VERTEX
  5
181
100
AcDbEntity
  8
一般
370
               5
  6
Continuous
 62
               7
100
AcDbVertex
100
AcDb2dVertex
 10
1301.5289283894679
 20
926.99999999999955
 30
0.0
  0
VERTEX
  5
182
100
AcDbEntity
  8
一般
370
               5
  6
Continuous
 62
               7
100
AcDbVertex
100
AcDb2dVertex
 10
1301.7996729515219
 20
929.48529623628974
 30
0.0
  0
VERTEX
  5
183
100
AcDbEntity
  8
一般
370
               5
  6
Continuous
 62
               7
100
AcDbVertex
100
AcDb2dVertex
 10
1288.8761325228129
 20
930.89316795897025
 30
0.0
  0
VERTEX
  5
184
100
AcDbEntity
  8
一般
370
               5
  6
Continuous
 62
               7
100
AcDbVertex
100
AcDb2dVertex
 10
1288.6053879607591
 20
928.40787172268006
 30
0.0
  0
SEQEND
  5
185
100
AcDbEntity
  8
一般
370
               5
  6
Continuous
 62
               7
  0
POLYLINE
  5
186
100
AcDbEntity
  8
一般
370
               5
  6
Continuous
 62
               7
100
AcDb2dPolyline
 66
               1
 10
0.0
 20
0.0
 30
0.0
 70
               1
 75
               5
  0
VERTEX
  5
187
100
AcDbEntity
  8
一般
370
               5
  6
Continuous
 62
               7
100
AcDbVertex
100
AcDb2dVertex
 10
1301.5289283894679
 20
931.49999999999955
 30
0.0
  0
VERTEX
  5
188
100
AcDbEntity
  8
一般
370
               5
  6
Continuous
 62
               7
100
AcDbVertex
100
AcDb2dVertex
 10
1301.7996729515219
 20
933.98529623628974
 30
0.0
  0
VERTEX
  5
189
100
AcDbEntity
  8
一般
370
               5
  6
Continuous
 62
               7
100
AcDbVertex
100
AcDb2dVertex
 10
1288.8761325228129
 20
935.39316795897025
 30
0.0
  0
VERTEX
  5
18A
100
AcDbEntity
  8
一般
370
               5
  6
Continuous
 62
               7
100
AcDbVertex
100
AcDb2dVertex
 10
1288.6053879607591
 20
932.90787172268006
 30
0.0
  0
SEQEND
  5
18B
100
AcDbEntity
  8
一般
370
               5
  6
Continuous
 62
               7
  0
POLYLINE
  5
18C
100
AcDbEntity
  8
一般
370
               5
  6
Continuous
 62
               7
100
AcDb2dPolyline
 66
               1
 10
0.0
 20
0.0
 30
0.0
 70
               1
 75
               5
  0
VERTEX
  5
18D
100
AcDbEntity
  8
一般
370
               5
  6
Continuous
 62
               7
100
AcDbVertex
100
AcDb2dVertex
 10
1301.5289283894679
 20
935.99999999999955
 30
0.0
  0
VERTEX
  5
18E
100
AcDbEntity
  8
一般
370
               5
  6
Continuous
 62
               7
100
AcDbVertex
100
AcDb2dVertex
 10
1301.7996729515219
 20
938.48529623628974
 30
0.0
  0
VERTEX
  5
18F
100
AcDbEntity
  8
一般
370
               5
  6
Continuous
 62
               7
100
AcDbVertex
100
AcDb2dVertex
 10
1288.8761325228129
 20
939.89316795897025
 30
0.0
  0
VERTEX
  5
190
100
AcDbEntity
  8
一般
370
               5
  6
Continuous
 62
               7
100
AcDbVertex
100
AcDb2dVertex
 10
1288.6053879607591
 20
937.40787172268006
 30
0.0
  0
SEQEND
  5
191
100
AcDbEntity
  8
一般
370
               5
  6
Continuous
 62
               7
  0
POLYLINE
  5
192
100
AcDbEntity
  8
一般
370
               5
  6
Continuous
 62
               7
100
AcDb2dPolyline
 66
               1
 10
0.0
 20
0.0
 30
0.0
 70
               1
 75
               5
  0
VERTEX
  5
193
100
AcDbEntity
  8
一般
370
               5
  6
Continuous
 62
               7
100
AcDbVertex
100
AcDb2dVertex
 10
1301.5289283894679
 20
940.49999999999955
 30
0.0
  0
VERTEX
  5
194
100
AcDbEntity
  8
一般
370
               5
  6
Continuous
 62
               7
100
AcDbVertex
100
AcDb2dVertex
 10
1301.7996729515219
 20
942.98529623628974
 30
0.0
  0
VERTEX
  5
195
100
AcDbEntity
  8
一般
370
               5
  6
Continuous
 62
               7
100
AcDbVertex
100
AcDb2dVertex
 10
1288.8761325228129
 20
944.39316795897025
 30
0.0
  0
VERTEX
  5
196
100
AcDbEntity
  8
一般
370
               5
  6
Continuous
 62
               7
100
AcDbVertex
100
AcDb2dVertex
 10
1288.6053879607591
 20
941.90787172268006
 30
0.0
  0
SEQEND
  5
197
100
AcDbEntity
  8
一般
370
               5
  6
Continuous
 62
               7
  0
POLYLINE
  5
198
100
AcDbEntity
  8
一般
370
               5
  6
Continuous
 62
               7
100
AcDb2dPolyline
 66
               1
 10
0.0
 20
0.0
 30
0.0
 70
               1
 75
               5
  0
VERTEX
  5
199
100
AcDbEntity
  8
一般
370
               5
  6
Continuous
 62
               7
100
AcDbVertex
100
AcDb2dVertex
 10
1301.5289283894679
 20
944.99999999999955
 30
0.0
  0
VERTEX
  5
19A
100
AcDbEntity
  8
一般
370
               5
  6
Continuous
 62
               7
100
AcDbVertex
100
AcDb2dVertex
 10
1301.7996729515219
 20
947.48529623628974
 30
0.0
  0
VERTEX
  5
19B
100
AcDbEntity
  8
一般
370
               5
  6
Continuous
 62
               7
100
AcDbVertex
100
AcDb2dVertex
 10
1288.8761325228129
 20
948.89316795897025
 30
0.0
  0
VERTEX
  5
19C
100
AcDbEntity
  8
一般
370
               5
  6
Continuous
 62
               7
100
AcDbVertex
100
AcDb2dVertex
 10
1288.6053879607591
 20
946.40787172268006
 30
0.0
  0
SEQEND
  5
19D
100
AcDbEntity
  8
一般
370
               5
  6
Continuous
 62
               7
  0
POLYLINE
  5
19E
100
AcDbEntity
  8
一般
370
               5
  6
Continuous
 62
               7
100
AcDb2dPolyline
 66
               1
 10
0.0
 20
0.0
 30
0.0
 70
               1
 75
               5
  0
VERTEX
  5
19F
100
AcDbEntity
  8
一般
370
               5
  6
Continuous
 62
               7
100
AcDbVertex
100
AcDb2dVertex
 10
1301.5289283894679
 20
922.49999999999955
 30
0.0
  0
VERTEX
  5
1A0
100
AcDbEntity
  8
一般
370
               5
  6
Continuous
 62
               7
100
AcDbVertex
100
AcDb2dVertex
 10
1301.7996729515219
 20
924.98529623628974
 30
0.0
  0
VERTEX
  5
1A1
100
AcDbEntity
  8
一般
370
               5
  6
Continuous
 62
               7
100
AcDbVertex
100
AcDb2dVertex
 10
1288.8761325228129
 20
926.39316795897025
 30
0.0
  0
VERTEX
  5
1A2
100
AcDbEntity
  8
一般
370
               5
  6
Continuous
 62
               7
100
AcDbVertex
100
AcDb2dVertex
 10
1288.6053879607591
 20
923.90787172268006
 30
0.0
  0
SEQEND
  5
1A3
100
AcDbEntity
  8
一般
370
               5
  6
Continuous
 62
               7
  0
POLYLINE
  5
1A4
100
AcDbEntity
  8
一般
370
               5
  6
Continuous
 62
               7
100
AcDb2dPolyline
 66
               1
 10
0.0
 20
0.0
 30
0.0
 70
               1
 75
               5
  0
VERTEX
  5
1A5
100
AcDbEntity
  8
一般
370
               5
  6
Continuous
 62
               7
100
AcDbVertex
100
AcDb2dVertex
 10
1301.5289283894679
 20
917.99999999999966
 30
0.0
  0
VERTEX
  5
1A6
100
AcDbEntity
  8
一般
370
               5
  6
Continuous
 62
               7
100
AcDbVertex
100
AcDb2dVertex
 10
1301.7996729515219
 20
920.48529623628974
 30
0.0
  0
VERTEX
  5
1A7
100
AcDbEntity
  8
一般
370
               5
  6
Continuous
 62
               7
100
AcDbVertex
100
AcDb2dVertex
 10
1288.8761325228129
 20
921.89316795897025
 30
0.0
  0
VERTEX
  5
1A8
100
AcDbEntity
  8
一般
370
               5
  6
Continuous
 62
               7
100
AcDbVertex
100
AcDb2dVertex
 10
1288.6053879607591
 20
919.40787172268006
 30
0.0
  0
SEQEND
  5
1A9
100
AcDbEntity
  8
一般
370
               5
  6
Continuous
 62
               7
  0
POLYLINE
  5
1AA
100
AcDbEntity
  8
一般
370
               5
  6
Continuous
 62
               7
100
AcDb2dPolyline
 66
               1
 10
0.0
 20
0.0
 30
0.0
 70
               1
 75
               5
  0
VERTEX
  5
1AB
100
AcDbEntity
  8
一般
370
               5
  6
Continuous
 62
               7
100
AcDbVertex
100
AcDb2dVertex
 10
1301.5289283894679
 20
913.49999999999977
 30
0.0
  0
VERTEX
  5
1AC
100
AcDbEntity
  8
一般
370
               5
  6
Continuous
 62
               7
100
AcDbVertex
100
AcDb2dVertex
 10
1301.7996729515219
 20
915.98529623628986
 30
0.0
  0
VERTEX
  5
1AD
100
AcDbEntity
  8
一般
370
               5
  6
Continuous
 62
               7
100
AcDbVertex
100
AcDb2dVertex
 10
1288.8761325228129
 20
917.39316795897037
 30
0.0
  0
VERTEX
  5
1AE
100
AcDbEntity
  8
一般
370
               5
  6
Continuous
 62
               7
100
AcDbVertex
100
AcDb2dVertex
 10
1288.6053879607591
 20
914.90787172268017
 30
0.0
  0
SEQEND
  5
1AF
100
AcDbEntity
  8
一般
370
               5
  6
Continuous
 62
               7
  0
POLYLINE
  5
1B0
100
AcDbEntity
  8
一般
370
               5
  6
Continuous
 62
               7
100
AcDb2dPolyline
 66
               1
 10
0.0
 20
0.0
 30
0.0
 70
               1
 75
               5
  0
VERTEX
  5
1B1
100
AcDbEntity
  8
一般
370
               5
  6
Continuous
 62
               7
100
AcDbVertex
100
AcDb2dVertex
 10
1301.5289283894679
 20
908.99999999999977
 30
0.0
  0
VERTEX
  5
1B2
100
AcDbEntity
  8
一般
370
               5
  6
Continuous
 62
               7
100
AcDbVertex
100
AcDb2dVertex
 10
1301.7996729515219
 20
911.48529623628997
 30
0.0
  0
VERTEX
  5
1B3
100
AcDbEntity
  8
一般
370
               5
  6
Continuous
 62
               7
100
AcDbVertex
100
AcDb2dVertex
 10
1288.8761325228129
 20
912.89316795897048
 30
0.0
  0
VERTEX
  5
1B4
100
AcDbEntity
  8
一般
370
               5
  6
Continuous
 62
               7
100
AcDbVertex
100
AcDb2dVertex
 10
1288.6053879607591
 20
910.40787172268028
 30
0.0
  0
SEQEND
  5
1B5
100
AcDbEntity
  8
一般
370
               5
  6
Continuous
 62
               7
  0
LWPOLYLINE
  5
1B6
100
AcDbEntity
  8
一般
370
              15
  6
Continuous
 62
               7
100
AcDbPolyline
 90
        5
 70
             128
 10
1295.0289283894681
 20
977.5
 10
1306.0289283894679
 20
977.5
 10
1308.553928389468
 20
971.25
 10
1306.0289283894679
 20
965.0
 10
1295.0289283894681
 20
965.0
  0
ARC
  5
1B7
100
AcDbEntity
  8
一般
370
               5
  6
Continuous
 62
               7
100
AcDbCircle
 10
1295.053928389468
 20
971.25
 30
0.0
 40
5.9999999999999885
100
AcDbArc
 50
269.76126689457976
 51
90.238373105420123
  0
SPLINE
  5
1B8
100
AcDbEntity
  8
一般
370
               5
  6
Continuous
 62
               7
100
AcDbSpline
210
0.0
220
0.0
230
1.0
 70
               8
 71
               2
 72
               8
 73
               5
 74
               0
 42
0.000001
 43
0.000001
 40
0.0
 40
0.0
 40
0.0
 40
1.0
 40
1.0
 40
2.0
 40
2.0
 40
2.0
 10
1308.5539272743658
 20
971.24477390597394
 30
0.0
 10
1308.553928389468
 20
971.2473866684013
 30
0.0
 10
1308.553928389468
 20
971.25
 30
0.0
 10
1308.553928389468
 20
971.25261977384798
 30
0.0
 10
1308.5539272688613
 20
971.25523897572737
 30
0.0
  0
SPLINE
  5
1B9
100
AcDbEntity
  8
一般
370
               5
  6
Continuous
 62
               7
100
AcDbSpline
210
0.0
220
0.0
230
1.0
 70
               8
 71
               2
 72
               6
 73
               3
 74
               0
 42
0.000001
 43
0.000001
 40
0.0
 40
0.0
 40
0.0
 40
1.0
 40
1.0
 40
1.0
 10
1307.7500067257265
 20
967.24124621976853
 30
0.0
 10
1307.7500035663941
 20
967.24123948639999
 30
0.0
 10
1307.7500004028443
 20
967.24123274408532
 30
0.0
  0
SPLINE
  5
1BA
100
AcDbEntity
  8
一般
370
               5
  6
Continuous
 62
               7
100
AcDbSpline
210
0.0
220
0.0
230
1.0
 70
               8
 71
               2
 72
              15
 73
              12
 74
               0
 42
0.000001
 43
0.000001
 40
0.0
 40
0.0
 40
0.0
 40
1.0
 40
1.0
 40
2.0
 40
3.0
 40
4.0
 40
5.0
 40
6.0
 40
7.0
 40
7.0
 40
8.0
 40
8.0
 40
8.0
 10
1306.2089324957997
 20
965.44550743087905
 30
0.0
 10
1305.8201817829161
 20
965.25
 30
0.0
 10
1305.4039283894679
 20
965.25
 30
0.0
 10
1304.5598884333099
 20
965.25
 30
0.0
 10
1303.097968345626
 20
966.85769515458674
 30
0.0
 10
1302.2539283894678
 20
969.64230484541326
 30
0.0
 10
1302.2539283894678
 20
972.85769515458674
 30
0.0
 10
1303.097968345626
 20
975.64230484541326
 30
0.0
 10
1304.5598884333099
 20
977.25
 30
0.0
 10
1305.4039283894679
 20
977.25
 30
0.0
 10
1305.8201817829161
 20
977.25
 30
0.0
 10
1306.2089324957997
 20
977.05449256912095
 30
0.0
  0
LWPOLYLINE
  5
1BB
100
AcDbEntity
  8
一般
370
              15
  6
Continuous
 62
               7
100
AcDbPolyline
 90
        4
 70
             128
 10
1279.75
 20
977.5
 10
1279.75
 20
977.75
 10
1295.0289283894681
 20
977.75
 10
1295.0289283894681
 20
977.75
  0
POLYLINE
  5
1BC
100
AcDbEntity
  8
一般
370
              15
  6
Continuous
 62
               7
100
AcDb2dPolyline
 66
               1
 10
0.0
 20
0.0
 30
0.0
 75
               5
  0
VERTEX
  5
1BD
100
AcDbEntity
  8
一般
370
              15
  6
Continuous
 62
               7
100
AcDbVertex
100
AcDb2dVertex
 10
1279.75
 20
963.5
 30
0.0
  0
VERTEX
  5
1BE
100
AcDbEntity
  8
一般
370
              15
  6
Continuous
 62
               7
100
AcDbVertex
100
AcDb2dVertex
 10
1279.75
 20
961.5
 30
0.0
  0
VERTEX
  5
1BF
100
AcDbEntity
  8
一般
370
              15
  6
Continuous
 62
               7
100
AcDbVertex
100
AcDb2dVertex
 10
1295.0289283894681
 20
961.5
 30
0.0
  0
SEQEND
  5
1C0
100
AcDbEntity
  8
一般
370
              15
  6
Continuous
 62
               7
  0
LINE
  5
1C1
100
AcDbEntity
  8
一般
370
              15
  6
Continuous
 62
               7
100
AcDbLine
 10
1279.75
 20
975.5
 30
0.0
 11
1279.75
 21
977.5
 31
0.0
  0
LINE
  5
1C2
100
AcDbEntity
  8
一般
370
              15
  6
Continuous
 62
               7
100
AcDbLine
 10
1295.0289283894681
 20
977.75
 30
0.0
 11
1295.0289283894681
 21
961.5
 31
0.0
  0
ARC
  5
1C3
100
AcDbEntity
  8
一般
370
              15
  6
Continuous
 62
               7
100
AcDbCircle
 10
1269.3576951545865
 20
969.5
 30
0.0
 40
12.000000000000197
100
AcDbArc
 50
330.00000000000063
 51
29.999999999999492
  0
POLYLINE
  5
1C4
100
AcDbEntity
  8
一般
370
              15
  6
Continuous
 62
               7
100
AcDb2dPolyline
 66
               1
 10
0.0
 20
0.0
 30
0.0
 70
               1
 75
               5
  0
VERTEX
  5
1C5
100
AcDbEntity
  8
一般
370
              15
  6
Continuous
 62
               7
100
AcDbVertex
100
AcDb2dVertex
 10
1156.4999999999864
 20
959.01317112175411
 30
0.0
  0
VERTEX
  5
1C6
100
AcDbEntity
  8
一般
370
              15
  6
Continuous
 62
               7
100
AcDbVertex
100
AcDb2dVertex
 10
1156.4999999999864
 20
953.013171121754
 30
0.0
  0
VERTEX
  5
1C7
100
AcDbEntity
  8
一般
370
              15
  6
Continuous
 62
               7
100
AcDbVertex
100
AcDb2dVertex
 10
1156.2499999999864
 20
950.01317112175389
 30
0.0
  0
VERTEX
  5
1C8
100
AcDbEntity
  8
一般
370
              15
  6
Continuous
 62
               7
100
AcDbVertex
100
AcDb2dVertex
 10
1156.2499999999864
 20
943.01317112175366
 30
0.0
  0
VERTEX
  5
1C9
100
AcDbEntity
  8
一般
370
              15
  6
Continuous
 62
               7
100
AcDbVertex
100
AcDb2dVertex
 10
1141.2499999999866
 20
943.01317112175366
 30
0.0
  0
VERTEX
  5
1CA
100
AcDbEntity
  8
一般
370
              15
  6
Continuous
 62
               7
100
AcDbVertex
100
AcDb2dVertex
 10
1141.2499999999866
 20
950.01317112175389
 30
0.0
  0
VERTEX
  5
1CB
100
AcDbEntity
  8
一般
370
              15
  6
Continuous
 62
               7
100
AcDbVertex
100
AcDb2dVertex
 10
1140.9999999999866
 20
953.013171121754
 30
0.0
  0
VERTEX
  5
1CC
100
AcDbEntity
  8
一般
370
              15
  6
Continuous
 62
               7
100
AcDbVertex
100
AcDb2dVertex
 10
1140.9999999999866
 20
959.01317112175411
 30
0.0
  0
SEQEND
  5
1CD
100
AcDbEntity
  8
一般
370
              15
  6
Continuous
 62
               7
  0
LINE
  5
1CE
100
AcDbEntity
  8
一般
370
               5
  6
Continuous
 62
               7
100
AcDbLine
 10
1142.7499999999866
 20
943.01317112175366
 30
0.0
 11
1142.7499999999866
 21
887.63677535091301
 31
0.0
  0
LINE
  5
1CF
100
AcDbEntity
  8
一般
370
               5
  6
Continuous
 62
               7
100
AcDbLine
 10
1154.7499999999864
 20
943.01317112175366
 30
0.0
 11
1154.7499999999864
 21
887.63677535091301
 31
0.0
  0
POLYLINE
  5
1D0
100
AcDbEntity
  8
一般
370
               5
  6
Continuous
 62
               7
100
AcDb2dPolyline
 66
               1
 10
0.0
 20
0.0
 30
0.0
 70
               1
 75
               5
  0
VERTEX
  5
1D1
100
AcDbEntity
  8
一般
370
               5
  6
Continuous
 62
               7
100
AcDbVertex
100
AcDb2dVertex
 10
1155.2499999999864
 20
921.01317112175366
 30
0.0
  0
VERTEX
  5
1D2
100
AcDbEntity
  8
一般
370
               5
  6
Continuous
 62
               7
100
AcDbVertex
100
AcDb2dVertex
 10
1155.5207445620404
 20
923.49846735804385
 30
0.0
  0
VERTEX
  5
1D3
100
AcDbEntity
  8
一般
370
               5
  6
Continuous
 62
               7
100
AcDbVertex
100
AcDb2dVertex
 10
1142.5972041333314
 20
924.90633908072436
 30
0.0
  0
VERTEX
  5
1D4
100
AcDbEntity
  8
一般
370
               5
  6
Continuous
 62
               7
100
AcDbVertex
100
AcDb2dVertex
 10
1142.3264595712776
 20
922.42104284443417
 30
0.0
  0
SEQEND
  5
1D5
100
AcDbEntity
  8
一般
370
               5
  6
Continuous
 62
               7
  0
POLYLINE
  5
1D6
100
AcDbEntity
  8
一般
370
               5
  6
Continuous
 62
               7
100
AcDb2dPolyline
 66
               1
 10
0.0
 20
0.0
 30
0.0
 70
               1
 75
               5
  0
VERTEX
  5
1D7
100
AcDbEntity
  8
一般
370
               5
  6
Continuous
 62
               7
100
AcDbVertex
100
AcDb2dVertex
 10
1155.2499999999864
 20
925.51317112175366
 30
0.0
  0
VERTEX
  5
1D8
100
AcDbEntity
  8
一般
370
               5
  6
Continuous
 62
               7
100
AcDbVertex
100
AcDb2dVertex
 10
1155.5207445620404
 20
927.99846735804385
 30
0.0
  0
VERTEX
  5
1D9
100
AcDbEntity
  8
一般
370
               5
  6
Continuous
 62
               7
100
AcDbVertex
100
AcDb2dVertex
 10
1142.5972041333314
 20
929.40633908072436
 30
0.0
  0
VERTEX
  5
1DA
100
AcDbEntity
  8
一般
370
               5
  6
Continuous
 62
               7
100
AcDbVertex
100
AcDb2dVertex
 10
1142.3264595712776
 20
926.92104284443417
 30
0.0
  0
SEQEND
  5
1DB
100
AcDbEntity
  8
一般
370
               5
  6
Continuous
 62
               7
  0
POLYLINE
  5
1DC
100
AcDbEntity
  8
一般
370
               5
  6
Continuous
 62
               7
100
AcDb2dPolyline
 66
               1
 10
0.0
 20
0.0
 30
0.0
 70
               1
 75
               5
  0
VERTEX
  5
1DD
100
AcDbEntity
  8
一般
370
               5
  6
Continuous
 62
               7
100
AcDbVertex
100
AcDb2dVertex
 10
1155.2499999999864
 20
930.01317112175366
 30
0.0
  0
VERTEX
  5
1DE
100
AcDbEntity
  8
一般
370
               5
  6
Continuous
 62
               7
100
AcDbVertex
100
AcDb2dVertex
 10
1155.5207445620404
 20
932.49846735804385
 30
0.0
  0
VERTEX
  5
1DF
100
AcDbEntity
  8
一般
370
               5
  6
Continuous
 62
               7
100
AcDbVertex
100
AcDb2dVertex
 10
1142.5972041333314
 20
933.90633908072436
 30
0.0
  0
VERTEX
  5
1E0
100
AcDbEntity
  8
一般
370
               5
  6
Continuous
 62
               7
100
AcDbVertex
100
AcDb2dVertex
 10
1142.3264595712776
 20
931.42104284443417
 30
0.0
  0
SEQEND
  5
1E1
100
AcDbEntity
  8
一般
370
               5
  6
Continuous
 62
               7
  0
POLYLINE
  5
1E2
100
AcDbEntity
  8
一般
370
               5
  6
Continuous
 62
               7
100
AcDb2dPolyline
 66
               1
 10
0.0
 20
0.0
 30
0.0
 70
               1
 75
               5
  0
VERTEX
  5
1E3
100
AcDbEntity
  8
一般
370
               5
  6
Continuous
 62
               7
100
AcDbVertex
100
AcDb2dVertex
 10
1155.2499999999864
 20
934.51317112175366
 30
0.0
  0
VERTEX
  5
1E4
100
AcDbEntity
  8
一般
370
               5
  6
Continuous
 62
               7
100
AcDbVertex
100
AcDb2dVertex
 10
1155.5207445620404
 20
936.99846735804385
 30
0.0
  0
VERTEX
  5
1E5
100
AcDbEntity
  8
一般
370
               5
  6
Continuous
 62
               7
100
AcDbVertex
100
AcDb2dVertex
 10
1142.5972041333314
 20
938.40633908072436
 30
0.0
  0
VERTEX
  5
1E6
100
AcDbEntity
  8
一般
370
               5
  6
Continuous
 62
               7
100
AcDbVertex
100
AcDb2dVertex
 10
1142.3264595712776
 20
935.92104284443417
 30
0.0
  0
SEQEND
  5
1E7
100
AcDbEntity
  8
一般
370
               5
  6
Continuous
 62
               7
  0
POLYLINE
  5
1E8
100
AcDbEntity
  8
一般
370
               5
  6
Continuous
 62
               7
100
AcDb2dPolyline
 66
               1
 10
0.0
 20
0.0
 30
0.0
 70
               1
 75
               5
  0
VERTEX
  5
1E9
100
AcDbEntity
  8
一般
370
               5
  6
Continuous
 62
               7
100
AcDbVertex
100
AcDb2dVertex
 10
1155.2499999999864
 20
939.01317112175366
 30
0.0
  0
VERTEX
  5
1EA
100
AcDbEntity
  8
一般
370
               5
  6
Continuous
 62
               7
100
AcDbVertex
100
AcDb2dVertex
 10
1155.5207445620404
 20
941.49846735804385
 30
0.0
  0
VERTEX
  5
1EB
100
AcDbEntity
  8
一般
370
               5
  6
Continuous
 62
               7
100
AcDbVertex
100
AcDb2dVertex
 10
1142.5972041333314
 20
942.90633908072436
 30
0.0
  0
VERTEX
  5
1EC
100
AcDbEntity
  8
一般
370
               5
  6
Continuous
 62
               7
100
AcDbVertex
100
AcDb2dVertex
 10
1142.3264595712776
 20
940.42104284443417
 30
0.0
  0
SEQEND
  5
1ED
100
AcDbEntity
  8
一般
370
               5
  6
Continuous
 62
               7
  0
POLYLINE
  5
1EE
100
AcDbEntity
  8
一般
370
               5
  6
Continuous
 62
               7
100
AcDb2dPolyline
 66
               1
 10
0.0
 20
0.0
 30
0.0
 70
               1
 75
               5
  0
VERTEX
  5
1EF
100
AcDbEntity
  8
一般
370
               5
  6
Continuous
 62
               7
100
AcDbVertex
100
AcDb2dVertex
 10
1155.2499999999864
 20
916.51317112175366
 30
0.0
  0
VERTEX
  5
1F0
100
AcDbEntity
  8
一般
370
               5
  6
Continuous
 62
               7
100
AcDbVertex
100
AcDb2dVertex
 10
1155.5207445620404
 20
918.99846735804385
 30
0.0
  0
VERTEX
  5
1F1
100
AcDbEntity
  8
一般
370
               5
  6
Continuous
 62
               7
100
AcDbVertex
100
AcDb2dVertex
 10
1142.5972041333314
 20
920.40633908072436
 30
0.0
  0
VERTEX
  5
1F2
100
AcDbEntity
  8
一般
370
               5
  6
Continuous
 62
               7
100
AcDbVertex
100
AcDb2dVertex
 10
1142.3264595712776
 20
917.92104284443417
 30
0.0
  0
SEQEND
  5
1F3
100
AcDbEntity
  8
一般
370
               5
  6
Continuous
 62
               7
  0
POLYLINE
  5
1F4
100
AcDbEntity
  8
一般
370
               5
  6
Continuous
 62
               7
100
AcDb2dPolyline
 66
               1
 10
0.0
 20
0.0
 30
0.0
 70
               1
 75
               5
  0
VERTEX
  5
1F5
100
AcDbEntity
  8
一般
370
               5
  6
Continuous
 62
               7
100
AcDbVertex
100
AcDb2dVertex
 10
1155.2499999999864
 20
912.01317112175389
 30
0.0
  0
VERTEX
  5
1F6
100
AcDbEntity
  8
一般
370
               5
  6
Continuous
 62
               7
100
AcDbVertex
100
AcDb2dVertex
 10
1155.5207445620404
 20
914.49846735804397
 30
0.0
  0
VERTEX
  5
1F7
100
AcDbEntity
  8
一般
370
               5
  6
Continuous
 62
               7
100
AcDbVertex
100
AcDb2dVertex
 10
1142.5972041333314
 20
915.90633908072448
 30
0.0
  0
VERTEX
  5
1F8
100
AcDbEntity
  8
一般
370
               5
  6
Continuous
 62
               7
100
AcDbVertex
100
AcDb2dVertex
 10
1142.3264595712776
 20
913.42104284443428
 30
0.0
  0
SEQEND
  5
1F9
100
AcDbEntity
  8
一般
370
               5
  6
Continuous
 62
               7
  0
POLYLINE
  5
1FA
100
AcDbEntity
  8
一般
370
               5
  6
Continuous
 62
               7
100
AcDb2dPolyline
 66
               1
 10
0.0
 20
0.0
 30
0.0
 70
               1
 75
               5
  0
VERTEX
  5
1FB
100
AcDbEntity
  8
一般
370
               5
  6
Continuous
 62
               7
100
AcDbVertex
100
AcDb2dVertex
 10
1155.2499999999864
 20
907.51317112175389
 30
0.0
  0
VERTEX
  5
1FC
100
AcDbEntity
  8
一般
370
               5
  6
Continuous
 62
               7
100
AcDbVertex
100
AcDb2dVertex
 10
1155.5207445620404
 20
909.99846735804408
 30
0.0
  0
VERTEX
  5
1FD
100
AcDbEntity
  8
一般
370
               5
  6
Continuous
 62
               7
100
AcDbVertex
100
AcDb2dVertex
 10
1142.5972041333314
 20
911.40633908072459
 30
0.0
  0
VERTEX
  5
1FE
100
AcDbEntity
  8
一般
370
               5
  6
Continuous
 62
               7
100
AcDbVertex
100
AcDb2dVertex
 10
1142.3264595712776
 20
908.9210428444344
 30
0.0
  0
SEQEND
  5
1FF
100
AcDbEntity
  8
一般
370
               5
  6
Continuous
 62
               7
  0
POLYLINE
  5
200
100
AcDbEntity
  8
一般
370
               5
  6
Continuous
 62
               7
100
AcDb2dPolyline
 66
               1
 10
0.0
 20
0.0
 30
0.0
 70
               1
 75
               5
  0
VERTEX
  5
201
100
AcDbEntity
  8
一般
370
               5
  6
Continuous
 62
               7
100
AcDbVertex
100
AcDb2dVertex
 10
1155.2499999999864
 20
903.01317112175389
 30
0.0
  0
VERTEX
  5
202
100
AcDbEntity
  8
一般
370
               5
  6
Continuous
 62
               7
100
AcDbVertex
100
AcDb2dVertex
 10
1155.5207445620404
 20
905.49846735804408
 30
0.0
  0
VERTEX
  5
203
100
AcDbEntity
  8
一般
370
               5
  6
Continuous
 62
               7
100
AcDbVertex
100
AcDb2dVertex
 10
1142.5972041333314
 20
906.90633908072459
 30
0.0
  0
VERTEX
  5
204
100
AcDbEntity
  8
一般
370
               5
  6
Continuous
 62
               7
100
AcDbVertex
100
AcDb2dVertex
 10
1142.3264595712776
 20
904.4210428444344
 30
0.0
  0
SEQEND
  5
205
100
AcDbEntity
  8
一般
370
               5
  6
Continuous
 62
               7
  0
POLYLINE
  5
206
100
AcDbEntity
  8
一般
370
              15
  6
Continuous
 62
               7
100
AcDb2dPolyline
 66
               1
 10
0.0
 20
0.0
 30
0.0
 70
               1
 75
               5
  0
VERTEX
  5
207
100
AcDbEntity
  8
一般
370
              15
  6
Continuous
 62
               7
100
AcDbVertex
100
AcDb2dVertex
 10
1137.7499999999866
 20
971.51317112175411
 30
0.0
  0
VERTEX
  5
208
100
AcDbEntity
  8
一般
370
              15
  6
Continuous
 62
               7
100
AcDbVertex
100
AcDb2dVertex
 10
1135.2249999999865
 20
965.26317112175411
 30
0.0
  0
VERTEX
  5
209
100
AcDbEntity
  8
一般
370
              15
  6
Continuous
 62
               7
100
AcDbVertex
100
AcDb2dVertex
 10
1137.7499999999866
 20
959.01317112175411
 30
0.0
  0
VERTEX
  5
20A
100
AcDbEntity
  8
一般
370
              15
  6
Continuous
 62
               7
100
AcDbVertex
100
AcDb2dVertex
 10
1159.7499999999864
 20
959.01317112175411
 30
0.0
  0
VERTEX
  5
20B
100
AcDbEntity
  8
一般
370
              15
  6
Continuous
 62
               7
100
AcDbVertex
100
AcDb2dVertex
 10
1162.2749999999864
 20
965.26317112175411
 30
0.0
  0
VERTEX
  5
20C
100
AcDbEntity
  8
一般
370
              15
  6
Continuous
 62
               7
100
AcDbVertex
100
AcDb2dVertex
 10
1159.7499999999864
 20
971.51317112175411
 30
0.0
  0
SEQEND
  5
20D
100
AcDbEntity
  8
一般
370
              15
  6
Continuous
 62
               7
  0
CIRCLE
  5
20E
100
AcDbEntity
  8
一般
370
               5
  6
Continuous
 62
               7
100
AcDbCircle
 10
1148.7749999999864
 20
965.26317112175411
 30
0.0
 40
6.0
  0
SPLINE
  5
20F
100
AcDbEntity
  8
一般
370
               5
  6
Continuous
 62
               7
100
AcDbSpline
210
0.0
220
0.0
230
1.0
 70
               8
 71
               2
 72
              15
 73
              12
 74
               0
 42
0.000001
 43
0.000001
 40
0.0
 40
0.0
 40
0.0
 40
1.0
 40
1.0
 40
2.0
 40
3.0
 40
4.0
 40
5.0
 40
6.0
 40
7.0
 40
7.0
 40
8.0
 40
8.0
 40
8.0
 10
1160.0822506731902
 20
970.98295709139268
 30
0.0
 10
1159.722276350637
 20
971.26317112175411
 30
0.0
 10
1159.1249999999864
 20
971.26317112175411
 30
0.0
 10
1158.2809600438284
 20
971.26317112175411
 30
0.0
 10
1156.8190399561445
 20
969.65547596716738
 30
0.0
 10
1155.9749999999863
 20
966.87086627634096
 30
0.0
 10
1155.9749999999863
 20
963.65547596716749
 30
0.0
 10
1156.8190399561445
 20
960.87086627634096
 30
0.0
 10
1158.2809600438284
 20
959.26317112175411
 30
0.0
 10
1159.1249999999864
 20
959.26317112175411
 30
0.0
 10
1159.5412533934345
 20
959.26317112175411
 30
0.0
 10
1159.9300041063182
 20
959.45867855263316
 30
0.0
  0
SPLINE
  5
210
100
AcDbEntity
  8
一般
370
               5
  6
Continuous
 62
               7
100
AcDbSpline
210
0.0
220
0.0
230
1.0
 70
               8
 71
               2
 72
              15
 73
              12
 74
               0
 42
0.000001
 43
0.000001
 40
0.0
 40
0.0
 40
0.0
 40
1.0
 40
1.0
 40
2.0
 40
3.0
 40
4.0
 40
5.0
 40
6.0
 40
7.0
 40
7.0
 40
8.0
 40
8.0
 40
8.0
 10
1137.5699958936548
 20
971.06766369087518
 30
0.0
 10
1137.9587466065384
 20
971.26317112175411
 30
0.0
 10
1138.3749999999866
 20
971.26317112175411
 30
0.0
 10
1139.2190399561446
 20
971.26317112175411
 30
0.0
 10
1140.6809600438287
 20
969.65547596716738
 30
0.0
 10
1141.5249999999867
 20
966.87086627634085
 30
0.0
 10
1141.5249999999867
 20
963.65547596716738
 30
0.0
 10
1140.6809600438287
 20
960.87086627634085
 30
0.0
 10
1139.2190399561446
 20
959.26317112175411
 30
0.0
 10
1138.3749999999866
 20
959.26317112175411
 30
0.0
 10
1137.9587466065384
 20
959.26317112175411
 30
0.0
 10
1137.5699958936548
 20
959.45867855263316
 30
0.0
  0
SPLINE
  5
211
100
AcDbEntity
  8
一般
370
               5
  6
Continuous
 62
               7
100
AcDbSpline
210
0.0
220
0.0
230
1.0
 70
               8
 71
               2
 72
               6
 73
               3
 74
               0
 42
0.000001
 43
0.000001
 40
0.0
 40
0.0
 40
0.0
 40
1.0
 40
1.0
 40
1.0
 10
1135.7500001740623
 20
968.58091055946215
 30
0.0
 10
1135.7499997212037
 20
968.58090925133524
 30
0.0
 10
1135.7499993561216
 20
968.58090819675817
 30
0.0
  0
LWPOLYLINE
  5
212
100
AcDbEntity
  8
一般
370
              15
  6
STYLE_06
 62
               7
100
AcDbPolyline
 90
        5
 70
             128
 10
1148.788229785632
 20
925.91648666436777
 10
1148.788229785632
 20
517.09470378064975
 42
0.414213562373095
 10
1222.0630662613996
 20
443.819867304882
 42
0.4142135623730953
 10
1295.3379027371675
 20
517.09470378064975
 10
1295.3379027371675
 20
932.12382102328377
  0
ARC
  5
213
100
AcDbEntity
  8
一般
370
              15
100
AcDbCircle
 10
1577.0242993082056
 20
1176.5686731836827
 30
0.0
 40
80.114789016905888
100
AcDbArc
 50
2.9338807659057746
 51
170.17896795497921
  0
MTEXT
  5
214
100
AcDbEntity
  8
一般
 62
               7
100
AcDbMText
 10
1646.1324865405218
 20
1613.6169754020784
 30
0.0
 40
35.36964699074074
 41
0.0
 71
               1
 72
               1
  1
TX-7251\P
  7
Arial
 73
               1
 44
0.9673603504928806
  0
INSERT
  5
215
100
AcDbEntity
  8
一般
 62
               7
100
AcDbBlockReference
  2
scal 1_5
 10
1072.9096960169582
 20
332.79166666666663
 30
0.0
  0
ARC
  5
216
100
AcDbEntity
  8
一般
370
              15
100
AcDbCircle
 10
1058.7499999999998
 20
1596.6364009184078
 30
0.0
 40
45.000000000000028
100
AcDbArc
 50
191.53695903281545
 51
335.02503463232398
  0
ARC
  5
217
100
AcDbEntity
  8
一般
370
              15
100
AcDbCircle
 10
1058.7499999999998
 20
1596.6364009184078
 30
0.0
 40
45.000000000000007
100
AcDbArc
 50
24.974965367643836
 51
168.46304096718453
  0
ARC
  5
218
100
AcDbEntity
  8
一般
370
              15
100
AcDbCircle
 10
1238.7499999999998
 20
1596.6364009183965
 30
0.0
 40
44.999999999999964
100
AcDbArc
 50
326.6170202254624
 51
348.4630409671845
  0
ARC
  5
219
100
AcDbEntity
  8
一般
370
              15
100
AcDbCircle
 10
1238.7499999999998
 20
1596.6364009183965
 30
0.0
 40
44.999999999999972
100
AcDbArc
 50
11.536959032815496
 51
155.02503463234007
  0
ARC
  5
21A
100
AcDbEntity
  8
一般
370
              15
100
AcDbCircle
 10
1238.7499999999998
 20
1596.6364009183965
 30
0.0
 40
44.999999999999957
100
AcDbArc
 50
204.97496536765999
 51
303.38297977453789
  0
LINE
  5
21B
100
AcDbEntity
  8
一般
370
              15
100
AcDbLine
 10
1238.7499999999998
 20
1577.6364009183965
 30
0.0
 11
1161.7499999999998
 21
1577.6364009183965
 31
0.0
  0
POLYLINE
  5
21C
100
AcDbEntity
  8
一般
370
              15
100
AcDb2dPolyline
 66
               1
 10
0.0
 20
0.0
 30
0.0
 75
               5
  0
VERTEX
  5
21D
100
AcDbEntity
  8
一般
370
              15
100
AcDbVertex
100
AcDb2dVertex
 10
1058.7499999999998
 20
1577.6364009184078
 30
0.0
  0
VERTEX
  5
21E
100
AcDbEntity
  8
一般
370
              15
100
AcDbVertex
100
AcDb2dVertex
 10
1058.7499999999998
 20
1577.6364009183965
 30
0.0
  0
VERTEX
  5
21F
100
AcDbEntity
  8
一般
370
              15
100
AcDbVertex
100
AcDb2dVertex
 10
1135.7499999999998
 20
1577.6364009183965
 30
0.0
  0
SEQEND
  5
220
100
AcDbEntity
  8
一般
370
              15
  0
LINE
  5
221
100
AcDbEntity
  8
一般
370
              15
100
AcDbLine
 10
1058.7500209540735
 20
1615.6364009183965
 30
0.0
 11
1238.7499999999998
 21
1615.6364009183965
 31
0.0
  0
ARC
  5
222
100
AcDbEntity
  8
一般
370
              15
100
AcDbCircle
 10
1058.7499999999998
 20
1596.6364009184078
 30
0.0
 40
19.000000000000028
100
AcDbArc
 50
199.20489749712974
 51
161.59487604544779
  0
POLYLINE
  5
223
100
AcDbEntity
  8
一般
370
              15
100
AcDb2dPolyline
 66
               1
 10
0.0
 20
0.0
 30
0.0
 70
               1
 75
               5
  0
VERTEX
  5
224
100
AcDbEntity
  8
一般
370
              15
100
AcDbVertex
100
AcDb2dVertex
 10
969.99999999999977
 20
1605.6364009184078
 30
0.0
  0
VERTEX
  5
225
100
AcDbEntity
  8
一般
370
              15
100
AcDbVertex
100
AcDb2dVertex
 10
1039.9999999999998
 20
1605.6364009184078
 30
0.0
  0
VERTEX
  5
226
100
AcDbEntity
  8
一般
370
              15
100
AcDbVertex
100
AcDb2dVertex
 10
1039.9999999999998
 20
1587.6364009184078
 30
0.0
  0
VERTEX
  5
227
100
AcDbEntity
  8
一般
370
              15
100
AcDbVertex
100
AcDb2dVertex
 10
969.99999999999977
 20
1587.6364009184078
 30
0.0
  0
SEQEND
  5
228
100
AcDbEntity
  8
一般
370
              15
  0
LWPOLYLINE
  5
229
100
AcDbEntity
  8
一般
370
              15
100
AcDbPolyline
 90
        6
 70
             129
 10
1058.7499999999998
 20
1602.8864009184078
 42
-0.414213562373095
 10
1064.9999999999998
 20
1596.6364009184078
 42
-0.414213562373095
 10
1058.7499999999998
 20
1590.3864009184078
 10
1039.7960217662244
 20
1590.3864009184078
 10
1039.7960217662244
 20
1602.6353448958655
 10
1056.9963834069752
 20
1602.6353448958655
 42
-0.0712192792763956
  0
SPLINE
  5
22A
100
AcDbEntity
  8
一般
370
              15
100
AcDbSpline
210
0.0
220
0.0
230
1.0
 70
              13
 71
               2
 72
              19
 73
              16
 74
               0
 42
0.000001
 43
0.000001
 40
0.0
 40
0.0
 40
0.0
 40
1.0
 40
2.0
 40
3.0
 40
4.0
 40
5.0
 40
6.0
 40
6.0
 40
7.0
 40
7.0
 40
8.0
 40
8.0
 40
9.0
 40
9.0
 40
10.0
 40
10.0
 40
10.0
 10
1161.7499999999998
 20
1405.8168932839314
 30
0.0
 41
1.0
 10
1161.7499999999998
 20
1402.4675283785425
 30
0.0
 41
1.0
 10
1158.2666604983954
 20
1396.6662581893206
 30
0.0
 41
1.0
 10
1152.2333395016044
 20
1393.3168932839314
 30
0.0
 41
1.0
 10
1145.2666604983954
 20
1393.3168932839314
 30
0.0
 41
1.0
 10
1139.2333395016044
 20
1396.6662581893206
 30
0.0
 41
1.0
 10
1135.7499999999998
 20
1402.4675283785425
 30
0.0
 41
1.0
 10
1135.7499999999998
 20
1405.8168932839314
 30
0.0
 41
1.0
 10
1135.7499999999998
 20
1501.226647101164
 30
0.0
 41
1.0
 10
1135.7499999999998
 20
1596.6364009183965
 30
0.0
 41
1.0
 10
1135.7499999999998
 20
1609.6364009183965
 30
0.0
 41
0.7071067811865476
 10
1148.7499999999998
 20
1609.6364009183965
 30
0.0
 41
1.0
 10
1161.7499999999998
 20
1609.6364009183965
 30
0.0
 41
0.7071067811865476
 10
1161.7499999999998
 20
1596.6364009183965
 30
0.0
 41
1.0
 10
1161.7499999999998
 20
1501.226647101164
 30
0.0
 41
1.0
 10
1161.7499999999998
 20
1405.8168932839314
 30
0.0
 41
1.0
  0
SPLINE
  5
22B
100
AcDbEntity
  8
一般
370
              15
100
AcDbSpline
210
0.0
220
0.0
230
1.0
 70
               8
 71
               2
 72
              13
 73
              10
 74
               0
 42
0.000001
 43
0.000001
 40
0.0
 40
0.0
 40
0.0
 40
1.0
 40
2.0
 40
3.0
 40
4.0
 40
5.0
 40
6.0
 40
6.0
 40
7.0
 40
7.0
 40
7.0
 10
1161.7499999999998
 20
1412.5
 30
0.0
 10
1161.7499999999998
 20
1414.0630610391765
 30
0.0
 10
1161.7499999999998
 20
1409.1506350946108
 30
0.0
 10
1158.2666604983954
 20
1403.3493649053889
 30
0.0
 10
1152.2333395016044
 20
1400.0
 30
0.0
 10
1145.2666604983954
 20
1400.0
 30
0.0
 10
1139.2333395016044
 20
1403.3493649053889
 30
0.0
 10
1137.4916697508022
 20
1406.25
 30
0.0
 10
1136.5627917403751
 20
1407.7969845270127
 30
0.0
 10
1135.7499999999998
 20
1412.5
 30
0.0
  0
SPLINE
  5
22C
100
AcDbEntity
  8
一般
370
              15
  6
Continuous
 62
               7
100
AcDbSpline
210
0.0
220
0.0
230
1.0
 70
               8
 71
               2
 72
               8
 73
               5
 74
               0
 42
0.000001
 43
0.000001
 40
0.0
 40
0.0
 40
0.0
 40
1.0
 40
1.0
 40
2.0
 40
2.0
 40
2.0
 10
1255.8500188899693
 20
1588.3545319286877
 30
0.0
 10
1259.9262542896861
 20
1584.2782965289707
 30
0.0
 10
1264.0024896894031
 20
1580.2020611292537
 30
0.0
 10
1273.7725198246515
 20
1570.4320309940053
 30
0.0
 10
1275.9002370529217
 20
1572.3826557550578
 30
0.0
  0
SPLINE
  5
22D
100
AcDbEntity
  8
一般
370
              15
  6
Continuous
 62
               7
100
AcDbSpline
210
0.0
220
0.0
230
1.0
 70
               8
 71
               2
 72
               8
 73
               5
 74
               0
 42
0.000001
 43
0.000001
 40
0.0
 40
0.0
 40
0.0
 40
1.0
 40
1.0
 40
2.0
 40
2.0
 40
2.0
 10
1247.0318689897081
 20
1579.5363820284274
 30
0.0
 10
1251.1367204568814
 20
1575.431530561254
 30
0.0
 10
1255.2415719240548
 20
1571.3266790940809
 30
0.0
 10
1264.9543699243911
 20
1561.6138810937448
 30
0.0
 10
1263.0037451633384
 20
1559.4861638654745
 30
0.0
  0
LWPOLYLINE
  5
22E
100
AcDbEntity
  8
一般
370
              15
  6
Continuous
 62
               7
100
AcDbPolyline
 90
        5
 70
             128
 10
1265.4640962699632
 20
1550.7112020975053
 42
-0.1953880222710794
 10
1263.8350961645274
 20
1561.1239223842081
 42
-0.3181477477237053
 10
1275.9553087826921
 20
1571.8407657816997
 42
-0.3181477477237131
 10
1290.0904477109743
 20
1563.9700521041455
 42
-0.2520925849785793
 10
1289.4640962699627
 20
1550.7112020975051
 42
-0.2520925849785793
  0
ARC
  5
22F
100
AcDbEntity
  8
一般
370
              15
100
AcDbCircle
 10
1238.7499999999998
 20
1596.6364009183965
 30
0.0
 40
18.999999999999964
100
AcDbArc
 50
89.999991842410083
 51
341.59487604544807
  0
ARC
  5
230
100
AcDbEntity
  8
一般
370
              15
100
AcDbCircle
 10
1238.7499999999998
 20
1596.6364009183965
 30
0.0
 40
18.999999999999982
100
AcDbArc
 50
19.204897497129068
 51
89.999991842410083
  0
POLYLINE
  5
231
100
AcDbEntity
  8
一般
370
              15
100
AcDb2dPolyline
 66
               1
 10
0.0
 20
0.0
 30
0.0
 70
               1
 75
               5
  0
VERTEX
  5
232
100
AcDbEntity
  8
一般
370
              15
100
AcDbVertex
100
AcDb2dVertex
 10
1257.4999999999998
 20
1605.6364009183965
 30
0.0
  0
VERTEX
  5
233
100
AcDbEntity
  8
一般
370
              15
100
AcDbVertex
100
AcDb2dVertex
 10
1327.4999999999998
 20
1605.6364009183965
 30
0.0
  0
VERTEX
  5
234
100
AcDbEntity
  8
一般
370
              15
100
AcDbVertex
100
AcDb2dVertex
 10
1327.4999999999998
 20
1587.6364009183965
 30
0.0
  0
VERTEX
  5
235
100
AcDbEntity
  8
一般
370
              15
100
AcDbVertex
100
AcDb2dVertex
 10
1257.4999999999998
 20
1587.6364009183965
 30
0.0
  0
SEQEND
  5
236
100
AcDbEntity
  8
一般
370
              15
  0
LWPOLYLINE
  5
237
100
AcDbEntity
  8
一般
370
              15
100
AcDbPolyline
 90
        6
 70
             128
 10
1257.4999999999998
 20
1590.637456940939
 10
1240.5036165930244
 20
1590.637456940939
 42
-0.0712192792764635
 10
1238.7499999999998
 20
1590.3864009183965
 42
-0.414213562373095
 10
1232.4999999999998
 20
1596.6364009183965
 42
-0.414213562373095
 10
1238.7499999999998
 20
1602.8864009183965
 10
1257.4999999999998
 20
1602.8864009183965
  0
LINE
  5
238
100
AcDbEntity
  8
一般
370
              15
  6
Continuous
 62
               7
100
AcDbLine
 10
1289.464096269963
 20
1557.9223046484331
 30
0.0
 11
1289.464096269963
 21
1545.0487659608666
 31
0.0
  0
LWPOLYLINE
  5
239
100
AcDbEntity
  8
一般
370
              15
  6
Continuous
 62
               7
100
AcDbPolyline
 90
        4
 70
             128
 10
1289.464096269963
 20
1557.9223046484331
 42
0.414213562373095
 10
1277.464096269963
 20
1569.9223046484331
 42
0.414213562373095
 10
1265.464096269963
 20
1557.9223046484331
 10
1265.464096269963
 20
1545.0487659608666
  0
SPLINE
  5
23A
100
AcDbEntity
  8
一般
370
              15
  6
Continuous
 62
               7
100
AcDbSpline
210
0.0
220
0.0
230
1.0
 70
               8
 71
               2
 72
              15
 73
              12
 74
               0
 42
0.000001
 43
0.000001
 40
0.0
 40
0.0
 40
0.0
 40
1.0
 40
1.0
 40
2.0
 40
3.0
 40
4.0
 40
5.0
 40
6.0
 40
7.0
 40
7.0
 40
8.0
 40
8.0
 40
8.0
 10
1263.464096269963
 20
1389.3991063460549
 30
0.0
 10
1263.464096269963
 20
1465.1507405517013
 30
0.0
 10
1263.464096269963
 20
1540.9023747573476
 30
0.0
 10
1263.464096269963
 20
1543.0593657564182
 30
0.0
 10
1267.2153849639985
 20
1546.7953837582772
 30
0.0
 10
1273.7128075759272
 20
1548.9523747573478
 30
0.0
 10
1281.2153849639985
 20
1548.9523747573478
 30
0.0
 10
1287.7128075759272
 20
1546.7953837582772
 30
0.0
 10
1291.464096269963
 20
1543.0593657564182
 30
0.0
 10
1291.464096269963
 20
1540.9023747573476
 30
0.0
 10
1291.464096269963
 20
1465.1507405517013
 30
0.0
 10
1291.464096269963
 20
1389.3991063460549
 30
0.0
  0
SPLINE
  5
23B
100
AcDbEntity
  8
一般
370
              15
  6
Continuous
 62
               7
100
AcDbSpline
210
0.0
220
0.0
230
1.0
 70
               8
 71
               2
 72
              13
 73
              10
 74
               0
 42
0.000001
 43
0.000001
 40
0.0
 40
0.0
 40
0.0
 40
1.0
 40
1.0
 40
2.0
 40
3.0
 40
4.0
 40
5.0
 40
6.0
 40
7.0
 40
7.0
 40
7.0
 10
1291.464096269963
 20
1389.3991721721291
 30
0.0
 10
1291.464096269963
 20
1390.8190102784472
 30
0.0
 10
1291.464096269963
 20
1389.3991063460549
 30
0.0
 10
1291.464096269963
 20
1387.2421153469845
 30
0.0
 10
1287.7128075759272
 20
1383.5060973451255
 30
0.0
 10
1281.2153849639988
 20
1381.3491063460549
 30
0.0
 10
1273.7128075759272
 20
1381.3491063460549
 30
0.0
 10
1267.2153849639988
 20
1383.5060973451255
 30
0.0
 10
1264.6987639533672
 20
1386.0124737310657
 30
0.0
 10
1263.464096269963
 20
1389.3991063460549
 30
0.0
  0
SPLINE
  5
23C
100
AcDbEntity
  8
一般
370
              15
  6
Continuous
 62
               7
100
AcDbSpline
210
0.0
220
0.0
230
1.0
 70
               8
 71
               2
 72
              13
 73
              10
 74
               0
 42
0.000001
 43
0.000001
 40
0.0
 40
0.0
 40
0.0
 40
1.0
 40
2.0
 40
3.0
 40
4.0
 40
5.0
 40
6.0
 40
6.0
 40
7.0
 40
7.0
 40
7.0
 10
1263.464096269963
 20
1389.3991063460549
 30
0.0
 10
1263.464096269963
 20
1387.9792385101398
 30
0.0
 10
1263.464096269963
 20
1391.5560973451256
 30
0.0
 10
1267.2153849639988
 20
1395.2921153469845
 30
0.0
 10
1273.7128075759272
 20
1397.449106346055
 30
0.0
 10
1281.2153849639988
 20
1397.449106346055
 30
0.0
 10
1287.7128075759272
 20
1395.2921153469845
 30
0.0
 10
1289.5884519229451
 20
1393.4241063460549
 30
0.0
 10
1290.2293971983174
 20
1392.7857702215106
 30
0.0
 10
1291.464096269963
 20
1389.3991721721291
 30
0.0
  0
POLYLINE
  5
23D
100
AcDbEntity
  8
一般
370
              15
100
AcDb2dPolyline
 66
               1
 10
0.0
 20
0.0
 30
0.0
 70
               1
 75
               5
  0
VERTEX
  5
23E
100
AcDbEntity
  8
一般
370
              15
100
AcDbVertex
100
AcDb2dVertex
 10
1232.4999999999998
 20
1067.0
 30
0.0
  0
VERTEX
  5
23F
100
AcDbEntity
  8
一般
370
              15
100
AcDbVertex
100
AcDb2dVertex
 10
1232.4999999999998
 20
1097.0
 30
0.0
  0
VERTEX
  5
240
100
AcDbEntity
  8
一般
370
              15
100
AcDbVertex
100
AcDb2dVertex
 10
1257.4999999999998
 20
1097.0
 30
0.0
  0
VERTEX
  5
241
100
AcDbEntity
  8
一般
370
              15
100
AcDbVertex
100
AcDb2dVertex
 10
1257.4999999999998
 20
1084.5
 30
0.0
  0
VERTEX
  5
242
100
AcDbEntity
  8
一般
370
              15
100
AcDbVertex
100
AcDb2dVertex
 10
1244.9999999999998
 20
1084.5
 30
0.0
  0
VERTEX
  5
243
100
AcDbEntity
  8
一般
370
              15
100
AcDbVertex
100
AcDb2dVertex
 10
1244.9999999999998
 20
1067.0
 30
0.0
  0
SEQEND
  5
244
100
AcDbEntity
  8
一般
370
              15
  0
LWPOLYLINE
  5
245
100
AcDbEntity
  8
一般
370
              15
100
AcDbPolyline
 90
        4
 70
             128
 10
1281.053928389468
 20
1082.6841859131944
 10
1257.4999999999998
 20
1082.6841859131944
 10
1257.4999999999998
 20
1100.6841859131944
 10
1281.053928389468
 20
1100.6841859131944
  0
LWPOLYLINE
  5
246
100
AcDbEntity
  8
一般
370
              15
100
AcDbPolyline
 90
        4
 70
             128
 10
1309.053928389468
 20
1100.6841859131944
 10
1327.4999999999998
 20
1100.6841859131944
 10
1327.4999999999998
 20
1082.6841859131944
 10
1309.053928389468
 20
1082.6841859131944
  0
SPLINE
  5
247
100
AcDbEntity
  8
一般
370
              15
100
AcDbSpline
210
0.0
220
0.0
230
1.0
 70
               8
 71
               2
 72
              13
 73
              10
 74
               0
 42
0.000001
 43
0.000001
 40
0.0
 40
0.0
 40
0.0
 40
1.0
 40
2.0
 40
3.0
 40
4.0
 40
5.0
 40
6.0
 40
6.0
 40
7.0
 40
7.0
 40
7.0
 10
1281.053928389468
 20
1104.0556064394505
 30
0.0
 10
1281.053928389468
 20
1103.613044596289
 30
0.0
 10
1281.053928389468
 20
1107.3647789659749
 30
0.0
 10
1284.8052170835037
 20
1113.0964339129262
 30
0.0
 10
1291.3026396954324
 20
1116.4056064394506
 30
0.0
 10
1298.8052170835037
 20
1116.4056064394506
 30
0.0
 10
1305.3026396954324
 20
1113.0964339129262
 30
0.0
 10
1307.1782840424503
 20
1110.2306064394506
 30
0.0
 10
1308.7827069692312
 20
1107.7791825807892
 30
0.0
 10
1309.053928389468
 20
1104.0556106567383
 30
0.0
  0
LINE
  5
248
100
AcDbEntity
  8
一般
370
              15
100
AcDbLine
 10
1232.4999999999998
 20
1097.0
 30
0.0
 11
1244.9999999999998
 21
1084.5
 31
0.0
  0
POLYLINE
  5
249
100
AcDbEntity
  8
一般
370
              15
100
AcDb2dPolyline
 66
               1
 10
0.0
 20
0.0
 30
0.0
 70
               1
 75
               5
  0
VERTEX
  5
24A
100
AcDbEntity
  8
一般
370
              15
100
AcDbVertex
100
AcDb2dVertex
 10
1065.0
 20
1067.0
 30
0.0
  0
VERTEX
  5
24B
100
AcDbEntity
  8
一般
370
              15
100
AcDbVertex
100
AcDb2dVertex
 10
1065.0
 20
1097.0
 30
0.0
  0
VERTEX
  5
24C
100
AcDbEntity
  8
一般
370
              15
100
AcDbVertex
100
AcDb2dVertex
 10
1040.0
 20
1097.0
 30
0.0
  0
VERTEX
  5
24D
100
AcDbEntity
  8
一般
370
              15
100
AcDbVertex
100
AcDb2dVertex
 10
1040.0
 20
1084.5
 30
0.0
  0
VERTEX
  5
24E
100
AcDbEntity
  8
一般
370
              15
100
AcDbVertex
100
AcDb2dVertex
 10
1052.5
 20
1084.5
 30
0.0
  0
VERTEX
  5
24F
100
AcDbEntity
  8
一般
370
              15
100
AcDbVertex
100
AcDb2dVertex
 10
1052.5
 20
1067.0
 30
0.0
  0
SEQEND
  5
250
100
AcDbEntity
  8
一般
370
              15
  0
POLYLINE
  5
251
100
AcDbEntity
  8
一般
370
              15
100
AcDb2dPolyline
 66
               1
 10
0.0
 20
0.0
 30
0.0
 70
               1
 75
               5
  0
VERTEX
  5
252
100
AcDbEntity
  8
一般
370
              15
100
AcDbVertex
100
AcDb2dVertex
 10
970.0
 20
1099.75
 30
0.0
  0
VERTEX
  5
253
100
AcDbEntity
  8
一般
370
              15
100
AcDbVertex
100
AcDb2dVertex
 10
1040.0
 20
1099.75
 30
0.0
  0
VERTEX
  5
254
100
AcDbEntity
  8
一般
370
              15
100
AcDbVertex
100
AcDb2dVertex
 10
1040.0
 20
1081.75
 30
0.0
  0
VERTEX
  5
255
100
AcDbEntity
  8
一般
370
              15
100
AcDbVertex
100
AcDb2dVertex
 10
970.0
 20
1081.75
 30
0.0
  0
SEQEND
  5
256
100
AcDbEntity
  8
一般
370
              15
  0
LINE
  5
257
100
AcDbEntity
  8
一般
370
              15
100
AcDbLine
 10
1065.0
 20
1097.0
 30
0.0
 11
1052.5
 21
1084.5
 31
0.0
  0
POLYLINE
  5
258
100
AcDbEntity
  8
一般
370
              15
100
AcDb2dPolyline
 66
               1
 10
0.0
 20
0.0
 30
0.0
 75
               5
  0
VERTEX
  5
259
100
AcDbEntity
  8
一般
370
              15
100
AcDbVertex
100
AcDb2dVertex
 10
1676.25
 20
1084.2740830765056
 30
0.0
  0
VERTEX
  5
25A
100
AcDbEntity
  8
一般
370
              15
100
AcDbVertex
100
AcDb2dVertex
 10
1676.25
 20
1067.0
 30
0.0
  0
VERTEX
  5
25B
100
AcDbEntity
  8
一般
370
              15
100
AcDbVertex
100
AcDb2dVertex
 10
1663.75
 20
1067.0
 30
0.0
  0
VERTEX
  5
25C
100
AcDbEntity
  8
一般
370
              15
100
AcDbVertex
100
AcDb2dVertex
 10
1663.75
 20
1084.2740830765056
 30
0.0
  0
SEQEND
  5
25D
100
AcDbEntity
  8
一般
370
              15
  0
CIRCLE
  5
25E
100
AcDbEntity
  8
一般
370
              15
100
AcDbCircle
 10
1670.0
 20
1090.75
 30
0.0
 40
9.0
  0
LINE
  5
25F
100
AcDbEntity
  8
一般
370
              15
  6
Continuous
 62
               7
100
AcDbLine
 10
1683.0
 20
1096.5
 30
0.0
 11
1683.0
 21
1067.0
 31
0.0
  0
INSERT
  5
260
100
AcDbEntity
  8
一般
 62
               7
100
AcDbBlockReference
  2
グループ-1
 10
1450.0
 20
1020.0
 30
0.0
  0
INSERT
  5
261
100
AcDbEntity
  8
一般
 62
               7
100
AcDbBlockReference
  2
グループ-2
 10
1450.0
 20
1020.0
 30
0.0
  0
INSERT
  5
262
100
AcDbEntity
  8
一般
 62
               7
100
AcDbBlockReference
  2
グループ-3
 10
1450.0
 20
1020.0
 30
0.0
  0
ENDSEC
  0
SECTION
  2
OBJECTS
  0
DICTIONARY
  5
19
100
AcDbDictionary
280
               0
281
               1
  3
ACAD_GROUP
350
1A
  3
ACAD_MLINESTYLE
350
1B
  3
ACAD_LAYOUT
350
1E
  3
ACAD_PLOTSETTINGS
350
22
  3
ACAD_PLOTSTYLENAME
350
1F
  3
ACAD_WIPEOUT_VARS
350
23
  0
DICTIONARY
  5
1A
102
{ACAD_REACTORS
330
19
102
}
100
AcDbDictionary
280
               0
281
               1
  0
DICTIONARY
  5
1B
102
{ACAD_REACTORS
330
19
102
}
100
AcDbDictionary
280
               0
281
               1
  3
Standard
350
1C
  0
MLINESTYLE
  5
1C
102
{ACAD_REACTORS
330
1B
102
}
100
AcDbMlineStyle
  2
Standard
 70
               0
  3

 62
               0
 51
90.0
 52
90.0
 71
               2
 49
0.5
 62
             256
  6
ByLayer
 49
-0.5
 62
             256
  6
ByLayer
  0
ACDBDICTIONARYWDFLT
  5
1F
102
{ACAD_REACTORS
330
19
102
}
100
AcDbDictionary
281
               1
  3
Normal
350
1D
100
AcDbDictionaryWithDefault
340
1D
  0
ACDBPLACEHOLDER
  5
1D
102
{ACAD_REACTORS
330
1F
102
}
  0
LAYOUT
  5
20
102
{ACAD_REACTORS
330
1E
102
}
100
AcDbPlotSettings
  1

  2

  4

  6

 40
0.0
 41
0.0
 42
0.0
 43
0.0
 44
0.0
 45
0.0
 46
0.0
 47
0.0
 48
0.0
 49
0.0
140
0.0
141
0.0
142
1.0
143
1.0
 70
            1024
 72
               0
 73
               0
 74
               0
  7

 75
               0
147
1.0
148
0.0
149
0.0
100
AcDbLayout
  1
Model
 70
               0
 71
               0
 10
0.0
 20
0.0
 11
0.0
 21
0.0
 12
0.0
 22
0.0
 32
0.0
 14
0.0
 24
0.0
 34
0.0
 15
0.0
 25
0.0
 35
0.0
146
0.0
 13
0.0
 23
0.0
 33
0.0
 16
0.0
 26
0.0
 36
0.0
 17
0.0
 27
0.0
 37
0.0
 76
               0
330
A
331
0
345
0
346
0
  0
LAYOUT
  5
21
102
{ACAD_REACTORS
330
1E
102
}
100
AcDbPlotSettings
  1

  2

  4

  6

 40
0.0
 41
0.0
 42
0.0
 43
0.0
 44
0.0
 45
0.0
 46
0.0
 47
0.0
 48
0.0
 49
0.0
140
0.0
141
0.0
142
1.0
143
1.0
 70
               0
 72
               0
 73
               0
 74
               0
  7

 75
               0
147
1.0
148
0.0
149
0.0
100
AcDbLayout
  1
Layout1
 70
               0
 71
               0
 10
0.0
 20
0.0
 11
0.0
 21
0.0
 12
0.0
 22
0.0
 32
0.0
 14
0.0
 24
0.0
 34
0.0
 15
0.0
 25
0.0
 35
0.0
146
0.0
 13
0.0
 23
0.0
 33
0.0
 16
0.0
 26
0.0
 36
0.0
 17
0.0
 27
0.0
 37
0.0
 76
               0
330
B
331
0
345
0
346
0
  0
DICTIONARY
  5
1E
102
{ACAD_REACTORS
330
19
102
}
100
AcDbDictionary
280
               0
281
               1
  3
Layout1
350
21
  3
Model
350
20
  0
DICTIONARY
  5
22
102
{ACAD_REACTORS
330
19
102
}
100
AcDbDictionary
280
               0
281
               1
  0
WIPEOUTVARIABLES
  5
23
100
AcDbWipeoutVariables
 70
               0
  0
ENDSEC
  0
EOF
