  0
SECTION
  2
HEADER
  9
$ACADVER
  1
AC1009
  9
$INSBASE
 10
0
 20
0
 30
0
  9
$EXTMIN
 10
0
 20
0
  9
$EXTMAX
 10
1485
 20
1050
  9
$LIMMIN
 10
0
 20
0
  9
$LIMMAX
 10
1485
 20
1050
  9
$LTSCALE
 40
5
  0
ENDSEC
  0
SECTION
  2
TABLES
  0
TABLE
  2
LTYPE
 70
     9
  0
LTYPE
  2
CONTINUOUS
 70
    64
  3
実線
 72
    65
 73
     0
 40
0.0
  0
LTYPE
  2
DASHED1
 70
    64
  3
--  --  --  --  --  --  --  --  
 72
    65
 73
     2
 40
2.5
 49
1.25
 49
-1.25
  0
LTYPE
  2
DASHED2
 70
    64
  3
----    ----    ----    ----    
 72
    65
 73
     2
 40
5.0
 49
2.5
 49
-2.5
  0
LTYPE
  2
DASHED3
 70
    64
  3
------  ------  ------  ------  
 72
    65
 73
     2
 40
5.0
 49
3.75
 49
-1.25
  0
LTYPE
  2
CENTER1
 70
    64
  3
----- - ----- - ----- - ----- - 
 72
    65
 73
     4
 40
10.0
 49
6.25
 49
-1.25
 49
1.25
 49
-1.25
  0
LTYPE
  2
CENTER2
 70
    64
  3
----------  --  ----------  --  
 72
    65
 73
     4
 40
20.0
 49
12.5
 49
-2.5
 49
2.5
 49
-2.5
  0
LTYPE
  2
PHANTOM1
 70
    64
  3
--- - - --- - - --- - - --- - - 
 72
    65
 73
     6
 40
10.0
 49
3.25
 49
-1.25
 49
1.25
 49
-1.25
 49
1.25
 49
-1.25
  0
LTYPE
  2
PHANTOM2
 70
    64
  3
--------  -  -  --------  -  -  
 72
    65
 73
     6
 40
20.0
 49
10.0
 49
-2.5
 49
1.25
 49
-2.5
 49
1.25
 49
-2.5
  0
LTYPE
  2
DOT
 70
    64
  3
-   -   -   -   -   -   -   -   
 72
    65
 73
     2
 40
2.5
 49
0.625
 49
-1.875
  0
LTYPE
  2
DUMMY
 70
    64
  3
ダミー
 72
    65
 73
     0
 40
0.0
  0
LTYPE
  2
RAND1
 70
    64
  3
ランダム線1
 72
    65
 73
     4
 40
10.0
 49
1.0
 49
-2.0
 49
3.0
 49
-4.0
  0
LTYPE
  2
RAND2
 70
    64
  3
ランダム線2
 72
    65
 73
     4
 40
14.0
 49
2.0
 49
-3.0
 49
4.0
 49
-5.0
  0
LTYPE
  2
RAND3
 70
    64
  3
ランダム線3
 72
    65
 73
     4
 40
18.0
 49
3.0
 49
-4.0
 49
5.0
 49
-6.0
  0
LTYPE
  2
RAND4
 70
    64
  3
ランダム線4
 72
    65
 73
     4
 40
22.0
 49
4.0
 49
-5.0
 49
6.0
 49
-7.0
  0
LTYPE
  2
RAND5
 70
    64
  3
ランダム線5
 72
    65
 73
     4
 40
26.0
 49
5.0
 49
-6.0
 49
7.0
 49
-8.0
  0
LTYPE
  2
LONG1
 70
    64
  3
----------  --  ----------  --  
 72
    65
 73
     4
 40
40.0
 49
32.5
 49
-2.5
 49
2.5
 49
-2.5
  0
LTYPE
  2
LONG2
 70
    64
  3
--------  -  -  --------  -  -  
 72
    65
 73
     6
 40
40.0
 49
30.0
 49
-2.5
 49
1.25
 49
-2.5
 49
1.25
 49
-2.5
  0
LTYPE
  2
LONG3
 70
    64
  3
+++++++++++++++..+++++++++++++++
 72
    65
 73
     2
 40
40.0
 49
37.5
 49
-2.5
  0
LTYPE
  2
LONG4
 70
    64
  3
+++++++++++++++..+++++++++++++++
 72
    65
 73
     2
 40
80.0
 49
75.0
 49
-5.0
  0
LTYPE
  2
LONG5
 70
    64
  3
----------  --  ----------  --  
 72
    65
 73
     4
 40
60.0
 49
37.5
 49
-7.5
 49
7.5
 49
-7.5
  0
LTYPE
  2
dashed
 70
   64
  3
-------   -------------   ------
 72
   65
 73
    2
 40
7.5
 49
6
 49
-1.5
  0
LTYPE
  2
dashed_spaced
 70
   64
  3
----        --------        ----
 72
   65
 73
    2
 40
12
 49
6
 49
-6
  0
LTYPE
  2
long_dashed_dotted
 70
   64
  3
------------- --- --------------
 72
   65
 73
    4
 40
15.25
 49
12
 49
-1.5
 49
0.25
 49
-1.5
  0
LTYPE
  2
long_dashed_double-dotted
 70
   64
  3
----------- --- --- ------------
 72
   65
 73
    6
 40
17
 49
12
 49
-1.5
 49
0.25
 49
-1.5
 49
0.25
 49
-1.5
  0
LTYPE
  2
long_dashed_triplicate-dotted
 70
   64
  3
--------- --- --- --- ----------
 72
   65
 73
    8
 40
18.75
 49
12
 49
-1.5
 49
0.25
 49
-1.5
 49
0.25
 49
-1.5
 49
0.25
 49
-1.5
  0
LTYPE
  2
dotted
 70
   64
  3
   -       -       -       -    
 72
   65
 73
    2
 40
1.75
 49
0.25
 49
-1.5
  0
LTYPE
  2
chain
 70
   64
  3
-------------- -- --------------
 72
   65
 73
    4
 40
18.5
 49
12
 49
-1.5
 49
3.5
 49
-1.5
  0
LTYPE
  2
chain_double_dash
 70
   64
  3
------------ -- -- -------------
 72
   65
 73
    6
 40
23.5
 49
12
 49
-1.5
 49
3.5
 49
-1.5
 49
3.5
 49
-1.5
  0
LTYPE
  2
dashed_dotted
 70
   64
  3
-----------     -     ----------
 72
   65
 73
    4
 40
9.25
 49
6
 49
-1.5
 49
0.25
 49
-1.5
  0
LTYPE
  2
double-dashed_dotted
 70
   64
  3
------   -----------   -   -----
 72
   65
 73
    6
 40
16.75
 49
6
 49
-1.5
 49
6
 49
-1.5
 49
0.25
 49
-1.5
  0
LTYPE
  2
dashed_double-dotted
 70
   64
  3
---------    -    -    ---------
 72
   65
 73
    6
 40
11
 49
6
 49
-1.5
 49
0.25
 49
-1.5
 49
0.25
 49
-1.5
  0
LTYPE
  2
double-dashed_double-dotted
 70
   64
  3
-----   ---------   -   -   ----
 72
   65
 73
    8
 40
18.5
 49
6
 49
-1.5
 49
6
 49
-1.5
 49
0.25
 49
-1.5
 49
0.25
 49
-1.5
  0
LTYPE
  2
dashed_triplicate-dotted
 70
   64
  3
-------    -    -    -    ------
 72
   65
 73
    8
 40
12.75
 49
6
 49
-1.5
 49
0.25
 49
-1.5
 49
0.25
 49
-1.5
 49
0.25
 49
-1.5
  0
LTYPE
  2
double-dashed_triplicate-dotted
 70
   64
  3
-----  ---------  -  -  -  -----
 72
   65
 73
   10
 40
20.25
 49
6
 49
-1.5
 49
6
 49
-1.5
 49
0.25
 49
-1.5
 49
0.25
 49
-1.5
 49
0.25
 49
-1.5
  0
LTYPE
  2
undefined
 70
   64
  3
--------------------------------
 72
   65
 73
    0
 40
0
  0
LTYPE
  2
_
 70
   64
  3
                                
 72
   65
 73
    0
 40
0
  0
LTYPE
  2
__18
 70
   64
  3
                                
 72
   65
 73
    0
 40
0
  0
LTYPE
  2
__19
 70
   64
  3
                                
 72
   65
 73
    0
 40
0
  0
LTYPE
  2
__20
 70
   64
  3
                                
 72
   65
 73
    0
 40
0
  0
LTYPE
  2
__21
 70
   64
  3
                                
 72
   65
 73
    0
 40
0
  0
LTYPE
  2
__22
 70
   64
  3
                                
 72
   65
 73
    0
 40
0
  0
LTYPE
  2
__23
 70
   64
  3
                                
 72
   65
 73
    0
 40
0
  0
LTYPE
  2
__24
 70
   64
  3
                                
 72
   65
 73
    0
 40
0
  0
LTYPE
  2
__25
 70
   64
  3
                                
 72
   65
 73
    0
 40
0
  0
LTYPE
  2
__26
 70
   64
  3
                                
 72
   65
 73
    0
 40
0
  0
LTYPE
  2
__27
 70
   64
  3
                                
 72
   65
 73
    0
 40
0
  0
LTYPE
  2
__28
 70
   64
  3
                                
 72
   65
 73
    0
 40
0
  0
LTYPE
  2
__29
 70
   64
  3
                                
 72
   65
 73
    0
 40
0
  0
LTYPE
  2
__30
 70
   64
  3
                                
 72
   65
 73
    0
 40
0
  0
LTYPE
  2
__31
 70
   64
  3
                                
 72
   65
 73
    0
 40
0
  0
LTYPE
  2
__32
 70
   64
  3
                                
 72
   65
 73
    0
 40
0
  0
ENDTAB
  0
TABLE
  2
STYLE
  5
3
100
AcDbSymbolTable
 70
     1
  0
STYLE
  5
10
100
AcDbSymbolTableRecord
100
AcDbTextStyleTableRecord
  2
STANDARD
 70
     0
 40
0.0
 41
1.0
 50
0.0
 71
     0
 42
0.2
  3
txt
  4
bigfont.shx
  0
STYLE
  5
26
100
AcDbSymbolTableRecord
100
AcDbTextStyleTableRecord
  2
TATEGAKI
 70
    68
 40
0.0
 41
1.0
 50
0.0
 71
     0
 42
1.0
  3
txt
  4
bigfont.shx
  0
ENDTAB
  0
TABLE
  2
LAYER
 70
    4
  0
LAYER
  2
_0-0_
 70
   64
 62
    7
  6
CONTINUOUS
  0
LAYER
  2
_0-1_
 70
   64
 62
    7
  6
CONTINUOUS
  0
LAYER
  2
_0-2_
 70
   64
 62
    7
  6
CONTINUOUS
  0
LAYER
  2
ADD_LINE
 70
   64
 62
    7
  6
CONTINUOUS
  0
ENDTAB
  0
ENDSEC
  0
SECTION
  2
BLOCKS
  0
ENDSEC
  0
SECTION
  2
ENTITIES
  0
LINE
  8
_0-0_
  6
CONTINUOUS
 62
    7
 10
304.57106763331581
 20
154.56141571280574
 11
290.42892934732919
 21
140.41927742681906
  0
LINE
  8
_0-0_
  6
CONTINUOUS
 62
    7
 10
304.57106763331581
 20
140.41927742681906
 11
290.42892934732919
 21
154.56141571280574
  0
LINE
  8
_0-1_
  6
CONTINUOUS
 62
    7
 10
1012.5000159068456
 20
585.49032984553151
 11
1012.5000159068456
 21
577.49032775407591
  0
LINE
  8
_0-0_
  6
CONTINUOUS
 62
    7
 10
962.50003564311726
 20
585.49032984553151
 11
962.50003564311726
 21
577.49032775407591
  0
LINE
  8
_0-0_
  6
CONTINUOUS
 62
    7
 10
962.50003564311726
 20
577.49032775407591
 11
1062.4999961705741
 21
577.49032775407591
  0
LINE
  8
_0-0_
  6
CONTINUOUS
 62
    7
 10
1062.4999961705741
 20
577.49032775407591
 11
1062.4999961705741
 21
585.49032984553151
  0
LINE
  8
_0-1_
  6
CONTINUOUS
 62
    7
 10
378.95053186011586
 20
327.49033894778216
 11
378.95053186011586
 21
357.49035772669731
  0
LINE
  8
_0-1_
  6
CONTINUOUS
 62
    7
 10
378.95053186011586
 20
357.49035772669731
 11
403.95056573580587
 21
357.49035772669731
  0
LINE
  8
_0-1_
  6
CONTINUOUS
 62
    7
 10
403.95056573580587
 20
357.49035772669731
 11
403.95056573580587
 21
344.99034078885234
  0
LINE
  8
_0-1_
  6
CONTINUOUS
 62
    7
 10
403.95056573580587
 20
344.99034078885234
 11
391.45054879796083
 21
344.99034078885234
  0
LINE
  8
_0-1_
  6
CONTINUOUS
 62
    7
 10
391.45054879796083
 20
344.99034078885234
 11
391.45054879796083
 21
327.49033894778216
  0
LINE
  8
_0-1_
  6
CONTINUOUS
 62
    7
 10
391.45054879796083
 20
327.49033894778216
 11
378.95053186011586
 21
327.49033894778216
  0
LINE
  8
_0-1_
  6
CONTINUOUS
 62
    7
 10
429.88711117777586
 20
342.24034143690892
 11
403.95056573580587
 21
342.24034143690892
  0
LINE
  8
_0-1_
  6
CONTINUOUS
 62
    7
 10
403.95056573580587
 20
342.24034143690892
 11
403.95056573580587
 21
360.24035707864061
  0
LINE
  8
_0-1_
  6
CONTINUOUS
 62
    7
 10
403.95056573580587
 20
360.24035707864061
 11
429.88711117777586
 21
360.24035707864061
  0
LINE
  8
_0-1_
  6
CONTINUOUS
 62
    7
 10
457.80393961313609
 20
360.24035707864061
 11
473.95057310008633
 21
360.24035707864061
  0
LINE
  8
_0-1_
  6
CONTINUOUS
 62
    7
 10
473.95057310008633
 20
360.24035707864061
 11
473.95057310008633
 21
342.24034143690892
  0
LINE
  8
_0-1_
  6
CONTINUOUS
 62
    7
 10
473.95057310008633
 20
342.24034143690892
 11
457.80393961313609
 21
342.24034143690892
  0
LINE
  8
_0-1_
  6
CONTINUOUS
 62
    7
 10
378.95053186011586
 20
357.49035772669731
 11
391.45054879796083
 21
344.99034078885234
  0
LINE
  8
_0-1_
  6
CONTINUOUS
 62
    7
 10
211.45054548403465
 20
327.49033894778216
 11
211.45054548403465
 21
357.49035772669731
  0
LINE
  8
_0-1_
  6
CONTINUOUS
 62
    7
 10
211.45054548403465
 20
357.49035772669731
 11
186.45055535217045
 21
357.49035772669731
  0
LINE
  8
_0-1_
  6
CONTINUOUS
 62
    7
 10
186.45055535217045
 20
357.49035772669731
 11
186.45055535217045
 21
344.99034078885234
  0
LINE
  8
_0-1_
  6
CONTINUOUS
 62
    7
 10
186.45055535217045
 20
344.99034078885234
 11
198.95055041810258
 21
344.99034078885234
  0
LINE
  8
_0-1_
  6
CONTINUOUS
 62
    7
 10
198.95055041810258
 20
344.99034078885234
 11
198.95055041810258
 21
327.49033894778216
  0
LINE
  8
_0-1_
  6
CONTINUOUS
 62
    7
 10
198.95055041810258
 20
327.49033894778216
 11
211.45054548403465
 21
327.49033894778216
  0
LINE
  8
_0-1_
  6
CONTINUOUS
 62
    7
 10
116.45054798789005
 20
360.24035707864061
 11
186.45055535217045
 21
360.24035707864061
  0
LINE
  8
_0-1_
  6
CONTINUOUS
 62
    7
 10
186.45055535217045
 20
360.24035707864061
 11
186.45055535217045
 21
342.24034143690892
  0
LINE
  8
_0-1_
  6
CONTINUOUS
 62
    7
 10
186.45055535217045
 20
342.24034143690892
 11
116.45054798789005
 21
342.24034143690892
  0
LINE
  8
_0-1_
  6
CONTINUOUS
 62
    7
 10
116.45054798789005
 20
342.24034143690892
 11
116.45054798789005
 21
360.24035707864061
  0
LINE
  8
_0-1_
  6
CONTINUOUS
 62
    7
 10
211.45054548403465
 20
357.49035772669731
 11
198.95055041810258
 21
344.99034078885234
  0
LINE
  8
_0-0_
  6
CONTINUOUS
 62
    7
 10
906.50592641940898
 20
221.39640417798603
 11
901.53654032232214
 21
226.36579027507295
  0
LINE
  8
_0-0_
  6
CONTINUOUS
 62
    7
 10
901.53654032232214
 20
226.36579027507295
 11
906.50592641940898
 21
231.33519824407273
  0
LINE
  8
_0-0_
  6
CONTINUOUS
 62
    7
 10
906.50592641940898
 20
224.0165937269056
 11
902.62068730063424
 21
228.11005345642795
  0
LINE
  8
_0-0_
  6
CONTINUOUS
 62
    7
 10
902.62068730063424
 20
228.11005345642795
 11
901.89541466908099
 21
227.42165687001349
  0
LINE
  8
_0-0_
  6
CONTINUOUS
 62
    7
 10
901.89541466908099
 20
227.42165687001349
 11
906.50592641940898
 21
222.56399250398729
  0
LINE
  8
_0-0_
  6
CONTINUOUS
 62
    7
 10
906.50592641940898
 20
226.92081193666198
 11
904.03492518833696
 21
229.52426947221792
  0
LINE
  8
_0-0_
  6
CONTINUOUS
 62
    7
 10
904.03492518833696
 20
229.52426947221792
 11
903.3095650691323
 21
228.83585101389056
  0
LINE
  8
_0-0_
  6
CONTINUOUS
 62
    7
 10
903.3095650691323
 20
228.83585101389056
 11
906.50592641940898
 21
225.46821071374367
  0
LINE
  8
_0-0_
  6
CONTINUOUS
 62
    7
 10
906.50592641940898
 20
229.82503014641838
 11
905.44916307603989
 21
230.93848548800787
  0
LINE
  8
_0-0_
  6
CONTINUOUS
 62
    7
 10
905.44916307603989
 20
230.93848548800787
 11
904.72380295683502
 21
230.25006702968051
  0
LINE
  8
_0-0_
  6
CONTINUOUS
 62
    7
 10
904.72380295683502
 20
230.25006702968051
 11
906.50592641940898
 21
228.37242892350008
  0
LINE
  8
_0-0_
  6
CONTINUOUS
 62
    7
 10
906.50592641940898
 20
235.57784629144263
 11
906.50592641940898
 21
235.47128633182481
  0
LINE
  8
_0-1_
  6
CONTINUOUS
 62
    7
 10
900.50593578677376
 20
157.32557712834776
 11
950.50591605050215
 21
157.32557712834776
  0
LINE
  8
_0-1_
  6
CONTINUOUS
 62
    7
 10
950.50591605050215
 20
157.32557712834776
 11
950.50591605050215
 21
147.3255854499846
  0
LINE
  8
_0-1_
  6
CONTINUOUS
 62
    7
 10
950.50591605050215
 20
147.3255854499846
 11
900.50593578677376
 21
147.3255854499846
  0
LINE
  8
_0-1_
  6
CONTINUOUS
 62
    7
 10
900.50593578677376
 20
147.3255854499846
 11
900.50593578677376
 21
157.32557712834776
  0
LINE
  8
_0-1_
  6
CONTINUOUS
 62
    7
 10
919.51061587536185
 20
157.32557712834776
 11
906.50592641940898
 21
157.32557712834776
  0
LINE
  8
_0-1_
  6
CONTINUOUS
 62
    7
 10
906.50592641940898
 20
157.32557712834776
 11
906.50592641940898
 21
217.32558187830861
  0
LINE
  8
_0-1_
  6
CONTINUOUS
 62
    7
 10
906.50592641940898
 20
217.32558187830861
 11
917.92927657315158
 21
217.32558187830861
  0
LINE
  8
_0-1_
  6
CONTINUOUS
 62
    7
 10
931.51059714063251
 20
157.32557712834776
 11
944.50592541786693
 21
157.32557712834776
  0
LINE
  8
_0-1_
  6
CONTINUOUS
 62
    7
 10
944.50592541786693
 20
157.32557712834776
 11
944.50592541786693
 21
217.32558187830861
  0
LINE
  8
_0-1_
  6
CONTINUOUS
 62
    7
 10
944.50592541786693
 20
217.32558187830861
 11
933.09193644284278
 21
217.32558187830861
  0
LINE
  8
_0-0_
  6
CONTINUOUS
 62
    7
 10
288.5000016054131
 20
322.49035404455702
 11
284.5000005596853
 21
322.49035404455702
  0
LINE
  8
_0-0_
  6
CONTINUOUS
 62
    7
 10
284.5000005596853
 20
322.49035404455702
 11
284.5000005596853
 21
306.49034986164577
  0
LINE
  8
_0-0_
  6
CONTINUOUS
 62
    7
 10
284.5000005596853
 20
306.49034986164577
 11
228.50000779140871
 21
306.49034986164577
  0
LINE
  8
_0-0_
  6
CONTINUOUS
 62
    7
 10
228.50000779140871
 20
306.49034986164577
 11
228.10981286538612
 21
306.52877881259991
  0
LINE
  8
_0-0_
  6
CONTINUOUS
 62
    7
 10
228.10981286538612
 20
306.52877881259991
 11
227.73464394352146
 21
306.64257837538554
  0
LINE
  8
_0-0_
  6
CONTINUOUS
 62
    7
 10
227.73464394352146
 20
306.64257837538554
 11
227.38884900067305
 21
306.82741791124965
  0
LINE
  8
_0-0_
  6
CONTINUOUS
 62
    7
 10
227.38884900067305
 20
306.82741791124965
 11
227.08579177561873
 21
307.07612343276327
  0
LINE
  8
_0-0_
  6
CONTINUOUS
 62
    7
 10
227.08579177561873
 20
307.07612343276327
 11
226.83706438219224
 21
307.37920252973049
  0
LINE
  8
_0-0_
  6
CONTINUOUS
 62
    7
 10
226.83706438219224
 20
307.37920252973049
 11
226.65224671824092
 21
307.72497560066603
  0
LINE
  8
_0-0_
  6
CONTINUOUS
 62
    7
 10
226.65224671824092
 20
307.72497560066603
 11
226.53842528354247
 21
308.10016639444359
  0
LINE
  8
_0-0_
  6
CONTINUOUS
 62
    7
 10
226.53842528354247
 20
308.10016639444359
 11
226.4999963325883
 21
308.49033944855324
  0
LINE
  8
_0-0_
  6
CONTINUOUS
 62
    7
 10
226.4999963325883
 20
308.49033944855324
 11
226.4999963325883
 21
327.49033894778216
  0
LINE
  8
_0-0_
  6
CONTINUOUS
 62
    7
 10
226.4999963325883
 20
327.49033894778216
 11
188.49999733413043
 21
327.49033894778216
  0
LINE
  8
_0-0_
  6
CONTINUOUS
 62
    7
 10
188.49999733413043
 20
327.49033894778216
 11
188.49999733413043
 21
242.49035500191351
  0
LINE
  8
_0-0_
  6
CONTINUOUS
 62
    7
 10
188.49999733413043
 20
242.49035500191351
 11
226.4999963325883
 21
242.49035500191351
  0
LINE
  8
_0-0_
  6
CONTINUOUS
 62
    7
 10
226.4999963325883
 20
242.49035500191351
 11
226.4999963325883
 21
266.49033940436755
  0
LINE
  8
_0-0_
  6
CONTINUOUS
 62
    7
 10
226.4999963325883
 20
266.49033940436755
 11
226.53842528354247
 21
266.88053433039011
  0
LINE
  8
_0-0_
  6
CONTINUOUS
 62
    7
 10
226.53842528354247
 20
266.88053433039011
 11
226.65224671824092
 21
267.25572512416767
  0
LINE
  8
_0-0_
  6
CONTINUOUS
 62
    7
 10
226.65224671824092
 20
267.25572512416767
 11
226.83706438219224
 21
267.6014981951032
  0
LINE
  8
_0-0_
  6
CONTINUOUS
 62
    7
 10
226.83706438219224
 20
267.6014981951032
 11
227.08579177561873
 21
267.90455542015752
  0
LINE
  8
_0-0_
  6
CONTINUOUS
 62
    7
 10
227.08579177561873
 20
267.90455542015752
 11
227.38884900067305
 21
268.15328281358398
  0
LINE
  8
_0-0_
  6
CONTINUOUS
 62
    7
 10
227.38884900067305
 20
268.15328281358398
 11
227.73464394352146
 21
268.33810047753525
  0
LINE
  8
_0-0_
  6
CONTINUOUS
 62
    7
 10
227.73464394352146
 20
268.33810047753525
 11
228.10981286538612
 21
268.45192191223379
  0
LINE
  8
_0-0_
  6
CONTINUOUS
 62
    7
 10
228.10981286538612
 20
268.45192191223379
 11
228.50000779140871
 21
268.49035086318793
  0
LINE
  8
_0-0_
  6
CONTINUOUS
 62
    7
 10
228.50000779140871
 20
268.49035086318793
 11
284.61439066411907
 21
268.49035086318793
  0
LINE
  8
_0-0_
  6
CONTINUOUS
 62
    7
 10
306.49999537523183
 20
322.49035404455702
 11
310.49999642095969
 21
322.49035404455702
  0
LINE
  8
_0-0_
  6
CONTINUOUS
 62
    7
 10
310.49999642095969
 20
322.49035404455702
 11
310.49999642095969
 21
306.49034986164577
  0
LINE
  8
_0-0_
  6
CONTINUOUS
 62
    7
 10
310.49999642095969
 20
306.49034986164577
 11
366.49998918923632
 21
306.49034986164577
  0
LINE
  8
_0-0_
  6
CONTINUOUS
 62
    7
 10
366.49998918923632
 20
306.49034986164577
 11
366.89018411525888
 21
306.52877881259991
  0
LINE
  8
_0-0_
  6
CONTINUOUS
 62
    7
 10
366.89018411525888
 20
306.52877881259991
 11
367.26537490903638
 21
306.64257837538554
  0
LINE
  8
_0-0_
  6
CONTINUOUS
 62
    7
 10
367.26537490903638
 20
306.64257837538554
 11
367.61112610805912
 21
306.82741791124965
  0
LINE
  8
_0-0_
  6
CONTINUOUS
 62
    7
 10
367.61112610805912
 20
306.82741791124965
 11
367.9142270769392
 21
307.07612343276327
  0
LINE
  8
_0-0_
  6
CONTINUOUS
 62
    7
 10
367.9142270769392
 20
307.07612343276327
 11
368.16295447036566
 21
307.37920252973049
  0
LINE
  8
_0-0_
  6
CONTINUOUS
 62
    7
 10
368.16295447036566
 20
307.37920252973049
 11
368.34777213431693
 21
307.72497560066603
  0
LINE
  8
_0-0_
  6
CONTINUOUS
 62
    7
 10
368.34777213431693
 20
307.72497560066603
 11
368.46154982518959
 21
308.10016639444359
  0
LINE
  8
_0-0_
  6
CONTINUOUS
 62
    7
 10
368.46154982518959
 20
308.10016639444359
 11
368.50000064805664
 21
308.49033944855324
  0
LINE
  8
_0-0_
  6
CONTINUOUS
 62
    7
 10
368.50000064805664
 20
308.49033944855324
 11
368.50000064805664
 21
327.49033894778216
  0
LINE
  8
_0-0_
  6
CONTINUOUS
 62
    7
 10
368.50000064805664
 20
327.49033894778216
 11
406.49999964651448
 21
327.49033894778216
  0
LINE
  8
_0-0_
  6
CONTINUOUS
 62
    7
 10
406.49999964651448
 20
327.49033894778216
 11
406.49999964651448
 21
242.49035500191351
  0
LINE
  8
_0-0_
  6
CONTINUOUS
 62
    7
 10
406.49999964651448
 20
242.49035500191351
 11
368.50000064805664
 21
242.49035500191351
  0
LINE
  8
_0-0_
  6
CONTINUOUS
 62
    7
 10
368.50000064805664
 20
242.49035500191351
 11
368.50000064805664
 21
266.49033940436755
  0
LINE
  8
_0-0_
  6
CONTINUOUS
 62
    7
 10
368.50000064805664
 20
266.49033940436755
 11
368.46154982518959
 21
266.88053433039011
  0
LINE
  8
_0-0_
  6
CONTINUOUS
 62
    7
 10
368.46154982518959
 20
266.88053433039011
 11
368.34777213431693
 21
267.25572512416767
  0
LINE
  8
_0-0_
  6
CONTINUOUS
 62
    7
 10
368.34777213431693
 20
267.25572512416767
 11
368.16295447036566
 21
267.6014981951032
  0
LINE
  8
_0-0_
  6
CONTINUOUS
 62
    7
 10
368.16295447036566
 20
267.6014981951032
 11
367.9142270769392
 21
267.90455542015752
  0
LINE
  8
_0-0_
  6
CONTINUOUS
 62
    7
 10
367.9142270769392
 20
267.90455542015752
 11
367.61112610805912
 21
268.15328281358398
  0
LINE
  8
_0-0_
  6
CONTINUOUS
 62
    7
 10
367.61112610805912
 20
268.15328281358398
 11
367.26537490903638
 21
268.33810047753525
  0
LINE
  8
_0-0_
  6
CONTINUOUS
 62
    7
 10
367.26537490903638
 20
268.33810047753525
 11
366.89018411525888
 21
268.45192191223379
  0
LINE
  8
_0-0_
  6
CONTINUOUS
 62
    7
 10
366.89018411525888
 20
268.45192191223379
 11
366.49998918923632
 21
268.49035086318793
  0
LINE
  8
_0-0_
  6
CONTINUOUS
 62
    7
 10
366.49998918923632
 20
268.49035086318793
 11
310.49999642095969
 21
268.49035086318793
  0
LINE
  8
_0-0_
  6
CONTINUOUS
 62
    7
 10
288.5000016054131
 20
322.49035404455702
 11
284.5000005596853
 21
322.49035404455702
  0
LINE
  8
_0-0_
  6
CONTINUOUS
 62
    7
 10
284.5000005596853
 20
322.49035404455702
 11
284.5000005596853
 21
529.49035894916778
  0
LINE
  8
_0-0_
  6
CONTINUOUS
 62
    7
 10
284.5000005596853
 20
529.49035894916778
 11
284.74979967684362
 21
532.02653848066291
  0
LINE
  8
_0-0_
  6
CONTINUOUS
 62
    7
 10
284.74979967684362
 20
532.02653848066291
 11
285.48957338664525
 21
534.46521302447809
  0
LINE
  8
_0-0_
  6
CONTINUOUS
 62
    7
 10
285.48957338664525
 20
534.46521302447809
 11
286.69088820232844
 21
536.71277079342872
  0
LINE
  8
_0-0_
  6
CONTINUOUS
 62
    7
 10
286.69088820232844
 20
536.71277079342872
 11
288.30761625960065
 21
538.68273024393318
  0
LINE
  8
_0-0_
  6
CONTINUOUS
 62
    7
 10
288.30761625960065
 20
538.68273024393318
 11
290.27759758201802
 21
540.29945830120539
  0
LINE
  8
_0-0_
  6
CONTINUOUS
 62
    7
 10
290.27759758201802
 20
540.29945830120539
 11
292.52511160714283
 21
541.50079498880154
  0
LINE
  8
_0-0_
  6
CONTINUOUS
 62
    7
 10
292.52511160714283
 20
541.50079498880154
 11
294.96382989478383
 21
542.24054682669032
  0
LINE
  8
_0-0_
  6
CONTINUOUS
 62
    7
 10
294.96382989478383
 20
542.24054682669032
 11
297.50000942627889
 21
542.49036781576149
  0
LINE
  8
_0-0_
  6
CONTINUOUS
 62
    7
 10
297.50000942627889
 20
542.49036781576149
 11
300.03616708586105
 21
542.24054682669032
  0
LINE
  8
_0-0_
  6
CONTINUOUS
 62
    7
 10
300.03616708586105
 20
542.24054682669032
 11
302.47488537350216
 21
541.50079498880154
  0
LINE
  8
_0-0_
  6
CONTINUOUS
 62
    7
 10
302.47488537350216
 20
541.50079498880154
 11
304.72242127053988
 21
540.29945830120539
  0
LINE
  8
_0-0_
  6
CONTINUOUS
 62
    7
 10
304.72242127053988
 20
540.29945830120539
 11
306.69238072104434
 21
538.68273024393318
  0
LINE
  8
_0-0_
  6
CONTINUOUS
 62
    7
 10
306.69238072104434
 20
538.68273024393318
 11
308.30910877831656
 21
536.71277079342872
  0
LINE
  8
_0-0_
  6
CONTINUOUS
 62
    7
 10
308.30910877831656
 20
536.71277079342872
 11
309.5104235939998
 21
534.46521302447809
  0
LINE
  8
_0-0_
  6
CONTINUOUS
 62
    7
 10
309.5104235939998
 20
534.46521302447809
 11
310.25021917571428
 21
532.02653848066291
  0
LINE
  8
_0-0_
  6
CONTINUOUS
 62
    7
 10
310.25021917571428
 20
532.02653848066291
 11
310.49999642095969
 21
529.49035894916778
  0
LINE
  8
_0-0_
  6
CONTINUOUS
 62
    7
 10
310.49999642095969
 20
529.49035894916778
 11
310.49999642095969
 21
322.49035404455702
  0
LINE
  8
_0-0_
  6
CONTINUOUS
 62
    7
 10
310.49999642095969
 20
322.49035404455702
 11
306.49999537523183
 21
322.49035404455702
  0
LINE
  8
_0-0_
  6
CONTINUOUS
 62
    7
 10
302.84791084790322
 20
436.27209122116494
 11
303.21356548765903
 21
436.19510208777939
  0
LINE
  8
_0-0_
  6
CONTINUOUS
 62
    7
 10
303.21356548765903
 20
436.19510208777939
 11
303.56211629153216
 21
436.1134323650345
  0
LINE
  8
_0-0_
  6
CONTINUOUS
 62
    7
 10
303.56211629153216
 20
436.1134323650345
 11
303.89356325952241
 21
436.0271257967562
  0
LINE
  8
_0-0_
  6
CONTINUOUS
 62
    7
 10
303.89356325952241
 20
436.0271257967562
 11
304.20790639162982
 21
435.93613863911861
  0
LINE
  8
_0-0_
  6
CONTINUOUS
 62
    7
 10
304.20790639162982
 20
435.93613863911861
 11
304.50514568785434
 21
435.84051463594767
  0
LINE
  8
_0-0_
  6
CONTINUOUS
 62
    7
 10
304.50514568785434
 20
435.84051463594767
 11
304.78528114819619
 21
435.7402537872432
  0
LINE
  8
_0-0_
  6
CONTINUOUS
 62
    7
 10
304.78528114819619
 20
435.7402537872432
 11
305.04831277265509
 21
435.63531234917951
  0
LINE
  8
_0-0_
  6
CONTINUOUS
 62
    7
 10
305.04831277265509
 20
435.63531234917951
 11
305.29421868931831
 21
435.5256903217566
  0
LINE
  8
_0-0_
  6
CONTINUOUS
 62
    7
 10
305.29421868931831
 20
435.5256903217566
 11
305.57682567581708
 21
435.38221057317429
  0
LINE
  8
_0-0_
  6
CONTINUOUS
 62
    7
 10
305.57682567581708
 20
435.38221057317429
 11
305.82174735640012
 21
435.23593121974159
  0
LINE
  8
_0-0_
  6
CONTINUOUS
 62
    7
 10
305.82174735640012
 20
435.23593121974159
 11
306.02900560298019
 21
435.08693974911012
  0
LINE
  8
_0-0_
  6
CONTINUOUS
 62
    7
 10
306.02900560298019
 20
435.08693974911012
 11
306.19855667173169
 21
434.935192417454
  0
LINE
  8
_0-0_
  6
CONTINUOUS
 62
    7
 10
306.19855667173169
 20
434.935192417454
 11
306.33044430648033
 21
434.78068922477337
  0
LINE
  8
_0-0_
  6
CONTINUOUS
 62
    7
 10
306.33044430648033
 20
434.78068922477337
 11
306.42464663531325
 21
434.62343017106809
  0
LINE
  8
_0-0_
  6
CONTINUOUS
 62
    7
 10
306.42464663531325
 20
434.62343017106809
 11
306.48116365823046
 21
434.46345900016399
  0
LINE
  8
_0-0_
  6
CONTINUOUS
 62
    7
 10
306.48116365823046
 20
434.46345900016399
 11
306.49999537523183
 21
434.30073196823525
  0
LINE
  8
_0-0_
  6
CONTINUOUS
 62
    7
 10
306.49999537523183
 20
434.30073196823525
 11
306.48116365823046
 21
434.13796119248082
  0
LINE
  8
_0-0_
  6
CONTINUOUS
 62
    7
 10
306.48116365823046
 20
434.13796119248082
 11
306.42464663531325
 21
433.97799002157677
  0
LINE
  8
_0-0_
  6
CONTINUOUS
 62
    7
 10
306.42464663531325
 20
433.97799002157677
 11
306.33044430648033
 21
433.82073096787144
  0
LINE
  8
_0-0_
  6
CONTINUOUS
 62
    7
 10
306.33044430648033
 20
433.82073096787144
 11
306.19855667173169
 21
433.66622777519075
  0
LINE
  8
_0-0_
  6
CONTINUOUS
 62
    7
 10
306.19855667173169
 20
433.66622777519075
 11
306.02900560298019
 21
433.51448044353469
  0
LINE
  8
_0-0_
  6
CONTINUOUS
 62
    7
 10
306.02900560298019
 20
433.51448044353469
 11
305.82174735640012
 21
433.36548897290322
  0
LINE
  8
_0-0_
  6
CONTINUOUS
 62
    7
 10
305.82174735640012
 20
433.36548897290322
 11
305.57682567581708
 21
433.21920961947052
  0
LINE
  8
_0-0_
  6
CONTINUOUS
 62
    7
 10
305.57682567581708
 20
433.21920961947052
 11
305.29421868931831
 21
433.07572987088827
  0
LINE
  8
_0-0_
  6
CONTINUOUS
 62
    7
 10
305.29421868931831
 20
433.07572987088827
 11
304.97900068069509
 21
432.93732440609722
  0
LINE
  8
_0-0_
  6
CONTINUOUS
 62
    7
 10
304.97900068069509
 20
432.93732440609722
 11
304.63618031800024
 21
432.80648662316753
  0
LINE
  8
_0-0_
  6
CONTINUOUS
 62
    7
 10
304.63618031800024
 20
432.80648662316753
 11
304.26577947314638
 21
432.68312903444735
  0
LINE
  8
_0-0_
  6
CONTINUOUS
 62
    7
 10
304.26577947314638
 20
432.68312903444735
 11
303.86777627422077
 21
432.56725163993684
  0
LINE
  8
_0-0_
  6
CONTINUOUS
 62
    7
 10
303.86777627422077
 20
432.56725163993684
 11
303.44221446504918
 21
432.45889818346177
  0
LINE
  8
_0-0_
  6
CONTINUOUS
 62
    7
 10
303.44221446504918
 20
432.45889818346177
 11
302.98905030180595
 21
432.35806866502207
  0
LINE
  8
_0-0_
  6
CONTINUOUS
 62
    7
 10
302.98905030180595
 20
432.35806866502207
 11
302.50832752831656
 21
432.26476308461775
  0
LINE
  8
_0-0_
  6
CONTINUOUS
 62
    7
 10
302.50832752831656
 20
432.26476308461775
 11
302.00000240075542
 21
432.17893769842311
  0
LINE
  8
_0-0_
  6
CONTINUOUS
 62
    7
 10
302.00000240075542
 20
432.17893769842311
 11
301.47284555619285
 21
432.10203605268907
  0
LINE
  8
_0-0_
  6
CONTINUOUS
 62
    7
 10
301.47284555619285
 20
432.10203605268907
 11
300.93558388787346
 21
432.03532671836348
  0
LINE
  8
_0-0_
  6
CONTINUOUS
 62
    7
 10
300.93558388787346
 20
432.03532671836348
 11
300.38821739579714
 21
431.97894092692366
  0
LINE
  8
_0-0_
  6
CONTINUOUS
 62
    7
 10
300.38821739579714
 20
431.97894092692366
 11
299.83076795187696
 21
431.93279119071809
  0
LINE
  8
_0-0_
  6
CONTINUOUS
 62
    7
 10
299.83076795187696
 20
431.93279119071809
 11
299.26321368419985
 21
431.89687750974679
  0
LINE
  8
_0-0_
  6
CONTINUOUS
 62
    7
 10
299.26321368419985
 20
431.89687750974679
 11
298.68557646467877
 21
431.87124362783544
  0
LINE
  8
_0-0_
  6
CONTINUOUS
 62
    7
 10
298.68557646467877
 20
431.87124362783544
 11
298.09783442140088
 21
431.8558458011583
  0
LINE
  8
_0-0_
  6
CONTINUOUS
 62
    7
 10
298.09783442140088
 20
431.8558458011583
 11
297.50000942627889
 21
431.85072777354117
  0
LINE
  8
_0-0_
  6
CONTINUOUS
 62
    7
 10
297.50000942627889
 20
431.85072777354117
 11
296.90216255924412
 21
431.8558458011583
  0
LINE
  8
_0-0_
  6
CONTINUOUS
 62
    7
 10
296.90216255924412
 20
431.8558458011583
 11
296.31442051596622
 21
431.87124362783544
  0
LINE
  8
_0-0_
  6
CONTINUOUS
 62
    7
 10
296.31442051596622
 20
431.87124362783544
 11
295.73678329644514
 21
431.89687750974679
  0
LINE
  8
_0-0_
  6
CONTINUOUS
 62
    7
 10
295.73678329644514
 20
431.89687750974679
 11
295.16922902876797
 21
431.93279119071809
  0
LINE
  8
_0-0_
  6
CONTINUOUS
 62
    7
 10
295.16922902876797
 20
431.93279119071809
 11
294.6117795848478
 21
431.97894092692366
  0
LINE
  8
_0-0_
  6
CONTINUOUS
 62
    7
 10
294.6117795848478
 20
431.97894092692366
 11
294.06441309277159
 21
432.03532671836348
  0
LINE
  8
_0-0_
  6
CONTINUOUS
 62
    7
 10
294.06441309277159
 20
432.03532671836348
 11
293.52717329636505
 21
432.10203605268907
  0
LINE
  8
_0-0_
  6
CONTINUOUS
 62
    7
 10
293.52717329636505
 20
432.10203605268907
 11
292.99999457988963
 21
432.17893769842311
  0
LINE
  8
_0-0_
  6
CONTINUOUS
 62
    7
 10
292.99999457988963
 20
432.17893769842311
 11
292.49166945232844
 21
432.26476308461775
  0
LINE
  8
_0-0_
  6
CONTINUOUS
 62
    7
 10
292.49166945232844
 20
432.26476308461775
 11
292.0109466788391
 21
432.35806866502207
  0
LINE
  8
_0-0_
  6
CONTINUOUS
 62
    7
 10
292.0109466788391
 20
432.35806866502207
 11
291.55778251559576
 21
432.45889818346177
  0
LINE
  8
_0-0_
  6
CONTINUOUS
 62
    7
 10
291.55778251559576
 20
432.45889818346177
 11
291.13222070642422
 21
432.56725163993684
  0
LINE
  8
_0-0_
  6
CONTINUOUS
 62
    7
 10
291.13222070642422
 20
432.56725163993684
 11
290.73421750749856
 21
432.68312903444735
  0
LINE
  8
_0-0_
  6
CONTINUOUS
 62
    7
 10
290.73421750749856
 20
432.68312903444735
 11
290.36381666264475
 21
432.80648662316753
  0
LINE
  8
_0-0_
  6
CONTINUOUS
 62
    7
 10
290.36381666264475
 20
432.80648662316753
 11
290.02099629994984
 21
432.93732440609722
  0
LINE
  8
_0-0_
  6
CONTINUOUS
 62
    7
 10
290.02099629994984
 20
432.93732440609722
 11
289.70577829132662
 21
433.07572987088827
  0
LINE
  8
_0-0_
  6
CONTINUOUS
 62
    7
 10
289.70577829132662
 20
433.07572987088827
 11
289.42317130482792
 21
433.21920961947052
  0
LINE
  8
_0-0_
  6
CONTINUOUS
 62
    7
 10
289.42317130482792
 20
433.21920961947052
 11
289.17824962424493
 21
433.36548897290322
  0
LINE
  8
_0-0_
  6
CONTINUOUS
 62
    7
 10
289.17824962424493
 20
433.36548897290322
 11
288.97101324957771
 21
433.51448044353469
  0
LINE
  8
_0-0_
  6
CONTINUOUS
 62
    7
 10
288.97101324957771
 20
433.51448044353469
 11
288.8014403089133
 21
433.66622777519075
  0
LINE
  8
_0-0_
  6
CONTINUOUS
 62
    7
 10
288.8014403089133
 20
433.66622777519075
 11
288.66955267416461
 21
433.82073096787144
  0
LINE
  8
_0-0_
  6
CONTINUOUS
 62
    7
 10
288.66955267416461
 20
433.82073096787144
 11
288.57535034533169
 21
433.97799002157677
  0
LINE
  8
_0-0_
  6
CONTINUOUS
 62
    7
 10
288.57535034533169
 20
433.97799002157677
 11
288.51883332241459
 21
434.13796119248082
  0
LINE
  8
_0-0_
  6
CONTINUOUS
 62
    7
 10
288.51883332241459
 20
434.13796119248082
 11
288.5000016054131
 21
434.30073196823525
  0
LINE
  8
_0-0_
  6
CONTINUOUS
 62
    7
 10
288.5000016054131
 20
434.30073196823525
 11
288.51658051538652
 21
434.4624091483451
  0
LINE
  8
_0-0_
  6
CONTINUOUS
 62
    7
 10
288.51658051538652
 20
434.4624091483451
 11
288.56631724530666
 21
434.61918701996672
  0
LINE
  8
_0-0_
  6
CONTINUOUS
 62
    7
 10
288.56631724530666
 20
434.61918701996672
 11
288.64921179517353
 21
434.77110932692597
  0
LINE
  8
_0-0_
  6
CONTINUOUS
 62
    7
 10
288.64921179517353
 20
434.77110932692597
 11
288.76524229307438
 21
434.91813232539698
  0
LINE
  8
_0-0_
  6
CONTINUOUS
 62
    7
 10
288.76524229307438
 20
434.91813232539698
 11
288.91445248283475
 21
435.06029975920569
  0
LINE
  8
_0-0_
  6
CONTINUOUS
 62
    7
 10
288.91445248283475
 20
435.06029975920569
 11
289.09682049254184
 21
435.19756788452617
  0
LINE
  8
_0-0_
  6
CONTINUOUS
 62
    7
 10
289.09682049254184
 20
435.19756788452617
 11
289.31232445028297
 21
435.32993670135852
  0
LINE
  8
_0-0_
  6
CONTINUOUS
 62
    7
 10
289.31232445028297
 20
435.32993670135852
 11
289.56100809988368
 21
435.4574499535284
  0
LINE
  8
_0-0_
  6
CONTINUOUS
 62
    7
 10
289.56100809988368
 20
435.4574499535284
 11
289.8343413953155
 21
435.57975769042969
  0
LINE
  8
_0-0_
  6
CONTINUOUS
 62
    7
 10
289.8343413953155
 20
435.57975769042969
 11
290.12381616246284
 21
435.69650996145589
  0
LINE
  8
_0-0_
  6
CONTINUOUS
 62
    7
 10
290.12381616246284
 20
435.69650996145589
 11
290.42945427323855
 21
435.80775051043298
  0
LINE
  8
_0-0_
  6
CONTINUOUS
 62
    7
 10
290.42945427323855
 20
435.80775051043298
 11
290.75125572764279
 21
435.91343559353504
  0
LINE
  8
_0-0_
  6
CONTINUOUS
 62
    7
 10
290.75125572764279
 20
435.91343559353504
 11
291.08919865376237
 21
436.01356521076212
  0
LINE
  8
_0-0_
  6
CONTINUOUS
 62
    7
 10
291.08919865376237
 20
436.01356521076212
 11
291.44330492351048
 21
436.10818310594004
  0
LINE
  8
_0-0_
  6
CONTINUOUS
 62
    7
 10
291.44330492351048
 20
436.10818310594004
 11
291.8135745368869
 21
436.19728927906868
  0
LINE
  8
_0-0_
  6
CONTINUOUS
 62
    7
 10
291.8135745368869
 20
436.19728927906868
 11
292.20000749389169
 21
436.28083998632241
  0
LINE
  8
_0-0_
  6
CONTINUOUS
 62
    7
 10
284.5000005596853
 20
454.28597365567123
 11
284.5000005596853
 21
454.22442609278846
  0
LINE
  8
_0-0_
  6
CONTINUOUS
 62
    7
 10
284.5000005596853
 20
454.22442609278846
 11
284.5000005596853
 21
454.19179319875121
  0
LINE
  8
_0-0_
  6
CONTINUOUS
 62
    7
 10
284.5000005596853
 20
454.19179319875121
 11
284.5000005596853
 21
454.18803122973344
  0
LINE
  8
_0-0_
  6
CONTINUOUS
 62
    7
 10
284.5000005596853
 20
454.18803122973344
 11
284.5000005596853
 21
454.21322767338694
  0
LINE
  8
_0-0_
  6
CONTINUOUS
 62
    7
 10
284.5000005596853
 20
454.21322767338694
 11
284.5000005596853
 21
454.26729504206003
  0
LINE
  8
_0-0_
  6
CONTINUOUS
 62
    7
 10
284.5000005596853
 20
454.26729504206003
 11
284.5000005596853
 21
454.3502333357527
  0
LINE
  8
_0-0_
  6
CONTINUOUS
 62
    7
 10
284.5000005596853
 20
454.3502333357527
 11
284.5000005596853
 21
454.46213004211654
  0
LINE
  8
_0-0_
  6
CONTINUOUS
 62
    7
 10
284.5000005596853
 20
454.46213004211654
 11
284.5000005596853
 21
454.60289767350002
  0
LINE
  8
_0-0_
  6
CONTINUOUS
 62
    7
 10
284.5000005596853
 20
454.60289767350002
 11
284.52720921932496
 21
454.76111909137268
  0
LINE
  8
_0-0_
  6
CONTINUOUS
 62
    7
 10
284.52720921932496
 20
454.76111909137268
 11
284.60885707015689
 21
454.92528966955234
  0
LINE
  8
_0-0_
  6
CONTINUOUS
 62
    7
 10
284.60885707015689
 20
454.92528966955234
 11
284.74492224026835
 21
455.09545315186483
  0
LINE
  8
_0-0_
  6
CONTINUOUS
 62
    7
 10
284.74492224026835
 20
455.09545315186483
 11
284.93542660157186
 21
455.27160953831026
  0
LINE
  8
_0-0_
  6
CONTINUOUS
 62
    7
 10
284.93542660157186
 20
455.27160953831026
 11
285.18034828215491
 21
455.4537150850627
  0
LINE
  8
_0-0_
  6
CONTINUOUS
 62
    7
 10
285.18034828215491
 20
455.4537150850627
 11
285.47968728201727
 21
455.64181353594802
  0
LINE
  8
_0-0_
  6
CONTINUOUS
 62
    7
 10
285.47968728201727
 20
455.64181353594802
 11
285.83346547307195
 21
455.83590489096622
  0
LINE
  8
_0-0_
  6
CONTINUOUS
 62
    7
 10
285.83346547307195
 20
455.83590489096622
 11
286.24166098340595
 21
456.03594540629149
  0
LINE
  8
_0-0_
  6
CONTINUOUS
 62
    7
 10
286.24166098340595
 20
456.03594540629149
 11
286.69701233793876
 21
456.23362375502415
  0
LINE
  8
_0-0_
  6
CONTINUOUS
 62
    7
 10
286.69701233793876
 20
456.23362375502415
 11
287.19219244585076
 21
456.42058486643907
  0
LINE
  8
_0-0_
  6
CONTINUOUS
 62
    7
 10
287.19219244585076
 20
456.42058486643907
 11
287.72722317905499
 21
456.59682874053601
  0
LINE
  8
_0-0_
  6
CONTINUOUS
 62
    7
 10
287.72722317905499
 20
456.59682874053601
 11
288.30208266563858
 21
456.76231163348928
  0
LINE
  8
_0-0_
  6
CONTINUOUS
 62
    7
 10
288.30208266563858
 20
456.76231163348928
 11
288.91679277751439
 21
456.91707728912468
  0
LINE
  8
_0-0_
  6
CONTINUOUS
 62
    7
 10
288.91679277751439
 20
456.91707728912468
 11
289.57135351468241
 21
457.06112570744216
  0
LINE
  8
_0-0_
  6
CONTINUOUS
 62
    7
 10
289.57135351468241
 20
457.06112570744216
 11
290.2657648771426
 21
457.19445688844183
  0
LINE
  8
_0-0_
  6
CONTINUOUS
 62
    7
 10
290.2657648771426
 20
457.19445688844183
 11
291.0000049929821
 21
457.31702708829778
  0
LINE
  8
_0-0_
  6
CONTINUOUS
 62
    7
 10
291.0000049929821
 20
457.31702708829778
 11
291.76145376846137
 21
457.42695532250127
  0
LINE
  8
_0-0_
  6
CONTINUOUS
 62
    7
 10
291.76145376846137
 20
457.42695532250127
 11
292.53749110984063
 21
457.52218563124018
  0
LINE
  8
_0-0_
  6
CONTINUOUS
 62
    7
 10
292.53749110984063
 20
457.52218563124018
 11
293.32811701712001
 21
457.60280550216612
  0
LINE
  8
_0-0_
  6
CONTINUOUS
 62
    7
 10
293.32811701712001
 20
457.60280550216612
 11
294.13333149029938
 21
457.66872744762759
  0
LINE
  8
_0-0_
  6
CONTINUOUS
 62
    7
 10
294.13333149029938
 20
457.66872744762759
 11
294.95311265746591
 21
457.71999521145028
  0
LINE
  8
_0-0_
  6
CONTINUOUS
 62
    7
 10
294.95311265746591
 20
457.71999521145028
 11
295.78750426244551
 21
457.75665253746001
  0
LINE
  8
_0-0_
  6
CONTINUOUS
 62
    7
 10
295.78750426244551
 20
457.75665253746001
 11
296.6364625614122
 21
457.77861193800527
  0
LINE
  8
_0-0_
  6
CONTINUOUS
 62
    7
 10
296.6364625614122
 20
457.77861193800527
 11
297.50000942627889
 21
457.78596090073745
  0
LINE
  8
_0-0_
  6
CONTINUOUS
 62
    7
 10
297.50000942627889
 20
457.78596090073745
 11
298.36353441923279
 21
457.77861193800527
  0
LINE
  8
_0-0_
  6
CONTINUOUS
 62
    7
 10
298.36353441923279
 20
457.77861193800527
 11
299.21249271819943
 21
457.75665253746001
  0
LINE
  8
_0-0_
  6
CONTINUOUS
 62
    7
 10
299.21249271819943
 20
457.75665253746001
 11
300.04688432317903
 21
457.71999521145028
  0
LINE
  8
_0-0_
  6
CONTINUOUS
 62
    7
 10
300.04688432317903
 20
457.71999521145028
 11
300.86666549034561
 21
457.66872744762759
  0
LINE
  8
_0-0_
  6
CONTINUOUS
 62
    7
 10
300.86666549034561
 20
457.66872744762759
 11
301.67187996352493
 21
457.60280550216612
  0
LINE
  8
_0-0_
  6
CONTINUOUS
 62
    7
 10
301.67187996352493
 20
457.60280550216612
 11
302.46250587080442
 21
457.52218563124018
  0
LINE
  8
_0-0_
  6
CONTINUOUS
 62
    7
 10
302.46250587080442
 20
457.52218563124018
 11
303.23854321218363
 21
457.42695532250127
  0
LINE
  8
_0-0_
  6
CONTINUOUS
 62
    7
 10
303.23854321218363
 20
457.42695532250127
 11
303.9999919876629
 21
457.31702708829778
  0
LINE
  8
_0-0_
  6
CONTINUOUS
 62
    7
 10
303.9999919876629
 20
457.31702708829778
 11
304.72983584901078
 21
457.1965128482538
  0
LINE
  8
_0-0_
  6
CONTINUOUS
 62
    7
 10
304.72983584901078
 20
457.1965128482538
 11
305.41099283225748
 21
457.0693495466902
  0
LINE
  8
_0-0_
  6
CONTINUOUS
 62
    7
 10
305.41099283225748
 20
457.0693495466902
 11
306.04350668122868
 21
456.93558092743274
  0
LINE
  8
_0-0_
  6
CONTINUOUS
 62
    7
 10
306.04350668122868
 20
456.93558092743274
 11
306.62735552401159
 21
456.79520699048135
  0
LINE
  8
_0-0_
  6
CONTINUOUS
 62
    7
 10
306.62735552401159
 20
456.79520699048135
 11
307.1625393606061
 21
456.64822773583603
  0
LINE
  8
_0-0_
  6
CONTINUOUS
 62
    7
 10
307.1625393606061
 20
456.64822773583603
 11
307.64905819101222
 21
456.49464316349685
  0
LINE
  8
_0-0_
  6
CONTINUOUS
 62
    7
 10
307.64905819101222
 20
456.49464316349685
 11
308.08691201523004
 21
456.33440952963809
  0
LINE
  8
_0-0_
  6
CONTINUOUS
 62
    7
 10
308.08691201523004
 20
456.33440952963809
 11
308.47610083325947
 21
456.16757057808536
  0
LINE
  8
_0-0_
  6
CONTINUOUS
 62
    7
 10
308.47610083325947
 20
456.16757057808536
 11
308.82697005989928
 21
455.98931448800221
  0
LINE
  8
_0-0_
  6
CONTINUOUS
 62
    7
 10
308.82697005989928
 20
455.98931448800221
 11
309.14986510994811
 21
455.79474195090035
  0
LINE
  8
_0-0_
  6
CONTINUOUS
 62
    7
 10
309.14986510994811
 20
455.79474195090035
 11
309.4448078553188
 21
455.58394045443146
  0
LINE
  8
_0-0_
  6
CONTINUOUS
 62
    7
 10
309.4448078553188
 20
455.58394045443146
 11
309.71177642409862
 21
455.35686625476967
  0
LINE
  8
_0-0_
  6
CONTINUOUS
 62
    7
 10
309.71177642409862
 20
455.35686625476967
 11
309.95079268820035
 21
455.1135630957408
  0
LINE
  8
_0-0_
  6
CONTINUOUS
 62
    7
 10
309.95079268820035
 20
455.1135630957408
 11
310.1618347757111
 21
454.85394348969328
  0
LINE
  8
_0-0_
  6
CONTINUOUS
 62
    7
 10
310.1618347757111
 20
454.85394348969328
 11
310.34490268663092
 21
454.57809492427873
  0
LINE
  8
_0-0_
  6
CONTINUOUS
 62
    7
 10
310.34490268663092
 20
454.57809492427873
 11
310.49999642095969
 21
454.28597365567123
  0
LINE
  8
_0-0_
  6
CONTINUOUS
 62
    7
 10
753.19125348536659
 20
450.62846489394485
 11
728.17210355780753
 21
457.70241019348373
  0
LINE
  8
_0-0_
  6
CONTINUOUS
 62
    7
 10
728.17210355780753
 20
457.70241019348373
 11
722.18646090003051
 21
436.53236698459932
  0
LINE
  8
_0-0_
  6
CONTINUOUS
 62
    7
 10
722.18646090003051
 20
436.53236698459932
 11
747.20561082758945
 21
429.45837794123463
  0
LINE
  8
_0-0_
  6
CONTINUOUS
 62
    7
 10
747.20561082758945
 20
429.45837794123463
 11
753.19125348536659
 21
450.62846489394485
  0
LINE
  8
_0-0_
  6
CONTINUOUS
 62
    7
 10
728.44414641037872
 20
458.66468687315239
 11
728.71623300677561
 21
459.62696355282105
  0
LINE
  8
_0-0_
  6
CONTINUOUS
 62
    7
 10
753.73542667816037
 20
452.55301825328218
 11
753.19125348536659
 21
450.62846489394485
  0
LINE
  8
_0-0_
  6
CONTINUOUS
 62
    7
 10
753.19125348536659
 20
450.62846489394485
 11
728.17210355780753
 21
457.70241019348373
  0
LINE
  8
_0-0_
  6
CONTINUOUS
 62
    7
 10
728.17210355780753
 20
457.70241019348373
 11
728.44414641037872
 21
458.66468687315239
  0
LINE
  8
_0-0_
  6
CONTINUOUS
 62
    7
 10
912.50591705204431
 20
327.32557782795436
 11
912.50591705204431
 21
440.9948058846374
  0
LINE
  8
_0-0_
  6
CONTINUOUS
 62
    7
 10
938.5059347852316
 20
327.32557782795436
 11
938.5059347852316
 21
442.32558055273813
  0
LINE
  8
_0-0_
  6
CONTINUOUS
 62
    7
 10
938.5059347852316
 20
442.32558055273813
 11
935.828987622353
 21
461.17851330967022
  0
LINE
  8
_0-0_
  6
CONTINUOUS
 62
    7
 10
935.828987622353
 20
461.17851330967022
 11
929.8255849713064
 21
479.24943769300307
  0
LINE
  8
_0-0_
  6
CONTINUOUS
 62
    7
 10
929.8255849713064
 20
479.24943769300307
 11
920.68924951737449
 21
495.95647333211417
  0
LINE
  8
_0-0_
  6
CONTINUOUS
 62
    7
 10
920.68924951737449
 20
495.95647333211417
 11
908.71393976984791
 21
510.76161491364581
  0
LINE
  8
_0-0_
  6
CONTINUOUS
 62
    7
 10
908.71393976984791
 20
510.76161491364581
 11
894.28547627217063
 21
523.18814222416813
  0
LINE
  8
_0-0_
  6
CONTINUOUS
 62
    7
 10
894.28547627217063
 20
523.18814222416813
 11
877.86841845420327
 21
532.83588674537918
  0
LINE
  8
_0-0_
  6
CONTINUOUS
 62
    7
 10
877.86841845420327
 20
532.83588674537918
 11
859.99145419441129
 21
539.39417982653754
  0
LINE
  8
_0-0_
  6
CONTINUOUS
 62
    7
 10
859.99145419441129
 20
539.39417982653754
 11
841.23007726485196
 21
542.65182627674233
  0
LINE
  8
_0-0_
  6
CONTINUOUS
 62
    7
 10
841.23007726485196
 20
542.65182627674233
 11
822.49765874796378
 21
542.53371794711666
  0
LINE
  8
_0-0_
  6
CONTINUOUS
 62
    7
 10
822.49765874796378
 20
542.53371794711666
 11
804.07774612250012
 21
539.12344928874006
  0
LINE
  8
_0-0_
  6
CONTINUOUS
 62
    7
 10
804.07774612250012
 20
539.12344928874006
 11
786.54460833339613
 21
532.52727405444989
  0
LINE
  8
_0-0_
  6
CONTINUOUS
 62
    7
 10
786.54460833339613
 20
532.52727405444989
 11
770.44460576473512
 21
522.95074448162063
  0
LINE
  8
_0-0_
  6
CONTINUOUS
 62
    7
 10
770.44460576473512
 20
522.95074448162063
 11
756.2794800982972
 21
510.69236843742459
  0
LINE
  8
_0-0_
  6
CONTINUOUS
 62
    7
 10
756.2794800982972
 20
510.69236843742459
 11
744.49051904862449
 21
496.13411700863628
  0
LINE
  8
_0-0_
  6
CONTINUOUS
 62
    7
 10
744.49051904862449
 20
496.13411700863628
 11
735.44534572763325
 21
479.7297011563216
  0
LINE
  8
_0-0_
  6
CONTINUOUS
 62
    7
 10
735.44534572763325
 20
479.7297011563216
 11
729.42575786104521
 21
461.99035497245637
  0
LINE
  8
_0-0_
  6
CONTINUOUS
 62
    7
 10
906.50592641940898
 20
246.6037181721691
 11
906.50592641940898
 21
242.32557201017283
  0
LINE
  8
_0-0_
  6
CONTINUOUS
 62
    7
 10
906.50592641940898
 20
242.32557201017283
 11
912.34843927921008
 21
242.32557201017283
  0
LINE
  8
_0-0_
  6
CONTINUOUS
 62
    7
 10
906.50592641940898
 20
278.31683265656574
 11
906.50592641940898
 21
327.32557782795436
  0
LINE
  8
_0-0_
  6
CONTINUOUS
 62
    7
 10
906.50592641940898
 20
327.32557782795436
 11
944.50592541786693
 21
327.32557782795436
  0
LINE
  8
_0-0_
  6
CONTINUOUS
 62
    7
 10
944.50592541786693
 20
327.32557782795436
 11
944.50592541786693
 21
242.32557201017283
  0
LINE
  8
_0-0_
  6
CONTINUOUS
 62
    7
 10
944.50592541786693
 20
242.32557201017283
 11
937.26763456484514
 21
242.32557201017283
  0
LINE
  8
_0-0_
  6
CONTINUOUS
 62
    7
 10
227.45805173306849
 20
306.49034986164577
 11
225.3777703539285
 21
302.31134908079639
  0
LINE
  8
_0-0_
  6
CONTINUOUS
 62
    7
 10
225.3777703539285
 20
302.31134908079639
 11
223.86530570542027
 21
297.96406580214335
  0
LINE
  8
_0-0_
  6
CONTINUOUS
 62
    7
 10
223.86530570542027
 20
297.96406580214335
 11
222.92067965945677
 21
293.44854376951236
  0
LINE
  8
_0-0_
  6
CONTINUOUS
 62
    7
 10
222.92067965945677
 20
293.44854376951236
 11
222.54384847221223
 21
288.76476111099066
  0
LINE
  8
_0-0_
  6
CONTINUOUS
 62
    7
 10
222.54384847221223
 20
288.76476111099066
 11
222.73483401559957
 21
283.91273969849101
  0
LINE
  8
_0-0_
  6
CONTINUOUS
 62
    7
 10
222.73483401559957
 20
283.91273969849101
 11
223.49363628961868
 21
278.8924357881877
  0
LINE
  8
_0-0_
  6
CONTINUOUS
 62
    7
 10
223.49363628961868
 20
278.8924357881877
 11
224.82025529426954
 21
273.70389312390654
  0
LINE
  8
_0-0_
  6
CONTINUOUS
 62
    7
 10
224.82025529426954
 20
273.70389312390654
 11
226.71469102955228
 21
268.34706796182166
  0
LINE
  8
_0-0_
  6
CONTINUOUS
 62
    7
 10
369.69823152402194
 20
306.49034986164577
 11
371.77851290316192
 21
302.31134908079639
  0
LINE
  8
_0-0_
  6
CONTINUOUS
 62
    7
 10
371.77851290316192
 20
302.31134908079639
 11
373.29095567975719
 21
297.96406580214335
  0
LINE
  8
_0-0_
  6
CONTINUOUS
 62
    7
 10
373.29095567975719
 20
297.96406580214335
 11
374.2356035976336
 21
293.44854376951236
  0
LINE
  8
_0-0_
  6
CONTINUOUS
 62
    7
 10
374.2356035976336
 20
293.44854376951236
 11
374.61245665679098
 21
288.76476111099066
  0
LINE
  8
_0-0_
  6
CONTINUOUS
 62
    7
 10
374.61245665679098
 20
288.76476111099066
 11
374.42147111340375
 21
283.91273969849101
  0
LINE
  8
_0-0_
  6
CONTINUOUS
 62
    7
 10
374.42147111340375
 20
283.91273969849101
 11
373.6626469674718
 21
278.8924357881877
  0
LINE
  8
_0-0_
  6
CONTINUOUS
 62
    7
 10
373.6626469674718
 20
278.8924357881877
 11
372.33602796282082
 21
273.70389312390654
  0
LINE
  8
_0-0_
  6
CONTINUOUS
 62
    7
 10
372.33602796282082
 20
273.70389312390654
 11
370.44161409945099
 21
268.34706796182166
  0
LINE
  8
_0-0_
  6
CONTINUOUS
 62
    7
 10
310.49999642095969
 20
226.91379105262314
 11
310.49999642095969
 21
268.49035086318793
  0
LINE
  8
_0-0_
  6
CONTINUOUS
 62
    7
 10
310.49999642095969
 20
268.49035086318793
 11
310.45981771697404
 21
268.49035086318793
  0
LINE
  8
_0-0_
  6
CONTINUOUS
 62
    7
 10
310.45981771697404
 20
268.49035086318793
 11
310.40537852578183
 21
270.41330757288398
  0
LINE
  8
_0-0_
  6
CONTINUOUS
 62
    7
 10
310.40537852578183
 20
270.41330757288398
 11
310.2220262799944
 21
272.07985984772785
  0
LINE
  8
_0-0_
  6
CONTINUOUS
 62
    7
 10
310.2220262799944
 20
272.07985984772785
 11
309.90969536387325
 21
273.49002955963249
  0
LINE
  8
_0-0_
  6
CONTINUOUS
 62
    7
 10
309.90969536387325
 20
273.49002955963249
 11
309.46845139315684
 21
274.643794836685
  0
LINE
  8
_0-0_
  6
CONTINUOUS
 62
    7
 10
309.46845139315684
 20
274.643794836685
 11
308.89825062401968
 21
275.54117755079818
  0
LINE
  8
_0-0_
  6
CONTINUOUS
 62
    7
 10
308.89825062401968
 20
275.54117755079818
 11
308.1991149283744
 21
276.18215583005929
  0
LINE
  8
_0-0_
  6
CONTINUOUS
 62
    7
 10
308.1991149283744
 20
276.18215583005929
 11
307.37102243430826
 21
276.56675154638106
  0
LINE
  8
_0-0_
  6
CONTINUOUS
 62
    7
 10
307.37102243430826
 20
276.56675154638106
 11
306.41399501373405
 21
276.6949428278507
  0
LINE
  8
_0-0_
  6
CONTINUOUS
 62
    7
 10
288.58600196691094
 20
276.6949428278507
 11
287.62851523616598
 21
276.56675154638106
  0
LINE
  8
_0-0_
  6
CONTINUOUS
 62
    7
 10
287.62851523616598
 20
276.56675154638106
 11
286.79904481158752
 21
276.18215583005929
  0
LINE
  8
_0-0_
  6
CONTINUOUS
 62
    7
 10
286.79904481158752
 20
276.18215583005929
 11
286.09759069317556
 21
275.54117755079818
  0
LINE
  8
_0-0_
  6
CONTINUOUS
 62
    7
 10
286.09759069317556
 20
275.54117755079818
 11
285.52415288093005
 21
274.643794836685
  0
LINE
  8
_0-0_
  6
CONTINUOUS
 62
    7
 10
285.52415288093005
 20
274.643794836685
 11
285.07873137485103
 21
273.49002955963249
  0
LINE
  8
_0-0_
  6
CONTINUOUS
 62
    7
 10
285.07873137485103
 20
273.49002955963249
 11
284.76132617493852
 21
272.07985984772785
  0
LINE
  8
_0-0_
  6
CONTINUOUS
 62
    7
 10
284.76132617493852
 20
272.07985984772785
 11
284.57195915310535
 21
270.41330757288398
  0
LINE
  8
_0-0_
  6
CONTINUOUS
 62
    7
 10
284.57195915310535
 20
270.41330757288398
 11
284.51058656552584
 21
268.49035086318793
  0
LINE
  8
_0-0_
  6
CONTINUOUS
 62
    7
 10
284.51058656552584
 20
268.49035086318793
 11
284.5000005596853
 21
268.49035086318793
  0
LINE
  8
_0-0_
  6
CONTINUOUS
 62
    7
 10
284.5000005596853
 20
268.49035086318793
 11
284.5000005596853
 21
226.91379105262314
  0
LINE
  8
_0-0_
  6
CONTINUOUS
 62
    7
 10
291.25000095735641
 20
299.45645203461515
 11
290.22517060681196
 21
298.86254211190123
  0
LINE
  8
_0-0_
  6
CONTINUOUS
 62
    7
 10
290.22517060681196
 20
298.86254211190123
 11
289.25633235327524
 21
298.18107892187402
  0
LINE
  8
_0-0_
  6
CONTINUOUS
 62
    7
 10
289.25633235327524
 20
298.18107892187402
 11
288.35096639095582
 21
297.41733359554098
  0
LINE
  8
_0-0_
  6
CONTINUOUS
 62
    7
 10
288.35096639095582
 20
297.41733359554098
 11
287.51602798815395
 21
296.57716780555751
  0
LINE
  8
_0-0_
  6
CONTINUOUS
 62
    7
 10
287.51602798815395
 20
296.57716780555751
 11
286.75794748726037
 21
295.66703376622735
  0
LINE
  8
_0-0_
  6
CONTINUOUS
 62
    7
 10
286.75794748726037
 20
295.66703376622735
 11
286.08256468901754
 21
294.6939523615892
  0
LINE
  8
_0-0_
  6
CONTINUOUS
 62
    7
 10
286.08256468901754
 20
294.6939523615892
 11
285.4950632367815
 21
293.66542565776575
  0
LINE
  8
_0-0_
  6
CONTINUOUS
 62
    7
 10
285.4950632367815
 20
293.66542565776575
 11
284.99999248843392
 21
292.58937128722437
  0
LINE
  8
_0-0_
  6
CONTINUOUS
 62
    7
 10
284.99999248843392
 20
292.58937128722437
 11
284.99999248843392
 21
282.39132943760933
  0
LINE
  8
_0-0_
  6
CONTINUOUS
 62
    7
 10
284.99999248843392
 20
282.39132943760933
 11
285.88810151148027
 21
280.60456912950195
  0
LINE
  8
_0-0_
  6
CONTINUOUS
 62
    7
 10
285.88810151148027
 20
280.60456912950195
 11
287.02988098026702
 21
278.96824383827709
  0
LINE
  8
_0-0_
  6
CONTINUOUS
 62
    7
 10
287.02988098026702
 20
278.96824383827709
 11
288.40035317026974
 21
277.51807039769
  0
LINE
  8
_0-0_
  6
CONTINUOUS
 62
    7
 10
288.40035317026974
 20
277.51807039769
 11
289.96961917656267
 21
276.28574120952356
  0
LINE
  8
_0-0_
  6
CONTINUOUS
 62
    7
 10
289.96961917656267
 20
276.28574120952356
 11
291.70338383972876
 21
275.29815872663693
  0
LINE
  8
_0-0_
  6
CONTINUOUS
 62
    7
 10
291.70338383972876
 20
275.29815872663693
 11
293.56378687854897
 21
274.57693239896912
  0
LINE
  8
_0-0_
  6
CONTINUOUS
 62
    7
 10
293.56378687854897
 20
274.57693239896912
 11
295.51014653504126
 21
274.13781000380351
  0
LINE
  8
_0-0_
  6
CONTINUOUS
 62
    7
 10
295.51014653504126
 20
274.13781000380351
 11
297.50000942627889
 21
273.99034956707459
  0
LINE
  8
_0-0_
  6
CONTINUOUS
 62
    7
 10
297.50000942627889
 20
273.99034956707459
 11
299.48985044560374
 21
274.13781000380351
  0
LINE
  8
_0-0_
  6
CONTINUOUS
 62
    7
 10
299.48985044560374
 20
274.13781000380351
 11
301.43623197400893
 21
274.57693239896912
  0
LINE
  8
_0-0_
  6
CONTINUOUS
 62
    7
 10
301.43623197400893
 20
274.57693239896912
 11
303.29661314091624
 21
275.29815872663693
  0
LINE
  8
_0-0_
  6
CONTINUOUS
 62
    7
 10
303.29661314091624
 20
275.29815872663693
 11
305.03037780408238
 21
276.28574120952356
  0
LINE
  8
_0-0_
  6
CONTINUOUS
 62
    7
 10
305.03037780408238
 20
276.28574120952356
 11
306.59964381037526
 21
277.51807039769
  0
LINE
  8
_0-0_
  6
CONTINUOUS
 62
    7
 10
306.59964381037526
 20
277.51807039769
 11
307.97013787229093
 21
278.96824383827709
  0
LINE
  8
_0-0_
  6
CONTINUOUS
 62
    7
 10
307.97013787229093
 20
278.96824383827709
 11
309.11189546916478
 21
280.60456912950195
  0
LINE
  8
_0-0_
  6
CONTINUOUS
 62
    7
 10
309.11189546916478
 20
280.60456912950195
 11
310.00000449221102
 21
282.39132943760933
  0
LINE
  8
_0-0_
  6
CONTINUOUS
 62
    7
 10
310.00000449221102
 20
282.39132943760933
 11
310.00000449221102
 21
292.58937128722437
  0
LINE
  8
_0-0_
  6
CONTINUOUS
 62
    7
 10
310.00000449221102
 20
292.58937128722437
 11
309.48877040023501
 21
293.69672436511655
  0
LINE
  8
_0-0_
  6
CONTINUOUS
 62
    7
 10
309.48877040023501
 20
293.69672436511655
 11
308.87970324188586
 21
294.75342209274703
  0
LINE
  8
_0-0_
  6
CONTINUOUS
 62
    7
 10
308.87970324188586
 20
294.75342209274703
 11
308.17774606947739
 21
295.75084693643578
  0
LINE
  8
_0-0_
  6
CONTINUOUS
 62
    7
 10
308.17774606947739
 20
295.75084693643578
 11
307.3886293241876
 21
296.68084067267341
  0
LINE
  8
_0-0_
  6
CONTINUOUS
 62
    7
 10
307.3886293241876
 20
296.68084067267341
 11
306.51878334840745
 21
297.53581374768584
  0
LINE
  8
_0-0_
  6
CONTINUOUS
 62
    7
 10
306.51878334840745
 20
297.53581374768584
 11
305.57533838574034
 21
298.30878902126005
  0
LINE
  8
_0-0_
  6
CONTINUOUS
 62
    7
 10
305.57533838574034
 20
298.30878902126005
 11
304.56597147761158
 21
298.99346738248255
  0
LINE
  8
_0-0_
  6
CONTINUOUS
 62
    7
 10
304.56597147761158
 20
298.99346738248255
 11
303.49895020709533
 21
299.5842496216527
  0
LINE
  8
_0-0_
  6
CONTINUOUS
 62
    7
 10
284.5000005596853
 20
306.49034986164577
 11
285.29217937278008
 21
306.08438528642688
  0
LINE
  8
_0-0_
  6
CONTINUOUS
 62
    7
 10
285.29217937278008
 20
306.08438528642688
 11
286.0990779832523
 21
305.69674937421291
  0
LINE
  8
_0-0_
  6
CONTINUOUS
 62
    7
 10
286.0990779832523
 20
305.69674937421291
 11
286.92074013492771
 21
305.32750774074248
  0
LINE
  8
_0-0_
  6
CONTINUOUS
 62
    7
 10
286.92074013492771
 20
305.32750774074248
 11
287.75712208398062
 21
304.97659477027685
  0
LINE
  8
_0-0_
  6
CONTINUOUS
 62
    7
 10
287.75712208398062
 20
304.97659477027685
 11
288.60822383041079
 21
304.64405420664195
  0
LINE
  8
_0-0_
  6
CONTINUOUS
 62
    7
 10
288.60822383041079
 20
304.64405420664195
 11
289.47408911804428
 21
304.32986417792478
  0
LINE
  8
_0-0_
  6
CONTINUOUS
 62
    7
 10
289.47408911804428
 20
304.32986417792478
 11
290.3546742030552
 21
304.03404655603828
  0
LINE
  8
_0-0_
  6
CONTINUOUS
 62
    7
 10
290.3546742030552
 20
304.03404655603828
 11
291.25000095735641
 21
303.75657946906955
  0
LINE
  8
_0-0_
  6
CONTINUOUS
 62
    7
 10
303.49895020709533
 20
303.42314215700594
 11
304.40107912630651
 21
303.65542187193643
  0
LINE
  8
_0-0_
  6
CONTINUOUS
 62
    7
 10
304.40107912630651
 20
303.65542187193643
 11
305.29946794841283
 21
303.92403083418327
  0
LINE
  8
_0-0_
  6
CONTINUOUS
 62
    7
 10
305.29946794841283
 20
303.92403083418327
 11
306.19411667341421
 21
304.22894717183351
  0
LINE
  8
_0-0_
  6
CONTINUOUS
 62
    7
 10
306.19411667341421
 20
304.22894717183351
 11
307.08498155748515
 21
304.5701490129743
  0
LINE
  8
_0-0_
  6
CONTINUOUS
 62
    7
 10
307.08498155748515
 20
304.5701490129743
 11
307.97212821636424
 21
304.9476801014315
  0
LINE
  8
_0-0_
  6
CONTINUOUS
 62
    7
 10
307.97212821636424
 20
304.9476801014315
 11
308.85549103431259
 21
305.36151856529204
  0
LINE
  8
_0-0_
  6
CONTINUOUS
 62
    7
 10
308.85549103431259
 20
305.36151856529204
 11
309.73511375515614
 21
305.8116644045561
  0
LINE
  8
_0-0_
  6
CONTINUOUS
 62
    7
 10
309.73511375515614
 20
305.8116644045561
 11
310.61099637889492
 21
306.29809574731064
  0
LINE
  8
_0-0_
  6
CONTINUOUS
 62
    7
 10
288.5000016054131
 20
376.24033938963896
 11
306.49999537523183
 21
376.24033938963896
  0
LINE
  8
_0-0_
  6
CONTINUOUS
 62
    7
 10
306.49999537523183
 20
376.24033938963896
 11
306.49999537523183
 21
306.24035389727146
  0
LINE
  8
_0-0_
  6
CONTINUOUS
 62
    7
 10
306.49999537523183
 20
306.24035389727146
 11
288.5000016054131
 21
306.24035389727146
  0
LINE
  8
_0-0_
  6
CONTINUOUS
 62
    7
 10
288.5000016054131
 20
306.24035389727146
 11
288.5000016054131
 21
376.24033938963896
  0
LINE
  8
_0-0_
  6
CONTINUOUS
 62
    7
 10
297.50000942627889
 20
281.24034189349436
 11
296.28069402628427
 21
281.36044056719334
  0
LINE
  8
_0-0_
  6
CONTINUOUS
 62
    7
 10
296.28069402628427
 20
281.36044056719334
 11
295.1082282637077
 21
281.7160997427568
  0
LINE
  8
_0-0_
  6
CONTINUOUS
 62
    7
 10
295.1082282637077
 20
281.7160997427568
 11
294.02769015102308
 21
282.29367134653921
  0
LINE
  8
_0-0_
  6
CONTINUOUS
 62
    7
 10
294.02769015102308
 20
282.29367134653921
 11
293.08059257890261
 21
283.07093351504056
  0
LINE
  8
_0-0_
  6
CONTINUOUS
 62
    7
 10
293.08059257890261
 20
283.07093351504056
 11
292.30330853848841
 21
284.01803108716103
  0
LINE
  8
_0-0_
  6
CONTINUOUS
 62
    7
 10
292.30330853848841
 20
284.01803108716103
 11
291.72575880661896
 21
285.09856919984554
  0
LINE
  8
_0-0_
  6
CONTINUOUS
 62
    7
 10
291.72575880661896
 20
285.09856919984554
 11
291.37009963105538
 21
286.27103496242216
  0
LINE
  8
_0-0_
  6
CONTINUOUS
 62
    7
 10
291.37009963105538
 20
286.27103496242216
 11
291.25000095735641
 21
287.49035036241685
  0
LINE
  8
_0-0_
  6
CONTINUOUS
 62
    7
 10
291.25000095735641
 20
287.49035036241685
 11
291.25000095735641
 21
306.44433135691759
  0
LINE
  8
_0-0_
  6
CONTINUOUS
 62
    7
 10
291.25000095735641
 20
306.44433135691759
 11
303.49895020709533
 21
306.44433135691759
  0
LINE
  8
_0-0_
  6
CONTINUOUS
 62
    7
 10
303.49895020709533
 20
306.44433135691759
 11
303.49895020709533
 21
289.24397472249035
  0
LINE
  8
_0-0_
  6
CONTINUOUS
 62
    7
 10
303.49895020709533
 20
289.24397472249035
 11
303.55747944599869
 21
289.02962997613264
  0
LINE
  8
_0-0_
  6
CONTINUOUS
 62
    7
 10
303.55747944599869
 20
289.02962997613264
 11
303.6083535153893
 21
288.81338237335319
  0
LINE
  8
_0-0_
  6
CONTINUOUS
 62
    7
 10
303.6083535153893
 20
288.81338237335319
 11
303.65152867144133
 21
288.59542876136805
  0
LINE
  8
_0-0_
  6
CONTINUOUS
 62
    7
 10
303.65152867144133
 20
288.59542876136805
 11
303.68691742650327
 21
288.37609721887065
  0
LINE
  8
_0-0_
  6
CONTINUOUS
 62
    7
 10
303.68691742650327
 20
288.37609721887065
 11
303.71449790866217
 21
288.15565020881564
  0
LINE
  8
_0-0_
  6
CONTINUOUS
 62
    7
 10
303.71449790866217
 20
288.15565020881564
 11
303.73420450217935
 21
287.93435019415779
  0
LINE
  8
_0-0_
  6
CONTINUOUS
 62
    7
 10
303.73420450217935
 20
287.93435019415779
 11
303.74605907896762
 21
287.71248150976464
  0
LINE
  8
_0-0_
  6
CONTINUOUS
 62
    7
 10
303.74605907896762
 20
287.71248150976464
 11
303.74999602328853
 21
287.49035036241685
  0
LINE
  8
_0-0_
  6
CONTINUOUS
 62
    7
 10
303.74999602328853
 20
287.49035036241685
 11
303.62989734958956
 21
286.27103496242216
  0
LINE
  8
_0-0_
  6
CONTINUOUS
 62
    7
 10
303.62989734958956
 20
286.27103496242216
 11
303.27423817402604
 21
285.09856919984554
  0
LINE
  8
_0-0_
  6
CONTINUOUS
 62
    7
 10
303.27423817402604
 20
285.09856919984554
 11
302.69668844215659
 21
284.01803108716103
  0
LINE
  8
_0-0_
  6
CONTINUOUS
 62
    7
 10
302.69668844215659
 20
284.01803108716103
 11
301.91942627365518
 21
283.07093351504056
  0
LINE
  8
_0-0_
  6
CONTINUOUS
 62
    7
 10
301.91942627365518
 20
283.07093351504056
 11
300.97230682962191
 21
282.29367134653921
  0
LINE
  8
_0-0_
  6
CONTINUOUS
 62
    7
 10
300.97230682962191
 20
282.29367134653921
 11
299.89176871693729
 21
281.7160997427568
  0
LINE
  8
_0-0_
  6
CONTINUOUS
 62
    7
 10
299.89176871693729
 20
281.7160997427568
 11
298.71932482627363
 21
281.36044056719334
  0
LINE
  8
_0-0_
  6
CONTINUOUS
 62
    7
 10
298.71932482627363
 20
281.36044056719334
 11
297.50000942627889
 21
281.24034189349436
  0
LINE
  8
_0-0_
  6
CONTINUOUS
 62
    7
 10
287.49999587600291
 20
241.49034927250335
 11
307.50000110464202
 21
241.49034927250335
  0
LINE
  8
_0-0_
  6
CONTINUOUS
 62
    7
 10
406.49999964651448
 20
223.99034743143324
 11
406.49999964651448
 21
217.49034299813641
  0
LINE
  8
_0-0_
  6
CONTINUOUS
 62
    7
 10
406.49999964651448
 20
217.49034299813641
 11
368.50000064805664
 21
217.49034299813641
  0
LINE
  8
_0-0_
  6
CONTINUOUS
 62
    7
 10
368.50000064805664
 20
217.49034299813641
 11
368.50000064805664
 21
242.49035500191351
  0
LINE
  8
_0-0_
  6
CONTINUOUS
 62
    7
 10
368.50000064805664
 20
242.49035500191351
 11
406.49999964651448
 21
242.49035500191351
  0
LINE
  8
_0-0_
  6
CONTINUOUS
 62
    7
 10
406.49999964651448
 20
242.49035500191351
 11
406.49999964651448
 21
235.99035056861669
  0
LINE
  8
_0-0_
  6
CONTINUOUS
 62
    7
 10
188.49999733413043
 20
242.49035500191351
 11
226.4999963325883
 21
242.49035500191351
  0
LINE
  8
_0-0_
  6
CONTINUOUS
 62
    7
 10
226.4999963325883
 20
242.49035500191351
 11
226.4999963325883
 21
217.49034299813641
  0
LINE
  8
_0-0_
  6
CONTINUOUS
 62
    7
 10
226.4999963325883
 20
217.49034299813641
 11
188.49999733413043
 21
217.49034299813641
  0
LINE
  8
_0-0_
  6
CONTINUOUS
 62
    7
 10
188.49999733413043
 20
217.49034299813641
 11
188.49999733413043
 21
242.49035500191351
  0
LINE
  8
_0-0_
  6
CONTINUOUS
 62
    7
 10
443.7789254206948
 20
237.99034015552417
 11
428.49999446206107
 21
237.99034015552417
  0
LINE
  8
_0-0_
  6
CONTINUOUS
 62
    7
 10
443.7789254206948
 20
221.99035784452576
 11
428.49999446206107
 21
221.99035784452576
  0
LINE
  8
_0-0_
  6
CONTINUOUS
 62
    7
 10
428.49999446206107
 20
221.99035784452576
 11
428.49999446206107
 21
223.99034743143324
  0
LINE
  8
_0-0_
  6
CONTINUOUS
 62
    7
 10
456.49997991024293
 20
229.75042505153817
 11
456.49997991024293
 21
221.99035784452576
  0
LINE
  8
_0-0_
  6
CONTINUOUS
 62
    7
 10
456.49997991024293
 20
221.99035784452576
 11
451.52893154777615
 21
221.99035784452576
  0
LINE
  8
_0-0_
  6
CONTINUOUS
 62
    7
 10
456.49997991024293
 20
233.73026019357806
 11
456.49997991024293
 21
237.99034015552417
  0
LINE
  8
_0-0_
  6
CONTINUOUS
 62
    7
 10
456.49997991024293
 20
237.99034015552417
 11
443.7789254206948
 21
237.99034015552417
  0
LINE
  8
_0-0_
  6
CONTINUOUS
 62
    7
 10
428.49999446206107
 20
237.99034015552417
 11
428.49999446206107
 21
235.99035056861669
  0
LINE
  8
_0-0_
  6
CONTINUOUS
 62
    7
 10
406.49999964651448
 20
235.99035056861669
 11
428.49999446206107
 21
235.99035056861669
  0
LINE
  8
_0-0_
  6
CONTINUOUS
 62
    7
 10
428.49999446206107
 20
223.99034743143324
 11
406.49999964651448
 21
223.99034743143324
  0
LINE
  8
_0-0_
  6
CONTINUOUS
 62
    7
 10
933.09193644284278
 20
217.32558187830861
 11
944.50592541786693
 21
217.32558187830861
  0
LINE
  8
_0-0_
  6
CONTINUOUS
 62
    7
 10
944.50592541786693
 20
217.32558187830861
 11
944.50592541786693
 21
242.32557201017283
  0
LINE
  8
_0-0_
  6
CONTINUOUS
 62
    7
 10
944.50592541786693
 20
242.32557201017283
 11
937.26763456484514
 21
242.32557201017283
  0
LINE
  8
_0-0_
  6
CONTINUOUS
 62
    7
 10
917.92927657315158
 20
217.32558187830861
 11
906.50592641940898
 21
217.32558187830861
  0
LINE
  8
_0-0_
  6
CONTINUOUS
 62
    7
 10
906.50592641940898
 20
217.32558187830861
 11
906.50592641940898
 21
242.32557201017283
  0
LINE
  8
_0-0_
  6
CONTINUOUS
 62
    7
 10
906.50592641940898
 20
242.32557201017283
 11
912.34843927921008
 21
242.32557201017283
  0
LINE
  8
_0-0_
  6
CONTINUOUS
 62
    7
 10
925.5106065079973
 20
221.82557485278508
 11
925.50596966246371
 21
221.82557485278508
  0
LINE
  8
_0-0_
  6
CONTINUOUS
 62
    7
 10
917.76060038091589
 20
221.82557485278508
 11
911.50593319454697
 21
221.82557485278508
  0
LINE
  8
_0-0_
  6
CONTINUOUS
 62
    7
 10
911.50593319454697
 20
221.82557485278508
 11
911.50593319454697
 21
237.82557903569636
  0
LINE
  8
_0-0_
  6
CONTINUOUS
 62
    7
 10
911.50593319454697
 20
237.82557903569636
 11
925.5106065079973
 21
237.82557903569636
  0
LINE
  8
_0-0_
  6
CONTINUOUS
 62
    7
 10
925.5106065079973
 20
237.82557903569636
 11
939.50591864272894
 21
237.82557903569636
  0
LINE
  8
_0-0_
  6
CONTINUOUS
 62
    7
 10
939.50591864272894
 20
237.82557903569636
 11
939.50591864272894
 21
221.82557485278508
  0
LINE
  8
_0-0_
  6
CONTINUOUS
 62
    7
 10
939.50591864272894
 20
221.82557485278508
 11
925.5106065079973
 21
221.82557485278508
  0
LINE
  8
_0-0_
  6
CONTINUOUS
 62
    7
 10
925.50596966246371
 20
237.82557903569636
 11
925.50596966246371
 21
221.82557485278508
  0
LINE
  8
_0-0_
  6
CONTINUOUS
 62
    7
 10
764.99290024451761
 20
377.40536870183172
 11
748.93279204497458
 21
354.469102911047
  0
LINE
  8
_0-0_
  6
CONTINUOUS
 62
    7
 10
748.93279204497458
 20
354.469102911047
 11
757.37001367517428
 21
348.56125864743262
  0
LINE
  8
_0-0_
  6
CONTINUOUS
 62
    7
 10
757.37001367517428
 20
348.56125864743262
 11
760.63925223921251
 21
352.00975940954726
  0
LINE
  8
_0-0_
  6
CONTINUOUS
 62
    7
 10
760.63925223921251
 20
352.00975940954726
 11
808.96918072203403
 21
318.16874839164115
  0
LINE
  8
_0-0_
  6
CONTINUOUS
 62
    7
 10
808.96918072203403
 20
318.16874839164115
 11
806.84681778248671
 21
313.91724221954934
  0
LINE
  8
_0-0_
  6
CONTINUOUS
 62
    7
 10
806.84681778248671
 20
313.91724221954934
 11
900.47584003463214
 21
248.35745189180702
  0
LINE
  8
_0-0_
  6
CONTINUOUS
 62
    7
 10
900.47584003463214
 20
248.35745189180702
 11
916.53603572182669
 21
271.2937176825917
  0
LINE
  8
_0-0_
  6
CONTINUOUS
 62
    7
 10
916.53603572182669
 20
271.2937176825917
 11
764.99290024451761
 21
377.40536870183172
  0
LINE
  8
_0-0_
  6
CONTINUOUS
 62
    7
 10
767.45034088959551
 20
375.68461782683733
 11
751.3902326900527
 21
352.74837390796557
  0
LINE
  8
_0-0_
  6
CONTINUOUS
 62
    7
 10
757.77131953294668
 20
347.91400312917114
 11
760.63925223921251
 21
352.00975940954726
  0
LINE
  8
_0-0_
  6
CONTINUOUS
 62
    7
 10
760.63925223921251
 20
352.00975940954726
 11
808.96918072203403
 21
318.16874839164115
  0
LINE
  8
_0-0_
  6
CONTINUOUS
 62
    7
 10
808.96918072203403
 20
318.16874839164115
 11
806.10133550341982
 21
314.07299211126497
  0
LINE
  8
_0-0_
  6
CONTINUOUS
 62
    7
 10
806.10133550341982
 20
314.07299211126497
 11
757.77131953294668
 21
347.91400312917114
  0
LINE
  8
_0-0_
  6
CONTINUOUS
 62
    7
 10
759.28686812117292
 20
347.46322300443319
 11
758.59860276623579
 21
346.48023362325426
  0
LINE
  8
_0-0_
  6
CONTINUOUS
 62
    7
 10
758.59860276623579
 20
346.48023362325426
 11
758.52161363285018
 21
346.34357791149478
  0
LINE
  8
_0-0_
  6
CONTINUOUS
 62
    7
 10
758.52161363285018
 20
346.34357791149478
 11
758.47288301092306
 21
346.19452082512458
  0
LINE
  8
_0-0_
  6
CONTINUOUS
 62
    7
 10
758.47288301092306
 20
346.19452082512458
 11
758.45407316583464
 21
346.03883654914767
  0
LINE
  8
_0-0_
  6
CONTINUOUS
 62
    7
 10
758.45407316583464
 20
346.03883654914767
 11
758.46605897410029
 21
345.88245237195815
  0
LINE
  8
_0-0_
  6
CONTINUOUS
 62
    7
 10
758.46605897410029
 20
345.88245237195815
 11
758.50831550981081
 21
345.7314268134275
  0
LINE
  8
_0-0_
  6
CONTINUOUS
 62
    7
 10
758.50831550981081
 20
345.7314268134275
 11
758.57918050758622
 21
345.59153405855977
  0
LINE
  8
_0-0_
  6
CONTINUOUS
 62
    7
 10
758.57918050758622
 20
345.59153405855977
 11
758.67602933787919
 21
345.46815459792674
  0
LINE
  8
_0-0_
  6
CONTINUOUS
 62
    7
 10
758.67602933787919
 20
345.46815459792674
 11
758.79501254402066
 21
345.3660565085392
  0
LINE
  8
_0-0_
  6
CONTINUOUS
 62
    7
 10
758.79501254402066
 20
345.3660565085392
 11
759.12265379916744
 21
345.13662014228493
  0
LINE
  8
_0-0_
  6
CONTINUOUS
 62
    7
 10
759.12265379916744
 20
345.13662014228493
 11
759.2593969985785
 21
345.05969662463798
  0
LINE
  8
_0-0_
  6
CONTINUOUS
 62
    7
 10
759.2593969985785
 20
345.05969662463798
 11
759.40838846920997
 21
345.01090038697225
  0
LINE
  8
_0-0_
  6
CONTINUOUS
 62
    7
 10
759.40838846920997
 20
345.01090038697225
 11
759.56411648901269
 21
344.99213428570954
  0
LINE
  8
_0-0_
  6
CONTINUOUS
 62
    7
 10
759.56411648901269
 20
344.99213428570954
 11
759.72045692237646
 21
345.00409822206234
  0
LINE
  8
_0-0_
  6
CONTINUOUS
 62
    7
 10
759.72045692237646
 20
345.00409822206234
 11
759.87154809664571
 21
345.04633288586001
  0
LINE
  8
_0-0_
  6
CONTINUOUS
 62
    7
 10
759.87154809664571
 20
345.04633288586001
 11
760.01135336386187
 21
345.11724162746123
  0
LINE
  8
_0-0_
  6
CONTINUOUS
 62
    7
 10
760.01135336386187
 20
345.11724162746123
 11
760.13479844023345
 21
345.21404671392844
  0
LINE
  8
_0-0_
  6
CONTINUOUS
 62
    7
 10
760.13479844023345
 20
345.21404671392844
 11
760.23689652962105
 21
345.33307366389568
  0
LINE
  8
_0-0_
  6
CONTINUOUS
 62
    7
 10
760.23689652962105
 20
345.33307366389568
 11
760.92516188455818
 21
346.31606304507454
  0
LINE
  8
_0-0_
  6
CONTINUOUS
 62
    7
 10
759.28686812117292
 20
347.46322300443319
 11
759.56411648901269
 21
347.4232848914894
  0
LINE
  8
_0-0_
  6
CONTINUOUS
 62
    7
 10
759.56411648901269
 20
347.4232848914894
 11
759.82063028342941
 21
347.35377595231336
  0
LINE
  8
_0-0_
  6
CONTINUOUS
 62
    7
 10
759.82063028342941
 20
347.35377595231336
 11
760.05649699207436
 21
347.25471805881807
  0
LINE
  8
_0-0_
  6
CONTINUOUS
 62
    7
 10
760.05649699207436
 20
347.25471805881807
 11
760.27162912729625
 21
347.12611121100343
  0
LINE
  8
_0-0_
  6
CONTINUOUS
 62
    7
 10
760.27162912729625
 20
347.12611121100343
 11
760.46602668909486
 21
346.96793353695671
  0
LINE
  8
_0-0_
  6
CONTINUOUS
 62
    7
 10
760.46602668909486
 20
346.96793353695671
 11
760.63977716512204
 21
346.78020690859051
  0
LINE
  8
_0-0_
  6
CONTINUOUS
 62
    7
 10
760.63977716512204
 20
346.78020690859051
 11
760.79279306772594
 21
346.56290945399223
  0
LINE
  8
_0-0_
  6
CONTINUOUS
 62
    7
 10
760.79279306772594
 20
346.56290945399223
 11
760.92516188455818
 21
346.31606304507454
  0
LINE
  8
_0-0_
  6
CONTINUOUS
 62
    7
 10
761.45752424438933
 20
345.33292056050533
 11
761.05604341131368
 21
344.75950462017283
  0
LINE
  8
_0-0_
  6
CONTINUOUS
 62
    7
 10
761.05604341131368
 20
344.75950462017283
 11
760.9791417655797
 21
344.62284890841329
  0
LINE
  8
_0-0_
  6
CONTINUOUS
 62
    7
 10
760.9791417655797
 20
344.62284890841329
 11
760.93032365600106
 21
344.47379182204315
  0
LINE
  8
_0-0_
  6
CONTINUOUS
 62
    7
 10
760.93032365600106
 20
344.47379182204315
 11
760.91151381091254
 21
344.31810754606624
  0
LINE
  8
_0-0_
  6
CONTINUOUS
 62
    7
 10
760.91151381091254
 20
344.31810754606624
 11
760.9234996191783
 21
344.16172336887666
  0
LINE
  8
_0-0_
  6
CONTINUOUS
 62
    7
 10
760.9234996191783
 20
344.16172336887666
 11
760.96575615488871
 21
344.01069781034607
  0
LINE
  8
_0-0_
  6
CONTINUOUS
 62
    7
 10
760.96575615488871
 20
344.01069781034607
 11
761.03662115266411
 21
343.87080505547834
  0
LINE
  8
_0-0_
  6
CONTINUOUS
 62
    7
 10
761.03662115266411
 20
343.87080505547834
 11
761.13346998295719
 21
343.74742559484531
  0
LINE
  8
_0-0_
  6
CONTINUOUS
 62
    7
 10
761.13346998295719
 20
343.74742559484531
 11
761.25245318909856
 21
343.64532750545777
  0
LINE
  8
_0-0_
  6
CONTINUOUS
 62
    7
 10
761.25245318909856
 20
343.64532750545777
 11
761.58018193189696
 21
343.4158911392035
  0
LINE
  8
_0-0_
  6
CONTINUOUS
 62
    7
 10
761.58018193189696
 20
343.4158911392035
 11
761.74395881564453
 21
343.30117295607636
  0
LINE
  8
_0-0_
  6
CONTINUOUS
 62
    7
 10
761.74395881564453
 20
343.30117295607636
 11
761.84649434328992
 21
343.24347484986288
  0
LINE
  8
_0-0_
  6
CONTINUOUS
 62
    7
 10
761.84649434328992
 20
343.24347484986288
 11
761.95830356200213
 21
343.20688313959187
  0
LINE
  8
_0-0_
  6
CONTINUOUS
 62
    7
 10
761.95830356200213
 20
343.20688313959187
 11
762.0750120892028
 21
343.19281949960123
  0
LINE
  8
_0-0_
  6
CONTINUOUS
 62
    7
 10
762.0750120892028
 20
343.19281949960123
 11
762.19233302996417
 21
343.20178698388764
  0
LINE
  8
_0-0_
  6
CONTINUOUS
 62
    7
 10
762.19233302996417
 20
343.20178698388764
 11
762.30562953875324
 21
343.23345751375763
  0
LINE
  8
_0-0_
  6
CONTINUOUS
 62
    7
 10
762.30562953875324
 20
343.23345751375763
 11
762.41052723299117
 21
343.28662813400206
  0
LINE
  8
_0-0_
  6
CONTINUOUS
 62
    7
 10
762.41052723299117
 20
343.28662813400206
 11
762.50300168070555
 21
343.35924288480896
  0
LINE
  8
_0-0_
  6
CONTINUOUS
 62
    7
 10
762.50300168070555
 20
343.35924288480896
 11
762.57964086348477
 21
343.4485240332408
  0
LINE
  8
_0-0_
  6
CONTINUOUS
 62
    7
 10
762.57964086348477
 20
343.4485240332408
 11
763.09581800777482
 21
344.1857606011468
  0
LINE
  8
_0-0_
  6
CONTINUOUS
 62
    7
 10
761.45752424438933
 20
345.33292056050533
 11
761.73477261222934
 21
345.29298244756154
  0
LINE
  8
_0-0_
  6
CONTINUOUS
 62
    7
 10
761.73477261222934
 20
345.29298244756154
 11
761.99128640664583
 21
345.22347350838561
  0
LINE
  8
_0-0_
  6
CONTINUOUS
 62
    7
 10
761.99128640664583
 20
345.22347350838561
 11
762.22715311529089
 21
345.12441561489027
  0
LINE
  8
_0-0_
  6
CONTINUOUS
 62
    7
 10
762.22715311529089
 20
345.12441561489027
 11
762.44228525051267
 21
344.99580876707569
  0
LINE
  8
_0-0_
  6
CONTINUOUS
 62
    7
 10
762.44228525051267
 20
344.99580876707569
 11
762.63668281231151
 21
344.83763109302885
  0
LINE
  8
_0-0_
  6
CONTINUOUS
 62
    7
 10
762.63668281231151
 20
344.83763109302885
 11
762.81043328833846
 21
344.64990446466277
  0
LINE
  8
_0-0_
  6
CONTINUOUS
 62
    7
 10
762.81043328833846
 20
344.64990446466277
 11
762.96344919094236
 21
344.43260701006443
  0
LINE
  8
_0-0_
  6
CONTINUOUS
 62
    7
 10
762.96344919094236
 20
344.43260701006443
 11
763.09581800777482
 21
344.1857606011468
  0
LINE
  8
_0-0_
  6
CONTINUOUS
 62
    7
 10
764.20174941132882
 20
344.02176499827027
 11
763.51348405639169
 21
343.03877561709135
  0
LINE
  8
_0-0_
  6
CONTINUOUS
 62
    7
 10
763.51348405639169
 20
343.03877561709135
 11
763.43658241065771
 21
342.90211990533186
  0
LINE
  8
_0-0_
  6
CONTINUOUS
 62
    7
 10
763.43658241065771
 20
342.90211990533186
 11
763.38776430107919
 21
342.75306281896172
  0
LINE
  8
_0-0_
  6
CONTINUOUS
 62
    7
 10
763.38776430107919
 20
342.75306281896172
 11
763.36895445599055
 21
342.59737854298476
  0
LINE
  8
_0-0_
  6
CONTINUOUS
 62
    7
 10
763.36895445599055
 20
342.59737854298476
 11
763.3809402642562
 21
342.44099436579523
  0
LINE
  8
_0-0_
  6
CONTINUOUS
 62
    7
 10
763.3809402642562
 20
342.44099436579523
 11
763.42319679996672
 21
342.28996880726464
  0
LINE
  8
_0-0_
  6
CONTINUOUS
 62
    7
 10
763.42319679996672
 20
342.28996880726464
 11
763.49406179774223
 21
342.15007605239691
  0
LINE
  8
_0-0_
  6
CONTINUOUS
 62
    7
 10
763.49406179774223
 20
342.15007605239691
 11
763.59091062803509
 21
342.02669659176388
  0
LINE
  8
_0-0_
  6
CONTINUOUS
 62
    7
 10
763.59091062803509
 20
342.02669659176388
 11
763.7099813218282
 21
341.92459850237634
  0
LINE
  8
_0-0_
  6
CONTINUOUS
 62
    7
 10
763.7099813218282
 20
341.92459850237634
 11
764.03762257697497
 21
341.69516213612206
  0
LINE
  8
_0-0_
  6
CONTINUOUS
 62
    7
 10
764.03762257697497
 20
341.69516213612206
 11
764.1742782887344
 21
341.61823861847506
  0
LINE
  8
_0-0_
  6
CONTINUOUS
 62
    7
 10
764.1742782887344
 20
341.61823861847506
 11
764.32335724701738
 21
341.56944238080939
  0
LINE
  8
_0-0_
  6
CONTINUOUS
 62
    7
 10
764.32335724701738
 20
341.56944238080939
 11
764.47899777916859
 21
341.55067627954668
  0
LINE
  8
_0-0_
  6
CONTINUOUS
 62
    7
 10
764.47899777916859
 20
341.55067627954668
 11
764.63542570018387
 21
341.56264021589948
  0
LINE
  8
_0-0_
  6
CONTINUOUS
 62
    7
 10
764.63542570018387
 20
341.56264021589948
 11
764.78642938680173
 21
341.60487487969709
  0
LINE
  8
_0-0_
  6
CONTINUOUS
 62
    7
 10
764.78642938680173
 20
341.60487487969709
 11
764.92632214166929
 21
341.67578362129831
  0
LINE
  8
_0-0_
  6
CONTINUOUS
 62
    7
 10
764.92632214166929
 20
341.67578362129831
 11
765.04967973038958
 21
341.77258870776552
  0
LINE
  8
_0-0_
  6
CONTINUOUS
 62
    7
 10
765.04967973038958
 20
341.77258870776552
 11
765.15177781977695
 21
341.89161565773276
  0
LINE
  8
_0-0_
  6
CONTINUOUS
 62
    7
 10
765.15177781977695
 20
341.89161565773276
 11
765.84004317471408
 21
342.87460503891168
  0
LINE
  8
_0-0_
  6
CONTINUOUS
 62
    7
 10
764.20174941132882
 20
344.02176499827027
 11
764.47899777916859
 21
343.98182688532648
  0
LINE
  8
_0-0_
  6
CONTINUOUS
 62
    7
 10
764.47899777916859
 20
343.98182688532648
 11
764.73551157358531
 21
343.91231794615044
  0
LINE
  8
_0-0_
  6
CONTINUOUS
 62
    7
 10
764.73551157358531
 20
343.91231794615044
 11
764.97137828223026
 21
343.81326005265515
  0
LINE
  8
_0-0_
  6
CONTINUOUS
 62
    7
 10
764.97137828223026
 20
343.81326005265515
 11
765.18651041745215
 21
343.68465320484057
  0
LINE
  8
_0-0_
  6
CONTINUOUS
 62
    7
 10
765.18651041745215
 20
343.68465320484057
 11
765.38090797925076
 21
343.52647553079373
  0
LINE
  8
_0-0_
  6
CONTINUOUS
 62
    7
 10
765.38090797925076
 20
343.52647553079373
 11
765.55465845527794
 21
343.3387489024276
  0
LINE
  8
_0-0_
  6
CONTINUOUS
 62
    7
 10
765.55465845527794
 20
343.3387489024276
 11
765.70776184553335
 21
343.12145144782932
  0
LINE
  8
_0-0_
  6
CONTINUOUS
 62
    7
 10
765.70776184553335
 20
343.12145144782932
 11
765.84004317471408
 21
342.87460503891168
  0
LINE
  8
_0-0_
  6
CONTINUOUS
 62
    7
 10
769.11671818913635
 20
340.58030699210735
 11
768.42836534654771
 21
339.59731761092837
  0
LINE
  8
_0-0_
  6
CONTINUOUS
 62
    7
 10
768.42836534654771
 20
339.59731761092837
 11
768.35146370081361
 21
339.460661899169
  0
LINE
  8
_0-0_
  6
CONTINUOUS
 62
    7
 10
768.35146370081361
 20
339.460661899169
 11
768.30264559123509
 21
339.31160481279881
  0
LINE
  8
_0-0_
  6
CONTINUOUS
 62
    7
 10
768.30264559123509
 20
339.31160481279881
 11
768.28392323379808
 21
339.15592053682184
  0
LINE
  8
_0-0_
  6
CONTINUOUS
 62
    7
 10
768.28392323379808
 20
339.15592053682184
 11
768.29590904206384
 21
338.99953635963232
  0
LINE
  8
_0-0_
  6
CONTINUOUS
 62
    7
 10
768.29590904206384
 20
338.99953635963232
 11
768.33807809012274
 21
338.84851080110172
  0
LINE
  8
_0-0_
  6
CONTINUOUS
 62
    7
 10
768.33807809012274
 20
338.84851080110172
 11
768.40903057554965
 21
338.70861804623405
  0
LINE
  8
_0-0_
  6
CONTINUOUS
 62
    7
 10
768.40903057554965
 20
338.70861804623405
 11
768.50579191819122
 21
338.58523858560096
  0
LINE
  8
_0-0_
  6
CONTINUOUS
 62
    7
 10
768.50579191819122
 20
338.58523858560096
 11
768.6248626119841
 21
338.48314049621342
  0
LINE
  8
_0-0_
  6
CONTINUOUS
 62
    7
 10
768.6248626119841
 20
338.48314049621342
 11
768.95250386713087
 21
338.25370412995915
  0
LINE
  8
_0-0_
  6
CONTINUOUS
 62
    7
 10
768.95250386713087
 20
338.25370412995915
 11
769.0891595788903
 21
338.1767806123122
  0
LINE
  8
_0-0_
  6
CONTINUOUS
 62
    7
 10
769.0891595788903
 20
338.1767806123122
 11
769.2382385371734
 21
338.12798437464653
  0
LINE
  8
_0-0_
  6
CONTINUOUS
 62
    7
 10
769.2382385371734
 20
338.12798437464653
 11
769.39396655697624
 21
338.10921827338376
  0
LINE
  8
_0-0_
  6
CONTINUOUS
 62
    7
 10
769.39396655697624
 20
338.10921827338376
 11
769.55030699033978
 21
338.12118220973662
  0
LINE
  8
_0-0_
  6
CONTINUOUS
 62
    7
 10
769.55030699033978
 20
338.12118220973662
 11
769.70131067695763
 21
338.16341687353423
  0
LINE
  8
_0-0_
  6
CONTINUOUS
 62
    7
 10
769.70131067695763
 20
338.16341687353423
 11
769.84120343182542
 21
338.23430374322248
  0
LINE
  8
_0-0_
  6
CONTINUOUS
 62
    7
 10
769.84120343182542
 20
338.23430374322248
 11
769.96456102054549
 21
338.33113070160266
  0
LINE
  8
_0-0_
  6
CONTINUOUS
 62
    7
 10
769.96456102054549
 20
338.33113070160266
 11
770.06665910993308
 21
338.45015765156978
  0
LINE
  8
_0-0_
  6
CONTINUOUS
 62
    7
 10
770.06665910993308
 20
338.45015765156978
 11
770.75501195252173
 21
339.43314703274882
  0
LINE
  8
_0-0_
  6
CONTINUOUS
 62
    7
 10
769.11671818913635
 20
340.58030699210735
 11
769.3938790693245
 21
340.54036887916357
  0
LINE
  8
_0-0_
  6
CONTINUOUS
 62
    7
 10
769.3938790693245
 20
340.54036887916357
 11
769.65048035139273
 21
340.47085993998758
  0
LINE
  8
_0-0_
  6
CONTINUOUS
 62
    7
 10
769.65048035139273
 20
340.47085993998758
 11
769.88625957238628
 21
340.37180204649223
  0
LINE
  8
_0-0_
  6
CONTINUOUS
 62
    7
 10
769.88625957238628
 20
340.37180204649223
 11
770.10139170760806
 21
340.24319519867765
  0
LINE
  8
_0-0_
  6
CONTINUOUS
 62
    7
 10
770.10139170760806
 20
340.24319519867765
 11
770.29587675705841
 21
340.08501752463081
  0
LINE
  8
_0-0_
  6
CONTINUOUS
 62
    7
 10
770.29587675705841
 20
340.08501752463081
 11
770.46962723308536
 21
339.89729089626474
  0
LINE
  8
_0-0_
  6
CONTINUOUS
 62
    7
 10
770.46962723308536
 20
339.89729089626474
 11
770.62264313568926
 21
339.6799934416664
  0
LINE
  8
_0-0_
  6
CONTINUOUS
 62
    7
 10
770.62264313568926
 20
339.6799934416664
 11
770.75501195252173
 21
339.43314703274882
  0
LINE
  8
_0-0_
  6
CONTINUOUS
 62
    7
 10
774.03159947929225
 20
337.13884898594443
 11
773.34333412435512
 21
336.15585960476551
  0
LINE
  8
_0-0_
  6
CONTINUOUS
 62
    7
 10
773.34333412435512
 20
336.15585960476551
 11
773.26634499096951
 21
336.01920389300602
  0
LINE
  8
_0-0_
  6
CONTINUOUS
 62
    7
 10
773.26634499096951
 20
336.01920389300602
 11
773.21761436904251
 21
335.87014680663583
  0
LINE
  8
_0-0_
  6
CONTINUOUS
 62
    7
 10
773.21761436904251
 20
335.87014680663583
 11
773.19880452395398
 21
335.71444065874607
  0
LINE
  8
_0-0_
  6
CONTINUOUS
 62
    7
 10
773.19880452395398
 20
335.71444065874607
 11
773.21079033221974
 21
335.5580783534694
  0
LINE
  8
_0-0_
  6
CONTINUOUS
 62
    7
 10
773.21079033221974
 20
335.5580783534694
 11
773.25304686793015
 21
335.40705279493886
  0
LINE
  8
_0-0_
  6
CONTINUOUS
 62
    7
 10
773.25304686793015
 20
335.40705279493886
 11
773.32391186570567
 21
335.26716004007108
  0
LINE
  8
_0-0_
  6
CONTINUOUS
 62
    7
 10
773.32391186570567
 20
335.26716004007108
 11
773.42076069599875
 21
335.1437805794381
  0
LINE
  8
_0-0_
  6
CONTINUOUS
 62
    7
 10
773.42076069599875
 20
335.1437805794381
 11
773.53974390214012
 21
335.04168249005056
  0
LINE
  8
_0-0_
  6
CONTINUOUS
 62
    7
 10
773.53974390214012
 20
335.04168249005056
 11
773.86747264493852
 21
334.81224612379629
  0
LINE
  8
_0-0_
  6
CONTINUOUS
 62
    7
 10
773.86747264493852
 20
334.81224612379629
 11
774.00412835669783
 21
334.73532260614934
  0
LINE
  8
_0-0_
  6
CONTINUOUS
 62
    7
 10
774.00412835669783
 20
334.73532260614934
 11
774.15311982732931
 21
334.68652636848361
  0
LINE
  8
_0-0_
  6
CONTINUOUS
 62
    7
 10
774.15311982732931
 20
334.68652636848361
 11
774.30884784713214
 21
334.66776026722084
  0
LINE
  8
_0-0_
  6
CONTINUOUS
 62
    7
 10
774.30884784713214
 20
334.66776026722084
 11
774.46518828049591
 21
334.6797242035737
  0
LINE
  8
_0-0_
  6
CONTINUOUS
 62
    7
 10
774.46518828049591
 20
334.6797242035737
 11
774.61627945476505
 21
334.72195886737126
  0
LINE
  8
_0-0_
  6
CONTINUOUS
 62
    7
 10
774.61627945476505
 20
334.72195886737126
 11
774.75617220963284
 21
334.79284573705962
  0
LINE
  8
_0-0_
  6
CONTINUOUS
 62
    7
 10
774.75617220963284
 20
334.79284573705962
 11
774.87952979835302
 21
334.88967269543969
  0
LINE
  8
_0-0_
  6
CONTINUOUS
 62
    7
 10
774.87952979835302
 20
334.88967269543969
 11
774.9816278877405
 21
335.00869964540692
  0
LINE
  8
_0-0_
  6
CONTINUOUS
 62
    7
 10
774.9816278877405
 20
335.00869964540692
 11
775.66989324267763
 21
335.99168902658585
  0
LINE
  8
_0-0_
  6
CONTINUOUS
 62
    7
 10
774.03159947929225
 20
337.13884898594443
 11
774.30884784713214
 21
337.09891087300065
  0
LINE
  8
_0-0_
  6
CONTINUOUS
 62
    7
 10
774.30884784713214
 20
337.09891087300065
 11
774.56536164154863
 21
337.02940193382466
  0
LINE
  8
_0-0_
  6
CONTINUOUS
 62
    7
 10
774.56536164154863
 20
337.02940193382466
 11
774.8012283501937
 21
336.93034404032937
  0
LINE
  8
_0-0_
  6
CONTINUOUS
 62
    7
 10
774.8012283501937
 20
336.93034404032937
 11
775.01636048541559
 21
336.80173719251479
  0
LINE
  8
_0-0_
  6
CONTINUOUS
 62
    7
 10
775.01636048541559
 20
336.80173719251479
 11
775.21075804721431
 21
336.64355951846795
  0
LINE
  8
_0-0_
  6
CONTINUOUS
 62
    7
 10
775.21075804721431
 20
336.64355951846795
 11
775.38450852324127
 21
336.45583289010182
  0
LINE
  8
_0-0_
  6
CONTINUOUS
 62
    7
 10
775.38450852324127
 20
336.45583289010182
 11
775.53752442584528
 21
336.23853543550348
  0
LINE
  8
_0-0_
  6
CONTINUOUS
 62
    7
 10
775.53752442584528
 20
336.23853543550348
 11
775.66989324267763
 21
335.99168902658585
  0
LINE
  8
_0-0_
  6
CONTINUOUS
 62
    7
 10
778.94648076944816
 20
333.69739097978152
 11
778.25821541451114
 21
332.71440159860265
  0
LINE
  8
_0-0_
  6
CONTINUOUS
 62
    7
 10
778.25821541451114
 20
332.71440159860265
 11
778.18131376877716
 21
332.5777458868431
  0
LINE
  8
_0-0_
  6
CONTINUOUS
 62
    7
 10
778.18131376877716
 20
332.5777458868431
 11
778.13249565919841
 21
332.42868880047297
  0
LINE
  8
_0-0_
  6
CONTINUOUS
 62
    7
 10
778.13249565919841
 20
332.42868880047297
 11
778.11377330176151
 21
332.2729826525831
  0
LINE
  8
_0-0_
  6
CONTINUOUS
 62
    7
 10
778.11377330176151
 20
332.2729826525831
 11
778.12567162237565
 21
332.11662034730648
  0
LINE
  8
_0-0_
  6
CONTINUOUS
 62
    7
 10
778.12567162237565
 20
332.11662034730648
 11
778.16792815808628
 21
331.96559478877589
  0
LINE
  8
_0-0_
  6
CONTINUOUS
 62
    7
 10
778.16792815808628
 20
331.96559478877589
 11
778.23879315586157
 21
331.82570203390816
  0
LINE
  8
_0-0_
  6
CONTINUOUS
 62
    7
 10
778.23879315586157
 20
331.82570203390816
 11
778.33564198615466
 21
331.70232257327513
  0
LINE
  8
_0-0_
  6
CONTINUOUS
 62
    7
 10
778.33564198615466
 20
331.70232257327513
 11
778.45471267994765
 21
331.60022448388764
  0
LINE
  8
_0-0_
  6
CONTINUOUS
 62
    7
 10
778.45471267994765
 20
331.60022448388764
 11
778.78235393509442
 21
331.37078811763331
  0
LINE
  8
_0-0_
  6
CONTINUOUS
 62
    7
 10
778.78235393509442
 20
331.37078811763331
 11
778.91900964685374
 21
331.29386459998642
  0
LINE
  8
_0-0_
  6
CONTINUOUS
 62
    7
 10
778.91900964685374
 20
331.29386459998642
 11
779.06808860513695
 21
331.24506836232069
  0
LINE
  8
_0-0_
  6
CONTINUOUS
 62
    7
 10
779.06808860513695
 20
331.24506836232069
 11
779.22372913728805
 21
331.22630226105798
  0
LINE
  8
_0-0_
  6
CONTINUOUS
 62
    7
 10
779.22372913728805
 20
331.22630226105798
 11
779.38015705830344
 21
331.23826619741072
  0
LINE
  8
_0-0_
  6
CONTINUOUS
 62
    7
 10
779.38015705830344
 20
331.23826619741072
 11
779.53116074492095
 21
331.28050086120834
  0
LINE
  8
_0-0_
  6
CONTINUOUS
 62
    7
 10
779.53116074492095
 20
331.28050086120834
 11
779.67105349978874
 21
331.35138773089665
  0
LINE
  8
_0-0_
  6
CONTINUOUS
 62
    7
 10
779.67105349978874
 20
331.35138773089665
 11
779.79441108850892
 21
331.44821468927682
  0
LINE
  8
_0-0_
  6
CONTINUOUS
 62
    7
 10
779.79441108850892
 20
331.44821468927682
 11
779.89650917789641
 21
331.567241639244
  0
LINE
  8
_0-0_
  6
CONTINUOUS
 62
    7
 10
779.89650917789641
 20
331.567241639244
 11
780.58486202048516
 21
332.55023102042293
  0
LINE
  8
_0-0_
  6
CONTINUOUS
 62
    7
 10
778.94648076944816
 20
333.69739097978152
 11
779.22372913728805
 21
333.65745286683773
  0
LINE
  8
_0-0_
  6
CONTINUOUS
 62
    7
 10
779.22372913728805
 20
333.65745286683773
 11
779.48024293170465
 21
333.5879439276618
  0
LINE
  8
_0-0_
  6
CONTINUOUS
 62
    7
 10
779.48024293170465
 20
333.5879439276618
 11
779.71610964034971
 21
333.48888603416646
  0
LINE
  8
_0-0_
  6
CONTINUOUS
 62
    7
 10
779.71610964034971
 20
333.48888603416646
 11
779.93124177557149
 21
333.36027918635187
  0
LINE
  8
_0-0_
  6
CONTINUOUS
 62
    7
 10
779.93124177557149
 20
333.36027918635187
 11
780.12563933737033
 21
333.20210151230503
  0
LINE
  8
_0-0_
  6
CONTINUOUS
 62
    7
 10
780.12563933737033
 20
333.20210151230503
 11
780.2993898133974
 21
333.01437488393896
  0
LINE
  8
_0-0_
  6
CONTINUOUS
 62
    7
 10
780.2993898133974
 20
333.01437488393896
 11
780.45249320365292
 21
332.79707742934056
  0
LINE
  8
_0-0_
  6
CONTINUOUS
 62
    7
 10
780.45249320365292
 20
332.79707742934056
 11
780.58486202048516
 21
332.55023102042293
  0
LINE
  8
_0-0_
  6
CONTINUOUS
 62
    7
 10
783.8614495472558
 20
330.25593297361866
 11
783.17309670466716
 21
329.27294359243973
  0
LINE
  8
_0-0_
  6
CONTINUOUS
 62
    7
 10
783.17309670466716
 20
329.27294359243973
 11
783.09619505893306
 21
329.13628788068024
  0
LINE
  8
_0-0_
  6
CONTINUOUS
 62
    7
 10
783.09619505893306
 20
329.13628788068024
 11
783.04737694935443
 21
328.98723079431011
  0
LINE
  8
_0-0_
  6
CONTINUOUS
 62
    7
 10
783.04737694935443
 20
328.98723079431011
 11
783.02865459191753
 21
328.83152464642023
  0
LINE
  8
_0-0_
  6
CONTINUOUS
 62
    7
 10
783.02865459191753
 20
328.83152464642023
 11
783.04064040018318
 21
328.67516234114362
  0
LINE
  8
_0-0_
  6
CONTINUOUS
 62
    7
 10
783.04064040018318
 20
328.67516234114362
 11
783.08280944824219
 21
328.52413678261303
  0
LINE
  8
_0-0_
  6
CONTINUOUS
 62
    7
 10
783.08280944824219
 20
328.52413678261303
 11
783.1537619336691
 21
328.3842440277453
  0
LINE
  8
_0-0_
  6
CONTINUOUS
 62
    7
 10
783.1537619336691
 20
328.3842440277453
 11
783.25052327631056
 21
328.26086456711221
  0
LINE
  8
_0-0_
  6
CONTINUOUS
 62
    7
 10
783.25052327631056
 20
328.26086456711221
 11
783.36959397010355
 21
328.15876647772478
  0
LINE
  8
_0-0_
  6
CONTINUOUS
 62
    7
 10
783.36959397010355
 20
328.15876647772478
 11
783.69723522525032
 21
327.92933011147045
  0
LINE
  8
_0-0_
  6
CONTINUOUS
 62
    7
 10
783.69723522525032
 20
327.92933011147045
 11
783.83389093700987
 21
327.8524065938235
  0
LINE
  8
_0-0_
  6
CONTINUOUS
 62
    7
 10
783.83389093700987
 20
327.8524065938235
 11
783.98296989529285
 21
327.80361035615778
  0
LINE
  8
_0-0_
  6
CONTINUOUS
 62
    7
 10
783.98296989529285
 20
327.80361035615778
 11
784.13869791509558
 21
327.78484425489501
  0
LINE
  8
_0-0_
  6
CONTINUOUS
 62
    7
 10
784.13869791509558
 20
327.78484425489501
 11
784.29503834845934
 21
327.79680819124786
  0
LINE
  8
_0-0_
  6
CONTINUOUS
 62
    7
 10
784.29503834845934
 20
327.79680819124786
 11
784.44604203507708
 21
327.83904285504548
  0
LINE
  8
_0-0_
  6
CONTINUOUS
 62
    7
 10
784.44604203507708
 20
327.83904285504548
 11
784.58593478994476
 21
327.90992972473373
  0
LINE
  8
_0-0_
  6
CONTINUOUS
 62
    7
 10
784.58593478994476
 20
327.90992972473373
 11
784.70929237866483
 21
328.00675668311391
  0
LINE
  8
_0-0_
  6
CONTINUOUS
 62
    7
 10
784.70929237866483
 20
328.00675668311391
 11
784.81147795570394
 21
328.12578363308114
  0
LINE
  8
_0-0_
  6
CONTINUOUS
 62
    7
 10
784.81147795570394
 20
328.12578363308114
 11
785.49974331064107
 21
329.10877301426007
  0
LINE
  8
_0-0_
  6
CONTINUOUS
 62
    7
 10
783.8614495472558
 20
330.25593297361866
 11
784.13869791509558
 21
330.21599486067487
  0
LINE
  8
_0-0_
  6
CONTINUOUS
 62
    7
 10
784.13869791509558
 20
330.21599486067487
 11
784.3952117095123
 21
330.14648592149888
  0
LINE
  8
_0-0_
  6
CONTINUOUS
 62
    7
 10
784.3952117095123
 20
330.14648592149888
 11
784.63099093050562
 21
330.04742802800359
  0
LINE
  8
_0-0_
  6
CONTINUOUS
 62
    7
 10
784.63099093050562
 20
330.04742802800359
 11
784.84612306572762
 21
329.91882118018896
  0
LINE
  8
_0-0_
  6
CONTINUOUS
 62
    7
 10
784.84612306572762
 20
329.91882118018896
 11
785.04060811517775
 21
329.76064350614217
  0
LINE
  8
_0-0_
  6
CONTINUOUS
 62
    7
 10
785.04060811517775
 20
329.76064350614217
 11
785.21435859120493
 21
329.57291687777604
  0
LINE
  8
_0-0_
  6
CONTINUOUS
 62
    7
 10
785.21435859120493
 20
329.57291687777604
 11
785.36737449380882
 21
329.3556194231777
  0
LINE
  8
_0-0_
  6
CONTINUOUS
 62
    7
 10
785.36737449380882
 20
329.3556194231777
 11
785.49974331064107
 21
329.10877301426007
  0
LINE
  8
_0-0_
  6
CONTINUOUS
 62
    7
 10
788.77633083741171
 20
326.81447496745579
 11
788.08806548247458
 21
325.83148558627681
  0
LINE
  8
_0-0_
  6
CONTINUOUS
 62
    7
 10
788.08806548247458
 20
325.83148558627681
 11
788.01107634908908
 21
325.69482987451738
  0
LINE
  8
_0-0_
  6
CONTINUOUS
 62
    7
 10
788.01107634908908
 20
325.69482987451738
 11
787.96234572716207
 21
325.54577278814719
  0
LINE
  8
_0-0_
  6
CONTINUOUS
 62
    7
 10
787.96234572716207
 20
325.54577278814719
 11
787.94353588207343
 21
325.39006664025737
  0
LINE
  8
_0-0_
  6
CONTINUOUS
 62
    7
 10
787.94353588207343
 20
325.39006664025737
 11
787.95552169033908
 21
325.23370433498076
  0
LINE
  8
_0-0_
  6
CONTINUOUS
 62
    7
 10
787.95552169033908
 20
325.23370433498076
 11
787.9977782260496
 21
325.08267877645011
  0
LINE
  8
_0-0_
  6
CONTINUOUS
 62
    7
 10
787.9977782260496
 20
325.08267877645011
 11
788.06864322382512
 21
324.94278602158238
  0
LINE
  8
_0-0_
  6
CONTINUOUS
 62
    7
 10
788.06864322382512
 20
324.94278602158238
 11
788.16549205411798
 21
324.81940656094935
  0
LINE
  8
_0-0_
  6
CONTINUOUS
 62
    7
 10
788.16549205411798
 20
324.81940656094935
 11
788.28447526025957
 21
324.71730847156181
  0
LINE
  8
_0-0_
  6
CONTINUOUS
 62
    7
 10
788.28447526025957
 20
324.71730847156181
 11
788.61220400305785
 21
324.48787210530753
  0
LINE
  8
_0-0_
  6
CONTINUOUS
 62
    7
 10
788.61220400305785
 20
324.48787210530753
 11
788.74885971481729
 21
324.41094858766058
  0
LINE
  8
_0-0_
  6
CONTINUOUS
 62
    7
 10
788.74885971481729
 20
324.41094858766058
 11
788.89785118544876
 21
324.36215234999486
  0
LINE
  8
_0-0_
  6
CONTINUOUS
 62
    7
 10
788.89785118544876
 20
324.36215234999486
 11
789.05357920525148
 21
324.34338624873214
  0
LINE
  8
_0-0_
  6
CONTINUOUS
 62
    7
 10
789.05357920525148
 20
324.34338624873214
 11
789.20991963861525
 21
324.35535018508494
  0
LINE
  8
_0-0_
  6
CONTINUOUS
 62
    7
 10
789.20991963861525
 20
324.35535018508494
 11
789.36101081288462
 21
324.39758484888262
  0
LINE
  8
_0-0_
  6
CONTINUOUS
 62
    7
 10
789.36101081288462
 20
324.39758484888262
 11
789.50090356775218
 21
324.46847171857087
  0
LINE
  8
_0-0_
  6
CONTINUOUS
 62
    7
 10
789.50090356775218
 20
324.46847171857087
 11
789.62426115647247
 21
324.56529867695104
  0
LINE
  8
_0-0_
  6
CONTINUOUS
 62
    7
 10
789.62426115647247
 20
324.56529867695104
 11
789.72635924585984
 21
324.68432562691822
  0
LINE
  8
_0-0_
  6
CONTINUOUS
 62
    7
 10
789.72635924585984
 20
324.68432562691822
 11
790.41462460079697
 21
325.66731500809715
  0
LINE
  8
_0-0_
  6
CONTINUOUS
 62
    7
 10
788.77633083741171
 20
326.81447496745579
 11
789.05357920525148
 21
326.77453685451201
  0
LINE
  8
_0-0_
  6
CONTINUOUS
 62
    7
 10
789.05357920525148
 20
326.77453685451201
 11
789.3100929996682
 21
326.70502791533602
  0
LINE
  8
_0-0_
  6
CONTINUOUS
 62
    7
 10
789.3100929996682
 20
326.70502791533602
 11
789.54595970831315
 21
326.60597002184068
  0
LINE
  8
_0-0_
  6
CONTINUOUS
 62
    7
 10
789.54595970831315
 20
326.60597002184068
 11
789.76109184353504
 21
326.47736317402604
  0
LINE
  8
_0-0_
  6
CONTINUOUS
 62
    7
 10
789.76109184353504
 20
326.47736317402604
 11
789.95548940533365
 21
326.31918549997926
  0
LINE
  8
_0-0_
  6
CONTINUOUS
 62
    7
 10
789.95548940533365
 20
326.31918549997926
 11
790.12923988136083
 21
326.13145887161306
  0
LINE
  8
_0-0_
  6
CONTINUOUS
 62
    7
 10
790.12923988136083
 20
326.13145887161306
 11
790.28225578396473
 21
325.91416141701478
  0
LINE
  8
_0-0_
  6
CONTINUOUS
 62
    7
 10
790.28225578396473
 20
325.91416141701478
 11
790.41462460079697
 21
325.66731500809715
  0
LINE
  8
_0-0_
  6
CONTINUOUS
 62
    7
 10
793.69121212756772
 20
323.37301696129288
 11
793.00294677263059
 21
322.39002758011395
  0
LINE
  8
_0-0_
  6
CONTINUOUS
 62
    7
 10
793.00294677263059
 20
322.39002758011395
 11
792.9260451268965
 21
322.25337186835446
  0
LINE
  8
_0-0_
  6
CONTINUOUS
 62
    7
 10
792.9260451268965
 20
322.25337186835446
 11
792.87722701731798
 21
322.10431478198427
  0
LINE
  8
_0-0_
  6
CONTINUOUS
 62
    7
 10
792.87722701731798
 20
322.10431478198427
 11
792.85850465988096
 21
321.94860863409446
  0
LINE
  8
_0-0_
  6
CONTINUOUS
 62
    7
 10
792.85850465988096
 20
321.94860863409446
 11
792.8704029804951
 21
321.79224632881784
  0
LINE
  8
_0-0_
  6
CONTINUOUS
 62
    7
 10
792.8704029804951
 20
321.79224632881784
 11
792.91265951620562
 21
321.64122077028719
  0
LINE
  8
_0-0_
  6
CONTINUOUS
 62
    7
 10
792.91265951620562
 20
321.64122077028719
 11
792.98352451398102
 21
321.50132801541952
  0
LINE
  8
_0-0_
  6
CONTINUOUS
 62
    7
 10
792.98352451398102
 20
321.50132801541952
 11
793.08037334427411
 21
321.37794855478649
  0
LINE
  8
_0-0_
  6
CONTINUOUS
 62
    7
 10
793.08037334427411
 20
321.37794855478649
 11
793.19944403806699
 21
321.27585046539889
  0
LINE
  8
_0-0_
  6
CONTINUOUS
 62
    7
 10
793.19944403806699
 20
321.27585046539889
 11
793.52708529321376
 21
321.04641409914461
  0
LINE
  8
_0-0_
  6
CONTINUOUS
 62
    7
 10
793.52708529321376
 20
321.04641409914461
 11
793.66374100497319
 21
320.96949058149767
  0
LINE
  8
_0-0_
  6
CONTINUOUS
 62
    7
 10
793.66374100497319
 20
320.96949058149767
 11
793.81281996325629
 21
320.920694343832
  0
LINE
  8
_0-0_
  6
CONTINUOUS
 62
    7
 10
793.81281996325629
 20
320.920694343832
 11
793.96846049540738
 21
320.90192824256923
  0
LINE
  8
_0-0_
  6
CONTINUOUS
 62
    7
 10
793.96846049540738
 20
320.90192824256923
 11
794.12488841642266
 21
320.91389217892208
  0
LINE
  8
_0-0_
  6
CONTINUOUS
 62
    7
 10
794.12488841642266
 20
320.91389217892208
 11
794.27589210304052
 21
320.9561268427197
  0
LINE
  8
_0-0_
  6
CONTINUOUS
 62
    7
 10
794.27589210304052
 20
320.9561268427197
 11
794.41578485790831
 21
321.02701371240801
  0
LINE
  8
_0-0_
  6
CONTINUOUS
 62
    7
 10
794.41578485790831
 20
321.02701371240801
 11
794.53914244662838
 21
321.12384067078813
  0
LINE
  8
_0-0_
  6
CONTINUOUS
 62
    7
 10
794.53914244662838
 20
321.12384067078813
 11
794.64124053601597
 21
321.24286762075536
  0
LINE
  8
_0-0_
  6
CONTINUOUS
 62
    7
 10
794.64124053601597
 20
321.24286762075536
 11
795.32959337860461
 21
322.22585700193429
  0
LINE
  8
_0-0_
  6
CONTINUOUS
 62
    7
 10
793.69121212756772
 20
323.37301696129288
 11
793.96846049540738
 21
323.33307884834909
  0
LINE
  8
_0-0_
  6
CONTINUOUS
 62
    7
 10
793.96846049540738
 20
323.33307884834909
 11
794.2249742898241
 21
323.26356990917304
  0
LINE
  8
_0-0_
  6
CONTINUOUS
 62
    7
 10
794.2249742898241
 20
323.26356990917304
 11
794.46084099846917
 21
323.16451201567781
  0
LINE
  8
_0-0_
  6
CONTINUOUS
 62
    7
 10
794.46084099846917
 20
323.16451201567781
 11
794.67597313369095
 21
323.03590516786312
  0
LINE
  8
_0-0_
  6
CONTINUOUS
 62
    7
 10
794.67597313369095
 20
323.03590516786312
 11
794.8704581831413
 21
322.87772749381634
  0
LINE
  8
_0-0_
  6
CONTINUOUS
 62
    7
 10
794.8704581831413
 20
322.87772749381634
 11
795.04412117151674
 21
322.6900008654502
  0
LINE
  8
_0-0_
  6
CONTINUOUS
 62
    7
 10
795.04412117151674
 20
322.6900008654502
 11
795.19722456177215
 21
322.47270341085192
  0
LINE
  8
_0-0_
  6
CONTINUOUS
 62
    7
 10
795.19722456177215
 20
322.47270341085192
 11
795.32959337860461
 21
322.22585700193429
  0
LINE
  8
_0-0_
  6
CONTINUOUS
 62
    7
 10
798.60618090537514
 20
319.93155895512996
 11
797.9178280627865
 21
318.94856957395103
  0
LINE
  8
_0-0_
  6
CONTINUOUS
 62
    7
 10
797.9178280627865
 20
318.94856957395103
 11
797.8409264170524
 21
318.81191386219155
  0
LINE
  8
_0-0_
  6
CONTINUOUS
 62
    7
 10
797.8409264170524
 20
318.81191386219155
 11
797.79219579512539
 21
318.66285677582135
  0
LINE
  8
_0-0_
  6
CONTINUOUS
 62
    7
 10
797.79219579512539
 20
318.66285677582135
 11
797.77338595003687
 21
318.50715062793154
  0
LINE
  8
_0-0_
  6
CONTINUOUS
 62
    7
 10
797.77338595003687
 20
318.50715062793154
 11
797.78537175830263
 21
318.35078832265492
  0
LINE
  8
_0-0_
  6
CONTINUOUS
 62
    7
 10
797.78537175830263
 20
318.35078832265492
 11
797.82762829401304
 21
318.19976276412433
  0
LINE
  8
_0-0_
  6
CONTINUOUS
 62
    7
 10
797.82762829401304
 20
318.19976276412433
 11
797.89849329178855
 21
318.0598700092566
  0
LINE
  8
_0-0_
  6
CONTINUOUS
 62
    7
 10
797.89849329178855
 20
318.0598700092566
 11
797.99534212208164
 21
317.93649054862357
  0
LINE
  8
_0-0_
  6
CONTINUOUS
 62
    7
 10
797.99534212208164
 20
317.93649054862357
 11
798.114325328223
 21
317.83439245923603
  0
LINE
  8
_0-0_
  6
CONTINUOUS
 62
    7
 10
798.114325328223
 20
317.83439245923603
 11
798.44196658336966
 21
317.60495609298175
  0
LINE
  8
_0-0_
  6
CONTINUOUS
 62
    7
 10
798.44196658336966
 20
317.60495609298175
 11
798.57862229512921
 21
317.52803257533481
  0
LINE
  8
_0-0_
  6
CONTINUOUS
 62
    7
 10
798.57862229512921
 20
317.52803257533481
 11
798.72770125341231
 21
317.47923633766908
  0
LINE
  8
_0-0_
  6
CONTINUOUS
 62
    7
 10
798.72770125341231
 20
317.47923633766908
 11
798.88342927321503
 21
317.46047023640637
  0
LINE
  8
_0-0_
  6
CONTINUOUS
 62
    7
 10
798.88342927321503
 20
317.46047023640637
 11
799.0397697065788
 21
317.47243417275916
  0
LINE
  8
_0-0_
  6
CONTINUOUS
 62
    7
 10
799.0397697065788
 20
317.47243417275916
 11
799.19077339319642
 21
317.51466883655678
  0
LINE
  8
_0-0_
  6
CONTINUOUS
 62
    7
 10
799.19077339319642
 20
317.51466883655678
 11
799.33066614806421
 21
317.58555570624509
  0
LINE
  8
_0-0_
  6
CONTINUOUS
 62
    7
 10
799.33066614806421
 20
317.58555570624509
 11
799.45402373678439
 21
317.68238266462521
  0
LINE
  8
_0-0_
  6
CONTINUOUS
 62
    7
 10
799.45402373678439
 20
317.68238266462521
 11
799.55620931382339
 21
317.80140961459244
  0
LINE
  8
_0-0_
  6
CONTINUOUS
 62
    7
 10
799.55620931382339
 20
317.80140961459244
 11
800.24447466876052
 21
318.78439899577137
  0
LINE
  8
_0-0_
  6
CONTINUOUS
 62
    7
 10
798.60618090537514
 20
319.93155895512996
 11
798.88342927321503
 21
319.89162084218617
  0
LINE
  8
_0-0_
  6
CONTINUOUS
 62
    7
 10
798.88342927321503
 20
319.89162084218617
 11
799.13994306763152
 21
319.82211190301018
  0
LINE
  8
_0-0_
  6
CONTINUOUS
 62
    7
 10
799.13994306763152
 20
319.82211190301018
 11
799.37572228862507
 21
319.7230540095149
  0
LINE
  8
_0-0_
  6
CONTINUOUS
 62
    7
 10
799.37572228862507
 20
319.7230540095149
 11
799.59085442384685
 21
319.59444716170026
  0
LINE
  8
_0-0_
  6
CONTINUOUS
 62
    7
 10
799.59085442384685
 20
319.59444716170026
 11
799.7853394732972
 21
319.43626948765348
  0
LINE
  8
_0-0_
  6
CONTINUOUS
 62
    7
 10
799.7853394732972
 20
319.43626948765348
 11
799.95908994932415
 21
319.24854285928734
  0
LINE
  8
_0-0_
  6
CONTINUOUS
 62
    7
 10
799.95908994932415
 20
319.24854285928734
 11
800.11210585192816
 21
319.031245404689
  0
LINE
  8
_0-0_
  6
CONTINUOUS
 62
    7
 10
800.11210585192816
 20
319.031245404689
 11
800.24447466876052
 21
318.78439899577137
  0
LINE
  8
_0-0_
  6
CONTINUOUS
 62
    7
 10
803.52106219553104
 20
316.49010094896704
 11
802.83279684059403
 21
315.50711156778812
  0
LINE
  8
_0-0_
  6
CONTINUOUS
 62
    7
 10
802.83279684059403
 20
315.50711156778812
 11
802.75589519486005
 21
315.37045585602863
  0
LINE
  8
_0-0_
  6
CONTINUOUS
 62
    7
 10
802.75589519486005
 20
315.37045585602863
 11
802.7070770852813
 21
315.22139876965849
  0
LINE
  8
_0-0_
  6
CONTINUOUS
 62
    7
 10
802.7070770852813
 20
315.22139876965849
 11
802.68826724019289
 21
315.06569262176862
  0
LINE
  8
_0-0_
  6
CONTINUOUS
 62
    7
 10
802.68826724019289
 20
315.06569262176862
 11
802.70025304845853
 21
314.909330316492
  0
LINE
  8
_0-0_
  6
CONTINUOUS
 62
    7
 10
802.70025304845853
 20
314.909330316492
 11
802.74250958416917
 21
314.75830475796141
  0
LINE
  8
_0-0_
  6
CONTINUOUS
 62
    7
 10
802.74250958416917
 20
314.75830475796141
 11
802.81337458194446
 21
314.61841200309368
  0
LINE
  8
_0-0_
  6
CONTINUOUS
 62
    7
 10
802.81337458194446
 20
314.61841200309368
 11
802.91022341223754
 21
314.49503254246065
  0
LINE
  8
_0-0_
  6
CONTINUOUS
 62
    7
 10
802.91022341223754
 20
314.49503254246065
 11
803.02920661837891
 21
314.39293445307317
  0
LINE
  8
_0-0_
  6
CONTINUOUS
 62
    7
 10
803.02920661837891
 20
314.39293445307317
 11
803.35693536117731
 21
314.16349808681883
  0
LINE
  8
_0-0_
  6
CONTINUOUS
 62
    7
 10
803.35693536117731
 20
314.16349808681883
 11
803.49359107293685
 21
314.08657456917189
  0
LINE
  8
_0-0_
  6
CONTINUOUS
 62
    7
 10
803.49359107293685
 20
314.08657456917189
 11
803.64258254356832
 21
314.03777833150622
  0
LINE
  8
_0-0_
  6
CONTINUOUS
 62
    7
 10
803.64258254356832
 20
314.03777833150622
 11
803.79831056337093
 21
314.01901223024345
  0
LINE
  8
_0-0_
  6
CONTINUOUS
 62
    7
 10
803.79831056337093
 20
314.01901223024345
 11
803.9546509967347
 21
314.03097616659625
  0
LINE
  8
_0-0_
  6
CONTINUOUS
 62
    7
 10
803.9546509967347
 20
314.03097616659625
 11
804.10574217100384
 21
314.07321083039386
  0
LINE
  8
_0-0_
  6
CONTINUOUS
 62
    7
 10
804.10574217100384
 20
314.07321083039386
 11
804.24563492587163
 21
314.14409770008217
  0
LINE
  8
_0-0_
  6
CONTINUOUS
 62
    7
 10
804.24563492587163
 20
314.14409770008217
 11
804.36899251459181
 21
314.24092465846235
  0
LINE
  8
_0-0_
  6
CONTINUOUS
 62
    7
 10
804.36899251459181
 20
314.24092465846235
 11
804.47109060397929
 21
314.35995160842953
  0
LINE
  8
_0-0_
  6
CONTINUOUS
 62
    7
 10
804.47109060397929
 20
314.35995160842953
 11
805.15935595891642
 21
315.34294098960845
  0
LINE
  8
_0-0_
  6
CONTINUOUS
 62
    7
 10
803.52106219553104
 20
316.49010094896704
 11
803.79831056337093
 21
316.45016283602325
  0
LINE
  8
_0-0_
  6
CONTINUOUS
 62
    7
 10
803.79831056337093
 20
316.45016283602325
 11
804.05482435778754
 21
316.38065389684726
  0
LINE
  8
_0-0_
  6
CONTINUOUS
 62
    7
 10
804.05482435778754
 20
316.38065389684726
 11
804.2906910664326
 21
316.28159600335198
  0
LINE
  8
_0-0_
  6
CONTINUOUS
 62
    7
 10
804.2906910664326
 20
316.28159600335198
 11
804.50582320165438
 21
316.1529891555374
  0
LINE
  8
_0-0_
  6
CONTINUOUS
 62
    7
 10
804.50582320165438
 20
316.1529891555374
 11
804.70022076345322
 21
315.9948114814905
  0
LINE
  8
_0-0_
  6
CONTINUOUS
 62
    7
 10
804.70022076345322
 20
315.9948114814905
 11
804.87397123948028
 21
315.80708485312442
  0
LINE
  8
_0-0_
  6
CONTINUOUS
 62
    7
 10
804.87397123948028
 20
315.80708485312442
 11
805.02707462973581
 21
315.58978739852608
  0
LINE
  8
_0-0_
  6
CONTINUOUS
 62
    7
 10
805.02707462973581
 20
315.58978739852608
 11
805.15935595891642
 21
315.34294098960845
  0
LINE
  8
_0-0_
  6
CONTINUOUS
 62
    7
 10
766.37240553454535
 20
341.89146255434247
 11
765.97092470146981
 21
341.31804661400992
  0
LINE
  8
_0-0_
  6
CONTINUOUS
 62
    7
 10
765.97092470146981
 20
341.31804661400992
 11
765.89402305573572
 21
341.18139090225043
  0
LINE
  8
_0-0_
  6
CONTINUOUS
 62
    7
 10
765.89402305573572
 20
341.18139090225043
 11
765.84520494615708
 21
341.03233381588029
  0
LINE
  8
_0-0_
  6
CONTINUOUS
 62
    7
 10
765.84520494615708
 20
341.03233381588029
 11
765.82648258872018
 21
340.87664953990327
  0
LINE
  8
_0-0_
  6
CONTINUOUS
 62
    7
 10
765.82648258872018
 20
340.87664953990327
 11
765.83838090933432
 21
340.72026536271375
  0
LINE
  8
_0-0_
  6
CONTINUOUS
 62
    7
 10
765.83838090933432
 20
340.72026536271375
 11
765.88063744504484
 21
340.56923980418321
  0
LINE
  8
_0-0_
  6
CONTINUOUS
 62
    7
 10
765.88063744504484
 20
340.56923980418321
 11
765.95158993047175
 21
340.42934704931548
  0
LINE
  8
_0-0_
  6
CONTINUOUS
 62
    7
 10
765.95158993047175
 20
340.42934704931548
 11
766.04835127311321
 21
340.30596758868239
  0
LINE
  8
_0-0_
  6
CONTINUOUS
 62
    7
 10
766.04835127311321
 20
340.30596758868239
 11
766.1674219669062
 21
340.20386949929491
  0
LINE
  8
_0-0_
  6
CONTINUOUS
 62
    7
 10
766.1674219669062
 20
340.20386949929491
 11
766.49506322205298
 21
339.97443313304063
  0
LINE
  8
_0-0_
  6
CONTINUOUS
 62
    7
 10
766.49506322205298
 20
339.97443313304063
 11
766.65892759345206
 21
339.8597149499135
  0
LINE
  8
_0-0_
  6
CONTINUOUS
 62
    7
 10
766.65892759345206
 20
339.8597149499135
 11
766.76137563344594
 21
339.80201684370002
  0
LINE
  8
_0-0_
  6
CONTINUOUS
 62
    7
 10
766.76137563344594
 20
339.80201684370002
 11
766.87318485215826
 21
339.76542513342901
  0
LINE
  8
_0-0_
  6
CONTINUOUS
 62
    7
 10
766.87318485215826
 20
339.76542513342901
 11
766.98998086701022
 21
339.75136149343831
  0
LINE
  8
_0-0_
  6
CONTINUOUS
 62
    7
 10
766.98998086701022
 20
339.75136149343831
 11
767.10721432012019
 21
339.76032897772478
  0
LINE
  8
_0-0_
  6
CONTINUOUS
 62
    7
 10
767.10721432012019
 20
339.76032897772478
 11
767.22051082890925
 21
339.79199950759471
  0
LINE
  8
_0-0_
  6
CONTINUOUS
 62
    7
 10
767.22051082890925
 20
339.79199950759471
 11
767.32540852314719
 21
339.8451701278392
  0
LINE
  8
_0-0_
  6
CONTINUOUS
 62
    7
 10
767.32540852314719
 20
339.8451701278392
 11
767.41797045851297
 21
339.9177848786461
  0
LINE
  8
_0-0_
  6
CONTINUOUS
 62
    7
 10
767.41797045851297
 20
339.9177848786461
 11
767.49452215364067
 21
340.00706602707794
  0
LINE
  8
_0-0_
  6
CONTINUOUS
 62
    7
 10
767.49452215364067
 20
340.00706602707794
 11
768.01078678558224
 21
340.74430259498388
  0
LINE
  8
_0-0_
  6
CONTINUOUS
 62
    7
 10
766.37240553454535
 20
341.89146255434247
 11
766.64965390238524
 21
341.85152444139868
  0
LINE
  8
_0-0_
  6
CONTINUOUS
 62
    7
 10
766.64965390238524
 20
341.85152444139868
 11
766.90616769680173
 21
341.78201550222269
  0
LINE
  8
_0-0_
  6
CONTINUOUS
 62
    7
 10
766.90616769680173
 20
341.78201550222269
 11
767.14203440544679
 21
341.68295760872741
  0
LINE
  8
_0-0_
  6
CONTINUOUS
 62
    7
 10
767.14203440544679
 20
341.68295760872741
 11
767.35716654066869
 21
341.55435076091283
  0
LINE
  8
_0-0_
  6
CONTINUOUS
 62
    7
 10
767.35716654066869
 20
341.55435076091283
 11
767.55165159011892
 21
341.39617308686593
  0
LINE
  8
_0-0_
  6
CONTINUOUS
 62
    7
 10
767.55165159011892
 20
341.39617308686593
 11
767.72531457849459
 21
341.20844645849985
  0
LINE
  8
_0-0_
  6
CONTINUOUS
 62
    7
 10
767.72531457849459
 20
341.20844645849985
 11
767.87841796875
 21
340.99114900390146
  0
LINE
  8
_0-0_
  6
CONTINUOUS
 62
    7
 10
767.87841796875
 20
340.99114900390146
 11
768.01078678558224
 21
340.74430259498388
  0
LINE
  8
_0-0_
  6
CONTINUOUS
 62
    7
 10
771.28737431235299
 20
338.45000454817955
 11
770.88589347927723
 21
337.87658860784694
  0
LINE
  8
_0-0_
  6
CONTINUOUS
 62
    7
 10
770.88589347927723
 20
337.87658860784694
 11
770.80890434589162
 21
337.73993289608757
  0
LINE
  8
_0-0_
  6
CONTINUOUS
 62
    7
 10
770.80890434589162
 20
337.73993289608757
 11
770.7601737239645
 21
337.59087580971737
  0
LINE
  8
_0-0_
  6
CONTINUOUS
 62
    7
 10
770.7601737239645
 20
337.59087580971737
 11
770.74136387887609
 21
337.43516966182756
  0
LINE
  8
_0-0_
  6
CONTINUOUS
 62
    7
 10
770.74136387887609
 20
337.43516966182756
 11
770.75334968714174
 21
337.27880735655083
  0
LINE
  8
_0-0_
  6
CONTINUOUS
 62
    7
 10
770.75334968714174
 20
337.27880735655083
 11
770.79560622285226
 21
337.12778179802029
  0
LINE
  8
_0-0_
  6
CONTINUOUS
 62
    7
 10
770.79560622285226
 20
337.12778179802029
 11
770.86647122062777
 21
336.98788904315251
  0
LINE
  8
_0-0_
  6
CONTINUOUS
 62
    7
 10
770.86647122062777
 20
336.98788904315251
 11
770.96332005092063
 21
336.86450958251953
  0
LINE
  8
_0-0_
  6
CONTINUOUS
 62
    7
 10
770.96332005092063
 20
336.86450958251953
 11
771.08230325706222
 21
336.76241149313199
  0
LINE
  8
_0-0_
  6
CONTINUOUS
 62
    7
 10
771.08230325706222
 20
336.76241149313199
 11
771.40994451220888
 21
336.53297512687772
  0
LINE
  8
_0-0_
  6
CONTINUOUS
 62
    7
 10
771.40994451220888
 20
336.53297512687772
 11
771.57380888360808
 21
336.41825694375058
  0
LINE
  8
_0-0_
  6
CONTINUOUS
 62
    7
 10
771.57380888360808
 20
336.41825694375058
 11
771.67634441125347
 21
336.36055883753716
  0
LINE
  8
_0-0_
  6
CONTINUOUS
 62
    7
 10
771.67634441125347
 20
336.36055883753716
 11
771.78806614231416
 21
336.32396712726603
  0
LINE
  8
_0-0_
  6
CONTINUOUS
 62
    7
 10
771.78806614231416
 20
336.32396712726603
 11
771.90486215716624
 21
336.30990348727545
  0
LINE
  8
_0-0_
  6
CONTINUOUS
 62
    7
 10
771.90486215716624
 20
336.30990348727545
 11
772.02218309792772
 21
336.31887097156181
  0
LINE
  8
_0-0_
  6
CONTINUOUS
 62
    7
 10
772.02218309792772
 20
336.31887097156181
 11
772.13539211906527
 21
336.35054150143185
  0
LINE
  8
_0-0_
  6
CONTINUOUS
 62
    7
 10
772.13539211906527
 20
336.35054150143185
 11
772.24028981330309
 21
336.40371212167628
  0
LINE
  8
_0-0_
  6
CONTINUOUS
 62
    7
 10
772.24028981330309
 20
336.40371212167628
 11
772.33285174866887
 21
336.47632687248318
  0
LINE
  8
_0-0_
  6
CONTINUOUS
 62
    7
 10
772.33285174866887
 20
336.47632687248318
 11
772.40940344379669
 21
336.56560802091496
  0
LINE
  8
_0-0_
  6
CONTINUOUS
 62
    7
 10
772.40940344379669
 20
336.56560802091496
 11
772.92566807573826
 21
337.30284458882096
  0
LINE
  8
_0-0_
  6
CONTINUOUS
 62
    7
 10
771.28737431235299
 20
338.45000454817955
 11
771.56462268019266
 21
338.41006643523576
  0
LINE
  8
_0-0_
  6
CONTINUOUS
 62
    7
 10
771.56462268019266
 20
338.41006643523576
 11
771.82113647460937
 21
338.34055749605977
  0
LINE
  8
_0-0_
  6
CONTINUOUS
 62
    7
 10
771.82113647460937
 20
338.34055749605977
 11
772.0569156956027
 21
338.24149960256449
  0
LINE
  8
_0-0_
  6
CONTINUOUS
 62
    7
 10
772.0569156956027
 20
338.24149960256449
 11
772.2720478308247
 21
338.11289275474991
  0
LINE
  8
_0-0_
  6
CONTINUOUS
 62
    7
 10
772.2720478308247
 20
338.11289275474991
 11
772.46653288027483
 21
337.95471508070307
  0
LINE
  8
_0-0_
  6
CONTINUOUS
 62
    7
 10
772.46653288027483
 20
337.95471508070307
 11
772.64028335630201
 21
337.76698845233693
  0
LINE
  8
_0-0_
  6
CONTINUOUS
 62
    7
 10
772.64028335630201
 20
337.76698845233693
 11
772.7932992589059
 21
337.54969099773859
  0
LINE
  8
_0-0_
  6
CONTINUOUS
 62
    7
 10
772.7932992589059
 20
337.54969099773859
 11
772.92566807573826
 21
337.30284458882096
  0
LINE
  8
_0-0_
  6
CONTINUOUS
 62
    7
 10
776.2022556025089
 20
335.00854654201669
 11
775.80077476943313
 21
334.43513060168408
  0
LINE
  8
_0-0_
  6
CONTINUOUS
 62
    7
 10
775.80077476943313
 20
334.43513060168408
 11
775.72387312369915
 21
334.29847488992459
  0
LINE
  8
_0-0_
  6
CONTINUOUS
 62
    7
 10
775.72387312369915
 20
334.29847488992459
 11
775.67505501412052
 21
334.1494178035544
  0
LINE
  8
_0-0_
  6
CONTINUOUS
 62
    7
 10
775.67505501412052
 20
334.1494178035544
 11
775.65624516903199
 21
333.99371165566464
  0
LINE
  8
_0-0_
  6
CONTINUOUS
 62
    7
 10
775.65624516903199
 20
333.99371165566464
 11
775.66823097729764
 21
333.83734935038797
  0
LINE
  8
_0-0_
  6
CONTINUOUS
 62
    7
 10
775.66823097729764
 20
333.83734935038797
 11
775.71048751300827
 21
333.68632379185738
  0
LINE
  8
_0-0_
  6
CONTINUOUS
 62
    7
 10
775.71048751300827
 20
333.68632379185738
 11
775.78135251078368
 21
333.54643103698959
  0
LINE
  8
_0-0_
  6
CONTINUOUS
 62
    7
 10
775.78135251078368
 20
333.54643103698959
 11
775.87820134107665
 21
333.42305157635667
  0
LINE
  8
_0-0_
  6
CONTINUOUS
 62
    7
 10
775.87820134107665
 20
333.42305157635667
 11
775.99718454721813
 21
333.32095348696907
  0
LINE
  8
_0-0_
  6
CONTINUOUS
 62
    7
 10
775.99718454721813
 20
333.32095348696907
 11
776.32491329001641
 21
333.0915171207148
  0
LINE
  8
_0-0_
  6
CONTINUOUS
 62
    7
 10
776.32491329001641
 20
333.0915171207148
 11
776.48869017376398
 21
332.9767989375876
  0
LINE
  8
_0-0_
  6
CONTINUOUS
 62
    7
 10
776.48869017376398
 20
332.9767989375876
 11
776.59122570140937
 21
332.91910083137424
  0
LINE
  8
_0-0_
  6
CONTINUOUS
 62
    7
 10
776.59122570140937
 20
332.91910083137424
 11
776.70303492012169
 21
332.88250912110311
  0
LINE
  8
_0-0_
  6
CONTINUOUS
 62
    7
 10
776.70303492012169
 20
332.88250912110311
 11
776.81974344732214
 21
332.86844548111253
  0
LINE
  8
_0-0_
  6
CONTINUOUS
 62
    7
 10
776.81974344732214
 20
332.86844548111253
 11
776.93706438808363
 21
332.87741296539889
  0
LINE
  8
_0-0_
  6
CONTINUOUS
 62
    7
 10
776.93706438808363
 20
332.87741296539889
 11
777.05036089687269
 21
332.90908349526893
  0
LINE
  8
_0-0_
  6
CONTINUOUS
 62
    7
 10
777.05036089687269
 20
332.90908349526893
 11
777.15525859111051
 21
332.96225411551342
  0
LINE
  8
_0-0_
  6
CONTINUOUS
 62
    7
 10
777.15525859111051
 20
332.96225411551342
 11
777.24773303882489
 21
333.03486886632027
  0
LINE
  8
_0-0_
  6
CONTINUOUS
 62
    7
 10
777.24773303882489
 20
333.03486886632027
 11
777.32437222160434
 21
333.1241500147521
  0
LINE
  8
_0-0_
  6
CONTINUOUS
 62
    7
 10
777.32437222160434
 20
333.1241500147521
 11
777.84054936589416
 21
333.86138658265804
  0
LINE
  8
_0-0_
  6
CONTINUOUS
 62
    7
 10
776.2022556025089
 20
335.00854654201669
 11
776.47950397034856
 21
334.9686084290729
  0
LINE
  8
_0-0_
  6
CONTINUOUS
 62
    7
 10
776.47950397034856
 20
334.9686084290729
 11
776.73601776476528
 21
334.89909948989691
  0
LINE
  8
_0-0_
  6
CONTINUOUS
 62
    7
 10
776.73601776476528
 20
334.89909948989691
 11
776.97188447341034
 21
334.80004159640157
  0
LINE
  8
_0-0_
  6
CONTINUOUS
 62
    7
 10
776.97188447341034
 20
334.80004159640157
 11
777.18701660863212
 21
334.67143474858693
  0
LINE
  8
_0-0_
  6
CONTINUOUS
 62
    7
 10
777.18701660863212
 20
334.67143474858693
 11
777.38141417043084
 21
334.51325707454021
  0
LINE
  8
_0-0_
  6
CONTINUOUS
 62
    7
 10
777.38141417043084
 20
334.51325707454021
 11
777.55516464645791
 21
334.32553044617407
  0
LINE
  8
_0-0_
  6
CONTINUOUS
 62
    7
 10
777.55516464645791
 20
334.32553044617407
 11
777.70826803671343
 21
334.10823299157573
  0
LINE
  8
_0-0_
  6
CONTINUOUS
 62
    7
 10
777.70826803671343
 20
334.10823299157573
 11
777.84054936589416
 21
333.86138658265804
  0
LINE
  8
_0-0_
  6
CONTINUOUS
 62
    7
 10
781.11722438031632
 20
331.56708853585377
 11
780.71565605958904
 21
330.99367259552116
  0
LINE
  8
_0-0_
  6
CONTINUOUS
 62
    7
 10
780.71565605958904
 20
330.99367259552116
 11
780.63875441385505
 21
330.85701688376167
  0
LINE
  8
_0-0_
  6
CONTINUOUS
 62
    7
 10
780.63875441385505
 20
330.85701688376167
 11
780.58993630427653
 21
330.70795979739154
  0
LINE
  8
_0-0_
  6
CONTINUOUS
 62
    7
 10
780.58993630427653
 20
330.70795979739154
 11
780.57121394683941
 21
330.55225364950167
  0
LINE
  8
_0-0_
  6
CONTINUOUS
 62
    7
 10
780.57121394683941
 20
330.55225364950167
 11
780.58311226745354
 21
330.39589134422505
  0
LINE
  8
_0-0_
  6
CONTINUOUS
 62
    7
 10
780.58311226745354
 20
330.39589134422505
 11
780.62536880316418
 21
330.24486578569446
  0
LINE
  8
_0-0_
  6
CONTINUOUS
 62
    7
 10
780.62536880316418
 20
330.24486578569446
 11
780.69632128859109
 21
330.10497303082673
  0
LINE
  8
_0-0_
  6
CONTINUOUS
 62
    7
 10
780.69632128859109
 20
330.10497303082673
 11
780.79308263123266
 21
329.9815935701937
  0
LINE
  8
_0-0_
  6
CONTINUOUS
 62
    7
 10
780.79308263123266
 20
329.9815935701937
 11
780.91215332502554
 21
329.87949548080621
  0
LINE
  8
_0-0_
  6
CONTINUOUS
 62
    7
 10
780.91215332502554
 20
329.87949548080621
 11
781.23979458017232
 21
329.65005911455188
  0
LINE
  8
_0-0_
  6
CONTINUOUS
 62
    7
 10
781.23979458017232
 20
329.65005911455188
 11
781.40365895157151
 21
329.53534093142474
  0
LINE
  8
_0-0_
  6
CONTINUOUS
 62
    7
 10
781.40365895157151
 20
329.53534093142474
 11
781.50610699156528
 21
329.47764282521132
  0
LINE
  8
_0-0_
  6
CONTINUOUS
 62
    7
 10
781.50610699156528
 20
329.47764282521132
 11
781.6179162102776
 21
329.44105111494025
  0
LINE
  8
_0-0_
  6
CONTINUOUS
 62
    7
 10
781.6179162102776
 20
329.44105111494025
 11
781.73471222512967
 21
329.42698747494967
  0
LINE
  8
_0-0_
  6
CONTINUOUS
 62
    7
 10
781.73471222512967
 20
329.42698747494967
 11
781.85194567823953
 21
329.43595495923603
  0
LINE
  8
_0-0_
  6
CONTINUOUS
 62
    7
 10
781.85194567823953
 20
329.43595495923603
 11
781.96524218702859
 21
329.46762548910607
  0
LINE
  8
_0-0_
  6
CONTINUOUS
 62
    7
 10
781.96524218702859
 20
329.46762548910607
 11
782.07013988126664
 21
329.52079610935044
  0
LINE
  8
_0-0_
  6
CONTINUOUS
 62
    7
 10
782.07013988126664
 20
329.52079610935044
 11
782.16270181663253
 21
329.59341086015735
  0
LINE
  8
_0-0_
  6
CONTINUOUS
 62
    7
 10
782.16270181663253
 20
329.59341086015735
 11
782.23925351176024
 21
329.68269200858919
  0
LINE
  8
_0-0_
  6
CONTINUOUS
 62
    7
 10
782.23925351176024
 20
329.68269200858919
 11
782.75551814370169
 21
330.41992857649518
  0
LINE
  8
_0-0_
  6
CONTINUOUS
 62
    7
 10
781.11722438031632
 20
331.56708853585377
 11
781.39438526050458
 21
331.52715042290998
  0
LINE
  8
_0-0_
  6
CONTINUOUS
 62
    7
 10
781.39438526050458
 20
331.52715042290998
 11
781.65089905492118
 21
331.45764148373405
  0
LINE
  8
_0-0_
  6
CONTINUOUS
 62
    7
 10
781.65089905492118
 20
331.45764148373405
 11
781.88676576356625
 21
331.35858359023871
  0
LINE
  8
_0-0_
  6
CONTINUOUS
 62
    7
 10
781.88676576356625
 20
331.35858359023871
 11
782.10189789878814
 21
331.22997674242407
  0
LINE
  8
_0-0_
  6
CONTINUOUS
 62
    7
 10
782.10189789878814
 20
331.22997674242407
 11
782.29638294823849
 21
331.07179906837729
  0
LINE
  8
_0-0_
  6
CONTINUOUS
 62
    7
 10
782.29638294823849
 20
331.07179906837729
 11
782.47013342426544
 21
330.8840724400111
  0
LINE
  8
_0-0_
  6
CONTINUOUS
 62
    7
 10
782.47013342426544
 20
330.8840724400111
 11
782.62314932686934
 21
330.66677498541281
  0
LINE
  8
_0-0_
  6
CONTINUOUS
 62
    7
 10
782.62314932686934
 20
330.66677498541281
 11
782.75551814370169
 21
330.41992857649518
  0
LINE
  8
_0-0_
  6
CONTINUOUS
 62
    7
 10
786.03210567047222
 20
328.12563052969091
 11
785.63062483739668
 21
327.5522145893583
  0
LINE
  8
_0-0_
  6
CONTINUOUS
 62
    7
 10
785.63062483739668
 20
327.5522145893583
 11
785.55363570401096
 21
327.41555887759881
  0
LINE
  8
_0-0_
  6
CONTINUOUS
 62
    7
 10
785.55363570401096
 20
327.41555887759881
 11
785.50490508208395
 21
327.26650179122862
  0
LINE
  8
_0-0_
  6
CONTINUOUS
 62
    7
 10
785.50490508208395
 20
327.26650179122862
 11
785.48609523699542
 21
327.1107956433388
  0
LINE
  8
_0-0_
  6
CONTINUOUS
 62
    7
 10
785.48609523699542
 20
327.1107956433388
 11
785.49808104526119
 21
326.95443333806219
  0
LINE
  8
_0-0_
  6
CONTINUOUS
 62
    7
 10
785.49808104526119
 20
326.95443333806219
 11
785.5403375809716
 21
326.80340777953154
  0
LINE
  8
_0-0_
  6
CONTINUOUS
 62
    7
 10
785.5403375809716
 20
326.80340777953154
 11
785.611202578747
 21
326.66351502466387
  0
LINE
  8
_0-0_
  6
CONTINUOUS
 62
    7
 10
785.611202578747
 20
326.66351502466387
 11
785.70805140904008
 21
326.54013556403078
  0
LINE
  8
_0-0_
  6
CONTINUOUS
 62
    7
 10
785.70805140904008
 20
326.54013556403078
 11
785.82703461518145
 21
326.43803747464335
  0
LINE
  8
_0-0_
  6
CONTINUOUS
 62
    7
 10
785.82703461518145
 20
326.43803747464335
 11
786.15467587032822
 21
326.20860110838896
  0
LINE
  8
_0-0_
  6
CONTINUOUS
 62
    7
 10
786.15467587032822
 20
326.20860110838896
 11
786.31854024172742
 21
326.09388292526182
  0
LINE
  8
_0-0_
  6
CONTINUOUS
 62
    7
 10
786.31854024172742
 20
326.09388292526182
 11
786.42107576937281
 21
326.0361848190484
  0
LINE
  8
_0-0_
  6
CONTINUOUS
 62
    7
 10
786.42107576937281
 20
326.0361848190484
 11
786.5327975004335
 21
325.99959310877739
  0
LINE
  8
_0-0_
  6
CONTINUOUS
 62
    7
 10
786.5327975004335
 20
325.99959310877739
 11
786.64959351528569
 21
325.98552946878675
  0
LINE
  8
_0-0_
  6
CONTINUOUS
 62
    7
 10
786.64959351528569
 20
325.98552946878675
 11
786.76691445604706
 21
325.99449695307317
  0
LINE
  8
_0-0_
  6
CONTINUOUS
 62
    7
 10
786.76691445604706
 20
325.99449695307317
 11
786.8801234771845
 21
326.02616748294309
  0
LINE
  8
_0-0_
  6
CONTINUOUS
 62
    7
 10
786.8801234771845
 20
326.02616748294309
 11
786.98510865907406
 21
326.07933810318752
  0
LINE
  8
_0-0_
  6
CONTINUOUS
 62
    7
 10
786.98510865907406
 20
326.07933810318752
 11
787.07758310678844
 21
326.15195285399443
  0
LINE
  8
_0-0_
  6
CONTINUOUS
 62
    7
 10
787.07758310678844
 20
326.15195285399443
 11
787.15422228956766
 21
326.24123400242632
  0
LINE
  8
_0-0_
  6
CONTINUOUS
 62
    7
 10
787.15422228956766
 20
326.24123400242632
 11
787.67039943385771
 21
326.97847057033232
  0
LINE
  8
_0-0_
  6
CONTINUOUS
 62
    7
 10
786.03210567047222
 20
328.12563052969091
 11
786.30935403831222
 21
328.08567054483422
  0
LINE
  8
_0-0_
  6
CONTINUOUS
 62
    7
 10
786.30935403831222
 20
328.08567054483422
 11
786.56586783272871
 21
328.01618347757108
  0
LINE
  8
_0-0_
  6
CONTINUOUS
 62
    7
 10
786.56586783272871
 20
328.01618347757108
 11
786.80164705372226
 21
327.91712558407585
  0
LINE
  8
_0-0_
  6
CONTINUOUS
 62
    7
 10
786.80164705372226
 20
327.91712558407585
 11
787.01686667659555
 21
327.78851873626115
  0
LINE
  8
_0-0_
  6
CONTINUOUS
 62
    7
 10
787.01686667659555
 20
327.78851873626115
 11
787.21126423839439
 21
327.63034106221437
  0
LINE
  8
_0-0_
  6
CONTINUOUS
 62
    7
 10
787.21126423839439
 20
327.63034106221437
 11
787.38501471442135
 21
327.44261443384823
  0
LINE
  8
_0-0_
  6
CONTINUOUS
 62
    7
 10
787.38501471442135
 20
327.44261443384823
 11
787.53803061702524
 21
327.2253169792499
  0
LINE
  8
_0-0_
  6
CONTINUOUS
 62
    7
 10
787.53803061702524
 20
327.2253169792499
 11
787.67039943385771
 21
326.97847057033232
  0
LINE
  8
_0-0_
  6
CONTINUOUS
 62
    7
 10
790.94698696062824
 20
324.68417252352799
 11
790.5455061275527
 21
324.11075658319538
  0
LINE
  8
_0-0_
  6
CONTINUOUS
 62
    7
 10
790.5455061275527
 20
324.11075658319538
 11
790.4686044818186
 21
323.97410087143589
  0
LINE
  8
_0-0_
  6
CONTINUOUS
 62
    7
 10
790.4686044818186
 20
323.97410087143589
 11
790.41978637223997
 21
323.82504378506576
  0
LINE
  8
_0-0_
  6
CONTINUOUS
 62
    7
 10
790.41978637223997
 20
323.82504378506576
 11
790.40097652715144
 21
323.66933763717589
  0
LINE
  8
_0-0_
  6
CONTINUOUS
 62
    7
 10
790.40097652715144
 20
323.66933763717589
 11
790.41296233541721
 21
323.51297533189927
  0
LINE
  8
_0-0_
  6
CONTINUOUS
 62
    7
 10
790.41296233541721
 20
323.51297533189927
 11
790.45521887112773
 21
323.36194977336868
  0
LINE
  8
_0-0_
  6
CONTINUOUS
 62
    7
 10
790.45521887112773
 20
323.36194977336868
 11
790.52608386890302
 21
323.22205701850095
  0
LINE
  8
_0-0_
  6
CONTINUOUS
 62
    7
 10
790.52608386890302
 20
323.22205701850095
 11
790.6229326991961
 21
323.09867755786792
  0
LINE
  8
_0-0_
  6
CONTINUOUS
 62
    7
 10
790.6229326991961
 20
323.09867755786792
 11
790.74200339298909
 21
322.99657946848038
  0
LINE
  8
_0-0_
  6
CONTINUOUS
 62
    7
 10
790.74200339298909
 20
322.99657946848038
 11
791.06964464813586
 21
322.7671431022261
  0
LINE
  8
_0-0_
  6
CONTINUOUS
 62
    7
 10
791.06964464813586
 20
322.7671431022261
 11
791.23342153188344
 21
322.65242491909896
  0
LINE
  8
_0-0_
  6
CONTINUOUS
 62
    7
 10
791.23342153188344
 20
322.65242491909896
 11
791.33595705952882
 21
322.59472681288548
  0
LINE
  8
_0-0_
  6
CONTINUOUS
 62
    7
 10
791.33595705952882
 20
322.59472681288548
 11
791.44776627824115
 21
322.55813510261447
  0
LINE
  8
_0-0_
  6
CONTINUOUS
 62
    7
 10
791.44776627824115
 20
322.55813510261447
 11
791.56447480544159
 21
322.54407146262389
  0
LINE
  8
_0-0_
  6
CONTINUOUS
 62
    7
 10
791.56447480544159
 20
322.54407146262389
 11
791.68179574620308
 21
322.55303894691025
  0
LINE
  8
_0-0_
  6
CONTINUOUS
 62
    7
 10
791.68179574620308
 20
322.55303894691025
 11
791.79509225499214
 21
322.58470947678018
  0
LINE
  8
_0-0_
  6
CONTINUOUS
 62
    7
 10
791.79509225499214
 20
322.58470947678018
 11
791.89998994923008
 21
322.63788009702466
  0
LINE
  8
_0-0_
  6
CONTINUOUS
 62
    7
 10
791.89998994923008
 20
322.63788009702466
 11
791.99255188459585
 21
322.71049484783157
  0
LINE
  8
_0-0_
  6
CONTINUOUS
 62
    7
 10
791.99255188459585
 20
322.71049484783157
 11
792.06910357972356
 21
322.79977599626341
  0
LINE
  8
_0-0_
  6
CONTINUOUS
 62
    7
 10
792.06910357972356
 20
322.79977599626341
 11
792.58528072401361
 21
323.5370125641694
  0
LINE
  8
_0-0_
  6
CONTINUOUS
 62
    7
 10
790.94698696062824
 20
324.68417252352799
 11
791.22423532846813
 21
324.6442125386713
  0
LINE
  8
_0-0_
  6
CONTINUOUS
 62
    7
 10
791.22423532846813
 20
324.6442125386713
 11
791.48074912288462
 21
324.57472547140816
  0
LINE
  8
_0-0_
  6
CONTINUOUS
 62
    7
 10
791.48074912288462
 20
324.57472547140816
 11
791.71661583152968
 21
324.47566757791287
  0
LINE
  8
_0-0_
  6
CONTINUOUS
 62
    7
 10
791.71661583152968
 20
324.47566757791287
 11
791.93174796675157
 21
324.34706073009829
  0
LINE
  8
_0-0_
  6
CONTINUOUS
 62
    7
 10
791.93174796675157
 20
324.34706073009829
 11
792.1261455285503
 21
324.18888305605145
  0
LINE
  8
_0-0_
  6
CONTINUOUS
 62
    7
 10
792.1261455285503
 20
324.18888305605145
 11
792.29989600457748
 21
324.00115642768532
  0
LINE
  8
_0-0_
  6
CONTINUOUS
 62
    7
 10
792.29989600457748
 20
324.00115642768532
 11
792.45299939483289
 21
323.78385897308704
  0
LINE
  8
_0-0_
  6
CONTINUOUS
 62
    7
 10
792.45299939483289
 20
323.78385897308704
 11
792.58528072401361
 21
323.5370125641694
  0
LINE
  8
_0-0_
  6
CONTINUOUS
 62
    7
 10
795.86195573843588
 20
321.24269264545217
 11
795.4603874177086
 21
320.66929857703252
  0
LINE
  8
_0-0_
  6
CONTINUOUS
 62
    7
 10
795.4603874177086
 20
320.66929857703252
 11
795.38348577197451
 21
320.53264286527303
  0
LINE
  8
_0-0_
  6
CONTINUOUS
 62
    7
 10
795.38348577197451
 20
320.53264286527303
 11
795.33466766239587
 21
320.38358577890284
  0
LINE
  8
_0-0_
  6
CONTINUOUS
 62
    7
 10
795.33466766239587
 20
320.38358577890284
 11
795.31594530495897
 21
320.22787963101302
  0
LINE
  8
_0-0_
  6
CONTINUOUS
 62
    7
 10
795.31594530495897
 20
320.22787963101302
 11
795.32793111322462
 21
320.07151732573641
  0
LINE
  8
_0-0_
  6
CONTINUOUS
 62
    7
 10
795.32793111322462
 20
320.07151732573641
 11
795.37010016128363
 21
319.92049176720576
  0
LINE
  8
_0-0_
  6
CONTINUOUS
 62
    7
 10
795.37010016128363
 20
319.92049176720576
 11
795.44105264671066
 21
319.78059901233803
  0
LINE
  8
_0-0_
  6
CONTINUOUS
 62
    7
 10
795.44105264671066
 20
319.78059901233803
 11
795.537813989352
 21
319.657219551705
  0
LINE
  8
_0-0_
  6
CONTINUOUS
 62
    7
 10
795.537813989352
 20
319.657219551705
 11
795.65688468314511
 21
319.55512146231746
  0
LINE
  8
_0-0_
  6
CONTINUOUS
 62
    7
 10
795.65688468314511
 20
319.55512146231746
 11
795.98452593829177
 21
319.32568509606318
  0
LINE
  8
_0-0_
  6
CONTINUOUS
 62
    7
 10
795.98452593829177
 20
319.32568509606318
 11
796.14839030969097
 21
319.21096691293604
  0
LINE
  8
_0-0_
  6
CONTINUOUS
 62
    7
 10
796.14839030969097
 20
319.21096691293604
 11
796.25083834968473
 21
319.15326880672262
  0
LINE
  8
_0-0_
  6
CONTINUOUS
 62
    7
 10
796.25083834968473
 20
319.15326880672262
 11
796.36264756839705
 21
319.11667709645155
  0
LINE
  8
_0-0_
  6
CONTINUOUS
 62
    7
 10
796.36264756839705
 20
319.11667709645155
 11
796.47944358324912
 21
319.10259158454801
  0
LINE
  8
_0-0_
  6
CONTINUOUS
 62
    7
 10
796.47944358324912
 20
319.10259158454801
 11
796.5966770363591
 21
319.11158094074733
  0
LINE
  8
_0-0_
  6
CONTINUOUS
 62
    7
 10
796.5966770363591
 20
319.11158094074733
 11
796.70997354514816
 21
319.14325147061732
  0
LINE
  8
_0-0_
  6
CONTINUOUS
 62
    7
 10
796.70997354514816
 20
319.14325147061732
 11
796.81487123938598
 21
319.1964220908618
  0
LINE
  8
_0-0_
  6
CONTINUOUS
 62
    7
 10
796.81487123938598
 20
319.1964220908618
 11
796.90743317475176
 21
319.26903684166865
  0
LINE
  8
_0-0_
  6
CONTINUOUS
 62
    7
 10
796.90743317475176
 20
319.26903684166865
 11
796.98398486987958
 21
319.35831799010049
  0
LINE
  8
_0-0_
  6
CONTINUOUS
 62
    7
 10
796.98398486987958
 20
319.35831799010049
 11
797.50024950182114
 21
320.09555455800643
  0
LINE
  8
_0-0_
  6
CONTINUOUS
 62
    7
 10
795.86195573843588
 20
321.24269264545217
 11
796.13911661862403
 21
321.20275453250838
  0
LINE
  8
_0-0_
  6
CONTINUOUS
 62
    7
 10
796.13911661862403
 20
321.20275453250838
 11
796.39571790069226
 21
321.1332674652453
  0
LINE
  8
_0-0_
  6
CONTINUOUS
 62
    7
 10
796.39571790069226
 20
321.1332674652453
 11
796.63149712168558
 21
321.03420957174995
  0
LINE
  8
_0-0_
  6
CONTINUOUS
 62
    7
 10
796.63149712168558
 20
321.03420957174995
 11
796.84662925690759
 21
320.90560272393537
  0
LINE
  8
_0-0_
  6
CONTINUOUS
 62
    7
 10
796.84662925690759
 20
320.90560272393537
 11
797.04111430635771
 21
320.74742504988853
  0
LINE
  8
_0-0_
  6
CONTINUOUS
 62
    7
 10
797.04111430635771
 20
320.74742504988853
 11
797.21486478238489
 21
320.55969842152246
  0
LINE
  8
_0-0_
  6
CONTINUOUS
 62
    7
 10
797.21486478238489
 20
320.55969842152246
 11
797.36788068498879
 21
320.34240096692406
  0
LINE
  8
_0-0_
  6
CONTINUOUS
 62
    7
 10
797.36788068498879
 20
320.34240096692406
 11
797.50024950182114
 21
320.09555455800643
  0
LINE
  8
_0-0_
  6
CONTINUOUS
 62
    7
 10
800.77683702859179
 20
317.80123463928925
 11
800.37535619551602
 21
317.2278405708696
  0
LINE
  8
_0-0_
  6
CONTINUOUS
 62
    7
 10
800.37535619551602
 20
317.2278405708696
 11
800.29836706213041
 21
317.09118485911011
  0
LINE
  8
_0-0_
  6
CONTINUOUS
 62
    7
 10
800.29836706213041
 20
317.09118485911011
 11
800.2496364402034
 21
316.94212777273992
  0
LINE
  8
_0-0_
  6
CONTINUOUS
 62
    7
 10
800.2496364402034
 20
316.94212777273992
 11
800.23082659511488
 21
316.78642162485011
  0
LINE
  8
_0-0_
  6
CONTINUOUS
 62
    7
 10
800.23082659511488
 20
316.78642162485011
 11
800.24281240338053
 21
316.63005931957349
  0
LINE
  8
_0-0_
  6
CONTINUOUS
 62
    7
 10
800.24281240338053
 20
316.63005931957349
 11
800.28506893909116
 21
316.47903376104284
  0
LINE
  8
_0-0_
  6
CONTINUOUS
 62
    7
 10
800.28506893909116
 20
316.47903376104284
 11
800.35593393686656
 21
316.33914100617511
  0
LINE
  8
_0-0_
  6
CONTINUOUS
 62
    7
 10
800.35593393686656
 20
316.33914100617511
 11
800.45278276715965
 21
316.21576154554214
  0
LINE
  8
_0-0_
  6
CONTINUOUS
 62
    7
 10
800.45278276715965
 20
316.21576154554214
 11
800.57176597330101
 21
316.1136634561546
  0
LINE
  8
_0-0_
  6
CONTINUOUS
 62
    7
 10
800.57176597330101
 20
316.1136634561546
 11
800.89940722844767
 21
315.88422708990026
  0
LINE
  8
_0-0_
  6
CONTINUOUS
 62
    7
 10
800.89940722844767
 20
315.88422708990026
 11
801.06327159984687
 21
315.76950890677313
  0
LINE
  8
_0-0_
  6
CONTINUOUS
 62
    7
 10
801.06327159984687
 20
315.76950890677313
 11
801.16580712749226
 21
315.7118108005597
  0
LINE
  8
_0-0_
  6
CONTINUOUS
 62
    7
 10
801.16580712749226
 20
315.7118108005597
 11
801.27752885855307
 21
315.67521909028864
  0
LINE
  8
_0-0_
  6
CONTINUOUS
 62
    7
 10
801.27752885855307
 20
315.67521909028864
 11
801.39432487340503
 21
315.66113357838515
  0
LINE
  8
_0-0_
  6
CONTINUOUS
 62
    7
 10
801.39432487340503
 20
315.66113357838515
 11
801.51164581416651
 21
315.67012293458441
  0
LINE
  8
_0-0_
  6
CONTINUOUS
 62
    7
 10
801.51164581416651
 20
315.67012293458441
 11
801.62485483530406
 21
315.70179346445445
  0
LINE
  8
_0-0_
  6
CONTINUOUS
 62
    7
 10
801.62485483530406
 20
315.70179346445445
 11
801.7298400171934
 21
315.75496408469888
  0
LINE
  8
_0-0_
  6
CONTINUOUS
 62
    7
 10
801.7298400171934
 20
315.75496408469888
 11
801.82231446490778
 21
315.82757883550573
  0
LINE
  8
_0-0_
  6
CONTINUOUS
 62
    7
 10
801.82231446490778
 20
315.82757883550573
 11
801.89895364768722
 21
315.91685998393763
  0
LINE
  8
_0-0_
  6
CONTINUOUS
 62
    7
 10
801.89895364768722
 20
315.91685998393763
 11
802.41513079197705
 21
316.65409655184357
  0
LINE
  8
_0-0_
  6
CONTINUOUS
 62
    7
 10
800.77683702859179
 20
317.80123463928925
 11
801.05408539643145
 21
317.76129652634546
  0
LINE
  8
_0-0_
  6
CONTINUOUS
 62
    7
 10
801.05408539643145
 20
317.76129652634546
 11
801.31059919084817
 21
317.69180945908238
  0
LINE
  8
_0-0_
  6
CONTINUOUS
 62
    7
 10
801.31059919084817
 20
317.69180945908238
 11
801.54646589949323
 21
317.59275156558709
  0
LINE
  8
_0-0_
  6
CONTINUOUS
 62
    7
 10
801.54646589949323
 20
317.59275156558709
 11
801.76159803471501
 21
317.46414471777246
  0
LINE
  8
_0-0_
  6
CONTINUOUS
 62
    7
 10
801.76159803471501
 20
317.46414471777246
 11
801.95599559651373
 21
317.30596704372567
  0
LINE
  8
_0-0_
  6
CONTINUOUS
 62
    7
 10
801.95599559651373
 20
317.30596704372567
 11
802.1297460725408
 21
317.11824041535954
  0
LINE
  8
_0-0_
  6
CONTINUOUS
 62
    7
 10
802.1297460725408
 20
317.11824041535954
 11
802.28276197514469
 21
316.9009429607612
  0
LINE
  8
_0-0_
  6
CONTINUOUS
 62
    7
 10
802.28276197514469
 20
316.9009429607612
 11
802.41513079197705
 21
316.65409655184357
  0
LINE
  8
_0-0_
  6
CONTINUOUS
 62
    7
 10
937.50595092773437
 20
237.84917882970859
 11
937.50595092773437
 21
238.55183590332973
  0
LINE
  8
_0-0_
  6
CONTINUOUS
 62
    7
 10
937.50595092773437
 20
238.55183590332973
 11
937.29020637895144
 21
242.14296340942383
  0
LINE
  8
_0-0_
  6
CONTINUOUS
 62
    7
 10
937.29020637895144
 20
242.14296340942383
 11
936.64620977571099
 21
245.68242945726311
  0
LINE
  8
_0-0_
  6
CONTINUOUS
 62
    7
 10
936.64620977571099
 20
245.68242945726311
 11
935.58314732142844
 21
249.11933810554416
  0
LINE
  8
_0-0_
  6
CONTINUOUS
 62
    7
 10
935.58314732142844
 20
249.11933810554416
 11
934.1162418674777
 21
252.40430257495305
  0
LINE
  8
_0-0_
  6
CONTINUOUS
 62
    7
 10
934.1162418674777
 20
252.40430257495305
 11
932.26675291319134
 21
255.49005766172667
  0
LINE
  8
_0-0_
  6
CONTINUOUS
 62
    7
 10
932.26675291319134
 20
255.49005766172667
 11
930.06110172934518
 21
258.33222525460377
  0
LINE
  8
_0-0_
  6
CONTINUOUS
 62
    7
 10
930.06110172934518
 20
258.33222525460377
 11
927.53122130876341
 21
260.88992674838619
  0
LINE
  8
_0-0_
  6
CONTINUOUS
 62
    7
 10
927.53122130876341
 20
260.88992674838619
 11
924.71324405154655
 21
263.12641732941262
  0
LINE
  8
_0-0_
  6
CONTINUOUS
 62
    7
 10
924.71324405154655
 20
263.12641732941262
 11
915.3888976343809
 21
269.65540204729348
  0
LINE
  8
_0-0_
  6
CONTINUOUS
 62
    7
 10
915.3888976343809
 20
269.65540204729348
 11
901.62306560972934
 21
249.99576752710524
  0
LINE
  8
_0-0_
  6
CONTINUOUS
 62
    7
 10
901.62306560972934
 20
249.99576752710524
 11
911.35860398929549
 21
243.23270959743661
  0
LINE
  8
_0-0_
  6
CONTINUOUS
 62
    7
 10
911.35860398929549
 20
243.23270959743661
 11
911.83138725840433
 21
242.86016530511921
  0
LINE
  8
_0-0_
  6
CONTINUOUS
 62
    7
 10
911.83138725840433
 20
242.86016530511921
 11
912.2559648314957
 21
242.43350990030294
  0
LINE
  8
_0-0_
  6
CONTINUOUS
 62
    7
 10
912.2559648314957
 20
242.43350990030294
 11
912.62621257295928
 21
241.95893313433672
  0
LINE
  8
_0-0_
  6
CONTINUOUS
 62
    7
 10
912.62621257295928
 20
241.95893313433672
 11
912.93670624839751
 21
241.4433027878691
  0
LINE
  8
_0-0_
  6
CONTINUOUS
 62
    7
 10
912.93670624839751
 20
241.4433027878691
 11
913.18298398757986
 21
240.89409905510979
  0
LINE
  8
_0-0_
  6
CONTINUOUS
 62
    7
 10
913.18298398757986
 20
240.89409905510979
 11
913.36154628444365
 21
240.31926144043911
  0
LINE
  8
_0-0_
  6
CONTINUOUS
 62
    7
 10
913.36154628444365
 20
240.31926144043911
 11
913.46968102178971
 21
239.72714501458245
  0
LINE
  8
_0-0_
  6
CONTINUOUS
 62
    7
 10
913.46968102178971
 20
239.72714501458245
 11
913.50598839719305
 21
239.12630169548123
  0
LINE
  8
_0-0_
  6
CONTINUOUS
 62
    7
 10
913.50598839719305
 20
239.12630169548123
 11
913.50598839719305
 21
237.82557903569636
  0
LINE
  8
_0-0_
  6
CONTINUOUS
 62
    7
 10
913.50598839719305
 20
237.82557903569636
 11
925.5106065079973
 21
237.82557903569636
  0
LINE
  8
_0-0_
  6
CONTINUOUS
 62
    7
 10
933.26061263507859
 20
221.82557485278508
 11
933.26061263507859
 21
219.34919313114122
  0
LINE
  8
_0-0_
  6
CONTINUOUS
 62
    7
 10
933.26061263507859
 20
219.34919313114122
 11
933.01057292687847
 21
216.34917594291068
  0
LINE
  8
_0-0_
  6
CONTINUOUS
 62
    7
 10
933.01057292687847
 20
216.34917594291068
 11
933.01057292687847
 21
209.34917958086518
  0
LINE
  8
_0-0_
  6
CONTINUOUS
 62
    7
 10
933.01057292687847
 20
209.34917958086518
 11
918.0106400891159
 21
209.34917958086518
  0
LINE
  8
_0-0_
  6
CONTINUOUS
 62
    7
 10
918.0106400891159
 20
209.34917958086518
 11
918.0106400891159
 21
216.34917594291068
  0
LINE
  8
_0-0_
  6
CONTINUOUS
 62
    7
 10
918.0106400891159
 20
216.34917594291068
 11
917.76060038091589
 21
219.34919313114122
  0
LINE
  8
_0-0_
  6
CONTINUOUS
 62
    7
 10
917.76060038091589
 20
219.34919313114122
 11
917.76060038091589
 21
225.34918376377649
  0
LINE
  8
_0-0_
  6
CONTINUOUS
 62
    7
 10
917.76060038091589
 20
225.34918376377649
 11
925.5106065079973
 21
225.34918376377649
  0
LINE
  8
_0-0_
  6
CONTINUOUS
 62
    7
 10
919.51061587536185
 20
209.34917958086518
 11
919.51061587536185
 21
153.97278785705566
  0
LINE
  8
_0-0_
  6
CONTINUOUS
 62
    7
 10
931.51059714063251
 20
209.34917958086518
 11
931.51059714063251
 21
153.97278785705566
  0
LINE
  8
_0-0_
  6
CONTINUOUS
 62
    7
 10
932.01058906938113
 20
187.3491847653186
 11
932.28136335100442
 21
189.83449022742306
  0
LINE
  8
_0-0_
  6
CONTINUOUS
 62
    7
 10
932.28136335100442
 20
189.83449022742306
 11
919.35777494806121
 21
191.24236338847396
  0
LINE
  8
_0-0_
  6
CONTINUOUS
 62
    7
 10
919.35777494806121
 20
191.24236338847396
 11
919.08708815408943
 21
188.75705792636944
  0
LINE
  8
_0-0_
  6
CONTINUOUS
 62
    7
 10
919.08708815408943
 20
188.75705792636944
 11
932.01058906938113
 21
187.3491847653186
  0
LINE
  8
_0-0_
  6
CONTINUOUS
 62
    7
 10
932.01058906938113
 20
191.84917773979507
 11
932.28136335100442
 21
194.33448320189953
  0
LINE
  8
_0-0_
  6
CONTINUOUS
 62
    7
 10
932.28136335100442
 20
194.33448320189953
 11
919.35777494806121
 21
195.74235636295037
  0
LINE
  8
_0-0_
  6
CONTINUOUS
 62
    7
 10
919.35777494806121
 20
195.74235636295037
 11
919.08708815408943
 21
193.25705090084591
  0
LINE
  8
_0-0_
  6
CONTINUOUS
 62
    7
 10
919.08708815408943
 20
193.25705090084591
 11
932.01058906938113
 21
191.84917773979507
  0
LINE
  8
_0-0_
  6
CONTINUOUS
 62
    7
 10
932.01058906938113
 20
196.34919258618447
 11
932.28136335100442
 21
198.834476176376
  0
LINE
  8
_0-0_
  6
CONTINUOUS
 62
    7
 10
932.28136335100442
 20
198.834476176376
 11
919.35777494806121
 21
200.24234933742684
  0
LINE
  8
_0-0_
  6
CONTINUOUS
 62
    7
 10
919.35777494806121
 20
200.24234933742684
 11
919.08708815408943
 21
197.75706574723529
  0
LINE
  8
_0-0_
  6
CONTINUOUS
 62
    7
 10
919.08708815408943
 20
197.75706574723529
 11
932.01058906938113
 21
196.34919258618447
  0
LINE
  8
_0-0_
  6
CONTINUOUS
 62
    7
 10
932.01058906938113
 20
200.84918556066094
 11
932.28136335100442
 21
203.33449102276541
  0
LINE
  8
_0-0_
  6
CONTINUOUS
 62
    7
 10
932.28136335100442
 20
203.33449102276541
 11
919.35777494806121
 21
204.74236418381622
  0
LINE
  8
_0-0_
  6
CONTINUOUS
 62
    7
 10
919.35777494806121
 20
204.74236418381622
 11
919.08708815408943
 21
202.25705872171176
  0
LINE
  8
_0-0_
  6
CONTINUOUS
 62
    7
 10
919.08708815408943
 20
202.25705872171176
 11
932.01058906938113
 21
200.84918556066094
  0
LINE
  8
_0-0_
  6
CONTINUOUS
 62
    7
 10
932.01058906938113
 20
205.34917853513741
 11
932.28136335100442
 21
207.83448399724188
  0
LINE
  8
_0-0_
  6
CONTINUOUS
 62
    7
 10
932.28136335100442
 20
207.83448399724188
 11
919.35777494806121
 21
209.24235715829266
  0
LINE
  8
_0-0_
  6
CONTINUOUS
 62
    7
 10
919.35777494806121
 20
209.24235715829266
 11
919.08708815408943
 21
206.7570516961882
  0
LINE
  8
_0-0_
  6
CONTINUOUS
 62
    7
 10
919.08708815408943
 20
206.7570516961882
 11
932.01058906938113
 21
205.34917853513741
  0
LINE
  8
_0-0_
  6
CONTINUOUS
 62
    7
 10
932.01058906938113
 20
182.84919179084213
 11
932.28136335100442
 21
185.33447538103374
  0
LINE
  8
_0-0_
  6
CONTINUOUS
 62
    7
 10
932.28136335100442
 20
185.33447538103374
 11
919.35777494806121
 21
186.74234854208459
  0
LINE
  8
_0-0_
  6
CONTINUOUS
 62
    7
 10
919.35777494806121
 20
186.74234854208459
 11
919.08708815408943
 21
184.25706495189297
  0
LINE
  8
_0-0_
  6
CONTINUOUS
 62
    7
 10
919.08708815408943
 20
184.25706495189297
 11
932.01058906938113
 21
182.84919179084213
  0
LINE
  8
_0-0_
  6
CONTINUOUS
 62
    7
 10
932.01058906938113
 20
178.34918788040923
 11
932.28136335100442
 21
180.83448240655727
  0
LINE
  8
_0-0_
  6
CONTINUOUS
 62
    7
 10
932.28136335100442
 20
180.83448240655727
 11
919.35777494806121
 21
182.24235556760812
  0
LINE
  8
_0-0_
  6
CONTINUOUS
 62
    7
 10
919.35777494806121
 20
182.24235556760812
 11
919.08708815408943
 21
179.75706104146008
  0
LINE
  8
_0-0_
  6
CONTINUOUS
 62
    7
 10
919.08708815408943
 20
179.75706104146008
 11
932.01058906938113
 21
178.34918788040923
  0
LINE
  8
_0-0_
  6
CONTINUOUS
 62
    7
 10
932.01058906938113
 20
173.84918396997634
 11
932.28136335100442
 21
176.33447849612438
  0
LINE
  8
_0-0_
  6
CONTINUOUS
 62
    7
 10
932.28136335100442
 20
176.33447849612438
 11
919.35777494806121
 21
177.74235165717513
  0
LINE
  8
_0-0_
  6
CONTINUOUS
 62
    7
 10
919.35777494806121
 20
177.74235165717513
 11
919.08708815408943
 21
175.25705713102718
  0
LINE
  8
_0-0_
  6
CONTINUOUS
 62
    7
 10
919.08708815408943
 20
175.25705713102718
 11
932.01058906938113
 21
173.84918396997634
  0
LINE
  8
_0-0_
  6
CONTINUOUS
 62
    7
 10
932.01058906938113
 20
169.34919099549987
 11
932.28136335100442
 21
171.83448552164791
  0
LINE
  8
_0-0_
  6
CONTINUOUS
 62
    7
 10
932.28136335100442
 20
171.83448552164791
 11
919.35777494806121
 21
173.24235868269867
  0
LINE
  8
_0-0_
  6
CONTINUOUS
 62
    7
 10
919.35777494806121
 20
173.24235868269867
 11
919.08708815408943
 21
170.7570532205942
  0
LINE
  8
_0-0_
  6
CONTINUOUS
 62
    7
 10
919.08708815408943
 20
170.7570532205942
 11
932.01058906938113
 21
169.34919099549987
  0
LINE
  8
_0-0_
  6
CONTINUOUS
 62
    7
 10
925.5106065079973
 20
237.84917882970859
 11
914.51060910022397
 21
237.84917882970859
  0
LINE
  8
_0-0_
  6
CONTINUOUS
 62
    7
 10
914.51060910022397
 20
237.84917882970859
 11
911.98562798813043
 21
231.59919223269898
  0
LINE
  8
_0-0_
  6
CONTINUOUS
 62
    7
 10
911.98562798813043
 20
231.59919223269898
 11
914.51060910022397
 21
225.34918376377649
  0
LINE
  8
_0-0_
  6
CONTINUOUS
 62
    7
 10
914.51060910022397
 20
225.34918376377649
 11
925.5106065079973
 21
225.34918376377649
  0
LINE
  8
_0-0_
  6
CONTINUOUS
 62
    7
 10
914.33055951328345
 20
237.40366983597801
 11
914.4281957324406
 21
237.4494914934902
  0
LINE
  8
_0-0_
  6
CONTINUOUS
 62
    7
 10
914.4281957324406
 20
237.4494914934902
 11
914.52670682811356
 21
237.48921088730503
  0
LINE
  8
_0-0_
  6
CONTINUOUS
 62
    7
 10
914.52670682811356
 20
237.48921088730503
 11
914.62600531265082
 21
237.52280614550969
  0
LINE
  8
_0-0_
  6
CONTINUOUS
 62
    7
 10
914.62600531265082
 20
237.52280614550969
 11
914.72626616135528
 21
237.55029914001699
  0
LINE
  8
_0-0_
  6
CONTINUOUS
 62
    7
 10
914.72626616135528
 20
237.55029914001699
 11
914.82731439892393
 21
237.57168987082696
  0
LINE
  8
_0-0_
  6
CONTINUOUS
 62
    7
 10
914.82731439892393
 20
237.57168987082696
 11
914.92923751300827
 21
237.58695646602675
  0
LINE
  8
_0-0_
  6
CONTINUOUS
 62
    7
 10
914.92923751300827
 20
237.58695646602675
 11
915.03194801595669
 21
237.59612079752915
  0
LINE
  8
_0-0_
  6
CONTINUOUS
 62
    7
 10
915.03194801595669
 20
237.59612079752915
 11
915.13562088307265
 21
237.59918286533428
  0
LINE
  8
_0-0_
  6
CONTINUOUS
 62
    7
 10
915.13562088307265
 20
237.59918286533428
 11
915.34489134563898
 21
237.58662838733332
  0
LINE
  8
_0-0_
  6
CONTINUOUS
 62
    7
 10
915.34489134563898
 20
237.58662838733332
 11
915.5505748144908
 21
237.54894308141758
  0
LINE
  8
_0-0_
  6
CONTINUOUS
 62
    7
 10
915.5505748144908
 20
237.54894308141758
 11
915.75275877727961
 21
237.48614881949993
  0
LINE
  8
_0-0_
  6
CONTINUOUS
 62
    7
 10
915.75275877727961
 20
237.48614881949993
 11
915.9513557463539
 21
237.39822372966751
  0
LINE
  8
_0-0_
  6
CONTINUOUS
 62
    7
 10
915.9513557463539
 20
237.39822372966751
 11
916.14645320936518
 21
237.28518968383315
  0
LINE
  8
_0-0_
  6
CONTINUOUS
 62
    7
 10
916.14645320936518
 20
237.28518968383315
 11
916.33805116631356
 21
237.14702481008402
  0
LINE
  8
_0-0_
  6
CONTINUOUS
 62
    7
 10
916.33805116631356
 20
237.14702481008402
 11
916.5260621295472
 21
236.98375098033299
  0
LINE
  8
_0-0_
  6
CONTINUOUS
 62
    7
 10
916.5260621295472
 20
236.98375098033299
 11
916.71057358671783
 21
236.79534632266717
  0
LINE
  8
_0-0_
  6
CONTINUOUS
 62
    7
 10
916.71057358671783
 20
236.79534632266717
 11
916.88852347002057
 21
236.58517911167218
  0
LINE
  8
_0-0_
  6
CONTINUOUS
 62
    7
 10
916.88852347002057
 20
236.58517911167218
 11
917.05676222399848
 21
236.3566394938465
  0
LINE
  8
_0-0_
  6
CONTINUOUS
 62
    7
 10
917.05676222399848
 20
236.3566394938465
 11
917.21537733630316
 21
236.1097055972773
  0
LINE
  8
_0-0_
  6
CONTINUOUS
 62
    7
 10
917.21537733630316
 20
236.1097055972773
 11
917.36436880693464
 21
235.84437742196454
  0
LINE
  8
_0-0_
  6
CONTINUOUS
 62
    7
 10
917.36436880693464
 20
235.84437742196454
 11
917.50364914824127
 21
235.56065496790822
  0
LINE
  8
_0-0_
  6
CONTINUOUS
 62
    7
 10
917.50364914824127
 20
235.56065496790822
 11
917.63330584787479
 21
235.25856010702125
  0
LINE
  8
_0-0_
  6
CONTINUOUS
 62
    7
 10
917.63330584787479
 20
235.25856010702125
 11
917.75325141818359
 21
234.93807096739073
  0
LINE
  8
_0-0_
  6
CONTINUOUS
 62
    7
 10
917.75325141818359
 20
234.93807096739073
 11
917.86357334681907
 21
234.59918754901665
  0
LINE
  8
_0-0_
  6
CONTINUOUS
 62
    7
 10
917.86357334681907
 20
234.59918754901665
 11
917.96252188075005
 21
234.2477496526416
  0
LINE
  8
_0-0_
  6
CONTINUOUS
 62
    7
 10
917.96252188075005
 20
234.2477496526416
 11
918.04825977929295
 21
233.88957520709533
  0
LINE
  8
_0-0_
  6
CONTINUOUS
 62
    7
 10
918.04825977929295
 20
233.88957520709533
 11
918.12078704244846
 21
233.52466421237781
  0
LINE
  8
_0-0_
  6
CONTINUOUS
 62
    7
 10
918.12078704244846
 20
233.52466421237781
 11
918.18010367021589
 21
233.15303854040195
  0
LINE
  8
_0-0_
  6
CONTINUOUS
 62
    7
 10
918.18010367021589
 20
233.15303854040195
 11
918.22629715024732
 21
232.77467631925487
  0
LINE
  8
_0-0_
  6
CONTINUOUS
 62
    7
 10
918.22629715024732
 20
232.77467631925487
 11
918.25919250723928
 21
232.3895775489365
  0
LINE
  8
_0-0_
  6
CONTINUOUS
 62
    7
 10
918.25919250723928
 20
232.3895775489365
 11
918.27905220414675
 21
231.99774222944694
  0
LINE
  8
_0-0_
  6
CONTINUOUS
 62
    7
 10
918.27905220414675
 20
231.99774222944694
 11
918.28561377801475
 21
231.59919223269898
  0
LINE
  8
_0-0_
  6
CONTINUOUS
 62
    7
 10
918.28561377801475
 20
231.59919223269898
 11
918.27905220414675
 21
231.20062036403817
  0
LINE
  8
_0-0_
  6
CONTINUOUS
 62
    7
 10
918.27905220414675
 20
231.20062036403817
 11
918.25919250723928
 21
230.80880691646146
  0
LINE
  8
_0-0_
  6
CONTINUOUS
 62
    7
 10
918.25919250723928
 20
230.80880691646146
 11
918.22629715024732
 21
230.42370814614313
  0
LINE
  8
_0-0_
  6
CONTINUOUS
 62
    7
 10
918.22629715024732
 20
230.42370814614313
 11
918.18010367021589
 21
230.04534592499601
  0
LINE
  8
_0-0_
  6
CONTINUOUS
 62
    7
 10
918.18010367021589
 20
230.04534592499601
 11
918.12078704244846
 21
229.67369838110727
  0
LINE
  8
_0-0_
  6
CONTINUOUS
 62
    7
 10
918.12078704244846
 20
229.67369838110727
 11
918.04825977929295
 21
229.30880925830266
  0
LINE
  8
_0-0_
  6
CONTINUOUS
 62
    7
 10
918.04825977929295
 20
229.30880925830266
 11
917.96252188075005
 21
228.95063481275639
  0
LINE
  8
_0-0_
  6
CONTINUOUS
 62
    7
 10
917.96252188075005
 20
228.95063481275639
 11
917.86357334681907
 21
228.59919691638137
  0
LINE
  8
_0-0_
  6
CONTINUOUS
 62
    7
 10
917.86357334681907
 20
228.59919691638137
 11
917.75325141818359
 21
228.26031349800726
  0
LINE
  8
_0-0_
  6
CONTINUOUS
 62
    7
 10
917.75325141818359
 20
228.26031349800726
 11
917.63330584787479
 21
227.93980248646386
  0
LINE
  8
_0-0_
  6
CONTINUOUS
 62
    7
 10
917.63330584787479
 20
227.93980248646386
 11
917.50364914824127
 21
227.63770762557687
  0
LINE
  8
_0-0_
  6
CONTINUOUS
 62
    7
 10
917.50364914824127
 20
227.63770762557687
 11
917.36436880693464
 21
227.35398517152055
  0
LINE
  8
_0-0_
  6
CONTINUOUS
 62
    7
 10
917.36436880693464
 20
227.35398517152055
 11
917.21537733630316
 21
227.0886788681207
  0
LINE
  8
_0-0_
  6
CONTINUOUS
 62
    7
 10
917.21537733630316
 20
227.0886788681207
 11
917.05676222399848
 21
226.84174497155146
  0
LINE
  8
_0-0_
  6
CONTINUOUS
 62
    7
 10
917.05676222399848
 20
226.84174497155146
 11
916.88852347002057
 21
226.61318348181294
  0
LINE
  8
_0-0_
  6
CONTINUOUS
 62
    7
 10
916.88852347002057
 20
226.61318348181294
 11
916.71057358671783
 21
226.40303814273082
  0
LINE
  8
_0-0_
  6
CONTINUOUS
 62
    7
 10
916.71057358671783
 20
226.40303814273082
 11
916.5260621295472
 21
226.21463348506498
  0
LINE
  8
_0-0_
  6
CONTINUOUS
 62
    7
 10
916.5260621295472
 20
226.21463348506498
 11
916.33805116631356
 21
226.05135965531395
  0
LINE
  8
_0-0_
  6
CONTINUOUS
 62
    7
 10
916.33805116631356
 20
226.05135965531395
 11
916.14645320936518
 21
225.91319478156481
  0
LINE
  8
_0-0_
  6
CONTINUOUS
 62
    7
 10
916.14645320936518
 20
225.91319478156481
 11
915.9513557463539
 21
225.80013886381761
  0
LINE
  8
_0-0_
  6
CONTINUOUS
 62
    7
 10
915.9513557463539
 20
225.80013886381761
 11
915.75275877727961
 21
225.71223564589803
  0
LINE
  8
_0-0_
  6
CONTINUOUS
 62
    7
 10
915.75275877727961
 20
225.71223564589803
 11
915.5505748144908
 21
225.64941951206751
  0
LINE
  8
_0-0_
  6
CONTINUOUS
 62
    7
 10
915.5505748144908
 20
225.64941951206751
 11
915.34489134563898
 21
225.61175607806464
  0
LINE
  8
_0-0_
  6
CONTINUOUS
 62
    7
 10
915.34489134563898
 20
225.61175607806464
 11
915.13562088307265
 21
225.59917972815083
  0
LINE
  8
_0-0_
  6
CONTINUOUS
 62
    7
 10
915.13562088307265
 20
225.59917972815083
 11
915.03194801595669
 21
225.60224179595593
  0
LINE
  8
_0-0_
  6
CONTINUOUS
 62
    7
 10
915.03194801595669
 20
225.60224179595593
 11
914.92923751300827
 21
225.61140612745834
  0
LINE
  8
_0-0_
  6
CONTINUOUS
 62
    7
 10
914.92923751300827
 20
225.61140612745834
 11
914.82731439892393
 21
225.62667272265813
  0
LINE
  8
_0-0_
  6
CONTINUOUS
 62
    7
 10
914.82731439892393
 20
225.62667272265813
 11
914.72626616135528
 21
225.6480634534681
  0
LINE
  8
_0-0_
  6
CONTINUOUS
 62
    7
 10
914.72626616135528
 20
225.6480634534681
 11
914.62600531265082
 21
225.6755564479754
  0
LINE
  8
_0-0_
  6
CONTINUOUS
 62
    7
 10
914.62600531265082
 20
225.6755564479754
 11
914.52670682811356
 21
225.70917357809293
  0
LINE
  8
_0-0_
  6
CONTINUOUS
 62
    7
 10
914.52670682811356
 20
225.70917357809293
 11
914.4281957324406
 21
225.74887109999491
  0
LINE
  8
_0-0_
  6
CONTINUOUS
 62
    7
 10
914.4281957324406
 20
225.74887109999491
 11
914.33055951328345
 21
225.79469275750708
  0
LINE
  8
_0-0_
  6
CONTINUOUS
 62
    7
 10
911.98562798813043
 20
231.60879400245932
 11
911.98562798813043
 21
231.60759104725017
  0
LINE
  8
_0-0_
  6
CONTINUOUS
 62
    7
 10
911.98562798813043
 20
231.60759104725017
 11
911.98562798813043
 21
231.60638809204102
  0
LINE
  8
_0-0_
  6
CONTINUOUS
 62
    7
 10
911.98562798813043
 20
231.60638809204102
 11
911.98562798813043
 21
231.60518513683186
  0
LINE
  8
_0-0_
  6
CONTINUOUS
 62
    7
 10
911.98562798813043
 20
231.60518513683186
 11
911.98562798813043
 21
231.60398218162271
  0
LINE
  8
_0-0_
  6
CONTINUOUS
 62
    7
 10
911.98562798813043
 20
231.60398218162271
 11
911.98562798813043
 21
231.60277922641356
  0
LINE
  8
_0-0_
  6
CONTINUOUS
 62
    7
 10
911.98562798813043
 20
231.60277922641356
 11
911.98562798813043
 21
231.60157627120441
  0
LINE
  8
_0-0_
  6
CONTINUOUS
 62
    7
 10
911.98562798813043
 20
231.60157627120441
 11
911.98562798813043
 21
231.60039518790813
  0
LINE
  8
_0-0_
  6
CONTINUOUS
 62
    7
 10
911.98562798813043
 20
231.60039518790813
 11
911.98562798813043
 21
231.59919223269898
  0
LINE
  8
_0-0_
  6
CONTINUOUS
 62
    7
 10
911.98562798813043
 20
231.59919223269898
 11
911.98562798813043
 21
231.59855794722506
  0
LINE
  8
_0-0_
  6
CONTINUOUS
 62
    7
 10
911.98562798813043
 20
231.59855794722506
 11
911.98562798813043
 21
231.59790178983826
  0
LINE
  8
_0-0_
  6
CONTINUOUS
 62
    7
 10
911.98562798813043
 20
231.59790178983826
 11
911.98562798813043
 21
231.59726750436434
  0
LINE
  8
_0-0_
  6
CONTINUOUS
 62
    7
 10
911.98562798813043
 20
231.59726750436434
 11
911.98562798813043
 21
231.59663321889045
  0
LINE
  8
_0-0_
  6
CONTINUOUS
 62
    7
 10
911.98562798813043
 20
231.59663321889045
 11
911.98562798813043
 21
231.59599893341652
  0
LINE
  8
_0-0_
  6
CONTINUOUS
 62
    7
 10
911.98562798813043
 20
231.59599893341652
 11
911.98562798813043
 21
231.59534277602972
  0
LINE
  8
_0-0_
  6
CONTINUOUS
 62
    7
 10
911.98562798813043
 20
231.59534277602972
 11
911.98562798813043
 21
231.5947084905558
  0
LINE
  8
_0-0_
  6
CONTINUOUS
 62
    7
 10
911.98562798813043
 20
231.5947084905558
 11
911.98562798813043
 21
231.59407420508188
  0
LINE
  8
_0-0_
  6
CONTINUOUS
 62
    7
 10
431.80392187994875
 20
237.99034015552417
 11
431.80392187994875
 21
253.78479210106099
  0
LINE
  8
_0-0_
  6
CONTINUOUS
 62
    7
 10
455.80392815431571
 20
253.78479210106099
 11
455.80392815431571
 21
237.99034015552417
  0
LINE
  8
_0-0_
  6
CONTINUOUS
 62
    7
 10
455.80392815431571
 20
237.99034015552417
 11
443.7789254206948
 21
237.99034015552417
  0
LINE
  8
_0-0_
  6
CONTINUOUS
 62
    7
 10
457.80393961313609
 20
364.54595249131836
 11
457.80393961313609
 21
260.145953631309
  0
LINE
  8
_0-0_
  6
CONTINUOUS
 62
    7
 10
457.80393961313609
 20
260.145953631309
 11
457.77463124985854
 21
259.32558192249428
  0
LINE
  8
_0-0_
  6
CONTINUOUS
 62
    7
 10
457.77463124985854
 20
259.32558192249428
 11
457.68670616002618
 21
258.51907700645415
  0
LINE
  8
_0-0_
  6
CONTINUOUS
 62
    7
 10
457.68670616002618
 20
258.51907700645415
 11
457.54016434363876
 21
257.72641701127566
  0
LINE
  8
_0-0_
  6
CONTINUOUS
 62
    7
 10
457.54016434363876
 20
257.72641701127566
 11
457.33500580069636
 21
256.94762380887181
  0
LINE
  8
_0-0_
  6
CONTINUOUS
 62
    7
 10
457.33500580069636
 20
256.94762380887181
 11
457.07127427502485
 21
256.18267552732959
  0
LINE
  8
_0-0_
  6
CONTINUOUS
 62
    7
 10
457.07127427502485
 20
256.18267552732959
 11
456.74888227897259
 21
255.43157216664906
  0
LINE
  8
_0-0_
  6
CONTINUOUS
 62
    7
 10
456.74888227897259
 20
255.43157216664906
 11
456.36787355636534
 21
254.69433559874307
  0
LINE
  8
_0-0_
  6
CONTINUOUS
 62
    7
 10
456.36787355636534
 20
254.69433559874307
 11
455.92829185102892
 21
253.97094395169881
  0
LINE
  8
_0-0_
  6
CONTINUOUS
 62
    7
 10
455.92829185102892
 20
253.97094395169881
 11
455.43792356395352
 21
253.27342677760768
  0
LINE
  8
_0-0_
  6
CONTINUOUS
 62
    7
 10
455.43792356395352
 20
253.27342677760768
 11
454.90464258378074
 21
252.61374801282255
  0
LINE
  8
_0-0_
  6
CONTINUOUS
 62
    7
 10
454.90464258378074
 20
252.61374801282255
 11
454.32844891051059
 21
251.99190765734343
  0
LINE
  8
_0-0_
  6
CONTINUOUS
 62
    7
 10
454.32844891051059
 20
251.99190765734343
 11
453.70938628796898
 21
251.40792758308322
  0
LINE
  8
_0-0_
  6
CONTINUOUS
 62
    7
 10
453.70938628796898
 20
251.40792758308322
 11
453.0473672285043
 21
250.86180779004189
  0
LINE
  8
_0-0_
  6
CONTINUOUS
 62
    7
 10
453.0473672285043
 20
250.86180779004189
 11
452.34247921976805
 21
250.35352640630657
  0
LINE
  8
_0-0_
  6
CONTINUOUS
 62
    7
 10
452.34247921976805
 20
250.35352640630657
 11
451.59463477410861
 21
249.8831053037901
  0
LINE
  8
_0-0_
  6
CONTINUOUS
 62
    7
 10
451.59463477410861
 20
249.8831053037901
 11
450.80392137917772
 21
249.45054448249255
  0
LINE
  8
_0-0_
  6
CONTINUOUS
 62
    7
 10
450.80392137917772
 20
249.45054448249255
 11
449.98389962096928
 21
249.06275546688829
  0
LINE
  8
_0-0_
  6
CONTINUOUS
 62
    7
 10
449.98389962096928
 20
249.06275546688829
 11
449.14817382930323
 21
248.7266497814517
  0
LINE
  8
_0-0_
  6
CONTINUOUS
 62
    7
 10
449.14817382930323
 20
248.7266497814517
 11
448.29670026035382
 21
248.44227117000858
  0
LINE
  8
_0-0_
  6
CONTINUOUS
 62
    7
 10
448.29670026035382
 20
248.44227117000858
 11
447.42956640177249
 21
248.20959776064601
  0
LINE
  8
_0-0_
  6
CONTINUOUS
 62
    7
 10
447.42956640177249
 20
248.20959776064601
 11
446.54672850973355
 21
248.02862955336406
  0
LINE
  8
_0-0_
  6
CONTINUOUS
 62
    7
 10
446.54672850973355
 20
248.02862955336406
 11
445.6481428404112
 21
247.89936654816262
  0
LINE
  8
_0-0_
  6
CONTINUOUS
 62
    7
 10
445.6481428404112
 20
247.89936654816262
 11
444.73389688145693
 21
247.82180874504178
  0
LINE
  8
_0-0_
  6
CONTINUOUS
 62
    7
 10
444.73389688145693
 20
247.82180874504178
 11
443.80394688904511
 21
247.79595614400148
  0
LINE
  8
_0-0_
  6
CONTINUOUS
 62
    7
 10
443.80394688904511
 20
247.79595614400148
 11
442.87395315280747
 21
247.82180874504178
  0
LINE
  8
_0-0_
  6
CONTINUOUS
 62
    7
 10
442.87395315280747
 20
247.82180874504178
 11
441.95970719385332
 21
247.89936654816262
  0
LINE
  8
_0-0_
  6
CONTINUOUS
 62
    7
 10
441.95970719385332
 20
247.89936654816262
 11
441.0611215245309
 21
248.02862955336406
  0
LINE
  8
_0-0_
  6
CONTINUOUS
 62
    7
 10
441.0611215245309
 20
248.02862955336406
 11
440.17828363249203
 21
248.20959776064601
  0
LINE
  8
_0-0_
  6
CONTINUOUS
 62
    7
 10
440.17828363249203
 20
248.20959776064601
 11
439.3111497739107
 21
248.44227117000858
  0
LINE
  8
_0-0_
  6
CONTINUOUS
 62
    7
 10
439.3111497739107
 20
248.44227117000858
 11
438.45967620496117
 21
248.7266497814517
  0
LINE
  8
_0-0_
  6
CONTINUOUS
 62
    7
 10
438.45967620496117
 20
248.7266497814517
 11
437.62395041329518
 21
249.06275546688829
  0
LINE
  8
_0-0_
  6
CONTINUOUS
 62
    7
 10
437.62395041329518
 20
249.06275546688829
 11
436.80392865508679
 21
249.45054448249255
  0
LINE
  8
_0-0_
  6
CONTINUOUS
 62
    7
 10
436.80392865508679
 20
249.45054448249255
 11
436.01321526015579
 21
249.8831053037901
  0
LINE
  8
_0-0_
  6
CONTINUOUS
 62
    7
 10
436.01321526015579
 20
249.8831053037901
 11
435.26537081449646
 21
250.35352640630657
  0
LINE
  8
_0-0_
  6
CONTINUOUS
 62
    7
 10
435.26537081449646
 20
250.35352640630657
 11
434.56048280576022
 21
250.86180779004189
  0
LINE
  8
_0-0_
  6
CONTINUOUS
 62
    7
 10
434.56048280576022
 20
250.86180779004189
 11
433.89846374629542
 21
251.40792758308322
  0
LINE
  8
_0-0_
  6
CONTINUOUS
 62
    7
 10
433.89846374629542
 20
251.40792758308322
 11
433.27940112375381
 21
251.99190765734343
  0
LINE
  8
_0-0_
  6
CONTINUOUS
 62
    7
 10
433.27940112375381
 20
251.99190765734343
 11
432.70320745048372
 21
252.61374801282255
  0
LINE
  8
_0-0_
  6
CONTINUOUS
 62
    7
 10
432.70320745048372
 20
252.61374801282255
 11
432.169926470311
 21
253.27342677760768
  0
LINE
  8
_0-0_
  6
CONTINUOUS
 62
    7
 10
432.169926470311
 20
253.27342677760768
 11
431.67955818323554
 21
253.97094395169881
  0
LINE
  8
_0-0_
  6
CONTINUOUS
 62
    7
 10
431.67955818323554
 20
253.97094395169881
 11
431.23997647789912
 21
254.69433559874307
  0
LINE
  8
_0-0_
  6
CONTINUOUS
 62
    7
 10
431.23997647789912
 20
254.69433559874307
 11
430.85896775529187
 21
255.43157216664906
  0
LINE
  8
_0-0_
  6
CONTINUOUS
 62
    7
 10
430.85896775529187
 20
255.43157216664906
 11
430.53661950306542
 21
256.18267552732959
  0
LINE
  8
_0-0_
  6
CONTINUOUS
 62
    7
 10
430.53661950306542
 20
256.18267552732959
 11
430.27284423356809
 21
256.94762380887181
  0
LINE
  8
_0-0_
  6
CONTINUOUS
 62
    7
 10
430.27284423356809
 20
256.94762380887181
 11
430.06768569062569
 21
257.72641701127566
  0
LINE
  8
_0-0_
  6
CONTINUOUS
 62
    7
 10
430.06768569062569
 20
257.72641701127566
 11
429.92114387423834
 21
258.51907700645415
  0
LINE
  8
_0-0_
  6
CONTINUOUS
 62
    7
 10
429.92114387423834
 20
258.51907700645415
 11
429.83321878440591
 21
259.32558192249428
  0
LINE
  8
_0-0_
  6
CONTINUOUS
 62
    7
 10
429.83321878440591
 20
259.32558192249428
 11
429.80391042112842
 21
260.145953631309
  0
LINE
  8
_0-0_
  6
CONTINUOUS
 62
    7
 10
429.80391042112842
 20
260.145953631309
 11
429.80391042112842
 21
351.44826366174175
  0
LINE
  8
_0-0_
  6
CONTINUOUS
 62
    7
 10
429.80391042112842
 20
351.44826366174175
 11
429.88711117777586
 21
364.54595249131836
  0
LINE
  8
_0-0_
  6
CONTINUOUS
 62
    7
 10
429.88711117777586
 20
363.20155162148495
 11
429.86764517530048
 21
363.17294315942002
  0
LINE
  8
_0-0_
  6
CONTINUOUS
 62
    7
 10
429.86764517530048
 20
363.17294315942002
 11
429.85071631472078
 21
363.18226059431277
  0
LINE
  8
_0-0_
  6
CONTINUOUS
 62
    7
 10
429.85071631472078
 20
363.18226059431277
 11
429.8364120836884
 21
363.22948205425007
  0
LINE
  8
_0-0_
  6
CONTINUOUS
 62
    7
 10
429.8364120836884
 20
363.22948205425007
 11
429.82473248220316
 21
363.31465128305797
  0
LINE
  8
_0-0_
  6
CONTINUOUS
 62
    7
 10
429.82473248220316
 20
363.31465128305797
 11
429.81563376643942
 21
363.43774640882339
  0
LINE
  8
_0-0_
  6
CONTINUOUS
 62
    7
 10
429.81563376643942
 20
363.43774640882339
 11
429.80911593639712
 21
363.59874555963347
  0
LINE
  8
_0-0_
  6
CONTINUOUS
 62
    7
 10
429.80911593639712
 20
363.59874555963347
 11
429.80522273590202
 21
363.79769247931398
  0
LINE
  8
_0-0_
  6
CONTINUOUS
 62
    7
 10
429.80522273590202
 20
363.79769247931398
 11
429.80391042112842
 21
364.03454342403927
  0
LINE
  8
_0-0_
  6
CONTINUOUS
 62
    7
 10
429.80391042112842
 20
364.03454342403927
 11
429.80522273590202
 21
364.28738273708973
  0
LINE
  8
_0-0_
  6
CONTINUOUS
 62
    7
 10
429.80522273590202
 20
364.28738273708973
 11
429.80911593639712
 21
364.53427288983323
  0
LINE
  8
_0-0_
  6
CONTINUOUS
 62
    7
 10
429.80911593639712
 20
364.53427288983323
 11
429.81563376643942
 21
364.77519201035659
  0
LINE
  8
_0-0_
  6
CONTINUOUS
 62
    7
 10
429.81563376643942
 20
364.77519201035659
 11
429.82473248220316
 21
365.01014009866014
  0
LINE
  8
_0-0_
  6
CONTINUOUS
 62
    7
 10
429.82473248220316
 20
365.01014009866014
 11
429.8364120836884
 21
365.23913902665652
  0
LINE
  8
_0-0_
  6
CONTINUOUS
 62
    7
 10
429.8364120836884
 20
365.23913902665652
 11
429.85071631472078
 21
365.46216692243297
  0
LINE
  8
_0-0_
  6
CONTINUOUS
 62
    7
 10
429.85071631472078
 20
365.46216692243297
 11
429.86764517530048
 21
365.67924565790241
  0
LINE
  8
_0-0_
  6
CONTINUOUS
 62
    7
 10
429.86764517530048
 20
365.67924565790241
 11
429.88711117777586
 21
365.89035336115182
  0
LINE
  8
_0-0_
  6
CONTINUOUS
 62
    7
 10
429.88711117777586
 20
365.89035336115182
 11
429.96265676491049
 21
366.49605224491546
  0
LINE
  8
_0-0_
  6
CONTINUOUS
 62
    7
 10
429.96265676491049
 20
366.49605224491546
 11
430.08583937832748
 21
367.10916570715
  0
LINE
  8
_0-0_
  6
CONTINUOUS
 62
    7
 10
430.08583937832748
 20
367.10916570715
 11
430.2565715303752
 21
367.72962813211683
  0
LINE
  8
_0-0_
  6
CONTINUOUS
 62
    7
 10
430.2565715303752
 20
367.72962813211683
 11
430.47498445253109
 21
368.3574395198159
  0
LINE
  8
_0-0_
  6
CONTINUOUS
 62
    7
 10
430.47498445253109
 20
368.3574395198159
 11
430.74099065714358
 21
368.99268735789883
  0
LINE
  8
_0-0_
  6
CONTINUOUS
 62
    7
 10
430.74099065714358
 20
368.99268735789883
 11
431.05459014421263
 21
369.635284158714
  0
LINE
  8
_0-0_
  6
CONTINUOUS
 62
    7
 10
431.05459014421263
 20
369.635284158714
 11
431.41582665756403
 21
370.28527366608722
  0
LINE
  8
_0-0_
  6
CONTINUOUS
 62
    7
 10
431.41582665756403
 20
370.28527366608722
 11
431.82465645337197
 21
370.94261213619279
  0
LINE
  8
_0-0_
  6
CONTINUOUS
 62
    7
 10
431.82465645337197
 20
370.94261213619279
 11
432.2809920439849
 21
371.58818351716144
  0
LINE
  8
_0-0_
  6
CONTINUOUS
 62
    7
 10
432.2809920439849
 20
371.58818351716144
 11
432.78483342940274
 21
372.20282801329859
  0
LINE
  8
_0-0_
  6
CONTINUOUS
 62
    7
 10
432.78483342940274
 20
372.20282801329859
 11
433.33604937814835
 21
372.78658936842987
  0
LINE
  8
_0-0_
  6
CONTINUOUS
 62
    7
 10
433.33604937814835
 20
372.78658936842987
 11
433.93477112169887
 21
373.33938009490373
  0
LINE
  8
_0-0_
  6
CONTINUOUS
 62
    7
 10
433.93477112169887
 20
373.33938009490373
 11
434.58086742857699
 21
373.86128768037179
  0
LINE
  8
_0-0_
  6
CONTINUOUS
 62
    7
 10
434.58086742857699
 20
373.86128768037179
 11
435.27446953026021
 21
374.35222463718247
  0
LINE
  8
_0-0_
  6
CONTINUOUS
 62
    7
 10
435.27446953026021
 20
374.35222463718247
 11
436.01548993909682
 21
374.81227845298736
  0
LINE
  8
_0-0_
  6
CONTINUOUS
 62
    7
 10
436.01548993909682
 20
374.81227845298736
 11
436.80392865508679
 21
375.24136164013487
  0
LINE
  8
_0-0_
  6
CONTINUOUS
 62
    7
 10
436.80392865508679
 20
375.24136164013487
 11
437.62395041329518
 21
375.62915065573907
  0
LINE
  8
_0-0_
  6
CONTINUOUS
 62
    7
 10
437.62395041329518
 20
375.62915065573907
 11
438.45967620496117
 21
375.96523446926278
  0
LINE
  8
_0-0_
  6
CONTINUOUS
 62
    7
 10
438.45967620496117
 20
375.96523446926278
 11
439.3111497739107
 21
376.2496130807059
  0
LINE
  8
_0-0_
  6
CONTINUOUS
 62
    7
 10
439.3111497739107
 20
376.2496130807059
 11
440.17828363249203
 21
376.48228649006847
  0
LINE
  8
_0-0_
  6
CONTINUOUS
 62
    7
 10
440.17828363249203
 20
376.48228649006847
 11
441.0611215245309
 21
376.66329844117621
  0
LINE
  8
_0-0_
  6
CONTINUOUS
 62
    7
 10
441.0611215245309
 20
376.66329844117621
 11
441.95970719385332
 21
376.79256144637759
  0
LINE
  8
_0-0_
  6
CONTINUOUS
 62
    7
 10
441.95970719385332
 20
376.79256144637759
 11
442.87395315280747
 21
376.87011924949849
  0
LINE
  8
_0-0_
  6
CONTINUOUS
 62
    7
 10
442.87395315280747
 20
376.87011924949849
 11
443.80394688904511
 21
376.89597185053879
  0
LINE
  8
_0-0_
  6
CONTINUOUS
 62
    7
 10
443.80394688904511
 20
376.89597185053879
 11
444.73389688145693
 21
376.87011924949849
  0
LINE
  8
_0-0_
  6
CONTINUOUS
 62
    7
 10
444.73389688145693
 20
376.87011924949849
 11
445.6481428404112
 21
376.79256144637759
  0
LINE
  8
_0-0_
  6
CONTINUOUS
 62
    7
 10
445.6481428404112
 20
376.79256144637759
 11
446.54672850973355
 21
376.66329844117621
  0
LINE
  8
_0-0_
  6
CONTINUOUS
 62
    7
 10
446.54672850973355
 20
376.66329844117621
 11
447.42956640177249
 21
376.48228649006847
  0
LINE
  8
_0-0_
  6
CONTINUOUS
 62
    7
 10
447.42956640177249
 20
376.48228649006847
 11
448.29670026035382
 21
376.2496130807059
  0
LINE
  8
_0-0_
  6
CONTINUOUS
 62
    7
 10
448.29670026035382
 20
376.2496130807059
 11
449.14817382930323
 21
375.96523446926278
  0
LINE
  8
_0-0_
  6
CONTINUOUS
 62
    7
 10
449.14817382930323
 20
375.96523446926278
 11
449.98389962096928
 21
375.62915065573907
  0
LINE
  8
_0-0_
  6
CONTINUOUS
 62
    7
 10
449.98389962096928
 20
375.62915065573907
 11
450.80392137917772
 21
375.24136164013487
  0
LINE
  8
_0-0_
  6
CONTINUOUS
 62
    7
 10
450.80392137917772
 20
375.24136164013487
 11
451.59463477410861
 21
374.80877894692441
  0
LINE
  8
_0-0_
  6
CONTINUOUS
 62
    7
 10
451.59463477410861
 20
374.80877894692441
 11
452.34247921976805
 21
374.33835784440794
  0
LINE
  8
_0-0_
  6
CONTINUOUS
 62
    7
 10
452.34247921976805
 20
374.33835784440794
 11
453.0473672285043
 21
373.83009833258546
  0
LINE
  8
_0-0_
  6
CONTINUOUS
 62
    7
 10
453.0473672285043
 20
373.83009833258546
 11
453.70938628796898
 21
373.28395666763129
  0
LINE
  8
_0-0_
  6
CONTINUOUS
 62
    7
 10
453.70938628796898
 20
373.28395666763129
 11
454.32844891051059
 21
372.69997659337099
  0
LINE
  8
_0-0_
  6
CONTINUOUS
 62
    7
 10
454.32844891051059
 20
372.69997659337099
 11
454.90464258378074
 21
372.07815810980486
  0
LINE
  8
_0-0_
  6
CONTINUOUS
 62
    7
 10
454.90464258378074
 20
372.07815810980486
 11
455.43792356395352
 21
371.41850121693261
  0
LINE
  8
_0-0_
  6
CONTINUOUS
 62
    7
 10
455.43792356395352
 20
371.41850121693261
 11
455.92829185102892
 21
370.72096217092854
  0
LINE
  8
_0-0_
  6
CONTINUOUS
 62
    7
 10
455.92829185102892
 20
370.72096217092854
 11
456.36787355636534
 21
369.99757052388424
  0
LINE
  8
_0-0_
  6
CONTINUOUS
 62
    7
 10
456.36787355636534
 20
369.99757052388424
 11
456.74888227897259
 21
369.26031208406539
  0
LINE
  8
_0-0_
  6
CONTINUOUS
 62
    7
 10
456.74888227897259
 20
369.26031208406539
 11
457.07127427502485
 21
368.50923059529777
  0
LINE
  8
_0-0_
  6
CONTINUOUS
 62
    7
 10
457.07127427502485
 20
368.50923059529777
 11
457.33500580069636
 21
367.7442823137556
  0
LINE
  8
_0-0_
  6
CONTINUOUS
 62
    7
 10
457.33500580069636
 20
367.7442823137556
 11
457.54016434363876
 21
366.96546723943874
  0
LINE
  8
_0-0_
  6
CONTINUOUS
 62
    7
 10
457.54016434363876
 20
366.96546723943874
 11
457.68670616002618
 21
366.17282911617326
  0
LINE
  8
_0-0_
  6
CONTINUOUS
 62
    7
 10
457.68670616002618
 20
366.17282911617326
 11
457.77463124985854
 21
365.36632420013302
  0
LINE
  8
_0-0_
  6
CONTINUOUS
 62
    7
 10
457.77463124985854
 20
365.36632420013302
 11
457.80393961313609
 21
364.54595249131836
  0
LINE
  8
_0-0_
  6
CONTINUOUS
 62
    7
 10
457.80393961313609
 20
364.54595249131836
 11
457.77463124985854
 21
363.72558078250364
  0
LINE
  8
_0-0_
  6
CONTINUOUS
 62
    7
 10
457.77463124985854
 20
363.72558078250364
 11
457.68670616002618
 21
362.91907586646352
  0
LINE
  8
_0-0_
  6
CONTINUOUS
 62
    7
 10
457.68670616002618
 20
362.91907586646352
 11
457.54016434363876
 21
362.12641587128508
  0
LINE
  8
_0-0_
  6
CONTINUOUS
 62
    7
 10
457.54016434363876
 20
362.12641587128508
 11
457.33500580069636
 21
361.34762266888117
  0
LINE
  8
_0-0_
  6
CONTINUOUS
 62
    7
 10
457.33500580069636
 20
361.34762266888117
 11
457.07127427502485
 21
360.58267438733901
  0
LINE
  8
_0-0_
  6
CONTINUOUS
 62
    7
 10
457.07127427502485
 20
360.58267438733901
 11
456.74888227897259
 21
359.83157102665842
  0
LINE
  8
_0-0_
  6
CONTINUOUS
 62
    7
 10
456.74888227897259
 20
359.83157102665842
 11
456.36787355636534
 21
359.09433445875243
  0
LINE
  8
_0-0_
  6
CONTINUOUS
 62
    7
 10
456.36787355636534
 20
359.09433445875243
 11
455.92829185102892
 21
358.37096468362108
  0
LINE
  8
_0-0_
  6
CONTINUOUS
 62
    7
 10
455.92829185102892
 20
358.37096468362108
 11
455.43792356395352
 21
357.67342563761707
  0
LINE
  8
_0-0_
  6
CONTINUOUS
 62
    7
 10
455.43792356395352
 20
357.67342563761707
 11
454.90464258378074
 21
357.01374687283192
  0
LINE
  8
_0-0_
  6
CONTINUOUS
 62
    7
 10
454.90464258378074
 20
357.01374687283192
 11
454.32844891051059
 21
356.39190651735282
  0
LINE
  8
_0-0_
  6
CONTINUOUS
 62
    7
 10
454.32844891051059
 20
356.39190651735282
 11
453.70938628796898
 21
355.80792644309258
  0
LINE
  8
_0-0_
  6
CONTINUOUS
 62
    7
 10
453.70938628796898
 20
355.80792644309258
 11
453.0473672285043
 21
355.26180665005131
  0
LINE
  8
_0-0_
  6
CONTINUOUS
 62
    7
 10
453.0473672285043
 20
355.26180665005131
 11
452.34247921976805
 21
354.75352526631588
  0
LINE
  8
_0-0_
  6
CONTINUOUS
 62
    7
 10
452.34247921976805
 20
354.75352526631588
 11
451.59463477410861
 21
354.28310416379952
  0
LINE
  8
_0-0_
  6
CONTINUOUS
 62
    7
 10
451.59463477410861
 20
354.28310416379952
 11
450.80392137917772
 21
353.85054334250191
  0
LINE
  8
_0-0_
  6
CONTINUOUS
 62
    7
 10
450.80392137917772
 20
353.85054334250191
 11
449.98389962096928
 21
353.46275432689765
  0
LINE
  8
_0-0_
  6
CONTINUOUS
 62
    7
 10
449.98389962096928
 20
353.46275432689765
 11
449.14817382930323
 21
353.12664864146109
  0
LINE
  8
_0-0_
  6
CONTINUOUS
 62
    7
 10
449.14817382930323
 20
353.12664864146109
 11
448.29670026035382
 21
352.84227003001797
  0
LINE
  8
_0-0_
  6
CONTINUOUS
 62
    7
 10
448.29670026035382
 20
352.84227003001797
 11
447.42956640177249
 21
352.6095966206554
  0
LINE
  8
_0-0_
  6
CONTINUOUS
 62
    7
 10
447.42956640177249
 20
352.6095966206554
 11
446.54672850973355
 21
352.42862841337342
  0
LINE
  8
_0-0_
  6
CONTINUOUS
 62
    7
 10
446.54672850973355
 20
352.42862841337342
 11
445.6481428404112
 21
352.29936540817198
  0
LINE
  8
_0-0_
  6
CONTINUOUS
 62
    7
 10
445.6481428404112
 20
352.29936540817198
 11
444.73389688145693
 21
352.22180760505114
  0
LINE
  8
_0-0_
  6
CONTINUOUS
 62
    7
 10
444.73389688145693
 20
352.22180760505114
 11
443.80394688904511
 21
352.19595500401084
  0
LINE
  8
_0-0_
  6
CONTINUOUS
 62
    7
 10
443.80394688904511
 20
352.19595500401084
 11
442.87395315280747
 21
352.22180760505114
  0
LINE
  8
_0-0_
  6
CONTINUOUS
 62
    7
 10
442.87395315280747
 20
352.22180760505114
 11
441.95970719385332
 21
352.29936540817198
  0
LINE
  8
_0-0_
  6
CONTINUOUS
 62
    7
 10
441.95970719385332
 20
352.29936540817198
 11
441.0611215245309
 21
352.42862841337342
  0
LINE
  8
_0-0_
  6
CONTINUOUS
 62
    7
 10
441.0611215245309
 20
352.42862841337342
 11
440.17828363249203
 21
352.6095966206554
  0
LINE
  8
_0-0_
  6
CONTINUOUS
 62
    7
 10
440.17828363249203
 20
352.6095966206554
 11
439.3111497739107
 21
352.84227003001797
  0
LINE
  8
_0-0_
  6
CONTINUOUS
 62
    7
 10
439.3111497739107
 20
352.84227003001797
 11
438.45967620496117
 21
353.12664864146109
  0
LINE
  8
_0-0_
  6
CONTINUOUS
 62
    7
 10
438.45967620496117
 20
353.12664864146109
 11
437.62395041329518
 21
353.46275432689765
  0
LINE
  8
_0-0_
  6
CONTINUOUS
 62
    7
 10
437.62395041329518
 20
353.46275432689765
 11
436.80392865508679
 21
353.85054334250191
  0
LINE
  8
_0-0_
  6
CONTINUOUS
 62
    7
 10
436.80392865508679
 20
353.85054334250191
 11
436.01426511197474
 21
354.28150751415831
  0
LINE
  8
_0-0_
  6
CONTINUOUS
 62
    7
 10
436.01426511197474
 20
354.28150751415831
 11
435.26957022177209
 21
354.74716053966392
  0
LINE
  8
_0-0_
  6
CONTINUOUS
 62
    7
 10
435.26957022177209
 20
354.74716053966392
 11
434.56988772830442
 21
355.247458675193
  0
LINE
  8
_0-0_
  6
CONTINUOUS
 62
    7
 10
434.56988772830442
 20
355.247458675193
 11
433.91517388774616
 21
355.78242379265862
  0
LINE
  8
_0-0_
  6
CONTINUOUS
 62
    7
 10
433.91517388774616
 20
355.78242379265862
 11
433.30547244392307
 21
356.3520558920606
  0
LINE
  8
_0-0_
  6
CONTINUOUS
 62
    7
 10
433.30547244392307
 20
356.3520558920606
 11
432.74078339683501
 21
356.95633310148617
  0
LINE
  8
_0-0_
  6
CONTINUOUS
 62
    7
 10
432.74078339683501
 20
356.95633310148617
 11
432.22106300265631
 21
357.59529916476095
  0
LINE
  8
_0-0_
  6
CONTINUOUS
 62
    7
 10
432.22106300265631
 20
357.59529916476095
 11
431.74635500521271
 21
358.26891033805936
  0
LINE
  8
_0-0_
  6
CONTINUOUS
 62
    7
 10
431.74635500521271
 20
358.26891033805936
 11
431.32164620064401
 21
358.95054850338965
  0
LINE
  8
_0-0_
  6
CONTINUOUS
 62
    7
 10
431.32164620064401
 20
358.95054850338965
 11
430.95183589743829
 21
359.61361741467329
  0
LINE
  8
_0-0_
  6
CONTINUOUS
 62
    7
 10
430.95183589743829
 20
359.61361741467329
 11
430.63701158324716
 21
360.25807332808449
  0
LINE
  8
_0-0_
  6
CONTINUOUS
 62
    7
 10
430.63701158324716
 20
360.25807332808449
 11
430.37712951424498
 21
360.88395998744886
  0
LINE
  8
_0-0_
  6
CONTINUOUS
 62
    7
 10
430.37712951424498
 20
360.88395998744886
 11
430.17218969043154
 21
361.49123364894081
  0
LINE
  8
_0-0_
  6
CONTINUOUS
 62
    7
 10
430.17218969043154
 20
361.49123364894081
 11
430.02223585563274
 21
362.07993805638608
  0
LINE
  8
_0-0_
  6
CONTINUOUS
 62
    7
 10
430.02223585563274
 20
362.07993805638608
 11
429.92718052219698
 21
362.65005133787179
  0
LINE
  8
_0-0_
  6
CONTINUOUS
 62
    7
 10
429.92718052219698
 20
362.65005133787179
 11
429.88711117777586
 21
363.20155162148495
  0
LINE
  8
_0-0_
  6
CONTINUOUS
 62
    7
 10
454.80285070117372
 20
318.04827789542293
 11
454.47481575159492
 21
317.64264139889747
  0
LINE
  8
_0-0_
  6
CONTINUOUS
 62
    7
 10
454.47481575159492
 20
317.64264139889747
 11
454.08973885318943
 21
317.23973889148374
  0
LINE
  8
_0-0_
  6
CONTINUOUS
 62
    7
 10
454.08973885318943
 20
317.23973889148374
 11
453.64753251830575
 21
316.83954850126878
  0
LINE
  8
_0-0_
  6
CONTINUOUS
 62
    7
 10
453.64753251830575
 20
316.83954850126878
 11
453.14824049076975
 21
316.4421139720784
  0
LINE
  8
_0-0_
  6
CONTINUOUS
 62
    7
 10
453.14824049076975
 20
316.4421139720784
 11
452.59186277058132
 21
316.04741343199976
  0
LINE
  8
_0-0_
  6
CONTINUOUS
 62
    7
 10
452.59186277058132
 20
316.04741343199976
 11
451.97835561391463
 21
315.65542500911994
  0
LINE
  8
_0-0_
  6
CONTINUOUS
 62
    7
 10
451.97835561391463
 20
315.65542500911994
 11
451.30780650842144
 21
315.26619244726464
  0
LINE
  8
_0-0_
  6
CONTINUOUS
 62
    7
 10
451.30780650842144
 20
315.26619244726464
 11
450.58012796644994
 21
314.87967200260823
  0
LINE
  8
_0-0_
  6
CONTINUOUS
 62
    7
 10
450.58012796644994
 20
314.87967200260823
 11
449.81255505536046
 21
314.51858859264712
  0
LINE
  8
_0-0_
  6
CONTINUOUS
 62
    7
 10
449.81255505536046
 20
314.51858859264712
 11
449.02227909868748
 21
314.20564526296488
  0
LINE
  8
_0-0_
  6
CONTINUOUS
 62
    7
 10
449.02227909868748
 20
314.20564526296488
 11
448.20930009643075
 21
313.94086388547447
  0
LINE
  8
_0-0_
  6
CONTINUOUS
 62
    7
 10
448.20930009643075
 20
313.94086388547447
 11
447.37361804859057
 21
313.72422258826293
  0
LINE
  8
_0-0_
  6
CONTINUOUS
 62
    7
 10
447.37361804859057
 20
313.72422258826293
 11
446.51523295516665
 21
313.55572137133032
  0
LINE
  8
_0-0_
  6
CONTINUOUS
 62
    7
 10
446.51523295516665
 20
313.55572137133032
 11
445.63418855998509
 21
313.43536023467664
  0
LINE
  8
_0-0_
  6
CONTINUOUS
 62
    7
 10
445.63418855998509
 20
313.43536023467664
 11
444.73039737539403
 21
313.36313917830182
  0
LINE
  8
_0-0_
  6
CONTINUOUS
 62
    7
 10
444.73039737539403
 20
313.36313917830182
 11
443.80394688904511
 21
313.33908007411884
  0
LINE
  8
_0-0_
  6
CONTINUOUS
 62
    7
 10
443.80394688904511
 20
313.33908007411884
 11
442.88445167099644
 21
313.35957405650015
  0
LINE
  8
_0-0_
  6
CONTINUOUS
 62
    7
 10
442.88445167099644
 20
313.35957405650015
 11
442.00170126660907
 21
313.4210778755571
  0
LINE
  8
_0-0_
  6
CONTINUOUS
 62
    7
 10
442.00170126660907
 20
313.4210778755571
 11
441.15569567588301
 21
313.52359153128958
  0
LINE
  8
_0-0_
  6
CONTINUOUS
 62
    7
 10
441.15569567588301
 20
313.52359153128958
 11
440.34634741116668
 21
313.66711502369765
  0
LINE
  8
_0-0_
  6
CONTINUOUS
 62
    7
 10
440.34634741116668
 20
313.66711502369765
 11
439.57378770393751
 21
313.85162648086839
  0
LINE
  8
_0-0_
  6
CONTINUOUS
 62
    7
 10
439.57378770393751
 20
313.85162648086839
 11
438.83788532271808
 21
314.07716964662762
  0
LINE
  8
_0-0_
  6
CONTINUOUS
 62
    7
 10
438.83788532271808
 20
314.07716964662762
 11
438.13872775515989
 21
314.34370077714954
  0
LINE
  8
_0-0_
  6
CONTINUOUS
 62
    7
 10
438.13872775515989
 20
314.34370077714954
 11
437.47627125743736
 21
314.65124174434703
  0
LINE
  8
_0-0_
  6
CONTINUOUS
 62
    7
 10
437.47627125743736
 20
314.65124174434703
 11
436.83966736075496
 21
314.99134998984317
  0
LINE
  8
_0-0_
  6
CONTINUOUS
 62
    7
 10
436.83966736075496
 20
314.99134998984317
 11
436.21815508396929
 21
315.35560482717386
  0
LINE
  8
_0-0_
  6
CONTINUOUS
 62
    7
 10
436.21815508396929
 20
315.35560482717386
 11
435.61169068325444
 21
315.74402812825207
  0
LINE
  8
_0-0_
  6
CONTINUOUS
 62
    7
 10
435.61169068325444
 20
315.74402812825207
 11
435.02027415861028
 21
316.15657614925192
  0
LINE
  8
_0-0_
  6
CONTINUOUS
 62
    7
 10
435.02027415861028
 20
316.15657614925192
 11
434.44386176621128
 21
316.59327076208638
  0
LINE
  8
_0-0_
  6
CONTINUOUS
 62
    7
 10
434.44386176621128
 20
316.59327076208638
 11
433.88254099370891
 21
317.05413383866824
  0
LINE
  8
_0-0_
  6
CONTINUOUS
 62
    7
 10
433.88254099370891
 20
317.05413383866824
 11
433.33626809727724
 21
317.53912163517191
  0
LINE
  8
_0-0_
  6
CONTINUOUS
 62
    7
 10
433.33626809727724
 20
317.53912163517191
 11
432.80499933309073
 21
318.04827789542293
  0
LINE
  8
_0-0_
  6
CONTINUOUS
 62
    7
 10
432.80499933309073
 20
351.44826366174175
 11
432.80499933309073
 21
318.04827789542293
  0
LINE
  8
_0-0_
  6
CONTINUOUS
 62
    7
 10
454.80285070117372
 20
318.04827789542293
 11
454.80285070117372
 21
351.44826366174175
  0
LINE
  8
_0-0_
  6
CONTINUOUS
 62
    7
 10
450.58012796644994
 20
348.27965776892705
 11
449.81255505536046
 21
347.91859623087879
  0
LINE
  8
_0-0_
  6
CONTINUOUS
 62
    7
 10
449.81255505536046
 20
347.91859623087879
 11
449.02227909868748
 21
347.60565290119655
  0
LINE
  8
_0-0_
  6
CONTINUOUS
 62
    7
 10
449.02227909868748
 20
347.60565290119655
 11
448.20930009643075
 21
347.34087152370614
  0
LINE
  8
_0-0_
  6
CONTINUOUS
 62
    7
 10
448.20930009643075
 20
347.34087152370614
 11
447.37361804859057
 21
347.1242083545817
  0
LINE
  8
_0-0_
  6
CONTINUOUS
 62
    7
 10
447.37361804859057
 20
347.1242083545817
 11
446.51523295516665
 21
346.95570713764909
  0
LINE
  8
_0-0_
  6
CONTINUOUS
 62
    7
 10
446.51523295516665
 20
346.95570713764909
 11
445.63418855998509
 21
346.8353460009954
  0
LINE
  8
_0-0_
  6
CONTINUOUS
 62
    7
 10
445.63418855998509
 20
346.8353460009954
 11
444.73039737539403
 21
346.76314681653344
  0
LINE
  8
_0-0_
  6
CONTINUOUS
 62
    7
 10
444.73039737539403
 20
346.76314681653344
 11
443.80394688904511
 21
346.73906584043755
  0
LINE
  8
_0-0_
  6
CONTINUOUS
 62
    7
 10
443.80394688904511
 20
346.73906584043755
 11
442.88445167099644
 21
346.75958169473182
  0
LINE
  8
_0-0_
  6
CONTINUOUS
 62
    7
 10
442.88445167099644
 20
346.75958169473182
 11
442.00170126660907
 21
346.82108551378872
  0
LINE
  8
_0-0_
  6
CONTINUOUS
 62
    7
 10
442.00170126660907
 20
346.82108551378872
 11
441.15569567588301
 21
346.9235991695212
  0
LINE
  8
_0-0_
  6
CONTINUOUS
 62
    7
 10
441.15569567588301
 20
346.9235991695212
 11
440.34634741116668
 21
347.06710079001641
  0
LINE
  8
_0-0_
  6
CONTINUOUS
 62
    7
 10
440.34634741116668
 20
347.06710079001641
 11
439.57378770393751
 21
347.25163411910012
  0
LINE
  8
_0-0_
  6
CONTINUOUS
 62
    7
 10
439.57378770393751
 20
347.25163411910012
 11
438.83788532271808
 21
347.47715541294639
  0
LINE
  8
_0-0_
  6
CONTINUOUS
 62
    7
 10
438.83788532271808
 20
347.47715541294639
 11
438.13872775515989
 21
347.7436865434683
  0
LINE
  8
_0-0_
  6
CONTINUOUS
 62
    7
 10
438.13872775515989
 20
347.7436865434683
 11
437.47627125743736
 21
348.05122751066585
  0
LINE
  8
_0-0_
  6
CONTINUOUS
 62
    7
 10
437.47627125743736
 20
348.05122751066585
 11
436.83966736075496
 21
348.39135762807479
  0
LINE
  8
_0-0_
  6
CONTINUOUS
 62
    7
 10
436.83966736075496
 20
348.39135762807479
 11
436.21815508396929
 21
348.75561246540553
  0
LINE
  8
_0-0_
  6
CONTINUOUS
 62
    7
 10
436.21815508396929
 20
348.75561246540553
 11
435.61169068325444
 21
349.14401389457083
  0
LINE
  8
_0-0_
  6
CONTINUOUS
 62
    7
 10
435.61169068325444
 20
349.14401389457083
 11
435.02027415861028
 21
349.55658378748359
  0
LINE
  8
_0-0_
  6
CONTINUOUS
 62
    7
 10
435.02027415861028
 20
349.55658378748359
 11
434.44386176621128
 21
349.99327840031805
  0
LINE
  8
_0-0_
  6
CONTINUOUS
 62
    7
 10
434.44386176621128
 20
349.99327840031805
 11
433.88254099370891
 21
350.45411960498706
  0
LINE
  8
_0-0_
  6
CONTINUOUS
 62
    7
 10
433.88254099370891
 20
350.45411960498706
 11
433.33626809727724
 21
350.93912927340352
  0
LINE
  8
_0-0_
  6
CONTINUOUS
 62
    7
 10
433.33626809727724
 20
350.93912927340352
 11
432.80499933309073
 21
351.44826366174175
  0
LINE
  8
_0-0_
  6
CONTINUOUS
 62
    7
 10
432.80499933309073
 20
351.44826366174175
 11
432.80499933309073
 21
318.04827789542293
  0
LINE
  8
_0-0_
  6
CONTINUOUS
 62
    7
 10
454.80285070117372
 20
318.04827789542293
 11
454.80285070117372
 21
351.44826366174175
  0
LINE
  8
_0-0_
  6
CONTINUOUS
 62
    7
 10
454.80285070117372
 20
351.44826366174175
 11
454.47468452011753
 21
351.04256154947757
  0
LINE
  8
_0-0_
  6
CONTINUOUS
 62
    7
 10
454.47468452011753
 20
351.04256154947757
 11
454.08947639023472
 21
350.63959342632518
  0
LINE
  8
_0-0_
  6
CONTINUOUS
 62
    7
 10
454.08947639023472
 20
350.63959342632518
 11
453.64718256769947
 21
350.23938116419731
  0
LINE
  8
_0-0_
  6
CONTINUOUS
 62
    7
 10
453.64718256769947
 20
350.23938116419731
 11
453.14789054016342
 21
349.84192476309403
  0
LINE
  8
_0-0_
  6
CONTINUOUS
 62
    7
 10
453.14789054016342
 20
349.84192476309403
 11
452.59151281997504
 21
349.44722422301538
  0
LINE
  8
_0-0_
  6
CONTINUOUS
 62
    7
 10
452.59151281997504
 20
349.44722422301538
 11
451.97809315095992
 21
349.05527954396132
  0
LINE
  8
_0-0_
  6
CONTINUOUS
 62
    7
 10
451.97809315095992
 20
349.05527954396132
 11
451.30763153311824
 21
348.66609072593184
  0
LINE
  8
_0-0_
  6
CONTINUOUS
 62
    7
 10
451.30763153311824
 20
348.66609072593184
 11
450.58012796644994
 21
348.27965776892705
  0
LINE
  8
_0-0_
  6
CONTINUOUS
 62
    7
 10
443.7789254206948
 20
225.49034508959207
 11
451.52893154777615
 21
225.49034508959207
  0
LINE
  8
_0-0_
  6
CONTINUOUS
 62
    7
 10
451.52893154777615
 20
225.49034508959207
 11
451.52893154777615
 21
219.49035445695677
  0
LINE
  8
_0-0_
  6
CONTINUOUS
 62
    7
 10
451.52893154777615
 20
219.49035445695677
 11
451.27893558340185
 21
216.49033726872625
  0
LINE
  8
_0-0_
  6
CONTINUOUS
 62
    7
 10
451.27893558340185
 20
216.49033726872625
 11
451.27893558340185
 21
209.49034090668079
  0
LINE
  8
_0-0_
  6
CONTINUOUS
 62
    7
 10
451.27893558340185
 20
209.49034090668079
 11
436.27891525798782
 21
209.49034090668079
  0
LINE
  8
_0-0_
  6
CONTINUOUS
 62
    7
 10
436.27891525798782
 20
209.49034090668079
 11
436.27891525798782
 21
216.49033726872625
  0
LINE
  8
_0-0_
  6
CONTINUOUS
 62
    7
 10
436.27891525798782
 20
216.49033726872625
 11
436.02891929361351
 21
219.49035445695677
  0
LINE
  8
_0-0_
  6
CONTINUOUS
 62
    7
 10
436.02891929361351
 20
219.49035445695677
 11
436.02891929361351
 21
221.89033758686315
  0
LINE
  8
_0-0_
  6
CONTINUOUS
 62
    7
 10
437.77893478805947
 20
209.49034090668079
 11
437.77893478805947
 21
154.11394918287124
  0
LINE
  8
_0-0_
  6
CONTINUOUS
 62
    7
 10
449.77891605333008
 20
209.49034090668079
 11
449.77891605333008
 21
154.11394918287124
  0
LINE
  8
_0-0_
  6
CONTINUOUS
 62
    7
 10
450.27890798207869
 20
187.49034609113423
 11
450.54968226370198
 21
189.97565155323869
  0
LINE
  8
_0-0_
  6
CONTINUOUS
 62
    7
 10
450.54968226370198
 20
189.97565155323869
 11
437.62613760458459
 21
191.38352471428945
  0
LINE
  8
_0-0_
  6
CONTINUOUS
 62
    7
 10
437.62613760458459
 20
191.38352471428945
 11
437.35540706678705
 21
188.89821925218499
  0
LINE
  8
_0-0_
  6
CONTINUOUS
 62
    7
 10
437.35540706678705
 20
188.89821925218499
 11
450.27890798207869
 21
187.49034609113423
  0
LINE
  8
_0-0_
  6
CONTINUOUS
 62
    7
 10
450.27890798207869
 20
191.9903390656107
 11
450.54968226370198
 21
194.47564452771516
  0
LINE
  8
_0-0_
  6
CONTINUOUS
 62
    7
 10
450.54968226370198
 20
194.47564452771516
 11
437.62613760458459
 21
195.88351768876592
  0
LINE
  8
_0-0_
  6
CONTINUOUS
 62
    7
 10
437.62613760458459
 20
195.88351768876592
 11
437.35540706678705
 21
193.39821222666146
  0
LINE
  8
_0-0_
  6
CONTINUOUS
 62
    7
 10
437.35540706678705
 20
193.39821222666146
 11
450.27890798207869
 21
191.9903390656107
  0
LINE
  8
_0-0_
  6
CONTINUOUS
 62
    7
 10
450.27890798207869
 20
196.49035391200002
 11
450.54968226370198
 21
198.97563750219163
  0
LINE
  8
_0-0_
  6
CONTINUOUS
 62
    7
 10
450.54968226370198
 20
198.97563750219163
 11
437.62613760458459
 21
200.38351066324239
  0
LINE
  8
_0-0_
  6
CONTINUOUS
 62
    7
 10
437.62613760458459
 20
200.38351066324239
 11
437.35540706678705
 21
197.89822707305078
  0
LINE
  8
_0-0_
  6
CONTINUOUS
 62
    7
 10
437.35540706678705
 20
197.89822707305078
 11
450.27890798207869
 21
196.49035391200002
  0
LINE
  8
_0-0_
  6
CONTINUOUS
 62
    7
 10
450.27890798207869
 20
200.99034688647649
 11
450.54968226370198
 21
203.47565234858095
  0
LINE
  8
_0-0_
  6
CONTINUOUS
 62
    7
 10
450.54968226370198
 20
203.47565234858095
 11
437.62613760458459
 21
204.88352550963171
  0
LINE
  8
_0-0_
  6
CONTINUOUS
 62
    7
 10
437.62613760458459
 20
204.88352550963171
 11
437.35540706678705
 21
202.39822004752725
  0
LINE
  8
_0-0_
  6
CONTINUOUS
 62
    7
 10
437.35540706678705
 20
202.39822004752725
 11
450.27890798207869
 21
200.99034688647649
  0
LINE
  8
_0-0_
  6
CONTINUOUS
 62
    7
 10
450.27890798207869
 20
205.49033986095296
 11
450.54968226370198
 21
207.97564532305742
  0
LINE
  8
_0-0_
  6
CONTINUOUS
 62
    7
 10
450.54968226370198
 20
207.97564532305742
 11
437.62613760458459
 21
209.38351848410821
  0
LINE
  8
_0-0_
  6
CONTINUOUS
 62
    7
 10
437.62613760458459
 20
209.38351848410821
 11
437.35540706678705
 21
206.89821302200374
  0
LINE
  8
_0-0_
  6
CONTINUOUS
 62
    7
 10
437.35540706678705
 20
206.89821302200374
 11
450.27890798207869
 21
205.49033986095296
  0
LINE
  8
_0-0_
  6
CONTINUOUS
 62
    7
 10
450.27890798207869
 20
182.99034218070133
 11
450.54968226370198
 21
185.47563670684929
  0
LINE
  8
_0-0_
  6
CONTINUOUS
 62
    7
 10
450.54968226370198
 20
185.47563670684929
 11
437.62613760458459
 21
186.88350986790013
  0
LINE
  8
_0-0_
  6
CONTINUOUS
 62
    7
 10
437.62613760458459
 20
186.88350986790013
 11
437.35540706678705
 21
184.39822627770852
  0
LINE
  8
_0-0_
  6
CONTINUOUS
 62
    7
 10
437.35540706678705
 20
184.39822627770852
 11
450.27890798207869
 21
182.99034218070133
  0
LINE
  8
_0-0_
  6
CONTINUOUS
 62
    7
 10
450.27890798207869
 20
178.49034920622486
 11
450.54968226370198
 21
180.97564373237282
  0
LINE
  8
_0-0_
  6
CONTINUOUS
 62
    7
 10
450.54968226370198
 20
180.97564373237282
 11
437.62613760458459
 21
182.38351689342366
  0
LINE
  8
_0-0_
  6
CONTINUOUS
 62
    7
 10
437.62613760458459
 20
182.38351689342366
 11
437.35540706678705
 21
179.89822236727562
  0
LINE
  8
_0-0_
  6
CONTINUOUS
 62
    7
 10
437.35540706678705
 20
179.89822236727562
 11
450.27890798207869
 21
178.49034920622486
  0
LINE
  8
_0-0_
  6
CONTINUOUS
 62
    7
 10
450.27890798207869
 20
173.99034529579188
 11
450.54968226370198
 21
176.47563982193992
  0
LINE
  8
_0-0_
  6
CONTINUOUS
 62
    7
 10
450.54968226370198
 20
176.47563982193992
 11
437.62613760458459
 21
177.88351298299077
  0
LINE
  8
_0-0_
  6
CONTINUOUS
 62
    7
 10
437.62613760458459
 20
177.88351298299077
 11
437.35540706678705
 21
175.39821845684273
  0
LINE
  8
_0-0_
  6
CONTINUOUS
 62
    7
 10
437.35540706678705
 20
175.39821845684273
 11
450.27890798207869
 21
173.99034529579188
  0
LINE
  8
_0-0_
  6
CONTINUOUS
 62
    7
 10
450.27890798207869
 20
169.4903523213155
 11
450.54968226370198
 21
171.97564684746345
  0
LINE
  8
_0-0_
  6
CONTINUOUS
 62
    7
 10
450.54968226370198
 20
171.97564684746345
 11
437.62613760458459
 21
173.3835200085143
  0
LINE
  8
_0-0_
  6
CONTINUOUS
 62
    7
 10
437.62613760458459
 20
173.3835200085143
 11
437.35540706678705
 21
170.89821454640983
  0
LINE
  8
_0-0_
  6
CONTINUOUS
 62
    7
 10
437.35540706678705
 20
170.89821454640983
 11
450.27890798207869
 21
169.4903523213155
  0
LINE
  8
_0-0_
  6
CONTINUOUS
 62
    7
 10
443.7789254206948
 20
237.99034015552417
 11
454.77892282846813
 21
237.99034015552417
  0
LINE
  8
_0-0_
  6
CONTINUOUS
 62
    7
 10
454.77892282846813
 20
237.99034015552417
 11
457.30394768438742
 21
231.74035355851456
  0
LINE
  8
_0-0_
  6
CONTINUOUS
 62
    7
 10
457.30394768438742
 20
231.74035355851456
 11
454.77892282846813
 21
225.49034508959207
  0
LINE
  8
_0-0_
  6
CONTINUOUS
 62
    7
 10
454.77892282846813
 20
225.49034508959207
 11
443.7789254206948
 21
225.49034508959207
  0
LINE
  8
_0-0_
  6
CONTINUOUS
 62
    7
 10
457.30390394056167
 20
231.72793031199095
 11
457.30390394056167
 21
231.7294832178064
  0
LINE
  8
_0-0_
  6
CONTINUOUS
 62
    7
 10
457.30390394056167
 20
231.7294832178064
 11
457.30390394056167
 21
231.73103612362186
  0
LINE
  8
_0-0_
  6
CONTINUOUS
 62
    7
 10
457.30390394056167
 20
231.73103612362186
 11
457.30394768438742
 21
231.73258902943732
  0
LINE
  8
_0-0_
  6
CONTINUOUS
 62
    7
 10
457.30394768438742
 20
231.73258902943732
 11
457.30394768438742
 21
231.73414193525275
  0
LINE
  8
_0-0_
  6
CONTINUOUS
 62
    7
 10
457.30394768438742
 20
231.73414193525275
 11
457.30394768438742
 21
231.73569484106821
  0
LINE
  8
_0-0_
  6
CONTINUOUS
 62
    7
 10
457.30394768438742
 20
231.73569484106821
 11
457.30394768438742
 21
231.73724774688367
  0
LINE
  8
_0-0_
  6
CONTINUOUS
 62
    7
 10
457.30394768438742
 20
231.73724774688367
 11
457.30394768438742
 21
231.7388006526991
  0
LINE
  8
_0-0_
  6
CONTINUOUS
 62
    7
 10
457.30394768438742
 20
231.7388006526991
 11
457.30394768438742
 21
231.74035355851456
  0
LINE
  8
_0-0_
  6
CONTINUOUS
 62
    7
 10
457.30394768438742
 20
231.74035355851456
 11
457.30394768438742
 21
231.74133779459478
  0
LINE
  8
_0-0_
  6
CONTINUOUS
 62
    7
 10
457.30394768438742
 20
231.74133779459478
 11
457.30394768438742
 21
231.74232203067498
  0
LINE
  8
_0-0_
  6
CONTINUOUS
 62
    7
 10
457.30394768438742
 20
231.74232203067498
 11
457.30394768438742
 21
231.74332813866809
  0
LINE
  8
_0-0_
  6
CONTINUOUS
 62
    7
 10
457.30394768438742
 20
231.74332813866809
 11
457.30394768438742
 21
231.74431237474832
  0
LINE
  8
_0-0_
  6
CONTINUOUS
 62
    7
 10
457.30394768438742
 20
231.74431237474832
 11
457.30394768438742
 21
231.74529661082852
  0
LINE
  8
_0-0_
  6
CONTINUOUS
 62
    7
 10
457.30394768438742
 20
231.74529661082852
 11
457.30394768438742
 21
231.74628084690875
  0
LINE
  8
_0-0_
  6
CONTINUOUS
 62
    7
 10
457.30394768438742
 20
231.74628084690875
 11
457.30394768438742
 21
231.74728695490185
  0
LINE
  8
_0-0_
  6
CONTINUOUS
 62
    7
 10
457.30394768438742
 20
231.74728695490185
 11
457.30394768438742
 21
231.74827119098205
  0
LINE
  8
_0-0_
  6
CONTINUOUS
 62
    7
 10
456.50002365406868
 20
227.73158187571639
 11
456.49997991024293
 21
227.73158187571639
  0
LINE
  8
_0-0_
  6
CONTINUOUS
 62
    7
 10
454.95892867158273
 20
225.93585408332262
 11
454.86133619625139
 21
225.89003242581046
  0
LINE
  8
_0-0_
  6
CONTINUOUS
 62
    7
 10
454.86133619625139
 20
225.89003242581046
 11
454.76286884440412
 21
225.8503349039085
  0
LINE
  8
_0-0_
  6
CONTINUOUS
 62
    7
 10
454.76286884440412
 20
225.8503349039085
 11
454.66352661604128
 21
225.81671777379097
  0
LINE
  8
_0-0_
  6
CONTINUOUS
 62
    7
 10
454.66352661604128
 20
225.81671777379097
 11
454.56330951116257
 21
225.78922477928364
  0
LINE
  8
_0-0_
  6
CONTINUOUS
 62
    7
 10
454.56330951116257
 20
225.78922477928364
 11
454.46226127359398
 21
225.76783404847367
  0
LINE
  8
_0-0_
  6
CONTINUOUS
 62
    7
 10
454.46226127359398
 20
225.76783404847367
 11
454.36033815950958
 21
225.75256745327391
  0
LINE
  8
_0-0_
  6
CONTINUOUS
 62
    7
 10
454.36033815950958
 20
225.75256745327391
 11
454.25758391273524
 21
225.74340312177151
  0
LINE
  8
_0-0_
  6
CONTINUOUS
 62
    7
 10
454.25758391273524
 20
225.74340312177151
 11
454.1539110456194
 21
225.74034105396638
  0
LINE
  8
_0-0_
  6
CONTINUOUS
 62
    7
 10
454.1539110456194
 20
225.74034105396638
 11
453.94468432687881
 21
225.75291740388022
  0
LINE
  8
_0-0_
  6
CONTINUOUS
 62
    7
 10
453.94468432687881
 20
225.75291740388022
 11
453.73895711420124
 21
225.79058083788308
  0
LINE
  8
_0-0_
  6
CONTINUOUS
 62
    7
 10
453.73895711420124
 20
225.79058083788308
 11
453.53681689523819
 21
225.85339697171361
  0
LINE
  8
_0-0_
  6
CONTINUOUS
 62
    7
 10
453.53681689523819
 20
225.85339697171361
 11
453.33817618233815
 21
225.94130018963315
  0
LINE
  8
_0-0_
  6
CONTINUOUS
 62
    7
 10
453.33817618233815
 20
225.94130018963315
 11
453.14303497550105
 21
226.05435610738039
  0
LINE
  8
_0-0_
  6
CONTINUOUS
 62
    7
 10
453.14303497550105
 20
226.05435610738039
 11
452.95148076237859
 21
226.19252098112952
  0
LINE
  8
_0-0_
  6
CONTINUOUS
 62
    7
 10
452.95148076237859
 20
226.19252098112952
 11
452.76342605531903
 21
226.35579481088055
  0
LINE
  8
_0-0_
  6
CONTINUOUS
 62
    7
 10
452.76342605531903
 20
226.35579481088055
 11
452.57891459814829
 21
226.54419946854637
  0
LINE
  8
_0-0_
  6
CONTINUOUS
 62
    7
 10
452.57891459814829
 20
226.54419946854637
 11
452.40100845867141
 21
226.75434480762848
  0
LINE
  8
_0-0_
  6
CONTINUOUS
 62
    7
 10
452.40100845867141
 20
226.75434480762848
 11
452.23276970469351
 21
226.98290629736704
  0
LINE
  8
_0-0_
  6
CONTINUOUS
 62
    7
 10
452.23276970469351
 20
226.98290629736704
 11
452.07415459238882
 21
227.22984019393624
  0
LINE
  8
_0-0_
  6
CONTINUOUS
 62
    7
 10
452.07415459238882
 20
227.22984019393624
 11
451.92520686558311
 21
227.49514649733612
  0
LINE
  8
_0-0_
  6
CONTINUOUS
 62
    7
 10
451.92520686558311
 20
227.49514649733612
 11
451.78592652427642
 21
227.77886895139244
  0
LINE
  8
_0-0_
  6
CONTINUOUS
 62
    7
 10
451.78592652427642
 20
227.77886895139244
 11
451.65626982464289
 21
228.08096381227941
  0
LINE
  8
_0-0_
  6
CONTINUOUS
 62
    7
 10
451.65626982464289
 20
228.08096381227941
 11
451.53628051050839
 21
228.40147482382281
  0
LINE
  8
_0-0_
  6
CONTINUOUS
 62
    7
 10
451.53628051050839
 20
228.40147482382281
 11
451.42595858187286
 21
228.74035824219692
  0
LINE
  8
_0-0_
  6
CONTINUOUS
 62
    7
 10
451.42595858187286
 20
228.74035824219692
 11
451.32705379176787
 21
229.09179613857194
  0
LINE
  8
_0-0_
  6
CONTINUOUS
 62
    7
 10
451.32705379176787
 20
229.09179613857194
 11
451.24131589322474
 21
229.4499705841182
  0
LINE
  8
_0-0_
  6
CONTINUOUS
 62
    7
 10
451.24131589322474
 20
229.4499705841182
 11
451.16878863006946
 21
229.81485970692285
  0
LINE
  8
_0-0_
  6
CONTINUOUS
 62
    7
 10
451.16878863006946
 20
229.81485970692285
 11
451.1094282584761
 21
230.18650725081159
  0
LINE
  8
_0-0_
  6
CONTINUOUS
 62
    7
 10
451.1094282584761
 20
230.18650725081159
 11
451.06327852227048
 21
230.56486947195867
  0
LINE
  8
_0-0_
  6
CONTINUOUS
 62
    7
 10
451.06327852227048
 20
230.56486947195867
 11
451.0302956776269
 21
230.94996824227704
  0
LINE
  8
_0-0_
  6
CONTINUOUS
 62
    7
 10
451.0302956776269
 20
230.94996824227704
 11
451.01052346837099
 21
231.34178168985372
  0
LINE
  8
_0-0_
  6
CONTINUOUS
 62
    7
 10
451.01052346837099
 20
231.34178168985372
 11
451.00391815067718
 21
231.74035355851456
  0
LINE
  8
_0-0_
  6
CONTINUOUS
 62
    7
 10
451.00391815067718
 20
231.74035355851456
 11
451.01052346837099
 21
232.13890355526249
  0
LINE
  8
_0-0_
  6
CONTINUOUS
 62
    7
 10
451.01052346837099
 20
232.13890355526249
 11
451.0302956776269
 21
232.53073887475207
  0
LINE
  8
_0-0_
  6
CONTINUOUS
 62
    7
 10
451.0302956776269
 20
232.53073887475207
 11
451.06327852227048
 21
232.91583764507041
  0
LINE
  8
_0-0_
  6
CONTINUOUS
 62
    7
 10
451.06327852227048
 20
232.91583764507041
 11
451.1094282584761
 21
233.29419986621753
  0
LINE
  8
_0-0_
  6
CONTINUOUS
 62
    7
 10
451.1094282584761
 20
233.29419986621753
 11
451.16878863006946
 21
233.66582553819339
  0
LINE
  8
_0-0_
  6
CONTINUOUS
 62
    7
 10
451.16878863006946
 20
233.66582553819339
 11
451.24131589322474
 21
234.03073653291088
  0
LINE
  8
_0-0_
  6
CONTINUOUS
 62
    7
 10
451.24131589322474
 20
234.03073653291088
 11
451.32705379176787
 21
234.38891097845715
  0
LINE
  8
_0-0_
  6
CONTINUOUS
 62
    7
 10
451.32705379176787
 20
234.38891097845715
 11
451.42595858187286
 21
234.74034887483219
  0
LINE
  8
_0-0_
  6
CONTINUOUS
 62
    7
 10
451.42595858187286
 20
234.74034887483219
 11
451.53628051050839
 21
235.07923229320627
  0
LINE
  8
_0-0_
  6
CONTINUOUS
 62
    7
 10
451.53628051050839
 20
235.07923229320627
 11
451.65626982464289
 21
235.3997214328368
  0
LINE
  8
_0-0_
  6
CONTINUOUS
 62
    7
 10
451.65626982464289
 20
235.3997214328368
 11
451.78592652427642
 21
235.70181629372377
  0
LINE
  8
_0-0_
  6
CONTINUOUS
 62
    7
 10
451.78592652427642
 20
235.70181629372377
 11
451.92520686558311
 21
235.98553874778008
  0
LINE
  8
_0-0_
  6
CONTINUOUS
 62
    7
 10
451.92520686558311
 20
235.98553874778008
 11
452.07415459238882
 21
236.25086692309284
  0
LINE
  8
_0-0_
  6
CONTINUOUS
 62
    7
 10
452.07415459238882
 20
236.25086692309284
 11
452.23276970469351
 21
236.49780081966207
  0
LINE
  8
_0-0_
  6
CONTINUOUS
 62
    7
 10
452.23276970469351
 20
236.49780081966207
 11
452.40100845867141
 21
236.72634043748772
  0
LINE
  8
_0-0_
  6
CONTINUOUS
 62
    7
 10
452.40100845867141
 20
236.72634043748772
 11
452.57891459814829
 21
236.93650764848272
  0
LINE
  8
_0-0_
  6
CONTINUOUS
 62
    7
 10
452.57891459814829
 20
236.93650764848272
 11
452.76342605531903
 21
237.12491230614856
  0
LINE
  8
_0-0_
  6
CONTINUOUS
 62
    7
 10
452.76342605531903
 20
237.12491230614856
 11
452.95148076237859
 21
237.28818613589959
  0
LINE
  8
_0-0_
  6
CONTINUOUS
 62
    7
 10
452.95148076237859
 20
237.28818613589959
 11
453.14303497550105
 21
237.42635100964873
  0
LINE
  8
_0-0_
  6
CONTINUOUS
 62
    7
 10
453.14303497550105
 20
237.42635100964873
 11
453.33817618233815
 21
237.53938505548305
  0
LINE
  8
_0-0_
  6
CONTINUOUS
 62
    7
 10
453.33817618233815
 20
237.53938505548305
 11
453.53681689523819
 21
237.6273101453155
  0
LINE
  8
_0-0_
  6
CONTINUOUS
 62
    7
 10
453.53681689523819
 20
237.6273101453155
 11
453.73895711420124
 21
237.69010440723315
  0
LINE
  8
_0-0_
  6
CONTINUOUS
 62
    7
 10
453.73895711420124
 20
237.69010440723315
 11
453.94468432687881
 21
237.72778971314889
  0
LINE
  8
_0-0_
  6
CONTINUOUS
 62
    7
 10
453.94468432687881
 20
237.72778971314889
 11
454.1539110456194
 21
237.74034419114983
  0
LINE
  8
_0-0_
  6
CONTINUOUS
 62
    7
 10
454.1539110456194
 20
237.74034419114983
 11
454.25758391273524
 21
237.73728212334473
  0
LINE
  8
_0-0_
  6
CONTINUOUS
 62
    7
 10
454.25758391273524
 20
237.73728212334473
 11
454.36033815950958
 21
237.72811779184229
  0
LINE
  8
_0-0_
  6
CONTINUOUS
 62
    7
 10
454.36033815950958
 20
237.72811779184229
 11
454.46226127359398
 21
237.71285119664253
  0
LINE
  8
_0-0_
  6
CONTINUOUS
 62
    7
 10
454.46226127359398
 20
237.71285119664253
 11
454.56330951116257
 21
237.69146046583256
  0
LINE
  8
_0-0_
  6
CONTINUOUS
 62
    7
 10
454.56330951116257
 20
237.69146046583256
 11
454.66352661604128
 21
237.66396747132524
  0
LINE
  8
_0-0_
  6
CONTINUOUS
 62
    7
 10
454.66352661604128
 20
237.66396747132524
 11
454.76286884440412
 21
237.63037221312061
  0
LINE
  8
_0-0_
  6
CONTINUOUS
 62
    7
 10
454.76286884440412
 20
237.63037221312061
 11
454.86133619625139
 21
237.59065281930575
  0
LINE
  8
_0-0_
  6
CONTINUOUS
 62
    7
 10
454.86133619625139
 20
237.59065281930575
 11
454.95892867158273
 21
237.54483116179358
  0
LINE
  8
_0-0_
  6
CONTINUOUS
 62
    7
 10
443.7789254206948
 20
238.24035799181138
 11
428.49999446206107
 21
238.24035799181138
  0
LINE
  8
_0-0_
  6
CONTINUOUS
 62
    7
 10
428.49999446206107
 20
223.99034743143324
 11
428.49999446206107
 21
221.99035784452576
  0
LINE
  8
_0-0_
  6
CONTINUOUS
 62
    7
 10
428.49999446206107
 20
221.99035784452576
 11
443.7789254206948
 21
221.99035784452576
  0
LINE
  8
_0-0_
  6
CONTINUOUS
 62
    7
 10
443.7789254206948
 20
221.99035784452576
 11
443.7789254206948
 21
238.24035799181138
  0
LINE
  8
_0-0_
  6
CONTINUOUS
 62
    7
 10
428.49999446206107
 20
238.24035799181138
 11
428.49999446206107
 21
235.99035056861669
  0
LINE
  8
_0-0_
  6
CONTINUOUS
 62
    7
 10
305.24999368144734
 20
219.50352134851872
 11
305.24999368144734
 21
213.50350884397056
  0
LINE
  8
_0-0_
  6
CONTINUOUS
 62
    7
 10
305.24999368144734
 20
213.50350884397056
 11
304.99999771707309
 21
210.50351352765293
  0
LINE
  8
_0-0_
  6
CONTINUOUS
 62
    7
 10
304.99999771707309
 20
210.50351352765293
 11
304.99999771707309
 21
203.50351716560743
  0
LINE
  8
_0-0_
  6
CONTINUOUS
 62
    7
 10
304.99999771707309
 20
203.50351716560743
 11
289.99999926357191
 21
203.50351716560743
  0
LINE
  8
_0-0_
  6
CONTINUOUS
 62
    7
 10
289.99999926357191
 20
203.50351716560743
 11
289.99999926357191
 21
210.50351352765293
  0
LINE
  8
_0-0_
  6
CONTINUOUS
 62
    7
 10
289.99999926357191
 20
210.50351352765293
 11
289.75000329919766
 21
213.50350884397056
  0
LINE
  8
_0-0_
  6
CONTINUOUS
 62
    7
 10
289.75000329919766
 20
213.50350884397056
 11
289.75000329919766
 21
219.50352134851872
  0
LINE
  8
_0-0_
  6
CONTINUOUS
 62
    7
 10
289.75000329919766
 20
219.50352134851872
 11
305.24999368144734
 21
219.50352134851872
  0
LINE
  8
_0-0_
  6
CONTINUOUS
 62
    7
 10
291.49999692173077
 20
203.50351716560743
 11
291.49999692173077
 21
148.12712544179789
  0
LINE
  8
_0-0_
  6
CONTINUOUS
 62
    7
 10
303.50000005891422
 20
203.50351716560743
 11
303.50000005891422
 21
148.12712544179789
  0
LINE
  8
_0-0_
  6
CONTINUOUS
 62
    7
 10
303.9999919876629
 20
181.5035223500609
 11
304.27074439737328
 21
183.98880594025243
  0
LINE
  8
_0-0_
  6
CONTINUOUS
 62
    7
 10
304.27074439737328
 20
183.98880594025243
 11
291.34719973825582
 21
185.39667910130328
  0
LINE
  8
_0-0_
  6
CONTINUOUS
 62
    7
 10
291.34719973825582
 20
185.39667910130328
 11
291.07646920045823
 21
182.91139551111172
  0
LINE
  8
_0-0_
  6
CONTINUOUS
 62
    7
 10
291.07646920045823
 20
182.91139551111172
 11
303.9999919876629
 21
181.5035223500609
  0
LINE
  8
_0-0_
  6
CONTINUOUS
 62
    7
 10
303.9999919876629
 20
186.00351532453737
 11
304.27074439737328
 21
188.48882078664184
  0
LINE
  8
_0-0_
  6
CONTINUOUS
 62
    7
 10
304.27074439737328
 20
188.48882078664184
 11
291.34719973825582
 21
189.89669394769265
  0
LINE
  8
_0-0_
  6
CONTINUOUS
 62
    7
 10
291.34719973825582
 20
189.89669394769265
 11
291.07646920045823
 21
187.41138848558819
  0
LINE
  8
_0-0_
  6
CONTINUOUS
 62
    7
 10
291.07646920045823
 20
187.41138848558819
 11
303.9999919876629
 21
186.00351532453737
  0
LINE
  8
_0-0_
  6
CONTINUOUS
 62
    7
 10
303.9999919876629
 20
190.50350829901376
 11
304.27074439737328
 21
192.98881376111831
  0
LINE
  8
_0-0_
  6
CONTINUOUS
 62
    7
 10
304.27074439737328
 20
192.98881376111831
 11
291.34719973825582
 21
194.39668692216912
  0
LINE
  8
_0-0_
  6
CONTINUOUS
 62
    7
 10
291.34719973825582
 20
194.39668692216912
 11
291.07646920045823
 21
191.91138146006466
  0
LINE
  8
_0-0_
  6
CONTINUOUS
 62
    7
 10
291.07646920045823
 20
191.91138146006466
 11
303.9999919876629
 21
190.50350829901376
  0
LINE
  8
_0-0_
  6
CONTINUOUS
 62
    7
 10
303.9999919876629
 20
195.00352314540322
 11
304.27074439737328
 21
197.48880673559478
  0
LINE
  8
_0-0_
  6
CONTINUOUS
 62
    7
 10
304.27074439737328
 20
197.48880673559478
 11
291.34719973825582
 21
198.89667989664559
  0
LINE
  8
_0-0_
  6
CONTINUOUS
 62
    7
 10
291.34719973825582
 20
198.89667989664559
 11
291.07646920045823
 21
196.41139630645398
  0
LINE
  8
_0-0_
  6
CONTINUOUS
 62
    7
 10
291.07646920045823
 20
196.41139630645398
 11
303.9999919876629
 21
195.00352314540322
  0
LINE
  8
_0-0_
  6
CONTINUOUS
 62
    7
 10
303.9999919876629
 20
199.50351611987963
 11
304.27074439737328
 21
201.98882158198415
  0
LINE
  8
_0-0_
  6
CONTINUOUS
 62
    7
 10
304.27074439737328
 20
201.98882158198415
 11
291.34719973825582
 21
203.39669474303491
  0
LINE
  8
_0-0_
  6
CONTINUOUS
 62
    7
 10
291.34719973825582
 20
203.39669474303491
 11
291.07646920045823
 21
200.91138928093045
  0
LINE
  8
_0-0_
  6
CONTINUOUS
 62
    7
 10
291.07646920045823
 20
200.91138928093045
 11
303.9999919876629
 21
199.50351611987963
  0
LINE
  8
_0-0_
  6
CONTINUOUS
 62
    7
 10
303.9999919876629
 20
177.00351843962792
 11
304.27074439737328
 21
179.48881296577596
  0
LINE
  8
_0-0_
  6
CONTINUOUS
 62
    7
 10
304.27074439737328
 20
179.48881296577596
 11
291.34719973825582
 21
180.89668612682681
  0
LINE
  8
_0-0_
  6
CONTINUOUS
 62
    7
 10
291.34719973825582
 20
180.89668612682681
 11
291.07646920045823
 21
178.41139160067883
  0
LINE
  8
_0-0_
  6
CONTINUOUS
 62
    7
 10
291.07646920045823
 20
178.41139160067883
 11
303.9999919876629
 21
177.00351843962792
  0
LINE
  8
_0-0_
  6
CONTINUOUS
 62
    7
 10
303.9999919876629
 20
172.50351452919503
 11
304.27074439737328
 21
174.98881999129949
  0
LINE
  8
_0-0_
  6
CONTINUOUS
 62
    7
 10
304.27074439737328
 20
174.98881999129949
 11
291.34719973825582
 21
176.39668221639391
  0
LINE
  8
_0-0_
  6
CONTINUOUS
 62
    7
 10
291.34719973825582
 20
176.39668221639391
 11
291.07646920045823
 21
173.91138769024587
  0
LINE
  8
_0-0_
  6
CONTINUOUS
 62
    7
 10
291.07646920045823
 20
173.91138769024587
 11
303.9999919876629
 21
172.50351452919503
  0
LINE
  8
_0-0_
  6
CONTINUOUS
 62
    7
 10
303.9999919876629
 20
168.00352155471856
 11
304.27074439737328
 21
170.4888160808666
  0
LINE
  8
_0-0_
  6
CONTINUOUS
 62
    7
 10
304.27074439737328
 20
170.4888160808666
 11
291.34719973825582
 21
171.89668924191744
  0
LINE
  8
_0-0_
  6
CONTINUOUS
 62
    7
 10
291.34719973825582
 20
171.89668924191744
 11
291.07646920045823
 21
169.4113947157694
  0
LINE
  8
_0-0_
  6
CONTINUOUS
 62
    7
 10
291.07646920045823
 20
169.4113947157694
 11
303.9999919876629
 21
168.00352155471856
  0
LINE
  8
_0-0_
  6
CONTINUOUS
 62
    7
 10
303.9999919876629
 20
163.50351764428567
 11
304.27074439737328
 21
165.9888121704337
  0
LINE
  8
_0-0_
  6
CONTINUOUS
 62
    7
 10
304.27074439737328
 20
165.9888121704337
 11
291.34719973825582
 21
167.39668533148446
  0
LINE
  8
_0-0_
  6
CONTINUOUS
 62
    7
 10
291.34719973825582
 20
167.39668533148446
 11
291.07646920045823
 21
164.91139080533651
  0
LINE
  8
_0-0_
  6
CONTINUOUS
 62
    7
 10
291.07646920045823
 20
164.91139080533651
 11
303.9999919876629
 21
163.50351764428567
  0
LINE
  8
_0-0_
  6
CONTINUOUS
 62
    7
 10
284.44374599972286
 20
226.91379105262314
 11
284.43598147064563
 21
226.89454376927671
  0
LINE
  8
_0-0_
  6
CONTINUOUS
 62
    7
 10
310.37097400680011
 20
227.37240132217698
 11
308.50000683405227
 21
232.00351641445084
  0
LINE
  8
_0-0_
  6
CONTINUOUS
 62
    7
 10
308.50000683405227
 20
232.00351641445084
 11
286.49999014659272
 21
232.00351641445084
  0
LINE
  8
_0-0_
  6
CONTINUOUS
 62
    7
 10
286.49999014659272
 20
232.00351641445084
 11
284.44374599972286
 21
226.91379105262314
  0
LINE
  8
_0-0_
  6
CONTINUOUS
 62
    7
 10
309.76249739009904
 20
222.62851464702354
 11
311.02500981805861
 21
225.75350794552836
  0
LINE
  8
_0-0_
  6
CONTINUOUS
 62
    7
 10
311.02500981805861
 20
225.75350794552836
 11
310.55625098092213
 21
226.91379105262314
  0
LINE
  8
_0-0_
  6
CONTINUOUS
 62
    7
 10
284.43598147064563
 20
226.89454376927671
 11
283.97500903449924
 21
225.75350794552836
  0
LINE
  8
_0-0_
  6
CONTINUOUS
 62
    7
 10
283.97500903449924
 20
225.75350794552836
 11
286.49999014659272
 21
219.50352134851872
  0
LINE
  8
_0-0_
  6
CONTINUOUS
 62
    7
 10
286.49999014659272
 20
219.50352134851872
 11
308.50000683405227
 21
219.50352134851872
  0
LINE
  8
_0-0_
  6
CONTINUOUS
 62
    7
 10
308.50000683405227
 20
219.50352134851872
 11
309.76249739009904
 21
222.62851464702354
  0
LINE
  8
_0-0_
  6
CONTINUOUS
 62
    7
 10
308.67511336867869
 20
231.57019007620204
 11
308.57997054759142
 21
231.61316838503805
  0
LINE
  8
_0-0_
  6
CONTINUOUS
 62
    7
 10
308.57997054759142
 20
231.61316838503805
 11
308.48344979599176
 21
231.65039438078298
  0
LINE
  8
_0-0_
  6
CONTINUOUS
 62
    7
 10
308.48344979599176
 20
231.65039438078298
 11
308.38552924196688
 21
231.68191180726274
  0
LINE
  8
_0-0_
  6
CONTINUOUS
 62
    7
 10
308.38552924196688
 20
231.68191180726274
 11
308.28623075742985
 21
231.70767692065144
  0
LINE
  8
_0-0_
  6
CONTINUOUS
 62
    7
 10
308.28623075742985
 20
231.70767692065144
 11
308.18551059855452
 21
231.72773346477493
  0
LINE
  8
_0-0_
  6
CONTINUOUS
 62
    7
 10
308.18551059855452
 20
231.72773346477493
 11
308.08341250916703
 21
231.74205956772028
  0
LINE
  8
_0-0_
  6
CONTINUOUS
 62
    7
 10
308.08341250916703
 20
231.74205956772028
 11
307.97989274544142
 21
231.75065522948745
  0
LINE
  8
_0-0_
  6
CONTINUOUS
 62
    7
 10
307.97989274544142
 20
231.75065522948745
 11
307.87499505120354
 21
231.75352045007654
  0
LINE
  8
_0-0_
  6
CONTINUOUS
 62
    7
 10
307.87499505120354
 20
231.75352045007654
 11
307.66574646055005
 21
231.74096597207557
  0
LINE
  8
_0-0_
  6
CONTINUOUS
 62
    7
 10
307.66574646055005
 20
231.74096597207557
 11
307.46004111978539
 21
231.70328066615983
  0
LINE
  8
_0-0_
  6
CONTINUOUS
 62
    7
 10
307.46004111978539
 20
231.70328066615983
 11
307.25787902890943
 21
231.64048640424221
  0
LINE
  8
_0-0_
  6
CONTINUOUS
 62
    7
 10
307.25787902890943
 20
231.64048640424221
 11
307.05923831600944
 21
231.55256131440976
  0
LINE
  8
_0-0_
  6
CONTINUOUS
 62
    7
 10
307.05923831600944
 20
231.55256131440976
 11
306.8641189810852
 21
231.43950539666253
  0
LINE
  8
_0-0_
  6
CONTINUOUS
 62
    7
 10
306.8641189810852
 20
231.43950539666253
 11
306.67254289604983
 21
231.30136239482627
  0
LINE
  8
_0-0_
  6
CONTINUOUS
 62
    7
 10
306.67254289604983
 20
231.30136239482627
 11
306.48451006090312
 21
231.13806669316236
  0
LINE
  8
_0-0_
  6
CONTINUOUS
 62
    7
 10
306.48451006090312
 20
231.13806669316236
 11
306.29999860373243
 21
230.94966203549654
  0
LINE
  8
_0-0_
  6
CONTINUOUS
 62
    7
 10
306.29999860373243
 20
230.94966203549654
 11
306.1220924642555
 21
230.73951669641443
  0
LINE
  8
_0-0_
  6
CONTINUOUS
 62
    7
 10
306.1220924642555
 20
230.73951669641443
 11
305.95383183836475
 21
230.51097707858875
  0
LINE
  8
_0-0_
  6
CONTINUOUS
 62
    7
 10
305.95383183836475
 20
230.51097707858875
 11
305.79521672606006
 21
230.26404318201955
  0
LINE
  8
_0-0_
  6
CONTINUOUS
 62
    7
 10
305.79521672606006
 20
230.26404318201955
 11
305.64626899925435
 21
229.99871500670679
  0
LINE
  8
_0-0_
  6
CONTINUOUS
 62
    7
 10
305.64626899925435
 20
229.99871500670679
 11
305.50698865794766
 21
229.71499255265047
  0
LINE
  8
_0-0_
  6
CONTINUOUS
 62
    7
 10
305.50698865794766
 20
229.71499255265047
 11
305.37733195831413
 21
229.4128976917635
  0
LINE
  8
_0-0_
  6
CONTINUOUS
 62
    7
 10
305.37733195831413
 20
229.4128976917635
 11
305.25734264417963
 21
229.09240855213298
  0
LINE
  8
_0-0_
  6
CONTINUOUS
 62
    7
 10
305.25734264417963
 20
229.09240855213298
 11
305.1470207155441
 21
228.75352513375887
  0
LINE
  8
_0-0_
  6
CONTINUOUS
 62
    7
 10
305.1470207155441
 20
228.75352513375887
 11
305.07827729331939
 21
228.51678354859811
  0
LINE
  8
_0-0_
  6
CONTINUOUS
 62
    7
 10
305.07827729331939
 20
228.51678354859811
 11
305.0161829326143
 21
228.28198856368488
  0
LINE
  8
_0-0_
  6
CONTINUOUS
 62
    7
 10
305.0161829326143
 20
228.28198856368488
 11
304.96069388960325
 21
228.04911830710626
  0
LINE
  8
_0-0_
  6
CONTINUOUS
 62
    7
 10
304.96069388960325
 20
228.04911830710626
 11
304.91185390811165
 21
227.81819465077521
  0
LINE
  8
_0-0_
  6
CONTINUOUS
 62
    7
 10
304.91185390811165
 20
227.81819465077521
 11
304.86961924431404
 21
227.58919572277878
  0
LINE
  8
_0-0_
  6
CONTINUOUS
 62
    7
 10
304.86961924431404
 20
227.58919572277878
 11
304.8340336420361
 21
227.36212152311697
  0
LINE
  8
_0-0_
  6
CONTINUOUS
 62
    7
 10
304.8340336420361
 20
227.36212152311697
 11
304.80507522936489
 21
227.13699392370273
  0
LINE
  8
_0-0_
  6
CONTINUOUS
 62
    7
 10
304.80507522936489
 20
227.13699392370273
 11
304.7827440063005
 21
226.91379105262314
  0
LINE
  8
_0-0_
  6
CONTINUOUS
 62
    7
 10
310.49999642095969
 20
229.07016481672014
 11
310.49999642095969
 21
229.07014294480723
  0
LINE
  8
_0-0_
  6
CONTINUOUS
 62
    7
 10
311.02498794614576
 20
225.74373120046488
 11
311.02498794614576
 21
225.74495602758697
  0
LINE
  8
_0-0_
  6
CONTINUOUS
 62
    7
 10
311.02498794614576
 20
225.74495602758697
 11
311.02498794614576
 21
225.746180854709
  0
LINE
  8
_0-0_
  6
CONTINUOUS
 62
    7
 10
311.02498794614576
 20
225.746180854709
 11
311.02498794614576
 21
225.74740568183103
  0
LINE
  8
_0-0_
  6
CONTINUOUS
 62
    7
 10
311.02498794614576
 20
225.74740568183103
 11
311.02500981805861
 21
225.74863050895306
  0
LINE
  8
_0-0_
  6
CONTINUOUS
 62
    7
 10
311.02500981805861
 20
225.74863050895306
 11
311.02500981805861
 21
225.74985533607509
  0
LINE
  8
_0-0_
  6
CONTINUOUS
 62
    7
 10
311.02500981805861
 20
225.74985533607509
 11
311.02500981805861
 21
225.75108016319714
  0
LINE
  8
_0-0_
  6
CONTINUOUS
 62
    7
 10
311.02500981805861
 20
225.75108016319714
 11
311.02500981805861
 21
225.7523049903192
  0
LINE
  8
_0-0_
  6
CONTINUOUS
 62
    7
 10
311.02500981805861
 20
225.7523049903192
 11
311.02500981805861
 21
225.75350794552836
  0
LINE
  8
_0-0_
  6
CONTINUOUS
 62
    7
 10
311.02500981805861
 20
225.75350794552836
 11
311.02500981805861
 21
225.75558577725326
  0
LINE
  8
_0-0_
  6
CONTINUOUS
 62
    7
 10
311.02500981805861
 20
225.75558577725326
 11
311.02500981805861
 21
225.75764173706523
  0
LINE
  8
_0-0_
  6
CONTINUOUS
 62
    7
 10
311.02500981805861
 20
225.75764173706523
 11
311.02500981805861
 21
225.75971956879013
  0
LINE
  8
_0-0_
  6
CONTINUOUS
 62
    7
 10
311.02500981805861
 20
225.75971956879013
 11
311.02498794614576
 21
225.76177552860216
  0
LINE
  8
_0-0_
  6
CONTINUOUS
 62
    7
 10
311.02498794614576
 20
225.76177552860216
 11
311.02498794614576
 21
225.76383148841416
  0
LINE
  8
_0-0_
  6
CONTINUOUS
 62
    7
 10
311.02498794614576
 20
225.76383148841416
 11
311.02498794614576
 21
225.76588744822615
  0
LINE
  8
_0-0_
  6
CONTINUOUS
 62
    7
 10
311.02498794614576
 20
225.76588744822615
 11
311.02498794614576
 21
225.76794340803815
  0
LINE
  8
_0-0_
  6
CONTINUOUS
 62
    7
 10
311.02498794614576
 20
225.76794340803815
 11
311.02498794614576
 21
225.76999936785015
  0
LINE
  8
_0-0_
  6
CONTINUOUS
 62
    7
 10
308.68001267716693
 20
219.94903034224933
 11
308.58239832992251
 21
219.90320868473714
  0
LINE
  8
_0-0_
  6
CONTINUOUS
 62
    7
 10
308.58239832992251
 20
219.90320868473714
 11
308.48393097807548
 21
219.8634892909223
  0
LINE
  8
_0-0_
  6
CONTINUOUS
 62
    7
 10
308.48393097807548
 20
219.8634892909223
 11
308.38458874971252
 21
219.82989403271768
  0
LINE
  8
_0-0_
  6
CONTINUOUS
 62
    7
 10
308.38458874971252
 20
219.82989403271768
 11
308.28439351674672
 21
219.80240103821035
  0
LINE
  8
_0-0_
  6
CONTINUOUS
 62
    7
 10
308.28439351674672
 20
219.80240103821035
 11
308.18332340726522
 21
219.78101030740038
  0
LINE
  8
_0-0_
  6
CONTINUOUS
 62
    7
 10
308.18332340726522
 20
219.78101030740038
 11
308.08142216509367
 21
219.76574371220062
  0
LINE
  8
_0-0_
  6
CONTINUOUS
 62
    7
 10
308.08142216509367
 20
219.76574371220062
 11
307.97864604640654
 21
219.75657938069816
  0
LINE
  8
_0-0_
  6
CONTINUOUS
 62
    7
 10
307.97864604640654
 20
219.75657938069816
 11
307.87499505120354
 21
219.75351731289305
  0
LINE
  8
_0-0_
  6
CONTINUOUS
 62
    7
 10
307.87499505120354
 20
219.75351731289305
 11
307.66574646055005
 21
219.76607179089402
  0
LINE
  8
_0-0_
  6
CONTINUOUS
 62
    7
 10
307.66574646055005
 20
219.76607179089402
 11
307.46004111978539
 21
219.80375709680973
  0
LINE
  8
_0-0_
  6
CONTINUOUS
 62
    7
 10
307.46004111978539
 20
219.80375709680973
 11
307.25787902890943
 21
219.86655135872741
  0
LINE
  8
_0-0_
  6
CONTINUOUS
 62
    7
 10
307.25787902890943
 20
219.86655135872741
 11
307.05923831600944
 21
219.95447644855983
  0
LINE
  8
_0-0_
  6
CONTINUOUS
 62
    7
 10
307.05923831600944
 20
219.95447644855983
 11
306.8641189810852
 21
220.06753236630709
  0
LINE
  8
_0-0_
  6
CONTINUOUS
 62
    7
 10
306.8641189810852
 20
220.06753236630709
 11
306.67254289604983
 21
220.20567536814329
  0
LINE
  8
_0-0_
  6
CONTINUOUS
 62
    7
 10
306.67254289604983
 20
220.20567536814329
 11
306.48451006090312
 21
220.36897106980723
  0
LINE
  8
_0-0_
  6
CONTINUOUS
 62
    7
 10
306.48451006090312
 20
220.36897106980723
 11
306.29999860373243
 21
220.55737572747307
  0
LINE
  8
_0-0_
  6
CONTINUOUS
 62
    7
 10
306.29999860373243
 20
220.55737572747307
 11
306.1220924642555
 21
220.76752106655516
  0
LINE
  8
_0-0_
  6
CONTINUOUS
 62
    7
 10
306.1220924642555
 20
220.76752106655516
 11
305.95383183836475
 21
220.99606068438081
  0
LINE
  8
_0-0_
  6
CONTINUOUS
 62
    7
 10
305.95383183836475
 20
220.99606068438081
 11
305.79521672606006
 21
221.24299458095004
  0
LINE
  8
_0-0_
  6
CONTINUOUS
 62
    7
 10
305.79521672606006
 20
221.24299458095004
 11
305.64626899925435
 21
221.50832275626283
  0
LINE
  8
_0-0_
  6
CONTINUOUS
 62
    7
 10
305.64626899925435
 20
221.50832275626283
 11
305.50698865794766
 21
221.79204521031915
  0
LINE
  8
_0-0_
  6
CONTINUOUS
 62
    7
 10
305.50698865794766
 20
221.79204521031915
 11
305.37733195831413
 21
222.09414007120611
  0
LINE
  8
_0-0_
  6
CONTINUOUS
 62
    7
 10
305.37733195831413
 20
222.09414007120611
 11
305.25734264417963
 21
222.41462921083664
  0
LINE
  8
_0-0_
  6
CONTINUOUS
 62
    7
 10
305.25734264417963
 20
222.41462921083664
 11
305.1470207155441
 21
222.75351262921072
  0
LINE
  8
_0-0_
  6
CONTINUOUS
 62
    7
 10
305.1470207155441
 20
222.75351262921072
 11
305.04811592543899
 21
223.10495052558571
  0
LINE
  8
_0-0_
  6
CONTINUOUS
 62
    7
 10
305.04811592543899
 20
223.10495052558571
 11
304.96237802689598
 21
223.463124971132
  0
LINE
  8
_0-0_
  6
CONTINUOUS
 62
    7
 10
304.96237802689598
 20
223.463124971132
 11
304.88985076374064
 21
223.82803596584952
  0
LINE
  8
_0-0_
  6
CONTINUOUS
 62
    7
 10
304.88985076374064
 20
223.82803596584952
 11
304.83051226406019
 21
224.19966163782536
  0
LINE
  8
_0-0_
  6
CONTINUOUS
 62
    7
 10
304.83051226406019
 20
224.19966163782536
 11
304.78434065594172
 21
224.57804573088538
  0
LINE
  8
_0-0_
  6
CONTINUOUS
 62
    7
 10
304.78434065594172
 20
224.57804573088538
 11
304.7513796832111
 21
224.96312262929084
  0
LINE
  8
_0-0_
  6
CONTINUOUS
 62
    7
 10
304.7513796832111
 20
224.96312262929084
 11
304.73158560204229
 21
225.35495794878042
  0
LINE
  8
_0-0_
  6
CONTINUOUS
 62
    7
 10
304.73158560204229
 20
225.35495794878042
 11
304.72500215626127
 21
225.75350794552836
  0
LINE
  8
_0-0_
  6
CONTINUOUS
 62
    7
 10
304.72500215626127
 20
225.75350794552836
 11
304.72589890468998
 21
225.88316464516186
  0
LINE
  8
_0-0_
  6
CONTINUOUS
 62
    7
 10
304.72589890468998
 20
225.88316464516186
 11
304.7286110218887
 21
226.01721759928697
  0
LINE
  8
_0-0_
  6
CONTINUOUS
 62
    7
 10
304.7286110218887
 20
226.01721759928697
 11
304.73311663594484
 21
226.15566680790374
  0
LINE
  8
_0-0_
  6
CONTINUOUS
 62
    7
 10
304.73311663594484
 20
226.15566680790374
 11
304.73943761877109
 21
226.29849039909919
  0
LINE
  8
_0-0_
  6
CONTINUOUS
 62
    7
 10
304.73943761877109
 20
226.29849039909919
 11
304.74755209845461
 21
226.44573211669922
  0
LINE
  8
_0-0_
  6
CONTINUOUS
 62
    7
 10
304.74755209845461
 20
226.44573211669922
 11
304.75748194690834
 21
226.59734821687792
  0
LINE
  8
_0-0_
  6
CONTINUOUS
 62
    7
 10
304.75748194690834
 20
226.59734821687792
 11
304.76920529221934
 21
226.75338244346113
  0
LINE
  8
_0-0_
  6
CONTINUOUS
 62
    7
 10
304.76920529221934
 20
226.75338244346113
 11
304.7827440063005
 21
226.91379105262314
  0
LINE
  8
_0-0_
  6
CONTINUOUS
 62
    7
 10
286.31998430347807
 20
219.94903034224933
 11
286.41759865072243
 21
219.90320868473714
  0
LINE
  8
_0-0_
  6
CONTINUOUS
 62
    7
 10
286.41759865072243
 20
219.90320868473714
 11
286.51606600256957
 21
219.8634892909223
  0
LINE
  8
_0-0_
  6
CONTINUOUS
 62
    7
 10
286.51606600256957
 20
219.8634892909223
 11
286.61540823093247
 21
219.82989403271768
  0
LINE
  8
_0-0_
  6
CONTINUOUS
 62
    7
 10
286.61540823093247
 20
219.82989403271768
 11
286.71560346389822
 21
219.80240103821035
  0
LINE
  8
_0-0_
  6
CONTINUOUS
 62
    7
 10
286.71560346389822
 20
219.80240103821035
 11
286.81667357337977
 21
219.78101030740038
  0
LINE
  8
_0-0_
  6
CONTINUOUS
 62
    7
 10
286.81667357337977
 20
219.78101030740038
 11
286.91859668746417
 21
219.76574371220062
  0
LINE
  8
_0-0_
  6
CONTINUOUS
 62
    7
 10
286.91859668746417
 20
219.76574371220062
 11
287.02137280615136
 21
219.75657938069816
  0
LINE
  8
_0-0_
  6
CONTINUOUS
 62
    7
 10
287.02137280615136
 20
219.75657938069816
 11
287.12500192944151
 21
219.75351731289305
  0
LINE
  8
_0-0_
  6
CONTINUOUS
 62
    7
 10
287.12500192944151
 20
219.75351731289305
 11
287.33425052009494
 21
219.76607179089402
  0
LINE
  8
_0-0_
  6
CONTINUOUS
 62
    7
 10
287.33425052009494
 20
219.76607179089402
 11
287.53995586085966
 21
219.80375709680973
  0
LINE
  8
_0-0_
  6
CONTINUOUS
 62
    7
 10
287.53995586085966
 20
219.80375709680973
 11
287.74211795173557
 21
219.86655135872741
  0
LINE
  8
_0-0_
  6
CONTINUOUS
 62
    7
 10
287.74211795173557
 20
219.86655135872741
 11
287.94078053654852
 21
219.95447644855983
  0
LINE
  8
_0-0_
  6
CONTINUOUS
 62
    7
 10
287.94078053654852
 20
219.95447644855983
 11
288.13587799955985
 21
220.06753236630709
  0
LINE
  8
_0-0_
  6
CONTINUOUS
 62
    7
 10
288.13587799955985
 20
220.06753236630709
 11
288.32745408459516
 21
220.20567536814329
  0
LINE
  8
_0-0_
  6
CONTINUOUS
 62
    7
 10
288.32745408459516
 20
220.20567536814329
 11
288.51548691974182
 21
220.36897106980723
  0
LINE
  8
_0-0_
  6
CONTINUOUS
 62
    7
 10
288.51548691974182
 20
220.36897106980723
 11
288.6999983769125
 21
220.55737572747307
  0
LINE
  8
_0-0_
  6
CONTINUOUS
 62
    7
 10
288.6999983769125
 20
220.55737572747307
 11
288.87790451638949
 21
220.76752106655516
  0
LINE
  8
_0-0_
  6
CONTINUOUS
 62
    7
 10
288.87790451638949
 20
220.76752106655516
 11
289.04616514228024
 21
220.99606068438081
  0
LINE
  8
_0-0_
  6
CONTINUOUS
 62
    7
 10
289.04616514228024
 20
220.99606068438081
 11
289.20478025458493
 21
221.24299458095004
  0
LINE
  8
_0-0_
  6
CONTINUOUS
 62
    7
 10
289.20478025458493
 20
221.24299458095004
 11
289.35372798139065
 21
221.50832275626283
  0
LINE
  8
_0-0_
  6
CONTINUOUS
 62
    7
 10
289.35372798139065
 20
221.50832275626283
 11
289.49303019461024
 21
221.79204521031915
  0
LINE
  8
_0-0_
  6
CONTINUOUS
 62
    7
 10
289.49303019461024
 20
221.79204521031915
 11
289.62266502233086
 21
222.09414007120611
  0
LINE
  8
_0-0_
  6
CONTINUOUS
 62
    7
 10
289.62266502233086
 20
222.09414007120611
 11
289.74265433646536
 21
222.41462921083664
  0
LINE
  8
_0-0_
  6
CONTINUOUS
 62
    7
 10
289.74265433646536
 20
222.41462921083664
 11
289.85297626510089
 21
222.75351262921072
  0
LINE
  8
_0-0_
  6
CONTINUOUS
 62
    7
 10
289.85297626510089
 20
222.75351262921072
 11
289.95188105520594
 21
223.10495052558571
  0
LINE
  8
_0-0_
  6
CONTINUOUS
 62
    7
 10
289.95188105520594
 20
223.10495052558571
 11
290.03761895374902
 21
223.463124971132
  0
LINE
  8
_0-0_
  6
CONTINUOUS
 62
    7
 10
290.03761895374902
 20
223.463124971132
 11
290.11014621690435
 21
223.82803596584952
  0
LINE
  8
_0-0_
  6
CONTINUOUS
 62
    7
 10
290.11014621690435
 20
223.82803596584952
 11
290.1694847165848
 21
224.19966163782536
  0
LINE
  8
_0-0_
  6
CONTINUOUS
 62
    7
 10
290.1694847165848
 20
224.19966163782536
 11
290.21565632470328
 21
224.57804573088538
  0
LINE
  8
_0-0_
  6
CONTINUOUS
 62
    7
 10
290.21565632470328
 20
224.57804573088538
 11
290.24861729743395
 21
224.96312262929084
  0
LINE
  8
_0-0_
  6
CONTINUOUS
 62
    7
 10
290.24861729743395
 20
224.96312262929084
 11
290.26841137860276
 21
225.35495794878042
  0
LINE
  8
_0-0_
  6
CONTINUOUS
 62
    7
 10
290.26841137860276
 20
225.35495794878042
 11
290.27499482438373
 21
225.75350794552836
  0
LINE
  8
_0-0_
  6
CONTINUOUS
 62
    7
 10
290.27499482438373
 20
225.75350794552836
 11
290.27409807595507
 21
225.9205218723842
  0
LINE
  8
_0-0_
  6
CONTINUOUS
 62
    7
 10
290.27409807595507
 20
225.9205218723842
 11
290.27138595875624
 21
226.08125856023958
  0
LINE
  8
_0-0_
  6
CONTINUOUS
 62
    7
 10
290.27138595875624
 20
226.08125856023958
 11
290.2668803447001
 21
226.23571800909446
  0
LINE
  8
_0-0_
  6
CONTINUOUS
 62
    7
 10
290.2668803447001
 20
226.23571800909446
 11
290.260537489961
 21
226.38387834703599
  0
LINE
  8
_0-0_
  6
CONTINUOUS
 62
    7
 10
290.260537489961
 20
226.38387834703599
 11
290.25242301027743
 21
226.52578331788993
  0
LINE
  8
_0-0_
  6
CONTINUOUS
 62
    7
 10
290.25242301027743
 20
226.52578331788993
 11
290.24247128991084
 21
226.66138917783053
  0
LINE
  8
_0-0_
  6
CONTINUOUS
 62
    7
 10
290.24247128991084
 20
226.66138917783053
 11
290.2307479445999
 21
226.79073967068351
  0
LINE
  8
_0-0_
  6
CONTINUOUS
 62
    7
 10
290.2307479445999
 20
226.79073967068351
 11
290.21718735860583
 21
226.91379105262314
  0
LINE
  8
_0-0_
  6
CONTINUOUS
 62
    7
 10
283.97500903449924
 20
225.75331109831228
 11
283.97500903449924
 21
225.75335484213809
  0
LINE
  8
_0-0_
  6
CONTINUOUS
 62
    7
 10
283.97500903449924
 20
225.75335484213809
 11
283.97500903449924
 21
225.75339858596385
  0
LINE
  8
_0-0_
  6
CONTINUOUS
 62
    7
 10
283.97500903449924
 20
225.75339858596385
 11
283.97500903449924
 21
225.75346420170257
  0
LINE
  8
_0-0_
  6
CONTINUOUS
 62
    7
 10
283.97500903449924
 20
225.75346420170257
 11
283.97500903449924
 21
225.75350794552836
  0
LINE
  8
_0-0_
  6
CONTINUOUS
 62
    7
 10
283.97500903449924
 20
225.75350794552836
 11
283.97500903449924
 21
225.75355168935414
  0
LINE
  8
_0-0_
  6
CONTINUOUS
 62
    7
 10
283.97500903449924
 20
225.75355168935414
 11
283.97500903449924
 21
225.75359543317995
  0
LINE
  8
_0-0_
  6
CONTINUOUS
 62
    7
 10
283.97500903449924
 20
225.75359543317995
 11
283.97500903449924
 21
225.75363917700571
  0
LINE
  8
_0-0_
  6
CONTINUOUS
 62
    7
 10
283.97500903449924
 20
225.75363917700571
 11
283.97500903449924
 21
225.75368292083147
  0
LINE
  8
_0-0_
  6
CONTINUOUS
 62
    7
 10
286.31998430347807
 20
231.55800742072029
 11
286.41759865072243
 21
231.60382907823245
  0
LINE
  8
_0-0_
  6
CONTINUOUS
 62
    7
 10
286.41759865072243
 20
231.60382907823245
 11
286.51606600256957
 21
231.64354847204731
  0
LINE
  8
_0-0_
  6
CONTINUOUS
 62
    7
 10
286.51606600256957
 20
231.64354847204731
 11
286.61540823093247
 21
231.67714373025194
  0
LINE
  8
_0-0_
  6
CONTINUOUS
 62
    7
 10
286.61540823093247
 20
231.67714373025194
 11
286.71560346389822
 21
231.70463672475927
  0
LINE
  8
_0-0_
  6
CONTINUOUS
 62
    7
 10
286.71560346389822
 20
231.70463672475927
 11
286.81667357337977
 21
231.72602745556924
  0
LINE
  8
_0-0_
  6
CONTINUOUS
 62
    7
 10
286.81667357337977
 20
231.72602745556924
 11
286.91859668746417
 21
231.74129405076897
  0
LINE
  8
_0-0_
  6
CONTINUOUS
 62
    7
 10
286.91859668746417
 20
231.74129405076897
 11
287.02137280615136
 21
231.7504583822714
  0
LINE
  8
_0-0_
  6
CONTINUOUS
 62
    7
 10
287.02137280615136
 20
231.7504583822714
 11
287.12500192944151
 21
231.75352045007654
  0
LINE
  8
_0-0_
  6
CONTINUOUS
 62
    7
 10
287.12500192944151
 20
231.75352045007654
 11
287.33425052009494
 21
231.74096597207557
  0
LINE
  8
_0-0_
  6
CONTINUOUS
 62
    7
 10
287.33425052009494
 20
231.74096597207557
 11
287.53995586085966
 21
231.70328066615983
  0
LINE
  8
_0-0_
  6
CONTINUOUS
 62
    7
 10
287.53995586085966
 20
231.70328066615983
 11
287.74211795173557
 21
231.64048640424221
  0
LINE
  8
_0-0_
  6
CONTINUOUS
 62
    7
 10
287.74211795173557
 20
231.64048640424221
 11
287.94078053654852
 21
231.55256131440976
  0
LINE
  8
_0-0_
  6
CONTINUOUS
 62
    7
 10
287.94078053654852
 20
231.55256131440976
 11
288.13587799955985
 21
231.43950539666253
  0
LINE
  8
_0-0_
  6
CONTINUOUS
 62
    7
 10
288.13587799955985
 20
231.43950539666253
 11
288.32745408459516
 21
231.30136239482627
  0
LINE
  8
_0-0_
  6
CONTINUOUS
 62
    7
 10
288.32745408459516
 20
231.30136239482627
 11
288.51548691974182
 21
231.13806669316236
  0
LINE
  8
_0-0_
  6
CONTINUOUS
 62
    7
 10
288.51548691974182
 20
231.13806669316236
 11
288.6999983769125
 21
230.94966203549654
  0
LINE
  8
_0-0_
  6
CONTINUOUS
 62
    7
 10
288.6999983769125
 20
230.94966203549654
 11
288.87790451638949
 21
230.73951669641443
  0
LINE
  8
_0-0_
  6
CONTINUOUS
 62
    7
 10
288.87790451638949
 20
230.73951669641443
 11
289.04616514228024
 21
230.51097707858875
  0
LINE
  8
_0-0_
  6
CONTINUOUS
 62
    7
 10
289.04616514228024
 20
230.51097707858875
 11
289.20478025458493
 21
230.26404318201955
  0
LINE
  8
_0-0_
  6
CONTINUOUS
 62
    7
 10
289.20478025458493
 20
230.26404318201955
 11
289.35372798139065
 21
229.99871500670679
  0
LINE
  8
_0-0_
  6
CONTINUOUS
 62
    7
 10
289.35372798139065
 20
229.99871500670679
 11
289.49303019461024
 21
229.71499255265047
  0
LINE
  8
_0-0_
  6
CONTINUOUS
 62
    7
 10
289.49303019461024
 20
229.71499255265047
 11
289.62266502233086
 21
229.4128976917635
  0
LINE
  8
_0-0_
  6
CONTINUOUS
 62
    7
 10
289.62266502233086
 20
229.4128976917635
 11
289.74265433646536
 21
229.09240855213298
  0
LINE
  8
_0-0_
  6
CONTINUOUS
 62
    7
 10
289.74265433646536
 20
229.09240855213298
 11
289.85297626510089
 21
228.75352513375887
  0
LINE
  8
_0-0_
  6
CONTINUOUS
 62
    7
 10
289.85297626510089
 20
228.75352513375887
 11
289.91189919843634
 21
228.54913210776778
  0
LINE
  8
_0-0_
  6
CONTINUOUS
 62
    7
 10
289.91189919843634
 20
228.54913210776778
 11
289.96699454701542
 21
228.33745573478313
  0
LINE
  8
_0-0_
  6
CONTINUOUS
 62
    7
 10
289.96699454701542
 20
228.33745573478313
 11
290.01828418275102
 21
228.11845227097911
  0
LINE
  8
_0-0_
  6
CONTINUOUS
 62
    7
 10
290.01828418275102
 20
228.11845227097911
 11
290.06572436181733
 21
227.8921435882686
  0
LINE
  8
_0-0_
  6
CONTINUOUS
 62
    7
 10
290.06572436181733
 20
227.8921435882686
 11
290.10931508421436
 21
227.6585296866516
  0
LINE
  8
_0-0_
  6
CONTINUOUS
 62
    7
 10
290.10931508421436
 20
227.6585296866516
 11
290.14910009376791
 21
227.41758869421528
  0
LINE
  8
_0-0_
  6
CONTINUOUS
 62
    7
 10
290.14910009376791
 20
227.41758869421528
 11
290.18505751856509
 21
227.16934248287245
  0
LINE
  8
_0-0_
  6
CONTINUOUS
 62
    7
 10
290.18505751856509
 20
227.16934248287245
 11
290.21718735860583
 21
226.91379105262314
  0
LINE
  8
_0-0_
  6
CONTINUOUS
 62
    7
 10
310.49999642095969
 20
852.70880710204119
 11
387.50000014728556
 21
852.70880710204119
  0
LINE
  8
_0-0_
  6
CONTINUOUS
 62
    7
 10
207.49999683335943
 20
852.70880710204119
 11
284.5000005596853
 21
852.70880710204119
  0
LINE
  8
_0-0_
  6
CONTINUOUS
 62
    7
 10
207.50001870527228
 20
890.70880610049915
 11
387.50000014728556
 21
890.70880610049915
  0
LINE
  8
_0-0_
  6
CONTINUOUS
 62
    7
 10
310.49999642095969
 20
680.88927103285619
 11
310.47278776132003
 21
680.05896947558779
  0
LINE
  8
_0-0_
  6
CONTINUOUS
 62
    7
 10
310.47278776132003
 20
680.05896947558779
 11
310.39113991048805
 21
679.24266594257131
  0
LINE
  8
_0-0_
  6
CONTINUOUS
 62
    7
 10
310.39113991048805
 20
679.24266594257131
 11
310.2550747403767
 21
678.44036043380675
  0
LINE
  8
_0-0_
  6
CONTINUOUS
 62
    7
 10
310.2550747403767
 20
678.44036043380675
 11
310.06459225098592
 21
677.6520966931198
  0
LINE
  8
_0-0_
  6
CONTINUOUS
 62
    7
 10
310.06459225098592
 20
677.6520966931198
 11
309.81967057040293
 21
676.87787472051082
  0
LINE
  8
_0-0_
  6
CONTINUOUS
 62
    7
 10
309.81967057040293
 20
676.87787472051082
 11
309.52030969862778
 21
676.11765077215364
  0
LINE
  8
_0-0_
  6
CONTINUOUS
 62
    7
 10
309.52030969862778
 20
676.11765077215364
 11
309.16653150757304
 21
675.37146859187419
  0
LINE
  8
_0-0_
  6
CONTINUOUS
 62
    7
 10
309.16653150757304
 20
675.37146859187419
 11
308.75833599723904
 21
674.63928443584666
  0
LINE
  8
_0-0_
  6
CONTINUOUS
 62
    7
 10
308.75833599723904
 20
674.63928443584666
 11
308.30298464270629
 21
673.93330283146565
  0
LINE
  8
_0-0_
  6
CONTINUOUS
 62
    7
 10
308.30298464270629
 20
673.93330283146565
 11
307.80780453479423
 21
673.26559707464855
  0
LINE
  8
_0-0_
  6
CONTINUOUS
 62
    7
 10
307.80780453479423
 20
673.26559707464855
 11
307.27277380159001
 21
672.63621090922118
  0
LINE
  8
_0-0_
  6
CONTINUOUS
 62
    7
 10
307.27277380159001
 20
672.63621090922118
 11
306.69791431500641
 21
672.04514433518341
  0
LINE
  8
_0-0_
  6
CONTINUOUS
 62
    7
 10
306.69791431500641
 20
672.04514433518341
 11
306.08320420313066
 21
671.49239735253536
  0
LINE
  8
_0-0_
  6
CONTINUOUS
 62
    7
 10
306.08320420313066
 20
671.49239735253536
 11
305.42864346596264
 21
670.977926217451
  0
LINE
  8
_0-0_
  6
CONTINUOUS
 62
    7
 10
305.42864346596264
 20
670.977926217451
 11
304.7342539754153
 21
670.50181841758217
  0
LINE
  8
_0-0_
  6
CONTINUOUS
 62
    7
 10
304.7342539754153
 20
670.50181841758217
 11
303.9999919876629
 21
670.06398646527725
  0
LINE
  8
_0-0_
  6
CONTINUOUS
 62
    7
 10
303.9999919876629
 20
670.06398646527725
 11
303.23854321218363
 21
669.67147311648796
  0
LINE
  8
_0-0_
  6
CONTINUOUS
 62
    7
 10
303.23854321218363
 20
669.67147311648796
 11
302.46250587080442
 21
669.33132112716612
  0
LINE
  8
_0-0_
  6
CONTINUOUS
 62
    7
 10
302.46250587080442
 20
669.33132112716612
 11
301.67187996352493
 21
669.04344300966
  0
LINE
  8
_0-0_
  6
CONTINUOUS
 62
    7
 10
301.67187996352493
 20
669.04344300966
 11
300.86666549034561
 21
668.80796999544702
  0
LINE
  8
_0-0_
  6
CONTINUOUS
 62
    7
 10
300.86666549034561
 20
668.80796999544702
 11
300.04688432317903
 21
668.62481459687569
  0
LINE
  8
_0-0_
  6
CONTINUOUS
 62
    7
 10
300.04688432317903
 20
668.62481459687569
 11
299.21249271819943
 21
668.49397681394589
  0
LINE
  8
_0-0_
  6
CONTINUOUS
 62
    7
 10
299.21249271819943
 20
668.49397681394589
 11
298.36353441923279
 21
668.41545664665773
  0
LINE
  8
_0-0_
  6
CONTINUOUS
 62
    7
 10
298.36353441923279
 20
668.41545664665773
 11
297.50000942627889
 21
668.38929783883702
  0
LINE
  8
_0-0_
  6
CONTINUOUS
 62
    7
 10
297.50000942627889
 20
668.38929783883702
 11
296.6364625614122
 21
668.41545664665773
  0
LINE
  8
_0-0_
  6
CONTINUOUS
 62
    7
 10
296.6364625614122
 20
668.41545664665773
 11
295.78750426244551
 21
668.49397681394589
  0
LINE
  8
_0-0_
  6
CONTINUOUS
 62
    7
 10
295.78750426244551
 20
668.49397681394589
 11
294.95311265746591
 21
668.62481459687569
  0
LINE
  8
_0-0_
  6
CONTINUOUS
 62
    7
 10
294.95311265746591
 20
668.62481459687569
 11
294.13333149029938
 21
668.80796999544702
  0
LINE
  8
_0-0_
  6
CONTINUOUS
 62
    7
 10
294.13333149029938
 20
668.80796999544702
 11
293.32811701712001
 21
669.04344300966
  0
LINE
  8
_0-0_
  6
CONTINUOUS
 62
    7
 10
293.32811701712001
 20
669.04344300966
 11
292.53749110984063
 21
669.33132112716612
  0
LINE
  8
_0-0_
  6
CONTINUOUS
 62
    7
 10
292.53749110984063
 20
669.33132112716612
 11
291.76145376846137
 21
669.67147311648796
  0
LINE
  8
_0-0_
  6
CONTINUOUS
 62
    7
 10
291.76145376846137
 20
669.67147311648796
 11
291.0000049929821
 21
670.06398646527725
  0
LINE
  8
_0-0_
  6
CONTINUOUS
 62
    7
 10
291.0000049929821
 20
670.06398646527725
 11
290.2657648771426
 21
670.50181841758217
  0
LINE
  8
_0-0_
  6
CONTINUOUS
 62
    7
 10
290.2657648771426
 20
670.50181841758217
 11
289.57135351468241
 21
670.977926217451
  0
LINE
  8
_0-0_
  6
CONTINUOUS
 62
    7
 10
289.57135351468241
 20
670.977926217451
 11
288.91679277751439
 21
671.49239735253536
  0
LINE
  8
_0-0_
  6
CONTINUOUS
 62
    7
 10
288.91679277751439
 20
671.49239735253536
 11
288.30208266563858
 21
672.04514433518341
  0
LINE
  8
_0-0_
  6
CONTINUOUS
 62
    7
 10
288.30208266563858
 20
672.04514433518341
 11
287.72722317905499
 21
672.63621090922118
  0
LINE
  8
_0-0_
  6
CONTINUOUS
 62
    7
 10
287.72722317905499
 20
672.63621090922118
 11
287.19219244585076
 21
673.26559707464855
  0
LINE
  8
_0-0_
  6
CONTINUOUS
 62
    7
 10
287.19219244585076
 20
673.26559707464855
 11
286.69701233793876
 21
673.93330283146565
  0
LINE
  8
_0-0_
  6
CONTINUOUS
 62
    7
 10
286.69701233793876
 20
673.93330283146565
 11
286.24166098340595
 21
674.63928443584666
  0
LINE
  8
_0-0_
  6
CONTINUOUS
 62
    7
 10
286.24166098340595
 20
674.63928443584666
 11
285.83346547307195
 21
675.37146859187419
  0
LINE
  8
_0-0_
  6
CONTINUOUS
 62
    7
 10
285.83346547307195
 20
675.37146859187419
 11
285.47968728201727
 21
676.11765077215364
  0
LINE
  8
_0-0_
  6
CONTINUOUS
 62
    7
 10
285.47968728201727
 20
676.11765077215364
 11
285.18034828215491
 21
676.87787472051082
  0
LINE
  8
_0-0_
  6
CONTINUOUS
 62
    7
 10
285.18034828215491
 20
676.87787472051082
 11
284.93542660157186
 21
677.6520966931198
  0
LINE
  8
_0-0_
  6
CONTINUOUS
 62
    7
 10
284.93542660157186
 20
677.6520966931198
 11
284.74492224026835
 21
678.44036043380675
  0
LINE
  8
_0-0_
  6
CONTINUOUS
 62
    7
 10
284.74492224026835
 20
678.44036043380675
 11
284.60885707015689
 21
679.24266594257131
  0
LINE
  8
_0-0_
  6
CONTINUOUS
 62
    7
 10
284.60885707015689
 20
679.24266594257131
 11
284.52720921932496
 21
680.05896947558779
  0
LINE
  8
_0-0_
  6
CONTINUOUS
 62
    7
 10
284.52720921932496
 20
680.05896947558779
 11
284.5000005596853
 21
680.88927103285619
  0
LINE
  8
_0-0_
  6
CONTINUOUS
 62
    7
 10
284.5000005596853
 20
680.88927103285619
 11
284.5000005596853
 21
871.70876285744441
  0
LINE
  8
_0-0_
  6
CONTINUOUS
 62
    7
 10
284.5000005596853
 20
871.70876285744441
 11
284.74979967684362
 21
874.24494238893953
  0
LINE
  8
_0-0_
  6
CONTINUOUS
 62
    7
 10
284.74979967684362
 20
874.24494238893953
 11
285.48957338664525
 21
876.68366067658053
  0
LINE
  8
_0-0_
  6
CONTINUOUS
 62
    7
 10
285.48957338664525
 20
876.68366067658053
 11
286.69088820232844
 21
878.93121844553104
  0
LINE
  8
_0-0_
  6
CONTINUOUS
 62
    7
 10
286.69088820232844
 20
878.93121844553104
 11
288.30761625960065
 21
880.90117789603573
  0
LINE
  8
_0-0_
  6
CONTINUOUS
 62
    7
 10
288.30761625960065
 20
880.90117789603573
 11
290.27759758201802
 21
882.51786220948202
  0
LINE
  8
_0-0_
  6
CONTINUOUS
 62
    7
 10
290.27759758201802
 20
882.51786220948202
 11
292.52511160714283
 21
883.71924264090399
  0
LINE
  8
_0-0_
  6
CONTINUOUS
 62
    7
 10
292.52511160714283
 20
883.71924264090399
 11
294.96382989478383
 21
884.45903822261857
  0
LINE
  8
_0-0_
  6
CONTINUOUS
 62
    7
 10
294.96382989478383
 20
884.45903822261857
 11
297.50000942627889
 21
884.70881546786381
  0
LINE
  8
_0-0_
  6
CONTINUOUS
 62
    7
 10
297.50000942627889
 20
884.70881546786381
 11
300.03616708586105
 21
884.45903822261857
  0
LINE
  8
_0-0_
  6
CONTINUOUS
 62
    7
 10
300.03616708586105
 20
884.45903822261857
 11
302.47488537350216
 21
883.71924264090399
  0
LINE
  8
_0-0_
  6
CONTINUOUS
 62
    7
 10
302.47488537350216
 20
883.71924264090399
 11
304.72242127053988
 21
882.51786220948202
  0
LINE
  8
_0-0_
  6
CONTINUOUS
 62
    7
 10
304.72242127053988
 20
882.51786220948202
 11
306.69238072104434
 21
880.90117789603573
  0
LINE
  8
_0-0_
  6
CONTINUOUS
 62
    7
 10
306.69238072104434
 20
880.90117789603573
 11
308.30910877831656
 21
878.93121844553104
  0
LINE
  8
_0-0_
  6
CONTINUOUS
 62
    7
 10
308.30910877831656
 20
878.93121844553104
 11
309.5104235939998
 21
876.68366067658053
  0
LINE
  8
_0-0_
  6
CONTINUOUS
 62
    7
 10
309.5104235939998
 20
876.68366067658053
 11
310.25021917571428
 21
874.24494238893953
  0
LINE
  8
_0-0_
  6
CONTINUOUS
 62
    7
 10
310.25021917571428
 20
874.24494238893953
 11
310.49999642095969
 21
871.70876285744441
  0
LINE
  8
_0-0_
  6
CONTINUOUS
 62
    7
 10
310.49999642095969
 20
871.70876285744441
 11
310.49999642095969
 21
680.88927103285619
  0
LINE
  8
_0-0_
  6
CONTINUOUS
 62
    7
 10
310.49999642095969
 20
687.57240899281146
 11
310.49999642095969
 21
687.90035645473881
  0
LINE
  8
_0-0_
  6
CONTINUOUS
 62
    7
 10
310.49999642095969
 20
687.90035645473881
 11
310.49999642095969
 21
688.10271539283065
  0
LINE
  8
_0-0_
  6
CONTINUOUS
 62
    7
 10
310.49999642095969
 20
688.10271539283065
 11
310.49999642095969
 21
688.17948580708742
  0
LINE
  8
_0-0_
  6
CONTINUOUS
 62
    7
 10
310.49999642095969
 20
688.17948580708742
 11
310.49999642095969
 21
688.13062395368308
  0
LINE
  8
_0-0_
  6
CONTINUOUS
 62
    7
 10
310.49999642095969
 20
688.13062395368308
 11
310.49999642095969
 21
687.95621732026916
  0
LINE
  8
_0-0_
  6
CONTINUOUS
 62
    7
 10
310.49999642095969
 20
687.95621732026916
 11
310.49999642095969
 21
687.65613467536832
  0
LINE
  8
_0-0_
  6
CONTINUOUS
 62
    7
 10
310.49999642095969
 20
687.65613467536832
 11
310.49999642095969
 21
687.23050725045812
  0
LINE
  8
_0-0_
  6
CONTINUOUS
 62
    7
 10
310.49999642095969
 20
687.23050725045812
 11
310.49999642095969
 21
686.67924755788681
  0
LINE
  8
_0-0_
  6
CONTINUOUS
 62
    7
 10
310.49999642095969
 20
686.67924755788681
 11
310.47278776132003
 21
686.05826020701045
  0
LINE
  8
_0-0_
  6
CONTINUOUS
 62
    7
 10
310.47278776132003
 20
686.05826020701045
 11
310.39113991048805
 21
685.42336231953391
  0
LINE
  8
_0-0_
  6
CONTINUOUS
 62
    7
 10
310.39113991048805
 20
685.42336231953391
 11
310.2550747403767
 21
684.77459763928266
  0
LINE
  8
_0-0_
  6
CONTINUOUS
 62
    7
 10
310.2550747403767
 20
684.77459763928266
 11
310.06459225098592
 21
684.11192242243123
  0
LINE
  8
_0-0_
  6
CONTINUOUS
 62
    7
 10
310.06459225098592
 20
684.11192242243123
 11
309.81967057040293
 21
683.43538041280499
  0
LINE
  8
_0-0_
  6
CONTINUOUS
 62
    7
 10
309.81967057040293
 20
683.43538041280499
 11
309.52030969862778
 21
682.74492786657845
  0
LINE
  8
_0-0_
  6
CONTINUOUS
 62
    7
 10
309.52030969862778
 20
682.74492786657845
 11
309.16653150757304
 21
682.04060852757743
  0
LINE
  8
_0-0_
  6
CONTINUOUS
 62
    7
 10
309.16653150757304
 20
682.04060852757743
 11
308.75833599723904
 21
681.32237865197612
  0
LINE
  8
_0-0_
  6
CONTINUOUS
 62
    7
 10
308.75833599723904
 20
681.32237865197612
 11
308.30298464270629
 21
680.61639704759511
  0
LINE
  8
_0-0_
  6
CONTINUOUS
 62
    7
 10
308.30298464270629
 20
680.61639704759511
 11
307.80780453479423
 21
679.94869129077802
  0
LINE
  8
_0-0_
  6
CONTINUOUS
 62
    7
 10
307.80780453479423
 20
679.94869129077802
 11
307.27277380159001
 21
679.31930512535064
  0
LINE
  8
_0-0_
  6
CONTINUOUS
 62
    7
 10
307.27277380159001
 20
679.31930512535064
 11
306.69791431500641
 21
678.72823855131287
  0
LINE
  8
_0-0_
  6
CONTINUOUS
 62
    7
 10
306.69791431500641
 20
678.72823855131287
 11
306.08320420313066
 21
678.17549156866471
  0
LINE
  8
_0-0_
  6
CONTINUOUS
 62
    7
 10
306.08320420313066
 20
678.17549156866471
 11
305.42864346596264
 21
677.66106417740627
  0
LINE
  8
_0-0_
  6
CONTINUOUS
 62
    7
 10
305.42864346596264
 20
677.66106417740627
 11
304.7342539754153
 21
677.18491263371175
  0
LINE
  8
_0-0_
  6
CONTINUOUS
 62
    7
 10
304.7342539754153
 20
677.18491263371175
 11
303.9999919876629
 21
676.74708068140671
  0
LINE
  8
_0-0_
  6
CONTINUOUS
 62
    7
 10
303.9999919876629
 20
676.74708068140671
 11
303.23854321218363
 21
676.35456733261753
  0
LINE
  8
_0-0_
  6
CONTINUOUS
 62
    7
 10
303.23854321218363
 20
676.35456733261753
 11
302.46250587080442
 21
676.0144153432957
  0
LINE
  8
_0-0_
  6
CONTINUOUS
 62
    7
 10
302.46250587080442
 20
676.0144153432957
 11
301.67187996352493
 21
675.72658096961527
  0
LINE
  8
_0-0_
  6
CONTINUOUS
 62
    7
 10
301.67187996352493
 20
675.72658096961527
 11
300.86666549034561
 21
675.4910642115766
  0
LINE
  8
_0-0_
  6
CONTINUOUS
 62
    7
 10
300.86666549034561
 20
675.4910642115766
 11
300.04688432317903
 21
675.30790881300516
  0
LINE
  8
_0-0_
  6
CONTINUOUS
 62
    7
 10
300.04688432317903
 20
675.30790881300516
 11
299.21249271819943
 21
675.17707103007535
  0
LINE
  8
_0-0_
  6
CONTINUOUS
 62
    7
 10
299.21249271819943
 20
675.17707103007535
 11
298.36353441923279
 21
675.09855086278731
  0
LINE
  8
_0-0_
  6
CONTINUOUS
 62
    7
 10
298.36353441923279
 20
675.09855086278731
 11
297.50000942627889
 21
675.07239205496649
  0
LINE
  8
_0-0_
  6
CONTINUOUS
 62
    7
 10
297.50000942627889
 20
675.07239205496649
 11
296.6364625614122
 21
675.09855086278731
  0
LINE
  8
_0-0_
  6
CONTINUOUS
 62
    7
 10
296.6364625614122
 20
675.09855086278731
 11
295.78750426244551
 21
675.17707103007535
  0
LINE
  8
_0-0_
  6
CONTINUOUS
 62
    7
 10
295.78750426244551
 20
675.17707103007535
 11
294.95311265746591
 21
675.30790881300516
  0
LINE
  8
_0-0_
  6
CONTINUOUS
 62
    7
 10
294.95311265746591
 20
675.30790881300516
 11
294.13333149029938
 21
675.4910642115766
  0
LINE
  8
_0-0_
  6
CONTINUOUS
 62
    7
 10
294.13333149029938
 20
675.4910642115766
 11
293.32811701712001
 21
675.72658096961527
  0
LINE
  8
_0-0_
  6
CONTINUOUS
 62
    7
 10
293.32811701712001
 20
675.72658096961527
 11
292.53749110984063
 21
676.0144153432957
  0
LINE
  8
_0-0_
  6
CONTINUOUS
 62
    7
 10
292.53749110984063
 20
676.0144153432957
 11
291.76145376846137
 21
676.35456733261753
  0
LINE
  8
_0-0_
  6
CONTINUOUS
 62
    7
 10
291.76145376846137
 20
676.35456733261753
 11
291.0000049929821
 21
676.74708068140671
  0
LINE
  8
_0-0_
  6
CONTINUOUS
 62
    7
 10
291.0000049929821
 20
676.74708068140671
 11
290.2657648771426
 21
677.18491263371175
  0
LINE
  8
_0-0_
  6
CONTINUOUS
 62
    7
 10
290.2657648771426
 20
677.18491263371175
 11
289.57135351468241
 21
677.66106417740627
  0
LINE
  8
_0-0_
  6
CONTINUOUS
 62
    7
 10
289.57135351468241
 20
677.66106417740627
 11
288.91679277751439
 21
678.17549156866471
  0
LINE
  8
_0-0_
  6
CONTINUOUS
 62
    7
 10
288.91679277751439
 20
678.17549156866471
 11
288.30208266563858
 21
678.72823855131287
  0
LINE
  8
_0-0_
  6
CONTINUOUS
 62
    7
 10
288.30208266563858
 20
678.72823855131287
 11
287.72722317905499
 21
679.31930512535064
  0
LINE
  8
_0-0_
  6
CONTINUOUS
 62
    7
 10
287.72722317905499
 20
679.31930512535064
 11
287.19219244585076
 21
679.94869129077802
  0
LINE
  8
_0-0_
  6
CONTINUOUS
 62
    7
 10
287.19219244585076
 20
679.94869129077802
 11
286.69701233793876
 21
680.61639704759511
  0
LINE
  8
_0-0_
  6
CONTINUOUS
 62
    7
 10
286.69701233793876
 20
680.61639704759511
 11
286.24166098340595
 21
681.32237865197612
  0
LINE
  8
_0-0_
  6
CONTINUOUS
 62
    7
 10
286.24166098340595
 20
681.32237865197612
 11
286.0112622529843
 21
681.75846085124942
  0
LINE
  8
_0-0_
  6
CONTINUOUS
 62
    7
 10
286.0112622529843
 20
681.75846085124942
 11
285.78449426010309
 21
682.29314163384743
  0
LINE
  8
_0-0_
  6
CONTINUOUS
 62
    7
 10
285.78449426010309
 20
682.29314163384743
 11
285.56133513284919
 21
682.92646474359572
  0
LINE
  8
_0-0_
  6
CONTINUOUS
 62
    7
 10
285.56133513284919
 20
682.92646474359572
 11
285.34180674313575
 21
683.65838643666859
  0
LINE
  8
_0-0_
  6
CONTINUOUS
 62
    7
 10
285.34180674313575
 20
683.65838643666859
 11
285.12590909096264
 21
684.48895045689164
  0
LINE
  8
_0-0_
  6
CONTINUOUS
 62
    7
 10
285.12590909096264
 20
684.48895045689164
 11
284.91364217632986
 21
685.4181568042651
  0
LINE
  8
_0-0_
  6
CONTINUOUS
 62
    7
 10
284.91364217632986
 20
685.4181568042651
 11
284.70500599923741
 21
686.44596173496313
  0
LINE
  8
_0-0_
  6
CONTINUOUS
 62
    7
 10
284.70500599923741
 20
686.44596173496313
 11
284.5000005596853
 21
687.57240899281146
  0
LINE
  8
_0-0_
  6
CONTINUOUS
 62
    7
 10
404.60003031726967
 20
863.42691929644138
 11
412.75247964159399
 21
855.274469972117
  0
LINE
  8
_0-0_
  6
CONTINUOUS
 62
    7
 10
412.75247964159399
 20
855.274469972117
 11
415.07558299767925
 21
853.01510137020387
  0
LINE
  8
_0-0_
  6
CONTINUOUS
 62
    7
 10
415.07558299767925
 20
853.01510137020387
 11
417.15984506496591
 21
851.12195607778176
  0
LINE
  8
_0-0_
  6
CONTINUOUS
 62
    7
 10
417.15984506496591
 20
851.12195607778176
 11
419.00530958727978
 21
849.59512158250254
  0
LINE
  8
_0-0_
  6
CONTINUOUS
 62
    7
 10
419.00530958727978
 20
849.59512158250254
 11
420.61193282079506
 21
848.43459788436587
  0
LINE
  8
_0-0_
  6
CONTINUOUS
 62
    7
 10
420.61193282079506
 20
848.43459788436587
 11
421.97975850933767
 21
847.64029749572046
  0
LINE
  8
_0-0_
  6
CONTINUOUS
 62
    7
 10
421.97975850933767
 20
847.64029749572046
 11
423.10874290908157
 21
847.21230790421771
  0
LINE
  8
_0-0_
  6
CONTINUOUS
 62
    7
 10
423.10874290908157
 20
847.21230790421771
 11
423.99888602002704
 21
847.15054162220599
  0
LINE
  8
_0-0_
  6
CONTINUOUS
 62
    7
 10
423.99888602002704
 20
847.15054162220599
 11
424.65023158599968
 21
847.45508613733705
  0
LINE
  8
_0-0_
  6
CONTINUOUS
 62
    7
 10
395.78188745211446
 20
854.60877643128606
 11
403.9915537005686
 21
846.39911018283203
  0
LINE
  8
_0-0_
  6
CONTINUOUS
 62
    7
 10
403.9915537005686
 20
846.39911018283203
 11
406.23753669179081
 21
844.08943618126364
  0
LINE
  8
_0-0_
  6
CONTINUOUS
 62
    7
 10
406.23753669179081
 20
844.08943618126364
 11
408.11900238272761
 21
842.01676622781054
  0
LINE
  8
_0-0_
  6
CONTINUOUS
 62
    7
 10
408.11900238272761
 20
842.01676622781054
 11
409.63599451720484
 21
840.18110032247296
  0
LINE
  8
_0-0_
  6
CONTINUOUS
 62
    7
 10
409.63599451720484
 20
840.18110032247296
 11
410.78851309522236
 21
838.58252595290253
  0
LINE
  8
_0-0_
  6
CONTINUOUS
 62
    7
 10
410.78851309522236
 20
838.58252595290253
 11
411.57655811678023
 21
837.22104311909914
  0
LINE
  8
_0-0_
  6
CONTINUOUS
 62
    7
 10
411.57655811678023
 20
837.22104311909914
 11
412.00008583805271
 21
836.09647684575964
  0
LINE
  8
_0-0_
  6
CONTINUOUS
 62
    7
 10
412.00008583805271
 20
836.09647684575964
 11
412.05914000286555
 21
835.20900210818718
  0
LINE
  8
_0-0_
  6
CONTINUOUS
 62
    7
 10
412.05914000286555
 20
835.20900210818718
 11
411.75376435504455
 21
834.55853141873035
  0
LINE
  8
_0-0_
  6
CONTINUOUS
 62
    7
 10
414.21409209262447
 20
825.78360745345299
 11
413.57525726082702
 21
826.97308956426082
  0
LINE
  8
_0-0_
  6
CONTINUOUS
 62
    7
 10
413.57525726082702
 20
826.97308956426082
 11
413.05396208891989
 21
828.21856377207621
  0
LINE
  8
_0-0_
  6
CONTINUOUS
 62
    7
 10
413.05396208891989
 20
828.21856377207621
 11
412.65510588539149
 21
829.50848170689164
  0
LINE
  8
_0-0_
  6
CONTINUOUS
 62
    7
 10
412.65510588539149
 20
829.50848170689164
 11
412.38231938778199
 21
830.83085756044125
  0
LINE
  8
_0-0_
  6
CONTINUOUS
 62
    7
 10
412.38231938778199
 20
830.83085756044125
 11
412.23822722563864
 21
832.17326808620146
  0
LINE
  8
_0-0_
  6
CONTINUOUS
 62
    7
 10
412.23822722563864
 20
832.17326808620146
 11
412.22409796990939
 21
833.52337752530002
  0
LINE
  8
_0-0_
  6
CONTINUOUS
 62
    7
 10
412.22409796990939
 20
833.52337752530002
 11
412.34006285207153
 21
834.86858765591069
  0
LINE
  8
_0-0_
  6
CONTINUOUS
 62
    7
 10
412.34006285207153
 20
834.86858765591069
 11
412.58511576413184
 21
836.1963002562062
  0
LINE
  8
_0-0_
  6
CONTINUOUS
 62
    7
 10
412.58511576413184
 20
836.1963002562062
 11
413.23755492574918
 21
838.24911051275183
  0
LINE
  8
_0-0_
  6
CONTINUOUS
 62
    7
 10
413.23755492574918
 20
838.24911051275183
 11
414.19720697587059
 21
840.17760081640995
  0
LINE
  8
_0-0_
  6
CONTINUOUS
 62
    7
 10
414.19720697587059
 20
840.17760081640995
 11
415.44128138126092
 21
841.93601512540704
  0
LINE
  8
_0-0_
  6
CONTINUOUS
 62
    7
 10
415.44128138126092
 20
841.93601512540704
 11
416.94042603481694
 21
843.48270931759384
  0
LINE
  8
_0-0_
  6
CONTINUOUS
 62
    7
 10
416.94042603481694
 20
843.48270931759384
 11
418.65907720617344
 21
844.78120104226366
  0
LINE
  8
_0-0_
  6
CONTINUOUS
 62
    7
 10
418.65907720617344
 20
844.78120104226366
 11
420.55659688117419
 21
845.80069464606197
  0
LINE
  8
_0-0_
  6
CONTINUOUS
 62
    7
 10
420.55659688117419
 20
845.80069464606197
 11
422.58801640690984
 21
846.51695604950305
  0
LINE
  8
_0-0_
  6
CONTINUOUS
 62
    7
 10
422.58801640690984
 20
846.51695604950305
 11
424.70530506266584
 21
846.91318762348419
  0
LINE
  8
_0-0_
  6
CONTINUOUS
 62
    7
 10
424.70530506266584
 20
846.91318762348419
 11
426.85828868026431
 21
846.97985321398403
  0
LINE
  8
_0-0_
  6
CONTINUOUS
 62
    7
 10
426.85828868026431
 20
846.97985321398403
 11
428.99604944648888
 21
846.71555301857722
  0
LINE
  8
_0-0_
  6
CONTINUOUS
 62
    7
 10
428.99604944648888
 20
846.71555301857722
 11
431.06793201107769
 21
846.12632368522259
  0
LINE
  8
_0-0_
  6
CONTINUOUS
 62
    7
 10
431.06793201107769
 20
846.12632368522259
 11
433.02489954532342
 21
845.22633821347495
  0
LINE
  8
_0-0_
  6
CONTINUOUS
 62
    7
 10
433.02489954532342
 20
845.22633821347495
 11
434.82067108154297
 21
844.03676861501572
  0
LINE
  8
_0-0_
  6
CONTINUOUS
 62
    7
 10
434.82067108154297
 20
844.03676861501572
 11
436.41268387724529
 21
842.58578591365153
  0
LINE
  8
_0-0_
  6
CONTINUOUS
 62
    7
 10
436.41268387724529
 20
842.58578591365153
 11
437.76327449842768
 21
840.90777275645121
  0
LINE
  8
_0-0_
  6
CONTINUOUS
 62
    7
 10
437.76327449842768
 20
840.90777275645121
 11
438.84046620843952
 21
839.04244853723003
  0
LINE
  8
_0-0_
  6
CONTINUOUS
 62
    7
 10
438.84046620843952
 20
839.04244853723003
 11
439.48914340103909
 21
837.44133702576391
  0
LINE
  8
_0-0_
  6
CONTINUOUS
 62
    7
 10
439.48914340103909
 20
837.44133702576391
 11
439.93572411850153
 21
835.77251007197901
  0
LINE
  8
_0-0_
  6
CONTINUOUS
 62
    7
 10
439.93572411850153
 20
835.77251007197901
 11
440.17338432400379
 21
834.0614265824837
  0
LINE
  8
_0-0_
  6
CONTINUOUS
 62
    7
 10
440.17338432400379
 20
834.0614265824837
 11
440.19849328000566
 21
832.33407038979544
  0
LINE
  8
_0-0_
  6
CONTINUOUS
 62
    7
 10
440.19849328000566
 20
832.33407038979544
 11
440.01065729207511
 21
830.61677527703841
  0
LINE
  8
_0-0_
  6
CONTINUOUS
 62
    7
 10
440.01065729207511
 20
830.61677527703841
 11
439.61276345271403
 21
828.93570005203298
  0
LINE
  8
_0-0_
  6
CONTINUOUS
 62
    7
 10
439.61276345271403
 20
828.93570005203298
 11
439.01084840988096
 21
827.31639110903939
  0
LINE
  8
_0-0_
  6
CONTINUOUS
 62
    7
 10
439.01084840988096
 20
827.31639110903939
 11
438.21409836699138
 21
825.78360745345299
  0
LINE
  8
_0-0_
  6
CONTINUOUS
 62
    7
 10
414.21409209262447
 20
819.29981010761037
 11
414.21409209262447
 21
832.99468964683501
  0
LINE
  8
_0-0_
  6
CONTINUOUS
 62
    7
 10
414.21409209262447
 20
832.99468964683501
 11
414.44466579834921
 21
835.33577171531874
  0
LINE
  8
_0-0_
  6
CONTINUOUS
 62
    7
 10
414.44466579834921
 20
835.33577171531874
 11
415.1275506627145
 21
837.58691647798389
  0
LINE
  8
_0-0_
  6
CONTINUOUS
 62
    7
 10
415.1275506627145
 20
837.58691647798389
 11
416.23645664642208
 21
839.66151115977152
  0
LINE
  8
_0-0_
  6
CONTINUOUS
 62
    7
 10
416.23645664642208
 20
839.66151115977152
 11
417.72882100698104
 21
841.47994199774894
  0
LINE
  8
_0-0_
  6
CONTINUOUS
 62
    7
 10
417.72882100698104
 20
841.47994199774894
 11
419.5472518449584
 21
842.97230635830783
  0
LINE
  8
_0-0_
  6
CONTINUOUS
 62
    7
 10
419.5472518449584
 20
842.97230635830783
 11
421.6218902705719
 21
844.08129982966716
  0
LINE
  8
_0-0_
  6
CONTINUOUS
 62
    7
 10
421.6218902705719
 20
844.08129982966716
 11
423.87299128941123
 21
844.76414095020664
  0
LINE
  8
_0-0_
  6
CONTINUOUS
 62
    7
 10
423.87299128941123
 20
844.76414095020664
 11
426.21411710172083
 21
844.99467091210568
  0
LINE
  8
_0-0_
  6
CONTINUOUS
 62
    7
 10
426.21411710172083
 20
844.99467091210568
 11
428.55519917020467
 21
844.76414095020664
  0
LINE
  8
_0-0_
  6
CONTINUOUS
 62
    7
 10
428.55519917020467
 20
844.76414095020664
 11
430.80630018904401
 21
844.08129982966716
  0
LINE
  8
_0-0_
  6
CONTINUOUS
 62
    7
 10
430.80630018904401
 20
844.08129982966716
 11
432.88093861465745
 21
842.97230635830783
  0
LINE
  8
_0-0_
  6
CONTINUOUS
 62
    7
 10
432.88093861465745
 20
842.97230635830783
 11
434.69936945263487
 21
841.47994199774894
  0
LINE
  8
_0-0_
  6
CONTINUOUS
 62
    7
 10
434.69936945263487
 20
841.47994199774894
 11
436.19173381319376
 21
839.66151115977152
  0
LINE
  8
_0-0_
  6
CONTINUOUS
 62
    7
 10
436.19173381319376
 20
839.66151115977152
 11
437.30063979690135
 21
837.58691647798389
  0
LINE
  8
_0-0_
  6
CONTINUOUS
 62
    7
 10
437.30063979690135
 20
837.58691647798389
 11
437.98352466126664
 21
835.33577171531874
  0
LINE
  8
_0-0_
  6
CONTINUOUS
 62
    7
 10
437.98352466126664
 20
835.33577171531874
 11
438.21409836699138
 21
832.99468964683501
  0
LINE
  8
_0-0_
  6
CONTINUOUS
 62
    7
 10
438.21409836699138
 20
832.99468964683501
 11
438.21409836699138
 21
819.29981010761037
  0
LINE
  8
_0-0_
  6
CONTINUOUS
 62
    7
 10
440.18335791628328
 20
664.47151331367638
 11
440.21410982581176
 21
664.47151331367638
  0
LINE
  8
_0-0_
  6
CONTINUOUS
 62
    7
 10
440.21410982581176
 20
664.47151331367638
 11
440.21410982581176
 21
815.97475442186737
  0
LINE
  8
_0-0_
  6
CONTINUOUS
 62
    7
 10
440.21410982581176
 20
815.97475442186737
 11
440.18480146253432
 21
816.50947894829119
  0
LINE
  8
_0-0_
  6
CONTINUOUS
 62
    7
 10
440.18480146253432
 20
816.50947894829119
 11
440.09687637270184
 21
817.03519224660272
  0
LINE
  8
_0-0_
  6
CONTINUOUS
 62
    7
 10
440.09687637270184
 20
817.03519224660272
 11
439.95033455631443
 21
817.55189431680208
  0
LINE
  8
_0-0_
  6
CONTINUOUS
 62
    7
 10
439.95033455631443
 20
817.55189431680208
 11
439.74517601337209
 21
818.05949767123775
  0
LINE
  8
_0-0_
  6
CONTINUOUS
 62
    7
 10
439.74517601337209
 20
818.05949767123775
 11
439.48144448770057
 21
818.55808979756125
  0
LINE
  8
_0-0_
  6
CONTINUOUS
 62
    7
 10
439.48144448770057
 20
818.55808979756125
 11
439.15905249164831
 21
819.04767069577247
  0
LINE
  8
_0-0_
  6
CONTINUOUS
 62
    7
 10
439.15905249164831
 20
819.04767069577247
 11
438.77804376904112
 21
819.52824036587162
  0
LINE
  8
_0-0_
  6
CONTINUOUS
 62
    7
 10
438.77804376904112
 20
819.52824036587162
 11
438.3384620637047
 21
819.9997988078585
  0
LINE
  8
_0-0_
  6
CONTINUOUS
 62
    7
 10
438.3384620637047
 20
819.9997988078585
 11
438.29585557738778
 21
820.04214283122053
  0
LINE
  8
_0-0_
  6
CONTINUOUS
 62
    7
 10
438.29585557738778
 20
820.04214283122053
 11
438.26094800440956
 21
820.07678794124399
  0
LINE
  8
_0-0_
  6
CONTINUOUS
 62
    7
 10
438.26094800440956
 20
820.07678794124399
 11
438.23382683242141
 21
820.10364665027748
  0
LINE
  8
_0-0_
  6
CONTINUOUS
 62
    7
 10
438.23382683242141
 20
820.10364665027748
 11
438.21440457377196
 21
820.12271895832077
  0
LINE
  8
_0-0_
  6
CONTINUOUS
 62
    7
 10
438.21440457377196
 20
820.12271895832077
 11
438.20272497228672
 21
820.13409235302549
  0
LINE
  8
_0-0_
  6
CONTINUOUS
 62
    7
 10
438.20272497228672
 20
820.13409235302549
 11
438.19878802796586
 21
820.13759185908839
  0
LINE
  8
_0-0_
  6
CONTINUOUS
 62
    7
 10
438.19878802796586
 20
820.13759185908839
 11
438.20254999698358
 21
820.1333049641612
  0
LINE
  8
_0-0_
  6
CONTINUOUS
 62
    7
 10
438.20254999698358
 20
820.1333049641612
 11
438.21409836699138
 21
820.12131915589543
  0
LINE
  8
_0-0_
  6
CONTINUOUS
 62
    7
 10
413.64109171863686
 20
664.47151331367638
 11
412.21408063380409
 21
664.47151331367638
  0
LINE
  8
_0-0_
  6
CONTINUOUS
 62
    7
 10
412.21408063380409
 20
664.47151331367638
 11
412.21408063380409
 21
815.97475442186737
  0
LINE
  8
_0-0_
  6
CONTINUOUS
 62
    7
 10
412.21408063380409
 20
815.97475442186737
 11
412.24535746924204
 21
816.49390614631091
  0
LINE
  8
_0-0_
  6
CONTINUOUS
 62
    7
 10
412.24535746924204
 20
816.49390614631091
 11
412.3391004879042
 21
817.01279540779967
  0
LINE
  8
_0-0_
  6
CONTINUOUS
 62
    7
 10
412.3391004879042
 20
817.01279540779967
 11
412.49535343361634
 21
817.53142220633367
  0
LINE
  8
_0-0_
  6
CONTINUOUS
 62
    7
 10
412.49535343361634
 20
817.53142220633367
 11
412.71411630637857
 21
818.04987402956453
  0
LINE
  8
_0-0_
  6
CONTINUOUS
 62
    7
 10
412.71411630637857
 20
818.04987402956453
 11
412.99534536236501
 21
818.56806338984075
  0
LINE
  8
_0-0_
  6
CONTINUOUS
 62
    7
 10
412.99534536236501
 20
818.56806338984075
 11
413.33908434540149
 21
819.0860777748137
  0
LINE
  8
_0-0_
  6
CONTINUOUS
 62
    7
 10
413.33908434540149
 20
819.0860777748137
 11
413.74533325548794
 21
819.60382969683201
  0
LINE
  8
_0-0_
  6
CONTINUOUS
 62
    7
 10
413.74533325548794
 20
819.60382969683201
 11
414.21409209262447
 21
820.12131915589543
  0
LINE
  8
_0-0_
  6
CONTINUOUS
 62
    7
 10
414.21409209262447
 20
820.12131915589543
 11
414.16973585327617
 21
820.0776628177598
  0
LINE
  8
_0-0_
  6
CONTINUOUS
 62
    7
 10
414.16973585327617
 20
820.0776628177598
 11
414.13360345317585
 21
820.04214283122053
  0
LINE
  8
_0-0_
  6
CONTINUOUS
 62
    7
 10
414.13360345317585
 20
820.04214283122053
 11
414.10569489232358
 21
820.01475919627762
  0
LINE
  8
_0-0_
  6
CONTINUOUS
 62
    7
 10
414.10569489232358
 20
820.01475919627762
 11
414.08601017071931
 21
819.99551191293131
  0
LINE
  8
_0-0_
  6
CONTINUOUS
 62
    7
 10
414.08601017071931
 20
819.99551191293131
 11
414.07459303218889
 21
819.98440098118135
  0
LINE
  8
_0-0_
  6
CONTINUOUS
 62
    7
 10
414.07459303218889
 20
819.98440098118135
 11
414.07139973290634
 21
819.98133891337613
  0
LINE
  8
_0-0_
  6
CONTINUOUS
 62
    7
 10
414.07139973290634
 20
819.98133891337613
 11
414.07647401669772
 21
819.98650068481902
  0
LINE
  8
_0-0_
  6
CONTINUOUS
 62
    7
 10
414.07647401669772
 20
819.98650068481902
 11
414.08972839591121
 21
819.9997988078585
  0
LINE
  8
_0-0_
  6
CONTINUOUS
 62
    7
 10
414.08972839591121
 20
819.9997988078585
 11
414.58009668298666
 21
820.45447213309149
  0
LINE
  8
_0-0_
  6
CONTINUOUS
 62
    7
 10
414.58009668298666
 20
820.45447213309149
 11
415.11337766315944
 21
820.88447394058051
  0
LINE
  8
_0-0_
  6
CONTINUOUS
 62
    7
 10
415.11337766315944
 20
820.88447394058051
 11
415.68957133642954
 21
821.28971674267393
  0
LINE
  8
_0-0_
  6
CONTINUOUS
 62
    7
 10
415.68957133642954
 20
821.28971674267393
 11
416.30863395897114
 21
821.67037551467479
  0
LINE
  8
_0-0_
  6
CONTINUOUS
 62
    7
 10
416.30863395897114
 20
821.67037551467479
 11
416.97065301843588
 21
822.02636276893168
  0
LINE
  8
_0-0_
  6
CONTINUOUS
 62
    7
 10
416.97065301843588
 20
822.02636276893168
 11
417.67554102717219
 21
822.3576785054446
  0
LINE
  8
_0-0_
  6
CONTINUOUS
 62
    7
 10
417.67554102717219
 20
822.3576785054446
 11
418.42338547283157
 21
822.66432272421343
  0
LINE
  8
_0-0_
  6
CONTINUOUS
 62
    7
 10
418.42338547283157
 20
822.66432272421343
 11
419.21409886776246
 21
822.94629542523819
  0
LINE
  8
_0-0_
  6
CONTINUOUS
 62
    7
 10
419.21409886776246
 20
822.94629542523819
 11
420.03412062597084
 21
823.19904725063725
  0
LINE
  8
_0-0_
  6
CONTINUOUS
 62
    7
 10
420.03412062597084
 20
823.19904725063725
 11
420.86984641763695
 21
823.41811633017983
  0
LINE
  8
_0-0_
  6
CONTINUOUS
 62
    7
 10
420.86984641763695
 20
823.41811633017983
 11
421.72131998658637
 21
823.60350266386627
  0
LINE
  8
_0-0_
  6
CONTINUOUS
 62
    7
 10
421.72131998658637
 20
823.60350266386627
 11
422.58845384516769
 21
823.75511876404516
  0
LINE
  8
_0-0_
  6
CONTINUOUS
 62
    7
 10
422.58845384516769
 20
823.75511876404516
 11
423.47129173720657
 21
823.87313960601909
  0
LINE
  8
_0-0_
  6
CONTINUOUS
 62
    7
 10
423.47129173720657
 20
823.87313960601909
 11
424.36987740652899
 21
823.95739021448549
  0
LINE
  8
_0-0_
  6
CONTINUOUS
 62
    7
 10
424.36987740652899
 20
823.95739021448549
 11
425.2841233654832
 21
824.00795807709551
  0
LINE
  8
_0-0_
  6
CONTINUOUS
 62
    7
 10
425.2841233654832
 20
824.00795807709551
 11
426.21411710172083
 21
824.02475570619788
  0
LINE
  8
_0-0_
  6
CONTINUOUS
 62
    7
 10
426.21411710172083
 20
824.02475570619788
 11
427.14406709413265
 21
824.00795807709551
  0
LINE
  8
_0-0_
  6
CONTINUOUS
 62
    7
 10
427.14406709413265
 20
824.00795807709551
 11
428.05831305308686
 21
823.95739021448549
  0
LINE
  8
_0-0_
  6
CONTINUOUS
 62
    7
 10
428.05831305308686
 20
823.95739021448549
 11
428.95689872240922
 21
823.87313960601909
  0
LINE
  8
_0-0_
  6
CONTINUOUS
 62
    7
 10
428.95689872240922
 20
823.87313960601909
 11
429.83973661444821
 21
823.75511876404516
  0
LINE
  8
_0-0_
  6
CONTINUOUS
 62
    7
 10
429.83973661444821
 20
823.75511876404516
 11
430.70687047302954
 21
823.60350266386627
  0
LINE
  8
_0-0_
  6
CONTINUOUS
 62
    7
 10
430.70687047302954
 20
823.60350266386627
 11
431.55834404197896
 21
823.41811633017983
  0
LINE
  8
_0-0_
  6
CONTINUOUS
 62
    7
 10
431.55834404197896
 20
823.41811633017983
 11
432.39406983364506
 21
823.19904725063725
  0
LINE
  8
_0-0_
  6
CONTINUOUS
 62
    7
 10
432.39406983364506
 20
823.19904725063725
 11
433.21409159185345
 21
822.94629542523819
  0
LINE
  8
_0-0_
  6
CONTINUOUS
 62
    7
 10
433.21409159185345
 20
822.94629542523819
 11
433.93245269893214
 21
822.68960665551845
  0
LINE
  8
_0-0_
  6
CONTINUOUS
 62
    7
 10
433.93245269893214
 20
822.68960665551845
 11
434.62408632845489
 21
822.40535927555266
  0
LINE
  8
_0-0_
  6
CONTINUOUS
 62
    7
 10
434.62408632845489
 20
822.40535927555266
 11
435.28907996807322
 21
822.09355328534105
  0
LINE
  8
_0-0_
  6
CONTINUOUS
 62
    7
 10
435.28907996807322
 20
822.09355328534105
 11
435.92743361778702
 21
821.75427617253479
  0
LINE
  8
_0-0_
  6
CONTINUOUS
 62
    7
 10
435.92743361778702
 20
821.75427617253479
 11
436.53910353377057
 21
821.38735296183097
  0
LINE
  8
_0-0_
  6
CONTINUOUS
 62
    7
 10
436.53910353377057
 20
821.38735296183097
 11
437.12408971602383
 21
820.99287114088133
  0
LINE
  8
_0-0_
  6
CONTINUOUS
 62
    7
 10
437.12408971602383
 20
820.99287114088133
 11
437.68243590837278
 21
820.57091819733728
  0
LINE
  8
_0-0_
  6
CONTINUOUS
 62
    7
 10
437.68243590837278
 20
820.57091819733728
 11
438.21409836699138
 21
820.12131915589543
  0
LINE
  8
_0-1_
  6
CONTINUOUS
 62
    7
 10
362.50001001542137
 20
157.49034918413201
 11
412.49999027914981
 21
157.49034918413201
  0
LINE
  8
_0-1_
  6
CONTINUOUS
 62
    7
 10
412.49999027914981
 20
157.49034918413201
 11
412.49999027914981
 21
147.49034656981246
  0
LINE
  8
_0-1_
  6
CONTINUOUS
 62
    7
 10
412.49999027914981
 20
147.49034656981246
 11
362.50001001542137
 21
147.49034656981246
  0
LINE
  8
_0-1_
  6
CONTINUOUS
 62
    7
 10
362.50001001542137
 20
147.49034656981246
 11
362.50001001542137
 21
157.49034918413201
  0
LINE
  8
_0-1_
  6
CONTINUOUS
 62
    7
 10
368.50000064805664
 20
217.49034299813641
 11
406.49999964651448
 21
217.49034299813641
  0
LINE
  8
_0-1_
  6
CONTINUOUS
 62
    7
 10
406.49999964651448
 20
217.49034299813641
 11
406.49999964651448
 21
157.49034918413201
  0
LINE
  8
_0-1_
  6
CONTINUOUS
 62
    7
 10
406.49999964651448
 20
157.49034918413201
 11
368.50000064805664
 21
157.49034918413201
  0
LINE
  8
_0-1_
  6
CONTINUOUS
 62
    7
 10
368.50000064805664
 20
157.49034918413201
 11
368.50000064805664
 21
217.49034299813641
  0
LINE
  8
_0-1_
  6
CONTINUOUS
 62
    7
 10
182.49999576553876
 20
157.49034918413201
 11
232.50000883713653
 21
157.49034918413201
  0
LINE
  8
_0-1_
  6
CONTINUOUS
 62
    7
 10
232.50000883713653
 20
157.49034918413201
 11
232.50000883713653
 21
147.49034656981246
  0
LINE
  8
_0-1_
  6
CONTINUOUS
 62
    7
 10
232.50000883713653
 20
147.49034656981246
 11
182.49999576553876
 21
147.49034656981246
  0
LINE
  8
_0-1_
  6
CONTINUOUS
 62
    7
 10
182.49999576553876
 20
147.49034656981246
 11
182.49999576553876
 21
157.49034918413201
  0
LINE
  8
_0-1_
  6
CONTINUOUS
 62
    7
 10
188.49999733413043
 20
217.49034299813641
 11
226.4999963325883
 21
217.49034299813641
  0
LINE
  8
_0-1_
  6
CONTINUOUS
 62
    7
 10
226.4999963325883
 20
217.49034299813641
 11
226.4999963325883
 21
157.49034918413201
  0
LINE
  8
_0-1_
  6
CONTINUOUS
 62
    7
 10
226.4999963325883
 20
157.49034918413201
 11
188.49999733413043
 21
157.49034918413201
  0
LINE
  8
_0-1_
  6
CONTINUOUS
 62
    7
 10
188.49999733413043
 20
157.49034918413201
 11
188.49999733413043
 21
217.49034299813641
  0
LINE
  8
_0-1_
  6
CONTINUOUS
 62
    7
 10
406.25000368214017
 20
880.70879255022317
 11
476.25001104642058
 21
880.70879255022317
  0
LINE
  8
_0-1_
  6
CONTINUOUS
 62
    7
 10
476.25001104642058
 20
880.70879255022317
 11
476.25001104642058
 21
862.70882065231729
  0
LINE
  8
_0-1_
  6
CONTINUOUS
 62
    7
 10
476.25001104642058
 20
862.70882065231729
 11
406.25000368214017
 21
862.70882065231729
  0
LINE
  8
_0-1_
  6
CONTINUOUS
 62
    7
 10
406.25000368214017
 20
862.70882065231729
 11
406.25000368214017
 21
880.70879255022317
  0
LINE
  8
_0-1_
  6
CONTINUOUS
 62
    7
 10
381.25001355027598
 20
871.70876285744441
 11
381.37009035206205
 21
872.92807825743921
  0
LINE
  8
_0-1_
  6
CONTINUOUS
 62
    7
 10
381.37009035206205
 20
872.92807825743921
 11
381.72577139953842
 21
874.10058776384153
  0
LINE
  8
_0-1_
  6
CONTINUOUS
 62
    7
 10
381.72577139953842
 20
874.10058776384153
 11
382.30332113140798
 21
875.18114774843889
  0
LINE
  8
_0-1_
  6
CONTINUOUS
 62
    7
 10
382.30332113140798
 20
875.18114774843889
 11
383.08056142799643
 21
876.12820157673366
  0
LINE
  8
_0-1_
  6
CONTINUOUS
 62
    7
 10
383.08056142799643
 20
876.12820157673366
 11
384.02770274394265
 21
876.90544187332205
  0
LINE
  8
_0-1_
  6
CONTINUOUS
 62
    7
 10
384.02770274394265
 20
876.90544187332205
 11
385.10821898471431
 21
877.48303534901743
  0
LINE
  8
_0-1_
  6
CONTINUOUS
 62
    7
 10
385.10821898471431
 20
877.48303534901743
 11
386.28068474729082
 21
877.83867265266792
  0
LINE
  8
_0-1_
  6
CONTINUOUS
 62
    7
 10
386.28068474729082
 20
877.83867265266792
 11
387.50000014728556
 21
877.95879319827986
  0
LINE
  8
_0-1_
  6
CONTINUOUS
 62
    7
 10
387.50000014728556
 20
877.95879319827986
 11
406.45398114178624
 21
877.95879319827986
  0
LINE
  8
_0-1_
  6
CONTINUOUS
 62
    7
 10
406.45398114178624
 20
877.95879319827986
 11
406.45398114178624
 21
865.70982207662814
  0
LINE
  8
_0-1_
  6
CONTINUOUS
 62
    7
 10
406.45398114178624
 20
865.70982207662814
 11
389.25360263544621
 21
865.70982207662814
  0
LINE
  8
_0-1_
  6
CONTINUOUS
 62
    7
 10
389.25360263544621
 20
865.70982207662814
 11
389.03930163291426
 21
865.65129283772467
  0
LINE
  8
_0-1_
  6
CONTINUOUS
 62
    7
 10
389.03930163291426
 20
865.65129283772467
 11
388.82303215822196
 21
865.60046251215977
  0
LINE
  8
_0-1_
  6
CONTINUOUS
 62
    7
 10
388.82303215822196
 20
865.60046251215977
 11
388.60510041814968
 21
865.55724361228204
  0
LINE
  8
_0-1_
  6
CONTINUOUS
 62
    7
 10
388.60510041814968
 20
865.55724361228204
 11
388.38576887565227
 21
865.5218986010459
  0
LINE
  8
_0-1_
  6
CONTINUOUS
 62
    7
 10
388.38576887565227
 20
865.5218986010459
 11
388.16529999368436
 21
865.49433999079997
  0
LINE
  8
_0-1_
  6
CONTINUOUS
 62
    7
 10
388.16529999368436
 20
865.49433999079997
 11
387.9439999790265
 21
865.47456778154401
  0
LINE
  8
_0-1_
  6
CONTINUOUS
 62
    7
 10
387.9439999790265
 20
865.47456778154401
 11
387.72213129463341
 21
865.4627569485815
  0
LINE
  8
_0-1_
  6
CONTINUOUS
 62
    7
 10
387.72213129463341
 20
865.4627569485815
 11
387.50000014728556
 21
865.45882000426059
  0
LINE
  8
_0-1_
  6
CONTINUOUS
 62
    7
 10
387.50000014728556
 20
865.45882000426059
 11
386.28068474729082
 21
865.5788530622209
  0
LINE
  8
_0-1_
  6
CONTINUOUS
 62
    7
 10
386.28068474729082
 20
865.5788530622209
 11
385.10821898471431
 21
865.93457785352314
  0
LINE
  8
_0-1_
  6
CONTINUOUS
 62
    7
 10
385.10821898471431
 20
865.93457785352314
 11
384.02770274394265
 21
866.51208384156678
  0
LINE
  8
_0-1_
  6
CONTINUOUS
 62
    7
 10
384.02770274394265
 20
866.51208384156678
 11
383.08056142799643
 21
867.28941162580679
  0
LINE
  8
_0-1_
  6
CONTINUOUS
 62
    7
 10
383.08056142799643
 20
867.28941162580679
 11
382.30332113140798
 21
868.23646545410156
  0
LINE
  8
_0-1_
  6
CONTINUOUS
 62
    7
 10
382.30332113140798
 20
868.23646545410156
 11
381.72577139953842
 21
869.31702543869903
  0
LINE
  8
_0-1_
  6
CONTINUOUS
 62
    7
 10
381.72577139953842
 20
869.31702543869903
 11
381.37009035206205
 21
870.48944745744973
  0
LINE
  8
_0-1_
  6
CONTINUOUS
 62
    7
 10
381.37009035206205
 20
870.48944745744973
 11
381.25001355027598
 21
871.70876285744441
  0
LINE
  8
_0-1_
  6
CONTINUOUS
 62
    7
 10
118.74999687018082
 20
880.70879255022317
 11
188.74999329850482
 21
880.70879255022317
  0
LINE
  8
_0-1_
  6
CONTINUOUS
 62
    7
 10
188.74999329850482
 20
880.70879255022317
 11
188.74999329850482
 21
862.70882065231729
  0
LINE
  8
_0-1_
  6
CONTINUOUS
 62
    7
 10
188.74999329850482
 20
862.70882065231729
 11
118.74999687018082
 21
862.70882065231729
  0
LINE
  8
_0-1_
  6
CONTINUOUS
 62
    7
 10
118.74999687018082
 20
862.70882065231729
 11
118.74999687018082
 21
880.70879255022317
  0
LINE
  8
_0-1_
  6
CONTINUOUS
 62
    7
 10
213.75000530228192
 20
871.70876285744441
 11
213.62990662858294
 21
870.48944745744973
  0
LINE
  8
_0-1_
  6
CONTINUOUS
 62
    7
 10
213.62990662858294
 20
870.48944745744973
 11
213.2742474530194
 21
869.31702543869903
  0
LINE
  8
_0-1_
  6
CONTINUOUS
 62
    7
 10
213.2742474530194
 20
869.31702543869903
 11
212.69667584923701
 21
868.23646545410156
  0
LINE
  8
_0-1_
  6
CONTINUOUS
 62
    7
 10
212.69667584923701
 20
868.23646545410156
 11
211.91941368073572
 21
867.28941162580679
  0
LINE
  8
_0-1_
  6
CONTINUOUS
 62
    7
 10
211.91941368073572
 20
867.28941162580679
 11
210.97231610861527
 21
866.51208384156678
  0
LINE
  8
_0-1_
  6
CONTINUOUS
 62
    7
 10
210.97231610861527
 20
866.51208384156678
 11
209.89177799593065
 21
865.93457785352314
  0
LINE
  8
_0-1_
  6
CONTINUOUS
 62
    7
 10
209.89177799593065
 20
865.93457785352314
 11
208.71931223335409
 21
865.5788530622209
  0
LINE
  8
_0-1_
  6
CONTINUOUS
 62
    7
 10
208.71931223335409
 20
865.5788530622209
 11
207.49999683335943
 21
865.45882000426059
  0
LINE
  8
_0-1_
  6
CONTINUOUS
 62
    7
 10
207.49999683335943
 20
865.45882000426059
 11
188.54601583885866
 21
865.45882000426059
  0
LINE
  8
_0-1_
  6
CONTINUOUS
 62
    7
 10
188.54601583885866
 20
865.45882000426059
 11
188.54601583885866
 21
877.70770363826091
  0
LINE
  8
_0-1_
  6
CONTINUOUS
 62
    7
 10
188.54601583885866
 20
877.70770363826091
 11
205.74637247328596
 21
877.70770363826091
  0
LINE
  8
_0-1_
  6
CONTINUOUS
 62
    7
 10
205.74637247328596
 20
877.70770363826091
 11
205.96071721964364
 21
877.76632036481578
  0
LINE
  8
_0-1_
  6
CONTINUOUS
 62
    7
 10
205.96071721964364
 20
877.76632036481578
 11
206.17696482242303
 21
877.81715069038057
  0
LINE
  8
_0-1_
  6
CONTINUOUS
 62
    7
 10
206.17696482242303
 20
877.81715069038057
 11
206.39491843440817
 21
877.86036959025853
  0
LINE
  8
_0-1_
  6
CONTINUOUS
 62
    7
 10
206.39491843440817
 20
877.86036959025853
 11
206.6142499769056
 21
877.89571460149455
  0
LINE
  8
_0-1_
  6
CONTINUOUS
 62
    7
 10
206.6142499769056
 20
877.89571460149455
 11
206.83469698696058
 21
877.92327321174059
  0
LINE
  8
_0-1_
  6
CONTINUOUS
 62
    7
 10
206.83469698696058
 20
877.92327321174059
 11
207.05599700161849
 21
877.94304542099644
  0
LINE
  8
_0-1_
  6
CONTINUOUS
 62
    7
 10
207.05599700161849
 20
877.94304542099644
 11
207.27786568601161
 21
877.95485625395895
  0
LINE
  8
_0-1_
  6
CONTINUOUS
 62
    7
 10
207.27786568601161
 20
877.95485625395895
 11
207.49999683335943
 21
877.95879319827986
  0
LINE
  8
_0-1_
  6
CONTINUOUS
 62
    7
 10
207.49999683335943
 20
877.95879319827986
 11
208.71931223335409
 21
877.83867265266792
  0
LINE
  8
_0-1_
  6
CONTINUOUS
 62
    7
 10
208.71931223335409
 20
877.83867265266792
 11
209.89177799593065
 21
877.48303534901743
  0
LINE
  8
_0-1_
  6
CONTINUOUS
 62
    7
 10
209.89177799593065
 20
877.48303534901743
 11
210.97231610861527
 21
876.90544187332205
  0
LINE
  8
_0-1_
  6
CONTINUOUS
 62
    7
 10
210.97231610861527
 20
876.90544187332205
 11
211.91941368073572
 21
876.12820157673366
  0
LINE
  8
_0-1_
  6
CONTINUOUS
 62
    7
 10
211.91941368073572
 20
876.12820157673366
 11
212.69667584923701
 21
875.18114774843889
  0
LINE
  8
_0-1_
  6
CONTINUOUS
 62
    7
 10
212.69667584923701
 20
875.18114774843889
 11
213.2742474530194
 21
874.10058776384153
  0
LINE
  8
_0-1_
  6
CONTINUOUS
 62
    7
 10
213.2742474530194
 20
874.10058776384153
 11
213.62990662858294
 21
872.92807825743921
  0
LINE
  8
_0-1_
  6
CONTINUOUS
 62
    7
 10
213.62990662858294
 20
872.92807825743921
 11
213.75000530228192
 21
871.70876285744441
  0
LINE
  8
_0-1_
  6
CONTINUOUS
 62
    7
 10
931.75591251564754
 20
344.59966468074606
 11
931.75591251564754
 21
327.32557782795436
  0
LINE
  8
_0-1_
  6
CONTINUOUS
 62
    7
 10
931.75591251564754
 20
327.32557782795436
 11
919.25593932162838
 21
327.32557782795436
  0
LINE
  8
_0-1_
  6
CONTINUOUS
 62
    7
 10
919.25593932162838
 20
327.32557782795436
 11
919.25593932162838
 21
344.59966468074606
  0
LINE
  8
_0-0_
  6
CONTINUOUS
 62
    7
 10
728.71623300677561
 20
459.62696355282105
 11
729.42575786104521
 21
461.99035497245637
  0
LINE
  8
_0-0_
  6
CONTINUOUS
 62
    7
 10
932.57698412567493
 20
154.396654592978
 11
918.43486771160099
 21
140.25451630699123
  0
LINE
  8
_0-0_
  6
CONTINUOUS
 62
    7
 10
932.57698412567493
 20
140.25451630699123
 11
918.43486771160099
 21
154.396654592978
  0
LINE
  8
_0-0_
  6
CONTINUOUS
 62
    7
 10
304.57106763331581
 20
878.77986480830714
 11
290.42892934732919
 21
864.63774839423331
  0
LINE
  8
_0-0_
  6
CONTINUOUS
 62
    7
 10
304.57106763331581
 20
864.63774839423331
 11
290.42892934732919
 21
878.77986480830714
  0
ARC
  8
_0-2_
  6
CONTINUOUS
 62
    7
 10
314.98524772614587
 20
160.9789630344936
 40
0.4995784128954972
 50
180
 51
269.99998474121094
  0
LINE
  8
_0-0_
  6
CONTINUOUS
 62
    7
 10
310.50001009090522
 20
433.12314817804167
 11
310.50001009090522
 21
433.12314817804167
  0
LINE
  8
_0-0_
  6
CONTINUOUS
 62
    7
 10
310.50001009090522
 20
433.12314817804167
 11
310.30251086996674
 21
433.73084737167352
  0
LINE
  8
_0-0_
  6
CONTINUOUS
 62
    7
 10
310.30251086996674
 20
433.73084737167352
 11
309.71601412104013
 21
434.32008193281752
  0
LINE
  8
_0-0_
  6
CONTINUOUS
 62
    7
 10
309.71601412104013
 20
434.32008193281752
 11
308.75834025105985
 21
434.87294826750036
  0
LINE
  8
_0-0_
  6
CONTINUOUS
 62
    7
 10
308.75834025105985
 20
434.87294826750036
 11
307.4585876959589
 21
435.37264781190657
  0
LINE
  8
_0-0_
  6
CONTINUOUS
 62
    7
 10
307.4585876959589
 20
435.37264781190657
 11
305.85624877941746
 21
435.80399744823956
  0
LINE
  8
_0-0_
  6
CONTINUOUS
 62
    7
 10
305.85624877941746
 20
435.80399744823956
 11
304.00000975859206
 21
436.15389083607272
  0
LINE
  8
_0-0_
  6
CONTINUOUS
 62
    7
 10
304.00000975859206
 20
436.15389083607272
 11
301.94627151682818
 21
436.4116966418714
  0
LINE
  8
_0-0_
  6
CONTINUOUS
 62
    7
 10
301.94627151682818
 20
436.4116966418714
 11
299.75743585136013
 21
436.56958156668242
  0
LINE
  8
_0-0_
  6
CONTINUOUS
 62
    7
 10
299.75743585136013
 20
436.56958156668242
 11
297.50000942627889
 21
436.62274835695905
  0
LINE
  8
_0-0_
  6
CONTINUOUS
 62
    7
 10
297.50000942627889
 20
436.62274835695905
 11
295.24258300119766
 21
436.56958156668242
  0
LINE
  8
_0-0_
  6
CONTINUOUS
 62
    7
 10
295.24258300119766
 20
436.56958156668242
 11
293.05374733572961
 21
436.4116966418714
  0
LINE
  8
_0-0_
  6
CONTINUOUS
 62
    7
 10
293.05374733572961
 20
436.4116966418714
 11
291.00000909396573
 21
436.15389083607272
  0
LINE
  8
_0-0_
  6
CONTINUOUS
 62
    7
 10
291.00000909396573
 20
436.15389083607272
 11
289.14377007314033
 21
435.80399744823956
  0
LINE
  8
_0-0_
  6
CONTINUOUS
 62
    7
 10
289.14377007314033
 20
435.80399744823956
 11
287.54143115659889
 21
435.37264781190657
  0
LINE
  8
_0-0_
  6
CONTINUOUS
 62
    7
 10
287.54143115659889
 20
435.37264781190657
 11
286.24167860149794
 21
434.87294826750036
  0
LINE
  8
_0-0_
  6
CONTINUOUS
 62
    7
 10
286.24167860149794
 20
434.87294826750036
 11
285.28400473151765
 21
434.32008193281752
  0
LINE
  8
_0-0_
  6
CONTINUOUS
 62
    7
 10
285.28400473151765
 20
434.32008193281752
 11
284.69750798259105
 21
433.73084737167358
  0
LINE
  8
_0-0_
  6
CONTINUOUS
 62
    7
 10
284.69750798259105
 20
433.73084737167358
 11
284.50000876165257
 21
433.12314817804167
  0
LINE
  8
_0-0_
  6
CONTINUOUS
 62
    7
 10
284.50000876165257
 20
433.12314817804167
 11
284.69750798259105
 21
432.51544898440983
  0
LINE
  8
_0-0_
  6
CONTINUOUS
 62
    7
 10
284.69750798259105
 20
432.51544898440983
 11
285.28400473151765
 21
431.92621442326583
  0
LINE
  8
_0-0_
  6
CONTINUOUS
 62
    7
 10
285.28400473151765
 20
431.92621442326583
 11
286.24167860149794
 21
431.37334808858299
  0
LINE
  8
_0-0_
  6
CONTINUOUS
 62
    7
 10
286.24167860149794
 20
431.37334808858299
 11
287.54143115659889
 21
430.87364854417677
  0
LINE
  8
_0-0_
  6
CONTINUOUS
 62
    7
 10
287.54143115659889
 20
430.87364854417677
 11
289.14377007314033
 21
430.44229890784385
  0
LINE
  8
_0-0_
  6
CONTINUOUS
 62
    7
 10
289.14377007314033
 20
430.44229890784385
 11
291.00000909396573
 21
430.09240552001063
  0
LINE
  8
_0-0_
  6
CONTINUOUS
 62
    7
 10
291.00000909396573
 20
430.09240552001063
 11
293.05374733572961
 21
429.83459971421195
  0
LINE
  8
_0-0_
  6
CONTINUOUS
 62
    7
 10
293.05374733572961
 20
429.83459971421195
 11
295.2425830011976
 21
429.67671478940093
  0
LINE
  8
_0-0_
  6
CONTINUOUS
 62
    7
 10
295.2425830011976
 20
429.67671478940093
 11
297.50000942627884
 21
429.6235479991243
  0
LINE
  8
_0-0_
  6
CONTINUOUS
 62
    7
 10
297.50000942627884
 20
429.6235479991243
 11
299.75743585136007
 21
429.67671478940093
  0
LINE
  8
_0-0_
  6
CONTINUOUS
 62
    7
 10
299.75743585136007
 20
429.67671478940093
 11
301.94627151682812
 21
429.83459971421195
  0
LINE
  8
_0-0_
  6
CONTINUOUS
 62
    7
 10
301.94627151682812
 20
429.83459971421195
 11
304.000009758592
 21
430.09240552001063
  0
LINE
  8
_0-0_
  6
CONTINUOUS
 62
    7
 10
304.000009758592
 20
430.09240552001063
 11
305.8562487794174
 21
430.44229890784379
  0
LINE
  8
_0-0_
  6
CONTINUOUS
 62
    7
 10
305.8562487794174
 20
430.44229890784379
 11
307.45858769595884
 21
430.87364854417677
  0
LINE
  8
_0-0_
  6
CONTINUOUS
 62
    7
 10
307.45858769595884
 20
430.87364854417677
 11
308.75834025105985
 21
431.37334808858299
  0
LINE
  8
_0-0_
  6
CONTINUOUS
 62
    7
 10
308.75834025105985
 20
431.37334808858299
 11
309.71601412104013
 21
431.92621442326578
  0
LINE
  8
_0-0_
  6
CONTINUOUS
 62
    7
 10
309.71601412104013
 20
431.92621442326578
 11
310.30251086996674
 21
432.51544898440977
  0
LINE
  8
_0-0_
  6
CONTINUOUS
 62
    7
 10
310.30251086996674
 20
432.51544898440977
 11
310.50001009090522
 21
433.12314817804167
  0
LINE
  8
_0-0_
  6
CONTINUOUS
 62
    7
 10
310.50001009090522
 20
433.12314817804167
 11
310.50001009090522
 21
433.12314817804167
  0
ARC
  8
_0-0_
  6
CONTINUOUS
 62
    7
 10
297.50000942627889
 20
287.49035036241685
 40
13.999999559063706
 50
116.51477050781249
 51
64.627838134765625
  0
ARC
  8
_0-0_
  6
CONTINUOUS
 62
    7
 10
418.10768628212475
 20
229.99033806406854
 40
12.000000403194353
 50
330
 51
29.99998474121092
  0
ARC
  8
_0-0_
  6
CONTINUOUS
 62
    7
 10
416.89230782645086
 20
229.99033806406854
 40
12.000000403194353
 50
150
 51
209.99998474121094
  0
ARC
  8
_0-0_
  6
CONTINUOUS
 62
    7
 10
925.53562797634754
 20
231.59919223269898
 40
6.0000002015971763
 50
90.238723754882813
 51
269.76126098632812
  0
ARC
  8
_0-0_
  6
CONTINUOUS
 62
    7
 10
443.80394688904511
 20
231.74035355851456
 40
6.0000002015971763
 50
269.76126098632812
 51
90.238372802734403
  0
ARC
  8
_0-0_
  6
CONTINUOUS
 62
    7
 10
418.10768628212475
 20
229.99033806406854
 40
12.000000403194353
 50
330
 51
29.99998474121092
  0
ARC
  8
_0-0_
  6
CONTINUOUS
 62
    7
 10
297.52500902271635
 20
225.75350794552836
 40
6.0000002015971763
 50
11.15008544921875
 51
11.14971923828125
  0
ARC
  8
_0-0_
  6
CONTINUOUS
 62
    7
 10
832.53021770462567
 20
436.89425965533752
 40
80.114788309487594
 50
2.933868408203125
 51
170.178955078125
  0
ARC
  8
_0-1_
  6
CONTINUOUS
 62
    7
 10
207.49999683335943
 20
871.70876285744441
 40
25.000001067820662
 50
49.464187622070305
 51
158.89979553222656
  0
ARC
  8
_0-1_
  6
CONTINUOUS
 62
    7
 10
207.49999683335943
 20
871.70876285744441
 40
25.000001067820662
 50
201.10018920898437
 51
310.53579711914062
  0
ARC
  8
_0-1_
  6
CONTINUOUS
 62
    7
 10
387.50000014728556
 20
871.70876285744441
 40
25.000001067820662
 50
329.44288635253906
 51
338.89979553222656
  0
ARC
  8
_0-1_
  6
CONTINUOUS
 62
    7
 10
387.50000014728556
 20
871.70876285744441
 40
25.000001067820662
 50
21.100189208984375
 51
130.53579711914065
  0
ARC
  8
_0-1_
  6
CONTINUOUS
 62
    7
 10
387.50000014728556
 20
871.70876285744441
 40
25.000001067820662
 50
229.46418762207031
 51
300.55709838867188
  0
CIRCLE
  8
_0-0_
  6
CONTINUOUS
 62
    7
 10
207.49999683335943
 20
871.70876285744441
 40
18.999999499228931
  0
CIRCLE
  8
_0-0_
  6
CONTINUOUS
 62
    7
 10
387.50000014728556
 20
871.70876285744441
 40
18.999999499228931
  0
LINE
  8
_0-0_
  6
CONTINUOUS
 62
    7
 10
440.21411666078455
 20
664.47151331367638
 11
440.21411666078455
 21
664.47151331367638
  0
LINE
  8
_0-0_
  6
CONTINUOUS
 62
    7
 10
440.21411666078455
 20
664.47151331367638
 11
440.00142520965426
 21
665.86913799242757
  0
LINE
  8
_0-0_
  6
CONTINUOUS
 62
    7
 10
440.00142520965426
 20
665.86913799242757
 11
439.36981337837898
 21
667.22429655254723
  0
LINE
  8
_0-0_
  6
CONTINUOUS
 62
    7
 10
439.36981337837898
 20
667.22429655254723
 11
438.33847237284095
 21
668.49581318692924
  0
LINE
  8
_0-0_
  6
CONTINUOUS
 62
    7
 10
438.33847237284095
 20
668.49581318692924
 11
436.93873896760971
 21
669.64505350605646
  0
LINE
  8
_0-0_
  6
CONTINUOUS
 62
    7
 10
436.93873896760971
 20
669.64505350605646
 11
435.213143353904
 21
670.63709842437595
  0
LINE
  8
_0-0_
  6
CONTINUOUS
 62
    7
 10
435.213143353904
 20
670.63709842437595
 11
433.21411688125266
 21
671.44180515904338
  0
LINE
  8
_0-0_
  6
CONTINUOUS
 62
    7
 10
433.21411688125266
 20
671.44180515904338
 11
431.00239895747109
 21
672.03472310312713
  0
LINE
  8
_0-0_
  6
CONTINUOUS
 62
    7
 10
431.00239895747109
 20
672.03472310312713
 11
428.6451915124901
 21
672.3978367449273
  0
LINE
  8
_0-0_
  6
CONTINUOUS
 62
    7
 10
428.6451915124901
 20
672.3978367449273
 11
426.21411710172083
 21
672.5201130601821
  0
LINE
  8
_0-0_
  6
CONTINUOUS
 62
    7
 10
426.21411710172083
 20
672.5201130601821
 11
423.78304269095162
 21
672.3978367449273
  0
LINE
  8
_0-0_
  6
CONTINUOUS
 62
    7
 10
423.78304269095162
 20
672.3978367449273
 11
421.42583524597057
 21
672.03472310312713
  0
LINE
  8
_0-0_
  6
CONTINUOUS
 62
    7
 10
421.42583524597057
 20
672.03472310312713
 11
419.214117322189
 21
671.44180515904338
  0
LINE
  8
_0-0_
  6
CONTINUOUS
 62
    7
 10
419.214117322189
 20
671.44180515904338
 11
417.21509084953766
 21
670.63709842437595
  0
LINE
  8
_0-0_
  6
CONTINUOUS
 62
    7
 10
417.21509084953766
 20
670.63709842437595
 11
415.48949523583195
 21
669.64505350605646
  0
LINE
  8
_0-0_
  6
CONTINUOUS
 62
    7
 10
415.48949523583195
 20
669.64505350605646
 11
414.08976183060071
 21
668.49581318692924
  0
LINE
  8
_0-0_
  6
CONTINUOUS
 62
    7
 10
414.08976183060071
 20
668.49581318692924
 11
413.05842082506268
 21
667.22429655254723
  0
LINE
  8
_0-0_
  6
CONTINUOUS
 62
    7
 10
413.05842082506268
 20
667.22429655254723
 11
412.4268089937874
 21
665.86913799242768
  0
LINE
  8
_0-0_
  6
CONTINUOUS
 62
    7
 10
412.4268089937874
 20
665.86913799242768
 11
412.21411754265711
 21
664.47151331367638
  0
LINE
  8
_0-0_
  6
CONTINUOUS
 62
    7
 10
412.21411754265711
 20
664.47151331367638
 11
412.4268089937874
 21
663.0738886349252
  0
LINE
  8
_0-0_
  6
CONTINUOUS
 62
    7
 10
412.4268089937874
 20
663.0738886349252
 11
413.05842082506268
 21
661.71873007480553
  0
LINE
  8
_0-0_
  6
CONTINUOUS
 62
    7
 10
413.05842082506268
 20
661.71873007480553
 11
414.08976183060071
 21
660.44721344042352
  0
LINE
  8
_0-0_
  6
CONTINUOUS
 62
    7
 10
414.08976183060071
 20
660.44721344042352
 11
415.4894952358319
 21
659.29797312129631
  0
LINE
  8
_0-0_
  6
CONTINUOUS
 62
    7
 10
415.4894952358319
 20
659.29797312129631
 11
417.21509084953766
 21
658.30592820297682
  0
LINE
  8
_0-0_
  6
CONTINUOUS
 62
    7
 10
417.21509084953766
 20
658.30592820297682
 11
419.21411732218894
 21
657.5012214683095
  0
LINE
  8
_0-0_
  6
CONTINUOUS
 62
    7
 10
419.21411732218894
 20
657.5012214683095
 11
421.42583524597052
 21
656.90830352422563
  0
LINE
  8
_0-0_
  6
CONTINUOUS
 62
    7
 10
421.42583524597052
 20
656.90830352422563
 11
423.78304269095156
 21
656.54518988242546
  0
LINE
  8
_0-0_
  6
CONTINUOUS
 62
    7
 10
423.78304269095156
 20
656.54518988242546
 11
426.21411710172077
 21
656.42291356717067
  0
LINE
  8
_0-0_
  6
CONTINUOUS
 62
    7
 10
426.21411710172077
 20
656.42291356717067
 11
428.64519151249004
 21
656.54518988242546
  0
LINE
  8
_0-0_
  6
CONTINUOUS
 62
    7
 10
428.64519151249004
 20
656.54518988242546
 11
431.00239895747103
 21
656.90830352422563
  0
LINE
  8
_0-0_
  6
CONTINUOUS
 62
    7
 10
431.00239895747103
 20
656.90830352422563
 11
433.21411688125266
 21
657.50122146830938
  0
LINE
  8
_0-0_
  6
CONTINUOUS
 62
    7
 10
433.21411688125266
 20
657.50122146830938
 11
435.21314335390394
 21
658.30592820297682
  0
LINE
  8
_0-0_
  6
CONTINUOUS
 62
    7
 10
435.21314335390394
 20
658.30592820297682
 11
436.93873896760971
 21
659.29797312129631
  0
LINE
  8
_0-0_
  6
CONTINUOUS
 62
    7
 10
436.93873896760971
 20
659.29797312129631
 11
438.3384723728409
 21
660.44721344042352
  0
LINE
  8
_0-0_
  6
CONTINUOUS
 62
    7
 10
438.3384723728409
 20
660.44721344042352
 11
439.36981337837892
 21
661.71873007480553
  0
LINE
  8
_0-0_
  6
CONTINUOUS
 62
    7
 10
439.36981337837892
 20
661.71873007480553
 11
440.00142520965426
 21
663.07388863492508
  0
LINE
  8
_0-0_
  6
CONTINUOUS
 62
    7
 10
440.00142520965426
 20
663.07388863492508
 11
440.21411666078455
 21
664.47151331367638
  0
LINE
  8
_0-0_
  6
CONTINUOUS
 62
    7
 10
440.21411666078455
 20
664.47151331367638
 11
440.21411666078455
 21
664.47151331367638
  0
CIRCLE
  8
_0-1_
  6
CONTINUOUS
 62
    7
 10
925.50596966246371
 20
351.07558813794697
 40
9.0000003023957653
  0
TEXT
  8
_0-0_
 62
    6
 10
958.97415956475106
 20
758.18119918057346
 40
45
 41
1
 50
0
  1
TX-7248
  0
TEXT
  8
_0-0_
 62
    4
 10
960.00003564311726
 20
585.49032984553151
 40
10
 41
1
 50
0
  1
0
  0
TEXT
  8
_0-0_
 62
    4
 10
1008.8750155828175
 20
585.49032984553151
 40
10
 41
1
 50
0
  1
50
  0
TEXT
  8
_0-0_
 62
    4
 10
1055.4999948744608
 20
585.49032984553151
 40
10
 41
1
 50
0
  1
100mm
  0
ENDSEC
  0
EOF
