  0
SECTION
  2
HEADER
  9
$ACADVER
  1
AC1009
  9
$INSBASE
 10
0
 20
0
 30
0
  9
$EXTMIN
 10
0
 20
0
  9
$EXTMAX
 10
1485
 20
1050
  9
$LIMMIN
 10
0
 20
0
  9
$LIMMAX
 10
1485
 20
1050
  9
$LTSCALE
 40
5
  0
ENDSEC
  0
SECTION
  2
TABLES
  0
TABLE
  2
LTYPE
 70
     9
  0
LTYPE
  2
CONTINUOUS
 70
    64
  3
実線
 72
    65
 73
     0
 40
0.0
  0
LTYPE
  2
DASHED1
 70
    64
  3
--  --  --  --  --  --  --  --  
 72
    65
 73
     2
 40
2.5
 49
1.25
 49
-1.25
  0
LTYPE
  2
DASHED2
 70
    64
  3
----    ----    ----    ----    
 72
    65
 73
     2
 40
5.0
 49
2.5
 49
-2.5
  0
LTYPE
  2
DASHED3
 70
    64
  3
------  ------  ------  ------  
 72
    65
 73
     2
 40
5.0
 49
3.75
 49
-1.25
  0
LTYPE
  2
CENTER1
 70
    64
  3
----- - ----- - ----- - ----- - 
 72
    65
 73
     4
 40
10.0
 49
6.25
 49
-1.25
 49
1.25
 49
-1.25
  0
LTYPE
  2
CENTER2
 70
    64
  3
----------  --  ----------  --  
 72
    65
 73
     4
 40
20.0
 49
12.5
 49
-2.5
 49
2.5
 49
-2.5
  0
LTYPE
  2
PHANTOM1
 70
    64
  3
--- - - --- - - --- - - --- - - 
 72
    65
 73
     6
 40
10.0
 49
3.25
 49
-1.25
 49
1.25
 49
-1.25
 49
1.25
 49
-1.25
  0
LTYPE
  2
PHANTOM2
 70
    64
  3
--------  -  -  --------  -  -  
 72
    65
 73
     6
 40
20.0
 49
10.0
 49
-2.5
 49
1.25
 49
-2.5
 49
1.25
 49
-2.5
  0
LTYPE
  2
DOT
 70
    64
  3
-   -   -   -   -   -   -   -   
 72
    65
 73
     2
 40
2.5
 49
0.625
 49
-1.875
  0
LTYPE
  2
DUMMY
 70
    64
  3
ダミー
 72
    65
 73
     0
 40
0.0
  0
LTYPE
  2
RAND1
 70
    64
  3
ランダム線1
 72
    65
 73
     4
 40
10.0
 49
1.0
 49
-2.0
 49
3.0
 49
-4.0
  0
LTYPE
  2
RAND2
 70
    64
  3
ランダム線2
 72
    65
 73
     4
 40
14.0
 49
2.0
 49
-3.0
 49
4.0
 49
-5.0
  0
LTYPE
  2
RAND3
 70
    64
  3
ランダム線3
 72
    65
 73
     4
 40
18.0
 49
3.0
 49
-4.0
 49
5.0
 49
-6.0
  0
LTYPE
  2
RAND4
 70
    64
  3
ランダム線4
 72
    65
 73
     4
 40
22.0
 49
4.0
 49
-5.0
 49
6.0
 49
-7.0
  0
LTYPE
  2
RAND5
 70
    64
  3
ランダム線5
 72
    65
 73
     4
 40
26.0
 49
5.0
 49
-6.0
 49
7.0
 49
-8.0
  0
LTYPE
  2
LONG1
 70
    64
  3
----------  --  ----------  --  
 72
    65
 73
     4
 40
40.0
 49
32.5
 49
-2.5
 49
2.5
 49
-2.5
  0
LTYPE
  2
LONG2
 70
    64
  3
--------  -  -  --------  -  -  
 72
    65
 73
     6
 40
40.0
 49
30.0
 49
-2.5
 49
1.25
 49
-2.5
 49
1.25
 49
-2.5
  0
LTYPE
  2
LONG3
 70
    64
  3
+++++++++++++++..+++++++++++++++
 72
    65
 73
     2
 40
40.0
 49
37.5
 49
-2.5
  0
LTYPE
  2
LONG4
 70
    64
  3
+++++++++++++++..+++++++++++++++
 72
    65
 73
     2
 40
80.0
 49
75.0
 49
-5.0
  0
LTYPE
  2
LONG5
 70
    64
  3
----------  --  ----------  --  
 72
    65
 73
     4
 40
60.0
 49
37.5
 49
-7.5
 49
7.5
 49
-7.5
  0
LTYPE
  2
dashed
 70
   64
  3
-------   -------------   ------
 72
   65
 73
    2
 40
7.5
 49
6
 49
-1.5
  0
LTYPE
  2
dashed_spaced
 70
   64
  3
----        --------        ----
 72
   65
 73
    2
 40
12
 49
6
 49
-6
  0
LTYPE
  2
long_dashed_dotted
 70
   64
  3
------------- --- --------------
 72
   65
 73
    4
 40
15.25
 49
12
 49
-1.5
 49
0.25
 49
-1.5
  0
LTYPE
  2
long_dashed_double-dotted
 70
   64
  3
----------- --- --- ------------
 72
   65
 73
    6
 40
17
 49
12
 49
-1.5
 49
0.25
 49
-1.5
 49
0.25
 49
-1.5
  0
LTYPE
  2
long_dashed_triplicate-dotted
 70
   64
  3
--------- --- --- --- ----------
 72
   65
 73
    8
 40
18.75
 49
12
 49
-1.5
 49
0.25
 49
-1.5
 49
0.25
 49
-1.5
 49
0.25
 49
-1.5
  0
LTYPE
  2
dotted
 70
   64
  3
   -       -       -       -    
 72
   65
 73
    2
 40
1.75
 49
0.25
 49
-1.5
  0
LTYPE
  2
chain
 70
   64
  3
-------------- -- --------------
 72
   65
 73
    4
 40
18.5
 49
12
 49
-1.5
 49
3.5
 49
-1.5
  0
LTYPE
  2
chain_double_dash
 70
   64
  3
------------ -- -- -------------
 72
   65
 73
    6
 40
23.5
 49
12
 49
-1.5
 49
3.5
 49
-1.5
 49
3.5
 49
-1.5
  0
LTYPE
  2
dashed_dotted
 70
   64
  3
-----------     -     ----------
 72
   65
 73
    4
 40
9.25
 49
6
 49
-1.5
 49
0.25
 49
-1.5
  0
LTYPE
  2
double-dashed_dotted
 70
   64
  3
------   -----------   -   -----
 72
   65
 73
    6
 40
16.75
 49
6
 49
-1.5
 49
6
 49
-1.5
 49
0.25
 49
-1.5
  0
LTYPE
  2
dashed_double-dotted
 70
   64
  3
---------    -    -    ---------
 72
   65
 73
    6
 40
11
 49
6
 49
-1.5
 49
0.25
 49
-1.5
 49
0.25
 49
-1.5
  0
LTYPE
  2
double-dashed_double-dotted
 70
   64
  3
-----   ---------   -   -   ----
 72
   65
 73
    8
 40
18.5
 49
6
 49
-1.5
 49
6
 49
-1.5
 49
0.25
 49
-1.5
 49
0.25
 49
-1.5
  0
LTYPE
  2
dashed_triplicate-dotted
 70
   64
  3
-------    -    -    -    ------
 72
   65
 73
    8
 40
12.75
 49
6
 49
-1.5
 49
0.25
 49
-1.5
 49
0.25
 49
-1.5
 49
0.25
 49
-1.5
  0
LTYPE
  2
double-dashed_triplicate-dotted
 70
   64
  3
-----  ---------  -  -  -  -----
 72
   65
 73
   10
 40
20.25
 49
6
 49
-1.5
 49
6
 49
-1.5
 49
0.25
 49
-1.5
 49
0.25
 49
-1.5
 49
0.25
 49
-1.5
  0
LTYPE
  2
undefined
 70
   64
  3
--------------------------------
 72
   65
 73
    0
 40
0
  0
LTYPE
  2
_
 70
   64
  3
                                
 72
   65
 73
    0
 40
0
  0
LTYPE
  2
__18
 70
   64
  3
                                
 72
   65
 73
    0
 40
0
  0
LTYPE
  2
__19
 70
   64
  3
                                
 72
   65
 73
    0
 40
0
  0
LTYPE
  2
__20
 70
   64
  3
                                
 72
   65
 73
    0
 40
0
  0
LTYPE
  2
__21
 70
   64
  3
                                
 72
   65
 73
    0
 40
0
  0
LTYPE
  2
__22
 70
   64
  3
                                
 72
   65
 73
    0
 40
0
  0
LTYPE
  2
__23
 70
   64
  3
                                
 72
   65
 73
    0
 40
0
  0
LTYPE
  2
__24
 70
   64
  3
                                
 72
   65
 73
    0
 40
0
  0
LTYPE
  2
__25
 70
   64
  3
                                
 72
   65
 73
    0
 40
0
  0
LTYPE
  2
__26
 70
   64
  3
                                
 72
   65
 73
    0
 40
0
  0
LTYPE
  2
__27
 70
   64
  3
                                
 72
   65
 73
    0
 40
0
  0
LTYPE
  2
__28
 70
   64
  3
                                
 72
   65
 73
    0
 40
0
  0
LTYPE
  2
__29
 70
   64
  3
                                
 72
   65
 73
    0
 40
0
  0
LTYPE
  2
__30
 70
   64
  3
                                
 72
   65
 73
    0
 40
0
  0
LTYPE
  2
__31
 70
   64
  3
                                
 72
   65
 73
    0
 40
0
  0
LTYPE
  2
__32
 70
   64
  3
                                
 72
   65
 73
    0
 40
0
  0
ENDTAB
  0
TABLE
  2
STYLE
  5
3
100
AcDbSymbolTable
 70
     1
  0
STYLE
  5
10
100
AcDbSymbolTableRecord
100
AcDbTextStyleTableRecord
  2
STANDARD
 70
     0
 40
0.0
 41
1.0
 50
0.0
 71
     0
 42
0.2
  3
txt
  4
bigfont.shx
  0
STYLE
  5
26
100
AcDbSymbolTableRecord
100
AcDbTextStyleTableRecord
  2
TATEGAKI
 70
    68
 40
0.0
 41
1.0
 50
0.0
 71
     0
 42
1.0
  3
txt
  4
bigfont.shx
  0
ENDTAB
  0
TABLE
  2
LAYER
 70
    3
  0
LAYER
  2
_0-0_
 70
   64
 62
    7
  6
CONTINUOUS
  0
LAYER
  2
_0-1_
 70
   64
 62
    7
  6
CONTINUOUS
  0
LAYER
  2
ADD_LINE
 70
   64
 62
    7
  6
CONTINUOUS
  0
ENDTAB
  0
ENDSEC
  0
SECTION
  2
BLOCKS
  0
ENDSEC
  0
SECTION
  2
ENTITIES
  0
LINE
  8
_0-0_
  6
CONTINUOUS
 62
    7
 10
316.82091363148339
 20
264.56141166245152
 11
302.67877534549666
 21
250.41927337646484
  0
LINE
  8
_0-0_
  6
CONTINUOUS
 62
    7
 10
316.82091363148339
 20
250.41927337646484
 11
302.67877534549666
 21
264.56141166245152
  0
LINE
  8
_0-0_
  6
CONTINUOUS
 62
    7
 10
879.57110312914756
 20
264.73588391160411
 11
865.42889922742222
 21
250.5937456256174
  0
LINE
  8
_0-0_
  6
CONTINUOUS
 62
    7
 10
879.57110312914756
 20
250.5937456256174
 11
865.42889922742222
 21
264.73588391160411
  0
LINE
  8
_0-1_
  6
CONTINUOUS
 62
    7
 10
395.24248233633153
 20
908.11079989989275
 11
219.74986470343978
 21
908.11079989989275
  0
LINE
  8
_0-1_
  6
CONTINUOUS
 62
    7
 10
399.74984614545315
 20
908.03818514908596
 11
399.74984614545315
 21
908.11079989989275
  0
LINE
  8
_0-1_
  6
CONTINUOUS
 62
    7
 10
399.74984614545315
 20
908.11079989989275
 11
395.24248233633153
 21
908.11079989989275
  0
LINE
  8
_0-1_
  6
CONTINUOUS
 62
    7
 10
395.74247426508015
 20
870.11080090143491
 11
399.74984614545315
 21
870.11080090143491
  0
LINE
  8
_0-1_
  6
CONTINUOUS
 62
    7
 10
399.74984614545315
 20
870.11080090143491
 11
399.74984614545315
 21
870.18079102269462
  0
LINE
  8
_0-1_
  6
CONTINUOUS
 62
    7
 10
296.74984655785283
 20
870.11080090143491
 11
219.74984283152693
 21
870.11080090143491
  0
LINE
  8
_0-1_
  6
CONTINUOUS
 62
    7
 10
322.74984241912716
 20
870.11080090143491
 11
395.74247426508015
 21
870.11080090143491
  0
LINE
  8
_0-1_
  6
CONTINUOUS
 62
    7
 10
418.49984968030776
 20
898.1108738372684
 11
488.49985704458817
 21
898.1108738372684
  0
LINE
  8
_0-1_
  6
CONTINUOUS
 62
    7
 10
488.49985704458817
 20
898.1108738372684
 11
488.49985704458817
 21
880.11081445171101
  0
LINE
  8
_0-1_
  6
CONTINUOUS
 62
    7
 10
488.49985704458817
 20
880.11081445171101
 11
418.49984968030776
 21
880.11081445171101
  0
LINE
  8
_0-1_
  6
CONTINUOUS
 62
    7
 10
418.49984968030776
 20
880.11081445171101
 11
418.49984968030776
 21
898.1108738372684
  0
LINE
  8
_0-1_
  6
CONTINUOUS
 62
    7
 10
418.49984968030776
 20
883.11190336367326
 11
401.50344863361369
 21
883.11190336367326
  0
LINE
  8
_0-1_
  6
CONTINUOUS
 62
    7
 10
401.50344863361369
 20
883.11190336367326
 11
401.28914763108179
 21
883.0533741247699
  0
LINE
  8
_0-1_
  6
CONTINUOUS
 62
    7
 10
401.28914763108179
 20
883.0533741247699
 11
401.07287815638949
 21
883.00245631155349
  0
LINE
  8
_0-1_
  6
CONTINUOUS
 62
    7
 10
401.07287815638949
 20
883.00245631155349
 11
400.85494641631726
 21
882.95932489932727
  0
LINE
  8
_0-1_
  6
CONTINUOUS
 62
    7
 10
400.85494641631726
 20
882.95932489932727
 11
400.6356148738198
 21
882.92389240043963
  0
LINE
  8
_0-1_
  6
CONTINUOUS
 62
    7
 10
400.6356148738198
 20
882.92389240043963
 11
400.41514599185189
 21
882.89633379019369
  0
LINE
  8
_0-1_
  6
CONTINUOUS
 62
    7
 10
400.41514599185189
 20
882.89633379019369
 11
400.19384597719403
 21
882.87664906858936
  0
LINE
  8
_0-1_
  6
CONTINUOUS
 62
    7
 10
400.19384597719403
 20
882.87664906858936
 11
399.97197729280094
 21
882.86475074797522
  0
LINE
  8
_0-1_
  6
CONTINUOUS
 62
    7
 10
399.97197729280094
 20
882.86475074797522
 11
399.74984614545315
 21
882.86081380365431
  0
LINE
  8
_0-1_
  6
CONTINUOUS
 62
    7
 10
399.74984614545315
 20
882.86081380365431
 11
398.53053074545841
 21
882.98093434926614
  0
LINE
  8
_0-1_
  6
CONTINUOUS
 62
    7
 10
398.53053074545841
 20
882.98093434926614
 11
397.35806498288184
 21
883.33657165291686
  0
LINE
  8
_0-1_
  6
CONTINUOUS
 62
    7
 10
397.35806498288184
 20
883.33657165291686
 11
396.27754874211018
 21
883.91416512861213
  0
LINE
  8
_0-1_
  6
CONTINUOUS
 62
    7
 10
396.27754874211018
 20
883.91416512861213
 11
395.3304074261639
 21
884.69140542520051
  0
LINE
  8
_0-1_
  6
CONTINUOUS
 62
    7
 10
395.3304074261639
 20
884.69140542520051
 11
394.55316712957546
 21
885.6385467411468
  0
LINE
  8
_0-1_
  6
CONTINUOUS
 62
    7
 10
394.55316712957546
 20
885.6385467411468
 11
393.975617397706
 21
886.71910672574427
  0
LINE
  8
_0-1_
  6
CONTINUOUS
 62
    7
 10
393.975617397706
 20
886.71910672574427
 11
393.61993635022964
 21
887.89152874449496
  0
LINE
  8
_0-1_
  6
CONTINUOUS
 62
    7
 10
393.61993635022964
 20
887.89152874449496
 11
393.49985954844351
 21
889.11084414448976
  0
LINE
  8
_0-1_
  6
CONTINUOUS
 62
    7
 10
393.49985954844351
 20
889.11084414448976
 11
393.61993635022964
 21
890.33015954448445
  0
LINE
  8
_0-1_
  6
CONTINUOUS
 62
    7
 10
393.61993635022964
 20
890.33015954448445
 11
393.975617397706
 21
891.50258156323514
  0
LINE
  8
_0-1_
  6
CONTINUOUS
 62
    7
 10
393.975617397706
 20
891.50258156323514
 11
394.55316712957546
 21
892.58314154783261
  0
LINE
  8
_0-1_
  6
CONTINUOUS
 62
    7
 10
394.55316712957546
 20
892.58314154783261
 11
395.3304074261639
 21
893.53028286377889
  0
LINE
  8
_0-1_
  6
CONTINUOUS
 62
    7
 10
395.3304074261639
 20
893.53028286377889
 11
396.27754874211018
 21
894.30752316036728
  0
LINE
  8
_0-1_
  6
CONTINUOUS
 62
    7
 10
396.27754874211018
 20
894.30752316036728
 11
397.35806498288184
 21
894.88511663606255
  0
LINE
  8
_0-1_
  6
CONTINUOUS
 62
    7
 10
397.35806498288184
 20
894.88511663606255
 11
398.53053074545841
 21
895.24075393971327
  0
LINE
  8
_0-1_
  6
CONTINUOUS
 62
    7
 10
398.53053074545841
 20
895.24075393971327
 11
399.74984614545315
 21
895.3608744853251
  0
LINE
  8
_0-1_
  6
CONTINUOUS
 62
    7
 10
399.74984614545315
 20
895.3608744853251
 11
418.49984968030776
 21
895.3608744853251
  0
LINE
  8
_0-1_
  6
CONTINUOUS
 62
    7
 10
201.8072190892282
 20
882.86090129130582
 11
201.8072190892282
 21
882.86081380365431
  0
LINE
  8
_0-1_
  6
CONTINUOUS
 62
    7
 10
201.8072190892282
 20
882.86090129130582
 11
201.8072190892282
 21
882.86081380365431
  0
LINE
  8
_0-1_
  6
CONTINUOUS
 62
    7
 10
201.8072190892282
 20
882.86090129130582
 11
201.8072190892282
 21
882.86081380365431
  0
LINE
  8
_0-1_
  6
CONTINUOUS
 62
    7
 10
201.8072190892282
 20
882.86090129130582
 11
201.8072190892282
 21
882.86081380365431
  0
LINE
  8
_0-1_
  6
CONTINUOUS
 62
    7
 10
201.8072190892282
 20
882.86090129130582
 11
201.8072190892282
 21
882.86081380365431
  0
LINE
  8
_0-1_
  6
CONTINUOUS
 62
    7
 10
201.8072190892282
 20
882.86090129130582
 11
201.8072190892282
 21
882.86081380365431
  0
LINE
  8
_0-1_
  6
CONTINUOUS
 62
    7
 10
201.8072190892282
 20
882.86090129130582
 11
201.8072190892282
 21
882.86081380365431
  0
LINE
  8
_0-1_
  6
CONTINUOUS
 62
    7
 10
201.8072190892282
 20
882.86090129130582
 11
201.8072190892282
 21
882.86081380365431
  0
LINE
  8
_0-1_
  6
CONTINUOUS
 62
    7
 10
201.8072190892282
 20
882.86090129130582
 11
201.8072190892282
 21
882.86081380365431
  0
LINE
  8
_0-1_
  6
CONTINUOUS
 62
    7
 10
201.8072190892282
 20
882.86090129130582
 11
201.8072190892282
 21
882.86081380365431
  0
LINE
  8
_0-1_
  6
CONTINUOUS
 62
    7
 10
201.8072190892282
 20
882.86090129130582
 11
201.8072190892282
 21
882.86081380365431
  0
LINE
  8
_0-1_
  6
CONTINUOUS
 62
    7
 10
201.8072190892282
 20
882.86090129130582
 11
201.8072190892282
 21
882.86081380365431
  0
LINE
  8
_0-1_
  6
CONTINUOUS
 62
    7
 10
201.8072190892282
 20
882.86090129130582
 11
201.8072190892282
 21
882.86081380365431
  0
LINE
  8
_0-1_
  6
CONTINUOUS
 62
    7
 10
201.8072190892282
 20
882.86090129130582
 11
201.8072190892282
 21
882.86081380365431
  0
LINE
  8
_0-1_
  6
CONTINUOUS
 62
    7
 10
201.8072190892282
 20
882.86090129130582
 11
201.8072190892282
 21
882.86081380365431
  0
LINE
  8
_0-1_
  6
CONTINUOUS
 62
    7
 10
201.8072190892282
 20
882.86090129130582
 11
201.8072190892282
 21
882.86081380365431
  0
LINE
  8
_0-1_
  6
CONTINUOUS
 62
    7
 10
201.8072190892282
 20
882.86090129130582
 11
201.8072190892282
 21
882.86081380365431
  0
LINE
  8
_0-1_
  6
CONTINUOUS
 62
    7
 10
201.8072190892282
 20
882.86090129130582
 11
201.8072190892282
 21
882.86081380365431
  0
LINE
  8
_0-1_
  6
CONTINUOUS
 62
    7
 10
201.8072190892282
 20
882.86090129130582
 11
201.8072190892282
 21
882.86081380365431
  0
LINE
  8
_0-1_
  6
CONTINUOUS
 62
    7
 10
201.8072190892282
 20
882.86090129130582
 11
201.8072190892282
 21
882.86081380365431
  0
LINE
  8
_0-1_
  6
CONTINUOUS
 62
    7
 10
201.8072190892282
 20
882.86090129130582
 11
201.8072190892282
 21
882.86081380365431
  0
LINE
  8
_0-1_
  6
CONTINUOUS
 62
    7
 10
200.99983929667232
 20
886.03880274710036
 11
200.99983929667232
 21
880.11081445171101
  0
LINE
  8
_0-1_
  6
CONTINUOUS
 62
    7
 10
200.99983929667232
 20
880.11081445171101
 11
130.99984286834831
 21
880.11081445171101
  0
LINE
  8
_0-1_
  6
CONTINUOUS
 62
    7
 10
130.99984286834831
 20
880.11081445171101
 11
130.99984286834831
 21
898.1108738372684
  0
LINE
  8
_0-1_
  6
CONTINUOUS
 62
    7
 10
130.99984286834831
 20
898.1108738372684
 11
200.99983929667232
 21
898.1108738372684
  0
LINE
  8
_0-1_
  6
CONTINUOUS
 62
    7
 10
200.99983929667232
 20
898.1108738372684
 11
200.99983929667232
 21
892.18288554187905
  0
LINE
  8
_0-1_
  6
CONTINUOUS
 62
    7
 10
200.99983929667232
 20
882.86081380365431
 11
219.74984283152693
 21
882.86081380365431
  0
LINE
  8
_0-1_
  6
CONTINUOUS
 62
    7
 10
219.74984283152693
 20
882.86081380365431
 11
220.96915823152165
 21
882.98093434926614
  0
LINE
  8
_0-1_
  6
CONTINUOUS
 62
    7
 10
220.96915823152165
 20
882.98093434926614
 11
222.14162399409815
 21
883.33657165291686
  0
LINE
  8
_0-1_
  6
CONTINUOUS
 62
    7
 10
222.14162399409815
 20
883.33657165291686
 11
223.22216210678278
 21
883.91416512861213
  0
LINE
  8
_0-1_
  6
CONTINUOUS
 62
    7
 10
223.22216210678278
 20
883.91416512861213
 11
224.16925967890322
 21
884.69140542520051
  0
LINE
  8
_0-1_
  6
CONTINUOUS
 62
    7
 10
224.16925967890322
 20
884.69140542520051
 11
224.9465218474046
 21
885.6385467411468
  0
LINE
  8
_0-1_
  6
CONTINUOUS
 62
    7
 10
224.9465218474046
 20
885.6385467411468
 11
225.5240934511869
 21
886.71910672574427
  0
LINE
  8
_0-1_
  6
CONTINUOUS
 62
    7
 10
225.5240934511869
 20
886.71910672574427
 11
225.87975262675045
 21
887.89152874449496
  0
LINE
  8
_0-1_
  6
CONTINUOUS
 62
    7
 10
225.87975262675045
 20
887.89152874449496
 11
225.99985130044942
 21
889.11084414448976
  0
LINE
  8
_0-1_
  6
CONTINUOUS
 62
    7
 10
225.99985130044942
 20
889.11084414448976
 11
225.87975262675045
 21
890.33015954448445
  0
LINE
  8
_0-1_
  6
CONTINUOUS
 62
    7
 10
225.87975262675045
 20
890.33015954448445
 11
225.5240934511869
 21
891.50258156323514
  0
LINE
  8
_0-1_
  6
CONTINUOUS
 62
    7
 10
225.5240934511869
 20
891.50258156323514
 11
224.9465218474046
 21
892.58314154783261
  0
LINE
  8
_0-1_
  6
CONTINUOUS
 62
    7
 10
224.9465218474046
 20
892.58314154783261
 11
224.16925967890322
 21
893.53028286377889
  0
LINE
  8
_0-1_
  6
CONTINUOUS
 62
    7
 10
224.16925967890322
 20
893.53028286377889
 11
223.22216210678278
 21
894.30752316036728
  0
LINE
  8
_0-1_
  6
CONTINUOUS
 62
    7
 10
223.22216210678278
 20
894.30752316036728
 11
222.14162399409815
 21
894.88511663606255
  0
LINE
  8
_0-1_
  6
CONTINUOUS
 62
    7
 10
222.14162399409815
 20
894.88511663606255
 11
220.96915823152165
 21
895.24075393971327
  0
LINE
  8
_0-1_
  6
CONTINUOUS
 62
    7
 10
220.96915823152165
 20
895.24075393971327
 11
219.74984283152693
 21
895.3608744853251
  0
LINE
  8
_0-1_
  6
CONTINUOUS
 62
    7
 10
219.74984283152693
 20
895.3608744853251
 11
219.52771168417911
 21
895.35685005335267
  0
LINE
  8
_0-1_
  6
CONTINUOUS
 62
    7
 10
219.52771168417911
 20
895.35685005335267
 11
219.30584299978605
 21
895.34503922039005
  0
LINE
  8
_0-1_
  6
CONTINUOUS
 62
    7
 10
219.30584299978605
 20
895.34503922039005
 11
219.08454298512817
 21
895.32535449878583
  0
LINE
  8
_0-1_
  6
CONTINUOUS
 62
    7
 10
219.08454298512817
 20
895.32535449878583
 11
218.8640959750731
 21
895.29779588853989
  0
LINE
  8
_0-1_
  6
CONTINUOUS
 62
    7
 10
218.8640959750731
 20
895.29779588853989
 11
218.64476443257573
 21
895.26236338965214
  0
LINE
  8
_0-1_
  6
CONTINUOUS
 62
    7
 10
218.64476443257573
 20
895.26236338965214
 11
218.42681082059059
 21
895.21923197742592
  0
LINE
  8
_0-1_
  6
CONTINUOUS
 62
    7
 10
218.42681082059059
 20
895.21923197742592
 11
218.21054134589821
 21
895.16831416420951
  0
LINE
  8
_0-1_
  6
CONTINUOUS
 62
    7
 10
218.21054134589821
 20
895.16831416420951
 11
217.99621847145346
 21
895.10978492530614
  0
LINE
  8
_0-1_
  6
CONTINUOUS
 62
    7
 10
217.99621847145346
 20
895.10978492530614
 11
200.99983929667232
 21
895.10978492530614
  0
LINE
  8
_0-1_
  6
CONTINUOUS
 62
    7
 10
322.74984241912716
 20
698.29130857607561
 11
322.72263375948751
 21
697.46100701880721
  0
LINE
  8
_0-1_
  6
CONTINUOUS
 62
    7
 10
322.72263375948751
 20
697.46100701880721
 11
322.64098590865558
 21
696.64470348579073
  0
LINE
  8
_0-1_
  6
CONTINUOUS
 62
    7
 10
322.64098590865558
 20
696.64470348579073
 11
322.50492073854423
 21
695.84239797702617
  0
LINE
  8
_0-1_
  6
CONTINUOUS
 62
    7
 10
322.50492073854423
 20
695.84239797702617
 11
322.31443824915351
 21
695.05413423633945
  0
LINE
  8
_0-1_
  6
CONTINUOUS
 62
    7
 10
322.31443824915351
 20
695.05413423633945
 11
322.06951656857052
 21
694.27991226373024
  0
LINE
  8
_0-1_
  6
CONTINUOUS
 62
    7
 10
322.06951656857052
 20
694.27991226373024
 11
321.77015569679526
 21
693.51968831537306
  0
LINE
  8
_0-1_
  6
CONTINUOUS
 62
    7
 10
321.77015569679526
 20
693.51968831537306
 11
321.41637750574057
 21
692.77350613509361
  0
LINE
  8
_0-1_
  6
CONTINUOUS
 62
    7
 10
321.41637750574057
 20
692.77350613509361
 11
321.00818199540652
 21
692.04132197906597
  0
LINE
  8
_0-1_
  6
CONTINUOUS
 62
    7
 10
321.00818199540652
 20
692.04132197906597
 11
320.55283064087382
 21
691.33534037468507
  0
LINE
  8
_0-1_
  6
CONTINUOUS
 62
    7
 10
320.55283064087382
 20
691.33534037468507
 11
320.05765053296182
 21
690.66763461786809
  0
LINE
  8
_0-1_
  6
CONTINUOUS
 62
    7
 10
320.05765053296182
 20
690.66763461786809
 11
319.52261979975754
 21
690.03824845244048
  0
LINE
  8
_0-1_
  6
CONTINUOUS
 62
    7
 10
319.52261979975754
 20
690.03824845244048
 11
318.94776031317394
 21
689.44718187840283
  0
LINE
  8
_0-1_
  6
CONTINUOUS
 62
    7
 10
318.94776031317394
 20
689.44718187840283
 11
318.33305020129814
 21
688.89443489575467
  0
LINE
  8
_0-1_
  6
CONTINUOUS
 62
    7
 10
318.33305020129814
 20
688.89443489575467
 11
317.67848946413011
 21
688.37996376067053
  0
LINE
  8
_0-1_
  6
CONTINUOUS
 62
    7
 10
317.67848946413011
 20
688.37996376067053
 11
316.98407810166998
 21
687.90385596080171
  0
LINE
  8
_0-1_
  6
CONTINUOUS
 62
    7
 10
316.98407810166998
 20
687.90385596080171
 11
316.24983798583037
 21
687.46602400849679
  0
LINE
  8
_0-1_
  6
CONTINUOUS
 62
    7
 10
316.24983798583037
 20
687.46602400849679
 11
315.4883892103511
 21
687.07351065970761
  0
LINE
  8
_0-1_
  6
CONTINUOUS
 62
    7
 10
315.4883892103511
 20
687.07351065970761
 11
314.71235186897189
 21
686.73331492655973
  0
LINE
  8
_0-1_
  6
CONTINUOUS
 62
    7
 10
314.71235186897189
 20
686.73331492655973
 11
313.92172596169252
 21
686.44548055287953
  0
LINE
  8
_0-1_
  6
CONTINUOUS
 62
    7
 10
313.92172596169252
 20
686.44548055287953
 11
313.11651148851308
 21
686.21000753866656
  0
LINE
  8
_0-1_
  6
CONTINUOUS
 62
    7
 10
313.11651148851308
 20
686.21000753866656
 11
312.29673032134656
 21
686.02680839626942
  0
LINE
  8
_0-1_
  6
CONTINUOUS
 62
    7
 10
312.29673032134656
 20
686.02680839626942
 11
311.46233871636701
 21
685.89601435716543
  0
LINE
  8
_0-1_
  6
CONTINUOUS
 62
    7
 10
311.46233871636701
 20
685.89601435716543
 11
310.61338041740032
 21
685.81749418987727
  0
LINE
  8
_0-1_
  6
CONTINUOUS
 62
    7
 10
310.61338041740032
 20
685.81749418987727
 11
309.74985542444642
 21
685.79133538205656
  0
LINE
  8
_0-1_
  6
CONTINUOUS
 62
    7
 10
309.74985542444642
 20
685.79133538205656
 11
308.88630855957967
 21
685.81749418987727
  0
LINE
  8
_0-1_
  6
CONTINUOUS
 62
    7
 10
308.88630855957967
 20
685.81749418987727
 11
308.03735026061304
 21
685.89601435716543
  0
LINE
  8
_0-1_
  6
CONTINUOUS
 62
    7
 10
308.03735026061304
 20
685.89601435716543
 11
307.20295865563349
 21
686.02680839626942
  0
LINE
  8
_0-1_
  6
CONTINUOUS
 62
    7
 10
307.20295865563349
 20
686.02680839626942
 11
306.38317748846691
 21
686.21000753866656
  0
LINE
  8
_0-1_
  6
CONTINUOUS
 62
    7
 10
306.38317748846691
 20
686.21000753866656
 11
305.57796301528754
 21
686.44548055287953
  0
LINE
  8
_0-1_
  6
CONTINUOUS
 62
    7
 10
305.57796301528754
 20
686.44548055287953
 11
304.78733710800816
 21
686.73331492655973
  0
LINE
  8
_0-1_
  6
CONTINUOUS
 62
    7
 10
304.78733710800816
 20
686.73331492655973
 11
304.01129976662889
 21
687.07351065970761
  0
LINE
  8
_0-1_
  6
CONTINUOUS
 62
    7
 10
304.01129976662889
 20
687.07351065970761
 11
303.24985099114969
 21
687.46602400849679
  0
LINE
  8
_0-1_
  6
CONTINUOUS
 62
    7
 10
303.24985099114969
 20
687.46602400849679
 11
302.51561087531007
 21
687.90385596080171
  0
LINE
  8
_0-1_
  6
CONTINUOUS
 62
    7
 10
302.51561087531007
 20
687.90385596080171
 11
301.82119951284989
 21
688.37996376067053
  0
LINE
  8
_0-1_
  6
CONTINUOUS
 62
    7
 10
301.82119951284989
 20
688.37996376067053
 11
301.16663877568186
 21
688.89443489575467
  0
LINE
  8
_0-1_
  6
CONTINUOUS
 62
    7
 10
301.16663877568186
 20
688.89443489575467
 11
300.55192866380605
 21
689.44718187840283
  0
LINE
  8
_0-1_
  6
CONTINUOUS
 62
    7
 10
300.55192866380605
 20
689.44718187840283
 11
299.97706917722257
 21
690.03824845244048
  0
LINE
  8
_0-1_
  6
CONTINUOUS
 62
    7
 10
299.97706917722257
 20
690.03824845244048
 11
299.44203844401829
 21
690.66763461786809
  0
LINE
  8
_0-1_
  6
CONTINUOUS
 62
    7
 10
299.44203844401829
 20
690.66763461786809
 11
298.94685833610623
 21
691.33534037468507
  0
LINE
  8
_0-1_
  6
CONTINUOUS
 62
    7
 10
298.94685833610623
 20
691.33534037468507
 11
298.49150698157348
 21
692.04132197906597
  0
LINE
  8
_0-1_
  6
CONTINUOUS
 62
    7
 10
298.49150698157348
 20
692.04132197906597
 11
298.08331147123954
 21
692.77350613509361
  0
LINE
  8
_0-1_
  6
CONTINUOUS
 62
    7
 10
298.08331147123954
 20
692.77350613509361
 11
297.7295332801848
 21
693.51968831537306
  0
LINE
  8
_0-1_
  6
CONTINUOUS
 62
    7
 10
297.7295332801848
 20
693.51968831537306
 11
297.43019428032244
 21
694.27991226373024
  0
LINE
  8
_0-1_
  6
CONTINUOUS
 62
    7
 10
297.43019428032244
 20
694.27991226373024
 11
297.18527259973939
 21
695.05413423633945
  0
LINE
  8
_0-1_
  6
CONTINUOUS
 62
    7
 10
297.18527259973939
 20
695.05413423633945
 11
296.99476823843582
 21
695.84239797702617
  0
LINE
  8
_0-1_
  6
CONTINUOUS
 62
    7
 10
296.99476823843582
 20
695.84239797702617
 11
296.85870306832447
 21
696.64470348579073
  0
LINE
  8
_0-1_
  6
CONTINUOUS
 62
    7
 10
296.85870306832447
 20
696.64470348579073
 11
296.77705521749255
 21
697.46100701880721
  0
LINE
  8
_0-1_
  6
CONTINUOUS
 62
    7
 10
296.77705521749255
 20
697.46100701880721
 11
296.74984655785283
 21
698.29130857607561
  0
LINE
  8
_0-1_
  6
CONTINUOUS
 62
    7
 10
296.74984655785283
 20
698.29130857607561
 11
296.74984655785283
 21
889.11084414448976
  0
LINE
  8
_0-1_
  6
CONTINUOUS
 62
    7
 10
296.74984655785283
 20
889.11084414448976
 11
296.99964567501115
 21
891.64702367598477
  0
LINE
  8
_0-1_
  6
CONTINUOUS
 62
    7
 10
296.99964567501115
 20
891.64702367598477
 11
297.73941938481272
 21
894.08574196362576
  0
LINE
  8
_0-1_
  6
CONTINUOUS
 62
    7
 10
297.73941938481272
 20
894.08574196362576
 11
298.94073420049602
 21
896.33321224492477
  0
LINE
  8
_0-1_
  6
CONTINUOUS
 62
    7
 10
298.94073420049602
 20
896.33321224492477
 11
300.55746225776818
 21
898.30325918308085
  0
LINE
  8
_0-1_
  6
CONTINUOUS
 62
    7
 10
300.55746225776818
 20
898.30325918308085
 11
302.5274217082727
 21
899.91994349652725
  0
LINE
  8
_0-1_
  6
CONTINUOUS
 62
    7
 10
302.5274217082727
 20
899.91994349652725
 11
304.77495760531042
 21
901.12123644029771
  0
LINE
  8
_0-1_
  6
CONTINUOUS
 62
    7
 10
304.77495760531042
 20
901.12123644029771
 11
307.21367589295141
 21
901.8610320220123
  0
LINE
  8
_0-1_
  6
CONTINUOUS
 62
    7
 10
307.21367589295141
 20
901.8610320220123
 11
309.74985542444642
 21
902.11080926725754
  0
LINE
  8
_0-1_
  6
CONTINUOUS
 62
    7
 10
309.74985542444642
 20
902.11080926725754
 11
312.28601308402864
 21
901.8610320220123
  0
LINE
  8
_0-1_
  6
CONTINUOUS
 62
    7
 10
312.28601308402864
 20
901.8610320220123
 11
314.72473137166969
 21
901.12123644029771
  0
LINE
  8
_0-1_
  6
CONTINUOUS
 62
    7
 10
314.72473137166969
 20
901.12123644029771
 11
316.97226726870736
 21
899.91994349652725
  0
LINE
  8
_0-1_
  6
CONTINUOUS
 62
    7
 10
316.97226726870736
 20
899.91994349652725
 11
318.94222671921182
 21
898.30325918308085
  0
LINE
  8
_0-1_
  6
CONTINUOUS
 62
    7
 10
318.94222671921182
 20
898.30325918308085
 11
320.55895477648403
 21
896.33321224492477
  0
LINE
  8
_0-1_
  6
CONTINUOUS
 62
    7
 10
320.55895477648403
 20
896.33321224492477
 11
321.76026959216728
 21
894.08574196362576
  0
LINE
  8
_0-1_
  6
CONTINUOUS
 62
    7
 10
321.76026959216728
 20
894.08574196362576
 11
322.50004330196896
 21
891.64702367598477
  0
LINE
  8
_0-1_
  6
CONTINUOUS
 62
    7
 10
322.50004330196896
 20
891.64702367598477
 11
322.74984241912716
 21
889.11084414448976
  0
LINE
  8
_0-1_
  6
CONTINUOUS
 62
    7
 10
322.74984241912716
 20
889.11084414448976
 11
322.74984241912716
 21
698.29130857607561
  0
LINE
  8
_0-1_
  6
CONTINUOUS
 62
    7
 10
322.74984241912716
 20
704.974446536031
 11
322.74984241912716
 21
705.30239399795823
  0
LINE
  8
_0-1_
  6
CONTINUOUS
 62
    7
 10
322.74984241912716
 20
705.30239399795823
 11
322.74984241912716
 21
705.50475293605018
  0
LINE
  8
_0-1_
  6
CONTINUOUS
 62
    7
 10
322.74984241912716
 20
705.50475293605018
 11
322.74984241912716
 21
705.58152335030684
  0
LINE
  8
_0-1_
  6
CONTINUOUS
 62
    7
 10
322.74984241912716
 20
705.58152335030684
 11
322.74984241912716
 21
705.53266149690239
  0
LINE
  8
_0-1_
  6
CONTINUOUS
 62
    7
 10
322.74984241912716
 20
705.53266149690239
 11
322.74984241912716
 21
705.35821111966288
  0
LINE
  8
_0-1_
  6
CONTINUOUS
 62
    7
 10
322.74984241912716
 20
705.35821111966288
 11
322.74984241912716
 21
705.05817221858774
  0
LINE
  8
_0-1_
  6
CONTINUOUS
 62
    7
 10
322.74984241912716
 20
705.05817221858774
 11
322.74984241912716
 21
704.63254479367765
  0
LINE
  8
_0-1_
  6
CONTINUOUS
 62
    7
 10
322.74984241912716
 20
704.63254479367765
 11
322.74984241912716
 21
704.08128510110623
  0
LINE
  8
_0-1_
  6
CONTINUOUS
 62
    7
 10
322.74984241912716
 20
704.08128510110623
 11
322.72263375948751
 21
703.46029775022998
  0
LINE
  8
_0-1_
  6
CONTINUOUS
 62
    7
 10
322.72263375948751
 20
703.46029775022998
 11
322.64098590865558
 21
702.82539986275333
  0
LINE
  8
_0-1_
  6
CONTINUOUS
 62
    7
 10
322.64098590865558
 20
702.82539986275333
 11
322.50492073854423
 21
702.1766351825022
  0
LINE
  8
_0-1_
  6
CONTINUOUS
 62
    7
 10
322.50492073854423
 20
702.1766351825022
 11
322.31443824915351
 21
701.51395996565054
  0
LINE
  8
_0-1_
  6
CONTINUOUS
 62
    7
 10
322.31443824915351
 20
701.51395996565054
 11
322.06951656857052
 21
700.83741795602452
  0
LINE
  8
_0-1_
  6
CONTINUOUS
 62
    7
 10
322.06951656857052
 20
700.83741795602452
 11
321.77015569679526
 21
700.14696540979799
  0
LINE
  8
_0-1_
  6
CONTINUOUS
 62
    7
 10
321.77015569679526
 20
700.14696540979799
 11
321.41637750574057
 21
699.44264607079708
  0
LINE
  8
_0-1_
  6
CONTINUOUS
 62
    7
 10
321.41637750574057
 20
699.44264607079708
 11
321.00818199540652
 21
698.72441619519566
  0
LINE
  8
_0-1_
  6
CONTINUOUS
 62
    7
 10
321.00818199540652
 20
698.72441619519566
 11
320.55283064087382
 21
698.01843459081465
  0
LINE
  8
_0-1_
  6
CONTINUOUS
 62
    7
 10
320.55283064087382
 20
698.01843459081465
 11
320.05765053296182
 21
697.35072883399755
  0
LINE
  8
_0-1_
  6
CONTINUOUS
 62
    7
 10
320.05765053296182
 20
697.35072883399755
 11
319.52261979975754
 21
696.72134266857017
  0
LINE
  8
_0-1_
  6
CONTINUOUS
 62
    7
 10
319.52261979975754
 20
696.72134266857017
 11
318.94776031317394
 21
696.13027609453241
  0
LINE
  8
_0-1_
  6
CONTINUOUS
 62
    7
 10
318.94776031317394
 20
696.13027609453241
 11
318.33305020129814
 21
695.57752911188436
  0
LINE
  8
_0-1_
  6
CONTINUOUS
 62
    7
 10
318.33305020129814
 20
695.57752911188436
 11
317.67848946413011
 21
695.06310172062581
  0
LINE
  8
_0-1_
  6
CONTINUOUS
 62
    7
 10
317.67848946413011
 20
695.06310172062581
 11
316.98407810166998
 21
694.58695017693117
  0
LINE
  8
_0-1_
  6
CONTINUOUS
 62
    7
 10
316.98407810166998
 20
694.58695017693117
 11
316.24983798583037
 21
694.14911822462625
  0
LINE
  8
_0-1_
  6
CONTINUOUS
 62
    7
 10
316.24983798583037
 20
694.14911822462625
 11
315.4883892103511
 21
693.75660487583696
  0
LINE
  8
_0-1_
  6
CONTINUOUS
 62
    7
 10
315.4883892103511
 20
693.75660487583696
 11
314.71235186897189
 21
693.41645288651512
  0
LINE
  8
_0-1_
  6
CONTINUOUS
 62
    7
 10
314.71235186897189
 20
693.41645288651512
 11
313.92172596169252
 21
693.12861851283469
  0
LINE
  8
_0-1_
  6
CONTINUOUS
 62
    7
 10
313.92172596169252
 20
693.12861851283469
 11
313.11651148851308
 21
692.89310175479602
  0
LINE
  8
_0-1_
  6
CONTINUOUS
 62
    7
 10
313.11651148851308
 20
692.89310175479602
 11
312.29673032134656
 21
692.70994635622469
  0
LINE
  8
_0-1_
  6
CONTINUOUS
 62
    7
 10
312.29673032134656
 20
692.70994635622469
 11
311.46233871636701
 21
692.57910857329489
  0
LINE
  8
_0-1_
  6
CONTINUOUS
 62
    7
 10
311.46233871636701
 20
692.57910857329489
 11
310.61338041740032
 21
692.50058840600673
  0
LINE
  8
_0-1_
  6
CONTINUOUS
 62
    7
 10
310.61338041740032
 20
692.50058840600673
 11
309.74985542444642
 21
692.47442959818602
  0
LINE
  8
_0-1_
  6
CONTINUOUS
 62
    7
 10
309.74985542444642
 20
692.47442959818602
 11
308.88630855957967
 21
692.50058840600673
  0
LINE
  8
_0-1_
  6
CONTINUOUS
 62
    7
 10
308.88630855957967
 20
692.50058840600673
 11
308.03735026061304
 21
692.57910857329489
  0
LINE
  8
_0-1_
  6
CONTINUOUS
 62
    7
 10
308.03735026061304
 20
692.57910857329489
 11
307.20295865563349
 21
692.70994635622469
  0
LINE
  8
_0-1_
  6
CONTINUOUS
 62
    7
 10
307.20295865563349
 20
692.70994635622469
 11
306.38317748846691
 21
692.89310175479602
  0
LINE
  8
_0-1_
  6
CONTINUOUS
 62
    7
 10
306.38317748846691
 20
692.89310175479602
 11
305.57796301528754
 21
693.12861851283469
  0
LINE
  8
_0-1_
  6
CONTINUOUS
 62
    7
 10
305.57796301528754
 20
693.12861851283469
 11
304.78733710800816
 21
693.41645288651512
  0
LINE
  8
_0-1_
  6
CONTINUOUS
 62
    7
 10
304.78733710800816
 20
693.41645288651512
 11
304.01129976662889
 21
693.75660487583696
  0
LINE
  8
_0-1_
  6
CONTINUOUS
 62
    7
 10
304.01129976662889
 20
693.75660487583696
 11
303.24985099114969
 21
694.14911822462625
  0
LINE
  8
_0-1_
  6
CONTINUOUS
 62
    7
 10
303.24985099114969
 20
694.14911822462625
 11
302.51561087531007
 21
694.58695017693117
  0
LINE
  8
_0-1_
  6
CONTINUOUS
 62
    7
 10
302.51561087531007
 20
694.58695017693117
 11
301.82119951284989
 21
695.06310172062581
  0
LINE
  8
_0-1_
  6
CONTINUOUS
 62
    7
 10
301.82119951284989
 20
695.06310172062581
 11
301.16663877568186
 21
695.57752911188436
  0
LINE
  8
_0-1_
  6
CONTINUOUS
 62
    7
 10
301.16663877568186
 20
695.57752911188436
 11
300.55192866380605
 21
696.13027609453241
  0
LINE
  8
_0-1_
  6
CONTINUOUS
 62
    7
 10
300.55192866380605
 20
696.13027609453241
 11
299.97706917722257
 21
696.72134266857017
  0
LINE
  8
_0-1_
  6
CONTINUOUS
 62
    7
 10
299.97706917722257
 20
696.72134266857017
 11
299.44203844401829
 21
697.35072883399755
  0
LINE
  8
_0-1_
  6
CONTINUOUS
 62
    7
 10
299.44203844401829
 20
697.35072883399755
 11
298.94685833610623
 21
698.01843459081465
  0
LINE
  8
_0-1_
  6
CONTINUOUS
 62
    7
 10
298.94685833610623
 20
698.01843459081465
 11
298.49150698157348
 21
698.72441619519566
  0
LINE
  8
_0-1_
  6
CONTINUOUS
 62
    7
 10
298.49150698157348
 20
698.72441619519566
 11
298.26110825115188
 21
699.16049839446896
  0
LINE
  8
_0-1_
  6
CONTINUOUS
 62
    7
 10
298.26110825115188
 20
699.16049839446896
 11
298.03434025827062
 21
699.69517917706696
  0
LINE
  8
_0-1_
  6
CONTINUOUS
 62
    7
 10
298.03434025827062
 20
699.69517917706696
 11
297.81118113101678
 21
700.32850228681525
  0
LINE
  8
_0-1_
  6
CONTINUOUS
 62
    7
 10
297.81118113101678
 20
700.32850228681525
 11
297.59165274130328
 21
701.06042397988801
  0
LINE
  8
_0-1_
  6
CONTINUOUS
 62
    7
 10
297.59165274130328
 20
701.06042397988801
 11
297.37575508913011
 21
701.89098800011129
  0
LINE
  8
_0-1_
  6
CONTINUOUS
 62
    7
 10
297.37575508913011
 20
701.89098800011129
 11
297.16348817449739
 21
702.82019434748463
  0
LINE
  8
_0-1_
  6
CONTINUOUS
 62
    7
 10
297.16348817449739
 20
702.82019434748463
 11
296.95485199740489
 21
703.84799927818267
  0
LINE
  8
_0-1_
  6
CONTINUOUS
 62
    7
 10
296.95485199740489
 20
703.84799927818267
 11
296.74984655785283
 21
704.974446536031
  0
LINE
  8
_0-0_
  6
CONTINUOUS
 62
    7
 10
316.82091363148339
 20
896.18194609535237
 11
302.67877534549666
 21
882.03974219362703
  0
LINE
  8
_0-0_
  6
CONTINUOUS
 62
    7
 10
316.82091363148339
 20
882.03974219362703
 11
302.67877534549666
 21
896.18194609535237
  0
LINE
  8
_0-0_
  6
CONTINUOUS
 62
    7
 10
200.99983929667232
 20
892.18288554187905
 11
200.99983929667232
 21
886.03880274710036
  0
LINE
  8
_0-1_
  6
CONTINUOUS
 62
    7
 10
380.74984664622423
 20
327.49033894778216
 11
380.74984664622423
 21
351.49034522214913
  0
LINE
  8
_0-1_
  6
CONTINUOUS
 62
    7
 10
380.74984664622423
 20
351.49034522214913
 11
380.71139582335718
 21
351.88051827625878
  0
LINE
  8
_0-1_
  6
CONTINUOUS
 62
    7
 10
380.71139582335718
 20
351.88051827625878
 11
380.5976181324844
 21
352.25570907003629
  0
LINE
  8
_0-1_
  6
CONTINUOUS
 62
    7
 10
380.5976181324844
 20
352.25570907003629
 11
380.41280046853319
 21
352.60148214097183
  0
LINE
  8
_0-1_
  6
CONTINUOUS
 62
    7
 10
380.41280046853319
 20
352.60148214097183
 11
380.16407307510667
 21
352.90456123793899
  0
LINE
  8
_0-1_
  6
CONTINUOUS
 62
    7
 10
380.16407307510667
 20
352.90456123793899
 11
379.8609721062266
 21
353.15328863136557
  0
LINE
  8
_0-1_
  6
CONTINUOUS
 62
    7
 10
379.8609721062266
 20
353.15328863136557
 11
379.51522090720391
 21
353.33810629531683
  0
LINE
  8
_0-1_
  6
CONTINUOUS
 62
    7
 10
379.51522090720391
 20
353.33810629531683
 11
379.14003011342635
 21
353.45192773001537
  0
LINE
  8
_0-1_
  6
CONTINUOUS
 62
    7
 10
379.14003011342635
 20
353.45192773001537
 11
378.74983518740385
 21
353.49035668096946
  0
LINE
  8
_0-1_
  6
CONTINUOUS
 62
    7
 10
378.74983518740385
 20
353.49035668096946
 11
309.74985542444642
 21
353.49035668096946
  0
LINE
  8
_0-1_
  6
CONTINUOUS
 62
    7
 10
309.74985542444642
 20
353.49035668096946
 11
240.74985378957621
 21
353.49035668096946
  0
LINE
  8
_0-1_
  6
CONTINUOUS
 62
    7
 10
240.74985378957621
 20
353.49035668096946
 11
240.3596588635537
 21
353.45192773001537
  0
LINE
  8
_0-1_
  6
CONTINUOUS
 62
    7
 10
240.3596588635537
 20
353.45192773001537
 11
239.98446806977611
 21
353.33810629531683
  0
LINE
  8
_0-1_
  6
CONTINUOUS
 62
    7
 10
239.98446806977611
 20
353.33810629531683
 11
239.63869499884055
 21
353.15328863136557
  0
LINE
  8
_0-1_
  6
CONTINUOUS
 62
    7
 10
239.63869499884055
 20
353.15328863136557
 11
239.33563777378623
 21
352.90456123793899
  0
LINE
  8
_0-1_
  6
CONTINUOUS
 62
    7
 10
239.33563777378623
 20
352.90456123793899
 11
239.08691038035977
 21
352.60148214097183
  0
LINE
  8
_0-1_
  6
CONTINUOUS
 62
    7
 10
239.08691038035977
 20
352.60148214097183
 11
238.9020927164085
 21
352.25570907003629
  0
LINE
  8
_0-1_
  6
CONTINUOUS
 62
    7
 10
238.9020927164085
 20
352.25570907003629
 11
238.78827128170997
 21
351.88051827625878
  0
LINE
  8
_0-1_
  6
CONTINUOUS
 62
    7
 10
238.78827128170997
 20
351.88051827625878
 11
238.74984233075588
 21
351.49034522214913
  0
LINE
  8
_0-1_
  6
CONTINUOUS
 62
    7
 10
238.74984233075588
 20
351.49034522214913
 11
238.74984233075588
 21
327.49033894778216
  0
LINE
  8
_0-1_
  6
CONTINUOUS
 62
    7
 10
238.74984233075588
 20
327.49033894778216
 11
200.74984333229798
 21
327.49033894778216
  0
LINE
  8
_0-1_
  6
CONTINUOUS
 62
    7
 10
200.74984333229798
 20
327.49033894778216
 11
200.74984333229798
 21
412.4903666374766
  0
LINE
  8
_0-1_
  6
CONTINUOUS
 62
    7
 10
200.74984333229798
 20
412.4903666374766
 11
238.74984233075588
 21
412.4903666374766
  0
LINE
  8
_0-1_
  6
CONTINUOUS
 62
    7
 10
238.74984233075588
 20
412.4903666374766
 11
238.74984233075588
 21
393.49036713824768
  0
LINE
  8
_0-1_
  6
CONTINUOUS
 62
    7
 10
238.74984233075588
 20
393.49036713824768
 11
238.78827128170997
 21
393.10017221222506
  0
LINE
  8
_0-1_
  6
CONTINUOUS
 62
    7
 10
238.78827128170997
 20
393.10017221222506
 11
238.9020927164085
 21
392.72498141844756
  0
LINE
  8
_0-1_
  6
CONTINUOUS
 62
    7
 10
238.9020927164085
 20
392.72498141844756
 11
239.08691038035977
 21
392.37918647559911
  0
LINE
  8
_0-1_
  6
CONTINUOUS
 62
    7
 10
239.08691038035977
 20
392.37918647559911
 11
239.33563777378623
 21
392.07612925054485
  0
LINE
  8
_0-1_
  6
CONTINUOUS
 62
    7
 10
239.33563777378623
 20
392.07612925054485
 11
239.63869499884055
 21
391.82740185711828
  0
LINE
  8
_0-1_
  6
CONTINUOUS
 62
    7
 10
239.63869499884055
 20
391.82740185711828
 11
239.98446806977611
 21
391.64258419316701
  0
LINE
  8
_0-1_
  6
CONTINUOUS
 62
    7
 10
239.98446806977611
 20
391.64258419316701
 11
240.3596588635537
 21
391.52876275846859
  0
LINE
  8
_0-1_
  6
CONTINUOUS
 62
    7
 10
240.3596588635537
 20
391.52876275846859
 11
240.74985378957621
 21
391.49035567942735
  0
LINE
  8
_0-1_
  6
CONTINUOUS
 62
    7
 10
240.74985378957621
 20
391.49035567942735
 11
296.74984655785283
 21
391.49035567942735
  0
LINE
  8
_0-1_
  6
CONTINUOUS
 62
    7
 10
296.74984655785283
 20
391.49035567942735
 11
296.74984655785283
 21
407.49035986233855
  0
LINE
  8
_0-1_
  6
CONTINUOUS
 62
    7
 10
296.74984655785283
 20
407.49035986233855
 11
322.74984241912716
 21
407.49035986233855
  0
LINE
  8
_0-1_
  6
CONTINUOUS
 62
    7
 10
322.74984241912716
 20
407.49035986233855
 11
322.74984241912716
 21
391.49035567942735
  0
LINE
  8
_0-1_
  6
CONTINUOUS
 62
    7
 10
322.74984241912716
 20
391.49035567942735
 11
378.74983518740385
 21
391.49035567942735
  0
LINE
  8
_0-1_
  6
CONTINUOUS
 62
    7
 10
378.74983518740385
 20
391.49035567942735
 11
379.14003011342635
 21
391.52876275846859
  0
LINE
  8
_0-1_
  6
CONTINUOUS
 62
    7
 10
379.14003011342635
 20
391.52876275846859
 11
379.51522090720391
 21
391.64258419316701
  0
LINE
  8
_0-1_
  6
CONTINUOUS
 62
    7
 10
379.51522090720391
 20
391.64258419316701
 11
379.8609721062266
 21
391.82740185711828
  0
LINE
  8
_0-1_
  6
CONTINUOUS
 62
    7
 10
379.8609721062266
 20
391.82740185711828
 11
380.16407307510667
 21
392.07612925054485
  0
LINE
  8
_0-1_
  6
CONTINUOUS
 62
    7
 10
380.16407307510667
 20
392.07612925054485
 11
380.41280046853319
 21
392.37918647559911
  0
LINE
  8
_0-1_
  6
CONTINUOUS
 62
    7
 10
380.41280046853319
 20
392.37918647559911
 11
380.5976181324844
 21
392.72498141844756
  0
LINE
  8
_0-1_
  6
CONTINUOUS
 62
    7
 10
380.5976181324844
 20
392.72498141844756
 11
380.71139582335718
 21
393.10017221222506
  0
LINE
  8
_0-1_
  6
CONTINUOUS
 62
    7
 10
380.71139582335718
 20
393.10017221222506
 11
380.74984664622423
 21
393.49036713824768
  0
LINE
  8
_0-1_
  6
CONTINUOUS
 62
    7
 10
380.74984664622423
 20
393.49036713824768
 11
380.74984664622423
 21
412.4903666374766
  0
LINE
  8
_0-1_
  6
CONTINUOUS
 62
    7
 10
380.74984664622423
 20
412.4903666374766
 11
418.74984564468207
 21
412.4903666374766
  0
LINE
  8
_0-1_
  6
CONTINUOUS
 62
    7
 10
418.74984564468207
 20
412.4903666374766
 11
418.74984564468207
 21
327.49033894778216
  0
LINE
  8
_0-1_
  6
CONTINUOUS
 62
    7
 10
418.74984564468207
 20
327.49033894778216
 11
380.74984664622423
 21
327.49033894778216
  0
LINE
  8
_0-1_
  6
CONTINUOUS
 62
    7
 10
380.74984664622423
 20
327.49033894778216
 11
418.74984564468207
 21
327.49033894778216
  0
LINE
  8
_0-1_
  6
CONTINUOUS
 62
    7
 10
418.74984564468207
 20
327.49033894778216
 11
418.74984564468207
 21
267.49034513377774
  0
LINE
  8
_0-1_
  6
CONTINUOUS
 62
    7
 10
418.74984564468207
 20
267.49034513377774
 11
380.74984664622423
 21
267.49034513377774
  0
LINE
  8
_0-1_
  6
CONTINUOUS
 62
    7
 10
380.74984664622423
 20
267.49034513377774
 11
380.74984664622423
 21
327.49033894778216
  0
LINE
  8
_0-1_
  6
CONTINUOUS
 62
    7
 10
393.49985954844351
 20
412.4903666374766
 11
393.49985954844351
 21
442.49036354447878
  0
LINE
  8
_0-1_
  6
CONTINUOUS
 62
    7
 10
393.49985954844351
 20
442.49036354447878
 11
418.49984968030776
 21
442.49036354447878
  0
LINE
  8
_0-1_
  6
CONTINUOUS
 62
    7
 10
418.49984968030776
 20
442.49036354447878
 11
418.49984968030776
 21
429.99034660663381
  0
LINE
  8
_0-1_
  6
CONTINUOUS
 62
    7
 10
418.49984968030776
 20
429.99034660663381
 11
405.99983274246267
 21
429.99034660663381
  0
LINE
  8
_0-1_
  6
CONTINUOUS
 62
    7
 10
405.99983274246267
 20
429.99034660663381
 11
405.99983274246267
 21
412.4903666374766
  0
LINE
  8
_0-1_
  6
CONTINUOUS
 62
    7
 10
405.99983274246267
 20
412.4903666374766
 11
393.49985954844351
 21
412.4903666374766
  0
LINE
  8
_0-1_
  6
CONTINUOUS
 62
    7
 10
418.49984968030776
 20
445.24036289642208
 11
488.49985704458817
 21
445.24036289642208
  0
LINE
  8
_0-1_
  6
CONTINUOUS
 62
    7
 10
488.49985704458817
 20
445.24036289642208
 11
488.49985704458817
 21
427.24034725469045
  0
LINE
  8
_0-1_
  6
CONTINUOUS
 62
    7
 10
488.49985704458817
 20
427.24034725469045
 11
418.49984968030776
 21
427.24034725469045
  0
LINE
  8
_0-1_
  6
CONTINUOUS
 62
    7
 10
418.49984968030776
 20
427.24034725469045
 11
418.49984968030776
 21
445.24036289642208
  0
LINE
  8
_0-1_
  6
CONTINUOUS
 62
    7
 10
393.49985954844351
 20
442.49036354447878
 11
405.99983274246267
 21
429.99034660663381
  0
LINE
  8
_0-1_
  6
CONTINUOUS
 62
    7
 10
374.7498560135889
 20
267.49034513377774
 11
424.74983627731729
 21
267.49034513377774
  0
LINE
  8
_0-1_
  6
CONTINUOUS
 62
    7
 10
424.74983627731729
 20
267.49034513377774
 11
424.74983627731729
 21
257.49035345541461
  0
LINE
  8
_0-1_
  6
CONTINUOUS
 62
    7
 10
424.74983627731729
 20
257.49035345541461
 11
374.7498560135889
 21
257.49035345541461
  0
LINE
  8
_0-1_
  6
CONTINUOUS
 62
    7
 10
374.7498560135889
 20
257.49035345541461
 11
374.7498560135889
 21
267.49034513377774
  0
LINE
  8
_0-1_
  6
CONTINUOUS
 62
    7
 10
200.74984333229798
 20
327.49033894778216
 11
238.74984233075588
 21
327.49033894778216
  0
LINE
  8
_0-1_
  6
CONTINUOUS
 62
    7
 10
238.74984233075588
 20
327.49033894778216
 11
238.74984233075588
 21
267.49034513377774
  0
LINE
  8
_0-1_
  6
CONTINUOUS
 62
    7
 10
238.74984233075588
 20
267.49034513377774
 11
200.74984333229798
 21
267.49034513377774
  0
LINE
  8
_0-1_
  6
CONTINUOUS
 62
    7
 10
200.74984333229798
 20
267.49034513377774
 11
200.74984333229798
 21
327.49033894778216
  0
LINE
  8
_0-1_
  6
CONTINUOUS
 62
    7
 10
225.99985130044942
 20
412.4903666374766
 11
225.99985130044942
 21
442.49036354447878
  0
LINE
  8
_0-1_
  6
CONTINUOUS
 62
    7
 10
225.99985130044942
 20
442.49036354447878
 11
200.99983929667232
 21
442.49036354447878
  0
LINE
  8
_0-1_
  6
CONTINUOUS
 62
    7
 10
200.99983929667232
 20
442.49036354447878
 11
200.99983929667232
 21
429.99034660663381
  0
LINE
  8
_0-1_
  6
CONTINUOUS
 62
    7
 10
200.99983929667232
 20
429.99034660663381
 11
213.4998562345173
 21
429.99034660663381
  0
LINE
  8
_0-1_
  6
CONTINUOUS
 62
    7
 10
213.4998562345173
 20
429.99034660663381
 11
213.4998562345173
 21
412.4903666374766
  0
LINE
  8
_0-1_
  6
CONTINUOUS
 62
    7
 10
213.4998562345173
 20
412.4903666374766
 11
225.99985130044942
 21
412.4903666374766
  0
LINE
  8
_0-1_
  6
CONTINUOUS
 62
    7
 10
130.99984286834831
 20
445.24036289642208
 11
200.99983929667232
 21
445.24036289642208
  0
LINE
  8
_0-1_
  6
CONTINUOUS
 62
    7
 10
200.99983929667232
 20
445.24036289642208
 11
200.99983929667232
 21
427.24034725469045
  0
LINE
  8
_0-1_
  6
CONTINUOUS
 62
    7
 10
200.99983929667232
 20
427.24034725469045
 11
130.99984286834831
 21
427.24034725469045
  0
LINE
  8
_0-1_
  6
CONTINUOUS
 62
    7
 10
130.99984286834831
 20
427.24034725469045
 11
130.99984286834831
 21
445.24036289642208
  0
LINE
  8
_0-1_
  6
CONTINUOUS
 62
    7
 10
225.99985130044942
 20
442.49036354447878
 11
213.4998562345173
 21
429.99034660663381
  0
LINE
  8
_0-1_
  6
CONTINUOUS
 62
    7
 10
194.74985269966268
 20
267.49034513377774
 11
244.74985483530403
 21
267.49034513377774
  0
LINE
  8
_0-1_
  6
CONTINUOUS
 62
    7
 10
244.74985483530403
 20
267.49034513377774
 11
244.74985483530403
 21
257.49035345541461
  0
LINE
  8
_0-1_
  6
CONTINUOUS
 62
    7
 10
244.74985483530403
 20
257.49035345541461
 11
194.74985269966268
 21
257.49035345541461
  0
LINE
  8
_0-1_
  6
CONTINUOUS
 62
    7
 10
194.74985269966268
 20
257.49035345541461
 11
194.74985269966268
 21
267.49034513377774
  0
LINE
  8
_0-1_
  6
CONTINUOUS
 62
    7
 10
296.74984655785283
 20
391.49035567942735
 11
300.17658476663826
 21
389.89046899508321
  0
LINE
  8
_0-1_
  6
CONTINUOUS
 62
    7
 10
300.17658476663826
 20
389.89046899508321
 11
303.55677954478608
 21
388.74083750956765
  0
LINE
  8
_0-1_
  6
CONTINUOUS
 62
    7
 10
303.55677954478608
 20
388.74083750956765
 11
306.89045276420916
 21
388.04141747905476
  0
LINE
  8
_0-1_
  6
CONTINUOUS
 62
    7
 10
306.89045276420916
 20
388.04141747905476
 11
310.17760442490737
 21
387.7922963911962
  0
LINE
  8
_0-1_
  6
CONTINUOUS
 62
    7
 10
310.17760442490737
 20
387.7922963911962
 11
313.41821265496804
 21
387.99338675834036
  0
LINE
  8
_0-1_
  6
CONTINUOUS
 62
    7
 10
313.41821265496804
 20
387.99338675834036
 11
316.61227745439089
 21
388.64468858048718
  0
LINE
  8
_0-1_
  6
CONTINUOUS
 62
    7
 10
316.61227745439089
 20
388.64468858048718
 11
319.7598206950891
 21
389.74628934528835
  0
LINE
  8
_0-1_
  6
CONTINUOUS
 62
    7
 10
319.7598206950891
 20
389.74628934528835
 11
322.86084237706245
 21
391.29810156509222
  0
LINE
  8
_0-1_
  6
CONTINUOUS
 62
    7
 10
309.74985542444642
 20
627.49035176163011
 11
312.28601308402864
 21
627.24057451638475
  0
LINE
  8
_0-1_
  6
CONTINUOUS
 62
    7
 10
312.28601308402864
 20
627.24057451638475
 11
314.72473137166969
 21
626.50077893467017
  0
LINE
  8
_0-1_
  6
CONTINUOUS
 62
    7
 10
314.72473137166969
 20
626.50077893467017
 11
316.97226726870736
 21
625.29944224707401
  0
LINE
  8
_0-1_
  6
CONTINUOUS
 62
    7
 10
316.97226726870736
 20
625.29944224707401
 11
318.94222671921182
 21
623.6827141898018
  0
LINE
  8
_0-1_
  6
CONTINUOUS
 62
    7
 10
318.94222671921182
 20
623.6827141898018
 11
320.55895477648403
 21
621.71275473929745
  0
LINE
  8
_0-1_
  6
CONTINUOUS
 62
    7
 10
320.55895477648403
 20
621.71275473929745
 11
321.76026959216728
 21
619.46524071417252
  0
LINE
  8
_0-1_
  6
CONTINUOUS
 62
    7
 10
321.76026959216728
 20
619.46524071417252
 11
322.50004330196896
 21
617.02652242653153
  0
LINE
  8
_0-1_
  6
CONTINUOUS
 62
    7
 10
322.50004330196896
 20
617.02652242653153
 11
322.74984241912716
 21
614.49034289503641
  0
LINE
  8
_0-1_
  6
CONTINUOUS
 62
    7
 10
322.74984241912716
 20
614.49034289503641
 11
322.74984241912716
 21
407.49035986233855
  0
LINE
  8
_0-1_
  6
CONTINUOUS
 62
    7
 10
322.74984241912716
 20
407.49035986233855
 11
296.74984655785283
 21
407.49035986233855
  0
LINE
  8
_0-1_
  6
CONTINUOUS
 62
    7
 10
296.74984655785283
 20
407.49035986233855
 11
296.74984655785283
 21
614.49034289503641
  0
LINE
  8
_0-1_
  6
CONTINUOUS
 62
    7
 10
296.74984655785283
 20
614.49034289503641
 11
296.99964567501115
 21
617.02652242653153
  0
LINE
  8
_0-1_
  6
CONTINUOUS
 62
    7
 10
296.99964567501115
 20
617.02652242653153
 11
297.73941938481272
 21
619.46524071417252
  0
LINE
  8
_0-1_
  6
CONTINUOUS
 62
    7
 10
297.73941938481272
 20
619.46524071417252
 11
298.94073420049602
 21
621.71275473929745
  0
LINE
  8
_0-1_
  6
CONTINUOUS
 62
    7
 10
298.94073420049602
 20
621.71275473929745
 11
300.55746225776818
 21
623.6827141898018
  0
LINE
  8
_0-1_
  6
CONTINUOUS
 62
    7
 10
300.55746225776818
 20
623.6827141898018
 11
302.5274217082727
 21
625.29944224707401
  0
LINE
  8
_0-1_
  6
CONTINUOUS
 62
    7
 10
302.5274217082727
 20
625.29944224707401
 11
304.77495760531042
 21
626.50077893467017
  0
LINE
  8
_0-1_
  6
CONTINUOUS
 62
    7
 10
304.77495760531042
 20
626.50077893467017
 11
307.21367589295141
 21
627.24057451638475
  0
LINE
  8
_0-1_
  6
CONTINUOUS
 62
    7
 10
307.21367589295141
 20
627.24057451638475
 11
309.74985542444642
 21
627.49035176163011
  0
LINE
  8
_0-1_
  6
CONTINUOUS
 62
    7
 10
315.09775684607075
 20
521.27207516703368
 11
315.46341148582661
 21
521.19508603364795
  0
LINE
  8
_0-1_
  6
CONTINUOUS
 62
    7
 10
315.46341148582661
 20
521.19508603364795
 11
315.81196228969975
 21
521.11341631090318
  0
LINE
  8
_0-1_
  6
CONTINUOUS
 62
    7
 10
315.81196228969975
 20
521.11341631090318
 11
316.14340925768994
 21
521.02710974262482
  0
LINE
  8
_0-1_
  6
CONTINUOUS
 62
    7
 10
316.14340925768994
 20
521.02710974262482
 11
316.45775238979741
 21
520.9361663288131
  0
LINE
  8
_0-1_
  6
CONTINUOUS
 62
    7
 10
316.45775238979741
 20
520.9361663288131
 11
316.75499168602192
 21
520.8405423256421
  0
LINE
  8
_0-1_
  6
CONTINUOUS
 62
    7
 10
316.75499168602192
 20
520.8405423256421
 11
317.03512714636372
 21
520.74023773311183
  0
LINE
  8
_0-1_
  6
CONTINUOUS
 62
    7
 10
317.03512714636372
 20
520.74023773311183
 11
317.29815877082262
 21
520.63529629504819
  0
LINE
  8
_0-1_
  6
CONTINUOUS
 62
    7
 10
317.29815877082262
 20
520.63529629504819
 11
317.54406468748584
 21
520.52571801145098
  0
LINE
  8
_0-1_
  6
CONTINUOUS
 62
    7
 10
317.54406468748584
 20
520.52571801145098
 11
317.82667167398461
 21
520.38219451904297
  0
LINE
  8
_0-1_
  6
CONTINUOUS
 62
    7
 10
317.82667167398461
 20
520.38219451904297
 11
318.0715933545676
 21
520.23595890943602
  0
LINE
  8
_0-1_
  6
CONTINUOUS
 62
    7
 10
318.0715933545676
 20
520.23595890943602
 11
318.27885160114772
 21
520.08696743880455
  0
LINE
  8
_0-1_
  6
CONTINUOUS
 62
    7
 10
318.27885160114772
 20
520.08696743880455
 11
318.44840266989922
 21
519.93517636332274
  0
LINE
  8
_0-1_
  6
CONTINUOUS
 62
    7
 10
318.44840266989922
 20
519.93517636332274
 11
318.58029030464792
 21
519.7807169144678
  0
LINE
  8
_0-1_
  6
CONTINUOUS
 62
    7
 10
318.58029030464792
 20
519.7807169144678
 11
318.67449263348078
 21
519.62345786076253
  0
LINE
  8
_0-1_
  6
CONTINUOUS
 62
    7
 10
318.67449263348078
 20
519.62345786076253
 11
318.73100965639793
 21
519.46344294603261
  0
LINE
  8
_0-1_
  6
CONTINUOUS
 62
    7
 10
318.73100965639793
 20
519.46344294603261
 11
318.74984137339936
 21
519.30071591410399
  0
LINE
  8
_0-1_
  6
CONTINUOUS
 62
    7
 10
318.74984137339936
 20
519.30071591410399
 11
318.73100965639793
 21
519.13794513834944
  0
LINE
  8
_0-1_
  6
CONTINUOUS
 62
    7
 10
318.73100965639793
 20
519.13794513834944
 11
318.67449263348078
 21
518.97797396744534
  0
LINE
  8
_0-1_
  6
CONTINUOUS
 62
    7
 10
318.67449263348078
 20
518.97797396744534
 11
318.58029030464792
 21
518.82071491374006
  0
LINE
  8
_0-1_
  6
CONTINUOUS
 62
    7
 10
318.58029030464792
 20
518.82071491374006
 11
318.44840266989922
 21
518.66621172105943
  0
LINE
  8
_0-1_
  6
CONTINUOUS
 62
    7
 10
318.44840266989922
 20
518.66621172105943
 11
318.27885160114772
 21
518.51446438940332
  0
LINE
  8
_0-1_
  6
CONTINUOUS
 62
    7
 10
318.27885160114772
 20
518.51446438940332
 11
318.0715933545676
 21
518.36547291877184
  0
LINE
  8
_0-1_
  6
CONTINUOUS
 62
    7
 10
318.0715933545676
 20
518.36547291877184
 11
317.82667167398461
 21
518.21923730916501
  0
LINE
  8
_0-1_
  6
CONTINUOUS
 62
    7
 10
317.82667167398461
 20
518.21923730916501
 11
317.54406468748584
 21
518.07571381675689
  0
LINE
  8
_0-1_
  6
CONTINUOUS
 62
    7
 10
317.54406468748584
 20
518.07571381675689
 11
317.22884667886268
 21
517.93735209579165
  0
LINE
  8
_0-1_
  6
CONTINUOUS
 62
    7
 10
317.22884667886268
 20
517.93735209579165
 11
316.88602631616777
 21
517.80647056903615
  0
LINE
  8
_0-1_
  6
CONTINUOUS
 62
    7
 10
316.88602631616777
 20
517.80647056903615
 11
316.51562547131391
 21
517.68311298031597
  0
LINE
  8
_0-1_
  6
CONTINUOUS
 62
    7
 10
316.51562547131391
 20
517.68311298031597
 11
316.11762227238836
 21
517.56727932963133
  0
LINE
  8
_0-1_
  6
CONTINUOUS
 62
    7
 10
316.11762227238836
 20
517.56727932963133
 11
315.69206046321676
 21
517.4589258731562
  0
LINE
  8
_0-1_
  6
CONTINUOUS
 62
    7
 10
315.69206046321676
 20
517.4589258731562
 11
315.23889629997342
 21
517.35809635471651
  0
LINE
  8
_0-1_
  6
CONTINUOUS
 62
    7
 10
315.23889629997342
 20
517.35809635471651
 11
314.75817352648403
 21
517.26474703048643
  0
LINE
  8
_0-1_
  6
CONTINUOUS
 62
    7
 10
314.75817352648403
 20
517.26474703048643
 11
314.24984839892289
 21
517.1789653881176
  0
LINE
  8
_0-1_
  6
CONTINUOUS
 62
    7
 10
314.24984839892289
 20
517.1789653881176
 11
313.72269155436044
 21
517.10201999855781
  0
LINE
  8
_0-1_
  6
CONTINUOUS
 62
    7
 10
313.72269155436044
 20
517.10201999855781
 11
313.18542988604094
 21
517.03535440805797
  0
LINE
  8
_0-1_
  6
CONTINUOUS
 62
    7
 10
313.18542988604094
 20
517.03535440805797
 11
312.63806339396467
 21
516.97892487279228
  0
LINE
  8
_0-1_
  6
CONTINUOUS
 62
    7
 10
312.63806339396467
 20
516.97892487279228
 11
312.08061395004449
 21
516.93277513658677
  0
LINE
  8
_0-1_
  6
CONTINUOUS
 62
    7
 10
312.08061395004449
 20
516.93277513658677
 11
311.51305968236738
 21
516.89686145561541
  0
LINE
  8
_0-1_
  6
CONTINUOUS
 62
    7
 10
311.51305968236738
 20
516.89686145561541
 11
310.9354224628463
 21
516.871227573704
  0
LINE
  8
_0-1_
  6
CONTINUOUS
 62
    7
 10
310.9354224628463
 20
516.871227573704
 11
310.34768041956841
 21
516.85582974702686
  0
LINE
  8
_0-1_
  6
CONTINUOUS
 62
    7
 10
310.34768041956841
 20
516.85582974702686
 11
309.74985542444642
 21
516.85071171940979
  0
LINE
  8
_0-1_
  6
CONTINUOUS
 62
    7
 10
309.74985542444642
 20
516.85071171940979
 11
309.1520085574117
 21
516.85582974702686
  0
LINE
  8
_0-1_
  6
CONTINUOUS
 62
    7
 10
309.1520085574117
 20
516.85582974702686
 11
308.56426651413369
 21
516.871227573704
  0
LINE
  8
_0-1_
  6
CONTINUOUS
 62
    7
 10
308.56426651413369
 20
516.871227573704
 11
307.98662929461273
 21
516.89686145561541
  0
LINE
  8
_0-1_
  6
CONTINUOUS
 62
    7
 10
307.98662929461273
 20
516.89686145561541
 11
307.41907502693556
 21
516.93277513658677
  0
LINE
  8
_0-1_
  6
CONTINUOUS
 62
    7
 10
307.41907502693556
 20
516.93277513658677
 11
306.86162558301532
 21
516.97892487279228
  0
LINE
  8
_0-1_
  6
CONTINUOUS
 62
    7
 10
306.86162558301532
 20
516.97892487279228
 11
306.31425909093906
 21
517.03535440805797
  0
LINE
  8
_0-1_
  6
CONTINUOUS
 62
    7
 10
306.31425909093906
 20
517.03535440805797
 11
305.77699742261973
 21
517.10201999855781
  0
LINE
  8
_0-1_
  6
CONTINUOUS
 62
    7
 10
305.77699742261973
 20
517.10201999855781
 11
305.2498405780571
 21
517.1789653881176
  0
LINE
  8
_0-1_
  6
CONTINUOUS
 62
    7
 10
305.2498405780571
 20
517.1789653881176
 11
304.74151545049597
 21
517.26474703048643
  0
LINE
  8
_0-1_
  6
CONTINUOUS
 62
    7
 10
304.74151545049597
 20
517.26474703048643
 11
304.26079267700663
 21
517.35809635471651
  0
LINE
  8
_0-1_
  6
CONTINUOUS
 62
    7
 10
304.26079267700663
 20
517.35809635471651
 11
303.80762851376335
 21
517.4589258731562
  0
LINE
  8
_0-1_
  6
CONTINUOUS
 62
    7
 10
303.80762851376335
 20
517.4589258731562
 11
303.38206670459169
 21
517.56727932963133
  0
LINE
  8
_0-1_
  6
CONTINUOUS
 62
    7
 10
303.38206670459169
 20
517.56727932963133
 11
302.98406350566609
 21
517.68311298031597
  0
LINE
  8
_0-1_
  6
CONTINUOUS
 62
    7
 10
302.98406350566609
 20
517.68311298031597
 11
302.61366266081222
 21
517.80647056903615
  0
LINE
  8
_0-1_
  6
CONTINUOUS
 62
    7
 10
302.61366266081222
 20
517.80647056903615
 11
302.27084229811737
 21
517.93735209579165
  0
LINE
  8
_0-1_
  6
CONTINUOUS
 62
    7
 10
302.27084229811737
 20
517.93735209579165
 11
301.95562428949415
 21
518.07571381675689
  0
LINE
  8
_0-1_
  6
CONTINUOUS
 62
    7
 10
301.95562428949415
 20
518.07571381675689
 11
301.67301730299539
 21
518.21923730916501
  0
LINE
  8
_0-1_
  6
CONTINUOUS
 62
    7
 10
301.67301730299539
 20
518.21923730916501
 11
301.42809562241246
 21
518.36547291877184
  0
LINE
  8
_0-1_
  6
CONTINUOUS
 62
    7
 10
301.42809562241246
 20
518.36547291877184
 11
301.22085924774524
 21
518.51446438940332
  0
LINE
  8
_0-1_
  6
CONTINUOUS
 62
    7
 10
301.22085924774524
 20
518.51446438940332
 11
301.05128630708077
 21
518.66621172105943
  0
LINE
  8
_0-1_
  6
CONTINUOUS
 62
    7
 10
301.05128630708077
 20
518.66621172105943
 11
300.91939867233214
 21
518.82071491374006
  0
LINE
  8
_0-1_
  6
CONTINUOUS
 62
    7
 10
300.91939867233214
 20
518.82071491374006
 11
300.82519634349921
 21
518.97797396744534
  0
LINE
  8
_0-1_
  6
CONTINUOUS
 62
    7
 10
300.82519634349921
 20
518.97797396744534
 11
300.76867932058207
 21
519.13794513834944
  0
LINE
  8
_0-1_
  6
CONTINUOUS
 62
    7
 10
300.76867932058207
 20
519.13794513834944
 11
300.74984760358063
 21
519.30071591410399
  0
LINE
  8
_0-1_
  6
CONTINUOUS
 62
    7
 10
300.74984760358063
 20
519.30071591410399
 11
300.76642651355399
 21
519.46239309421367
  0
LINE
  8
_0-1_
  6
CONTINUOUS
 62
    7
 10
300.76642651355399
 20
519.46239309421367
 11
300.81616324347419
 21
519.61917096583534
  0
LINE
  8
_0-1_
  6
CONTINUOUS
 62
    7
 10
300.81616324347419
 20
519.61917096583534
 11
300.89905779334106
 21
519.77109327279459
  0
LINE
  8
_0-1_
  6
CONTINUOUS
 62
    7
 10
300.89905779334106
 20
519.77109327279459
 11
301.01508829124185
 21
519.91811627126572
  0
LINE
  8
_0-1_
  6
CONTINUOUS
 62
    7
 10
301.01508829124185
 20
519.91811627126572
 11
301.16429848100222
 21
520.06028370507431
  0
LINE
  8
_0-1_
  6
CONTINUOUS
 62
    7
 10
301.16429848100222
 20
520.06028370507431
 11
301.34666649070942
 21
520.19755183039479
  0
LINE
  8
_0-1_
  6
CONTINUOUS
 62
    7
 10
301.34666649070942
 20
520.19755183039479
 11
301.5621704484505
 21
520.32996439105295
  0
LINE
  8
_0-1_
  6
CONTINUOUS
 62
    7
 10
301.5621704484505
 20
520.32996439105295
 11
301.81085409805121
 21
520.45743389939707
  0
LINE
  8
_0-1_
  6
CONTINUOUS
 62
    7
 10
301.81085409805121
 20
520.45743389939707
 11
302.08418739348303
 21
520.57974163629831
  0
LINE
  8
_0-1_
  6
CONTINUOUS
 62
    7
 10
302.08418739348303
 20
520.57974163629831
 11
302.37366216063037
 21
520.69649390732457
  0
LINE
  8
_0-1_
  6
CONTINUOUS
 62
    7
 10
302.37366216063037
 20
520.69649390732457
 11
302.67930027140608
 21
520.80773445630166
  0
LINE
  8
_0-1_
  6
CONTINUOUS
 62
    7
 10
302.67930027140608
 20
520.80773445630166
 11
303.00110172581026
 21
520.91341953940378
  0
LINE
  8
_0-1_
  6
CONTINUOUS
 62
    7
 10
303.00110172581026
 20
520.91341953940378
 11
303.33904465192984
 21
521.01359290045662
  0
LINE
  8
_0-1_
  6
CONTINUOUS
 62
    7
 10
303.33904465192984
 20
521.01359290045662
 11
303.69315092167795
 21
521.10821079563448
  0
LINE
  8
_0-1_
  6
CONTINUOUS
 62
    7
 10
303.69315092167795
 20
521.10821079563448
 11
304.06342053505443
 21
521.19727322493736
  0
LINE
  8
_0-1_
  6
CONTINUOUS
 62
    7
 10
304.06342053505443
 20
521.19727322493736
 11
304.44985349205928
 21
521.28082393219108
  0
LINE
  8
_0-1_
  6
CONTINUOUS
 62
    7
 10
296.74984655785283
 20
539.28595760153985
 11
296.74984655785283
 21
539.2244100386572
  0
LINE
  8
_0-1_
  6
CONTINUOUS
 62
    7
 10
296.74984655785283
 20
539.2244100386572
 11
296.74984655785283
 21
539.19177714461978
  0
LINE
  8
_0-1_
  6
CONTINUOUS
 62
    7
 10
296.74984655785283
 20
539.19177714461978
 11
296.74984655785283
 21
539.18805891942793
  0
LINE
  8
_0-1_
  6
CONTINUOUS
 62
    7
 10
296.74984655785283
 20
539.18805891942793
 11
296.74984655785283
 21
539.21321161925562
  0
LINE
  8
_0-1_
  6
CONTINUOUS
 62
    7
 10
296.74984655785283
 20
539.21321161925562
 11
296.74984655785283
 21
539.26727898792865
  0
LINE
  8
_0-1_
  6
CONTINUOUS
 62
    7
 10
296.74984655785283
 20
539.26727898792865
 11
296.74984655785283
 21
539.35026102544714
  0
LINE
  8
_0-1_
  6
CONTINUOUS
 62
    7
 10
296.74984655785283
 20
539.35026102544714
 11
296.74984655785283
 21
539.46211398798528
  0
LINE
  8
_0-1_
  6
CONTINUOUS
 62
    7
 10
296.74984655785283
 20
539.46211398798528
 11
296.74984655785283
 21
539.60288161936876
  0
LINE
  8
_0-1_
  6
CONTINUOUS
 62
    7
 10
296.74984655785283
 20
539.60288161936876
 11
296.77705521749255
 21
539.76110303724136
  0
LINE
  8
_0-1_
  6
CONTINUOUS
 62
    7
 10
296.77705521749255
 20
539.76110303724136
 11
296.85870306832447
 21
539.92527361542091
  0
LINE
  8
_0-1_
  6
CONTINUOUS
 62
    7
 10
296.85870306832447
 20
539.92527361542091
 11
296.99476823843582
 21
540.09543709773357
  0
LINE
  8
_0-1_
  6
CONTINUOUS
 62
    7
 10
296.99476823843582
 20
540.09543709773357
 11
297.18527259973939
 21
540.27159348417888
  0
LINE
  8
_0-1_
  6
CONTINUOUS
 62
    7
 10
297.18527259973939
 20
540.27159348417888
 11
297.43019428032244
 21
540.45374277475719
  0
LINE
  8
_0-1_
  6
CONTINUOUS
 62
    7
 10
297.43019428032244
 20
540.45374277475719
 11
297.7295332801848
 21
540.64184122564245
  0
LINE
  8
_0-1_
  6
CONTINUOUS
 62
    7
 10
297.7295332801848
 20
540.64184122564245
 11
298.08331147123954
 21
540.83588883683478
  0
LINE
  8
_0-1_
  6
CONTINUOUS
 62
    7
 10
298.08331147123954
 20
540.83588883683478
 11
298.49150698157348
 21
541.03597309598592
  0
LINE
  8
_0-1_
  6
CONTINUOUS
 62
    7
 10
298.49150698157348
 20
541.03597309598592
 11
298.94685833610623
 21
541.23365144471859
  0
LINE
  8
_0-1_
  6
CONTINUOUS
 62
    7
 10
298.94685833610623
 20
541.23365144471859
 11
299.44203844401829
 21
541.42056881230769
  0
LINE
  8
_0-1_
  6
CONTINUOUS
 62
    7
 10
299.44203844401829
 20
541.42056881230769
 11
299.97706917722257
 21
541.59681268640463
  0
LINE
  8
_0-1_
  6
CONTINUOUS
 62
    7
 10
299.97706917722257
 20
541.59681268640463
 11
300.55192866380605
 21
541.7622955793579
  0
LINE
  8
_0-1_
  6
CONTINUOUS
 62
    7
 10
300.55192866380605
 20
541.7622955793579
 11
301.16663877568186
 21
541.91710497881911
  0
LINE
  8
_0-1_
  6
CONTINUOUS
 62
    7
 10
301.16663877568186
 20
541.91710497881911
 11
301.82119951284989
 21
542.06115339713665
  0
LINE
  8
_0-1_
  6
CONTINUOUS
 62
    7
 10
301.82119951284989
 20
542.06115339713665
 11
302.51561087531007
 21
542.19444083431051
  0
LINE
  8
_0-1_
  6
CONTINUOUS
 62
    7
 10
302.51561087531007
 20
542.19444083431051
 11
303.24985099114969
 21
542.31705477799221
  0
LINE
  8
_0-1_
  6
CONTINUOUS
 62
    7
 10
303.24985099114969
 20
542.31705477799221
 11
304.01129976662889
 21
542.42693926836989
  0
LINE
  8
_0-1_
  6
CONTINUOUS
 62
    7
 10
304.01129976662889
 20
542.42693926836989
 11
304.78733710800816
 21
542.52221332093461
  0
LINE
  8
_0-1_
  6
CONTINUOUS
 62
    7
 10
304.78733710800816
 20
542.52221332093461
 11
305.57796301528754
 21
542.60278944803474
  0
LINE
  8
_0-1_
  6
CONTINUOUS
 62
    7
 10
305.57796301528754
 20
542.60278944803474
 11
306.38317748846691
 21
542.66871139349621
  0
LINE
  8
_0-1_
  6
CONTINUOUS
 62
    7
 10
306.38317748846691
 20
542.66871139349621
 11
307.20295865563349
 21
542.72002290114472
  0
LINE
  8
_0-1_
  6
CONTINUOUS
 62
    7
 10
307.20295865563349
 20
542.72002290114472
 11
308.03735026061304
 21
542.75663648332863
  0
LINE
  8
_0-1_
  6
CONTINUOUS
 62
    7
 10
308.03735026061304
 20
542.75663648332863
 11
308.88630855957967
 21
542.77863962769959
  0
LINE
  8
_0-1_
  6
CONTINUOUS
 62
    7
 10
308.88630855957967
 20
542.77863962769959
 11
309.74985542444642
 21
542.78594484660618
  0
LINE
  8
_0-1_
  6
CONTINUOUS
 62
    7
 10
309.74985542444642
 20
542.78594484660618
 11
310.61338041740032
 21
542.77863962769959
  0
LINE
  8
_0-1_
  6
CONTINUOUS
 62
    7
 10
310.61338041740032
 20
542.77863962769959
 11
311.46233871636701
 21
542.75663648332863
  0
LINE
  8
_0-1_
  6
CONTINUOUS
 62
    7
 10
311.46233871636701
 20
542.75663648332863
 11
312.29673032134656
 21
542.72002290114472
  0
LINE
  8
_0-1_
  6
CONTINUOUS
 62
    7
 10
312.29673032134656
 20
542.72002290114472
 11
313.11651148851308
 21
542.66871139349621
  0
LINE
  8
_0-1_
  6
CONTINUOUS
 62
    7
 10
313.11651148851308
 20
542.66871139349621
 11
313.92172596169252
 21
542.60278944803474
  0
LINE
  8
_0-1_
  6
CONTINUOUS
 62
    7
 10
313.92172596169252
 20
542.60278944803474
 11
314.71235186897189
 21
542.52221332093461
  0
LINE
  8
_0-1_
  6
CONTINUOUS
 62
    7
 10
314.71235186897189
 20
542.52221332093461
 11
315.4883892103511
 21
542.42693926836989
  0
LINE
  8
_0-1_
  6
CONTINUOUS
 62
    7
 10
315.4883892103511
 20
542.42693926836989
 11
316.24983798583037
 21
542.31705477799221
  0
LINE
  8
_0-1_
  6
CONTINUOUS
 62
    7
 10
316.24983798583037
 20
542.31705477799221
 11
316.97968184717837
 21
542.19649679412248
  0
LINE
  8
_0-1_
  6
CONTINUOUS
 62
    7
 10
316.97968184717837
 20
542.19649679412248
 11
317.66083883042495
 21
542.06937723638464
  0
LINE
  8
_0-1_
  6
CONTINUOUS
 62
    7
 10
317.66083883042495
 20
542.06937723638464
 11
318.29335267939621
 21
541.93560861712717
  0
LINE
  8
_0-1_
  6
CONTINUOUS
 62
    7
 10
318.29335267939621
 20
541.93560861712717
 11
318.87720152217912
 21
541.79523468017578
  0
LINE
  8
_0-1_
  6
CONTINUOUS
 62
    7
 10
318.87720152217912
 20
541.79523468017578
 11
319.41238535877358
 21
541.64821168170465
  0
LINE
  8
_0-1_
  6
CONTINUOUS
 62
    7
 10
319.41238535877358
 20
541.64821168170465
 11
319.89890418917975
 21
541.49462710936552
  0
LINE
  8
_0-1_
  6
CONTINUOUS
 62
    7
 10
319.89890418917975
 20
541.49462710936552
 11
320.33675801339757
 21
541.33439347550666
  0
LINE
  8
_0-1_
  6
CONTINUOUS
 62
    7
 10
320.33675801339757
 20
541.33439347550666
 11
320.72594683142705
 21
541.16755452395398
  0
LINE
  8
_0-1_
  6
CONTINUOUS
 62
    7
 10
320.72594683142705
 20
541.16755452395398
 11
321.07681605806681
 21
540.98929843387077
  0
LINE
  8
_0-1_
  6
CONTINUOUS
 62
    7
 10
321.07681605806681
 20
540.98929843387077
 11
321.39971110811564
 21
540.79476964059484
  0
LINE
  8
_0-1_
  6
CONTINUOUS
 62
    7
 10
321.39971110811564
 20
540.79476964059484
 11
321.69465385348639
 21
540.58396814412595
  0
LINE
  8
_0-1_
  6
CONTINUOUS
 62
    7
 10
321.69465385348639
 20
540.58396814412595
 11
321.9616224222662
 21
540.3568939444641
  0
LINE
  8
_0-1_
  6
CONTINUOUS
 62
    7
 10
321.9616224222662
 20
540.3568939444641
 11
322.20063868636782
 21
540.11354704160942
  0
LINE
  8
_0-1_
  6
CONTINUOUS
 62
    7
 10
322.20063868636782
 20
540.11354704160942
 11
322.41168077387863
 21
539.85397117938771
  0
LINE
  8
_0-1_
  6
CONTINUOUS
 62
    7
 10
322.41168077387863
 20
539.85397117938771
 11
322.59474868479845
 21
539.57807887014735
  0
LINE
  8
_0-1_
  6
CONTINUOUS
 62
    7
 10
322.59474868479845
 20
539.57807887014735
 11
322.74984241912716
 21
539.28595760153985
  0
LINE
  8
_0-1_
  6
CONTINUOUS
 62
    7
 10
239.70787585932314
 20
391.49035567942735
 11
237.627616352096
 21
387.31133302666507
  0
LINE
  8
_0-1_
  6
CONTINUOUS
 62
    7
 10
237.627616352096
 20
387.31133302666507
 11
236.11515170358786
 21
382.96407161992482
  0
LINE
  8
_0-1_
  6
CONTINUOUS
 62
    7
 10
236.11515170358786
 20
382.96407161992482
 11
235.17052565762435
 21
378.44857145920685
  0
LINE
  8
_0-1_
  6
CONTINUOUS
 62
    7
 10
235.17052565762435
 20
378.44857145920685
 11
234.79369447037982
 21
373.7647888006851
  0
LINE
  8
_0-1_
  6
CONTINUOUS
 62
    7
 10
234.79369447037982
 20
373.7647888006851
 11
234.98468001376708
 21
368.91272364435969
  0
LINE
  8
_0-1_
  6
CONTINUOUS
 62
    7
 10
234.98468001376708
 20
368.91272364435969
 11
235.74348228778618
 21
363.89244160596922
  0
LINE
  8
_0-1_
  6
CONTINUOUS
 62
    7
 10
235.74348228778618
 20
363.89244160596922
 11
237.07010129243713
 21
358.70387706977516
  0
LINE
  8
_0-1_
  6
CONTINUOUS
 62
    7
 10
237.07010129243713
 20
358.70387706977516
 11
238.96453702771987
 21
353.34707377960319
  0
LINE
  8
_0-1_
  6
CONTINUOUS
 62
    7
 10
381.94807752218941
 20
391.49035567942735
 11
384.02835890132951
 21
387.31133302666507
  0
LINE
  8
_0-1_
  6
CONTINUOUS
 62
    7
 10
384.02835890132951
 20
387.31133302666507
 11
385.54080167792478
 21
382.96407161992482
  0
LINE
  8
_0-1_
  6
CONTINUOUS
 62
    7
 10
385.54080167792478
 20
382.96407161992482
 11
386.48544959580113
 21
378.44857145920685
  0
LINE
  8
_0-1_
  6
CONTINUOUS
 62
    7
 10
386.48544959580113
 20
378.44857145920685
 11
386.86230265495857
 21
373.7647888006851
  0
LINE
  8
_0-1_
  6
CONTINUOUS
 62
    7
 10
386.86230265495857
 20
373.7647888006851
 11
386.67131711157134
 21
368.91272364435969
  0
LINE
  8
_0-1_
  6
CONTINUOUS
 62
    7
 10
386.67131711157134
 20
368.91272364435969
 11
385.91249296563933
 21
363.89244160596922
  0
LINE
  8
_0-1_
  6
CONTINUOUS
 62
    7
 10
385.91249296563933
 20
363.89244160596922
 11
384.58587396098835
 21
358.70387706977516
  0
LINE
  8
_0-1_
  6
CONTINUOUS
 62
    7
 10
384.58587396098835
 20
358.70387706977516
 11
382.69146009761857
 21
353.34707377960319
  0
LINE
  8
_0-1_
  6
CONTINUOUS
 62
    7
 10
700.18532874501352
 20
535.96768220879392
 11
675.16613507362865
 21
543.04167125215849
  0
LINE
  8
_0-1_
  6
CONTINUOUS
 62
    7
 10
675.16613507362865
 20
543.04167125215849
 11
669.18049241585152
 21
521.87158429944839
  0
LINE
  8
_0-1_
  6
CONTINUOUS
 62
    7
 10
669.18049241585152
 20
521.87158429944839
 11
694.19968608723639
 21
514.79763899990951
  0
LINE
  8
_0-1_
  6
CONTINUOUS
 62
    7
 10
694.19968608723639
 20
514.79763899990951
 11
700.18532874501352
 21
535.96768220879392
  0
LINE
  8
_0-1_
  6
CONTINUOUS
 62
    7
 10
700.72945819398137
 20
537.89223556813124
 11
700.18532874501352
 21
535.96768220879392
  0
LINE
  8
_0-1_
  6
CONTINUOUS
 62
    7
 10
700.18532874501352
 20
535.96768220879392
 11
675.16613507362865
 21
543.04167125215849
  0
LINE
  8
_0-1_
  6
CONTINUOUS
 62
    7
 10
675.16613507362865
 20
543.04167125215849
 11
675.71030826642243
 21
544.96622461149582
  0
LINE
  8
_0-1_
  6
CONTINUOUS
 62
    7
 10
859.50003605551706
 20
412.66481701471628
 11
859.50003605551706
 21
526.33402319948641
  0
LINE
  8
_0-1_
  6
CONTINUOUS
 62
    7
 10
676.13077391988986
 20
546.11082555704593
 11
676.10688979100996
 21
545.99297969037502
  0
LINE
  8
_0-1_
  6
CONTINUOUS
 62
    7
 10
676.10688979100996
 20
545.99297969037502
 11
676.08943600452085
 21
545.87404022805936
  0
LINE
  8
_0-1_
  6
CONTINUOUS
 62
    7
 10
676.08943600452085
 20
545.87404022805936
 11
676.07845630424822
 21
545.75426963305381
  0
LINE
  8
_0-1_
  6
CONTINUOUS
 62
    7
 10
676.07845630424822
 20
545.75426963305381
 11
676.07399443401789
 21
545.63414908744198
  0
LINE
  8
_0-1_
  6
CONTINUOUS
 62
    7
 10
676.07399443401789
 20
545.63414908744198
 11
676.07600665000405
 21
545.5138973103526
  0
LINE
  8
_0-1_
  6
CONTINUOUS
 62
    7
 10
676.07600665000405
 20
545.5138973103526
 11
676.08453669603261
 21
545.39395174004392
  0
LINE
  8
_0-1_
  6
CONTINUOUS
 62
    7
 10
676.08453669603261
 20
545.39395174004392
 11
676.09958457210337
 21
545.27466232712197
  0
LINE
  8
_0-1_
  6
CONTINUOUS
 62
    7
 10
676.09958457210337
 20
545.27466232712197
 11
676.12101904673921
 21
545.15637902219316
  0
LINE
  8
_0-1_
  6
CONTINUOUS
 62
    7
 10
676.12101904673921
 20
545.15637902219316
 11
676.13077391988986
 21
545.10983559155557
  0
LINE
  8
_0-1_
  6
CONTINUOUS
 62
    7
 10
885.49996630105272
 20
412.66481701471628
 11
885.49996630105272
 21
527.66479786758714
  0
LINE
  8
_0-1_
  6
CONTINUOUS
 62
    7
 10
885.49996630105272
 20
527.66479786758714
 11
882.823019138174
 21
546.51773062451923
  0
LINE
  8
_0-1_
  6
CONTINUOUS
 62
    7
 10
882.823019138174
 20
546.51773062451923
 11
876.8196164871274
 21
564.58865500785214
  0
LINE
  8
_0-1_
  6
CONTINUOUS
 62
    7
 10
876.8196164871274
 20
564.58865500785214
 11
867.6832810331955
 21
581.29569064696318
  0
LINE
  8
_0-1_
  6
CONTINUOUS
 62
    7
 10
867.6832810331955
 20
581.29569064696318
 11
855.70805877332066
 21
596.10087597232064
  0
LINE
  8
_0-1_
  6
CONTINUOUS
 62
    7
 10
855.70805877332066
 20
596.10087597232064
 11
841.27959527564315
 21
608.5273595390172
  0
LINE
  8
_0-1_
  6
CONTINUOUS
 62
    7
 10
841.27959527564315
 20
608.5273595390172
 11
824.86253745767601
 21
618.17510406022825
  0
LINE
  8
_0-1_
  6
CONTINUOUS
 62
    7
 10
824.86253745767601
 20
618.17510406022825
 11
806.98548571023241
 21
624.7333971413866
  0
LINE
  8
_0-1_
  6
CONTINUOUS
 62
    7
 10
806.98548571023241
 20
624.7333971413866
 11
788.2241962683247
 21
627.99104359159139
  0
LINE
  8
_0-1_
  6
CONTINUOUS
 62
    7
 10
788.2241962683247
 20
627.99104359159139
 11
769.33578726867904
 21
627.85801861737218
  0
LINE
  8
_0-1_
  6
CONTINUOUS
 62
    7
 10
769.33578726867904
 20
627.85801861737218
 11
750.77029519099528
 21
624.37824101981971
  0
LINE
  8
_0-1_
  6
CONTINUOUS
 62
    7
 10
750.77029519099528
 20
624.37824101981971
 11
733.1158557729832
 21
617.66198898374341
  0
LINE
  8
_0-1_
  6
CONTINUOUS
 62
    7
 10
733.1158557729832
 20
617.66198898374341
 11
716.93186505881044
 21
607.92207622159856
  0
LINE
  8
_0-1_
  6
CONTINUOUS
 62
    7
 10
716.93186505881044
 20
607.92207622159856
 11
702.73113191818175
 21
595.46707168048874
  0
LINE
  8
_0-1_
  6
CONTINUOUS
 62
    7
 10
702.73113191818175
 20
595.46707168048874
 11
690.96360534314488
 21
580.69163215666663
  0
LINE
  8
_0-1_
  6
CONTINUOUS
 62
    7
 10
690.96360534314488
 20
580.69163215666663
 11
682.00220144853631
 21
564.06394781753363
  0
LINE
  8
_0-1_
  6
CONTINUOUS
 62
    7
 10
682.00220144853631
 20
564.06394781753363
 11
676.13077391988986
 21
546.11082555704593
  0
LINE
  8
_0-1_
  6
CONTINUOUS
 62
    7
 10
847.49996730259477
 20
267.66481738293032
 11
897.5000350539749
 21
267.66481738293032
  0
LINE
  8
_0-1_
  6
CONTINUOUS
 62
    7
 10
897.5000350539749
 20
267.66481738293032
 11
897.5000350539749
 21
257.66480383265434
  0
LINE
  8
_0-1_
  6
CONTINUOUS
 62
    7
 10
897.5000350539749
 20
257.66480383265434
 11
847.49996730259477
 21
257.66480383265434
  0
LINE
  8
_0-1_
  6
CONTINUOUS
 62
    7
 10
847.49996730259477
 20
257.66480383265434
 11
847.49996730259477
 21
267.66481738293032
  0
LINE
  8
_0-1_
  6
CONTINUOUS
 62
    7
 10
853.4999579352301
 20
412.66481701471628
 11
891.49995693368794
 21
412.66481701471628
  0
LINE
  8
_0-1_
  6
CONTINUOUS
 62
    7
 10
891.49995693368794
 20
412.66481701471628
 11
891.49995693368794
 21
327.66481119693475
  0
LINE
  8
_0-1_
  6
CONTINUOUS
 62
    7
 10
891.49995693368794
 20
327.66481119693475
 11
853.4999579352301
 21
327.66481119693475
  0
LINE
  8
_0-1_
  6
CONTINUOUS
 62
    7
 10
853.4999579352301
 20
327.66481119693475
 11
853.4999579352301
 21
412.66481701471628
  0
LINE
  8
_0-1_
  6
CONTINUOUS
 62
    7
 10
853.4999579352301
 20
327.66481119693475
 11
891.49995693368794
 21
327.66481119693475
  0
LINE
  8
_0-1_
  6
CONTINUOUS
 62
    7
 10
891.49995693368794
 20
327.66481119693475
 11
891.49995693368794
 21
267.66481738293032
  0
LINE
  8
_0-1_
  6
CONTINUOUS
 62
    7
 10
891.49995693368794
 20
267.66481738293032
 11
853.4999579352301
 21
267.66481738293032
  0
LINE
  8
_0-1_
  6
CONTINUOUS
 62
    7
 10
853.4999579352301
 20
267.66481738293032
 11
853.4999579352301
 21
327.66481119693475
  0
LINE
  8
_0-1_
  6
CONTINUOUS
 62
    7
 10
879.99996759716612
 20
429.93890386750797
 11
879.99996759716612
 21
412.66481701471628
  0
LINE
  8
_0-1_
  6
CONTINUOUS
 62
    7
 10
879.99996759716612
 20
412.66481701471628
 11
867.49999440314684
 21
412.66481701471628
  0
LINE
  8
_0-1_
  6
CONTINUOUS
 62
    7
 10
867.49999440314684
 20
412.66481701471628
 11
867.49999440314684
 21
429.93890386750797
  0
ARC
  8
_0-0_
  6
CONTINUOUS
 62
    7
 10
219.74984283152693
 20
889.11084414448976
 40
18.999999499228931
 50
199.20478820800781
 51
161.59489440917969
  0
CIRCLE
  8
_0-1_
  6
CONTINUOUS
 62
    7
 10
219.74984283152693
 20
889.11084414448976
 40
18.999999499228931
  0
ARC
  8
_0-1_
  6
CONTINUOUS
 62
    7
 10
219.74984283152693
 20
889.11084414448976
 40
25.000001067820662
 50
201.10018920898437
 51
310.53579711914062
  0
ARC
  8
_0-1_
  6
CONTINUOUS
 62
    7
 10
219.74984283152693
 20
889.11084414448976
 40
25.000001067820662
 50
49.464187622070305
 51
158.89979553222656
  0
ARC
  8
_0-1_
  6
CONTINUOUS
 62
    7
 10
399.74984614545315
 20
889.11084414448976
 40
25.000001067820662
 50
229.46418762207031
 51
338.89979553222656
  0
ARC
  8
_0-1_
  6
CONTINUOUS
 62
    7
 10
399.74984614545315
 20
889.11084414448976
 40
25.000001067820662
 50
21.100189208984375
 51
130.53579711914065
  0
ARC
  8
_0-1_
  6
CONTINUOUS
 62
    7
 10
399.74984614545315
 20
889.11084414448976
 40
18.999999499228931
 50
83.979965209960938
 51
94.172622680664063
  0
ARC
  8
_0-1_
  6
CONTINUOUS
 62
    7
 10
399.74984614545315
 20
889.11084414448976
 40
18.999999499228931
 50
276.02001953125
 51
341.59486389160156
  0
ARC
  8
_0-1_
  6
CONTINUOUS
 62
    7
 10
399.74984614545315
 20
889.11084414448976
 40
18.999999499228931
 50
19.20489501953125
 51
83.979965209960938
  0
ARC
  8
_0-1_
  6
CONTINUOUS
 62
    7
 10
399.74984614545315
 20
889.11084414448976
 40
18.999999499228931
 50
265.98089599609375
 51
276.02001953125
  0
ARC
  8
_0-1_
  6
CONTINUOUS
 62
    7
 10
399.74984614545315
 20
889.11084414448976
 40
18.999999499228931
 50
94.1729736328125
 51
265.98089599609375
  0
CIRCLE
  8
_0-1_
  6
CONTINUOUS
 62
    7
 10
219.74984283152693
 20
889.11084414448976
 40
18.999999499228931
  0
ARC
  8
_0-1_
  6
CONTINUOUS
 62
    7
 10
219.74984283152693
 20
889.11084414448976
 40
18.999999499228931
 50
199.20478820800781
 51
199.2048034667969
  0
ARC
  8
_0-1_
  6
CONTINUOUS
 62
    7
 10
219.74984283152693
 20
889.11084414448976
 40
18.999999499228931
 50
199.20478820800781
 51
199.2048034667969
  0
ARC
  8
_0-1_
  6
CONTINUOUS
 62
    7
 10
219.74984283152693
 20
889.11084414448976
 40
18.999999499228931
 50
199.20478820800781
 51
199.2048034667969
  0
ARC
  8
_0-1_
  6
CONTINUOUS
 62
    7
 10
219.74984283152693
 20
889.11084414448976
 40
18.999999499228931
 50
199.20478820800781
 51
199.2048034667969
  0
ARC
  8
_0-1_
  6
CONTINUOUS
 62
    7
 10
219.74984283152693
 20
889.11084414448976
 40
18.999999499228931
 50
199.20478820800781
 51
199.2048034667969
  0
ARC
  8
_0-1_
  6
CONTINUOUS
 62
    7
 10
219.74984283152693
 20
889.11084414448976
 40
18.999999499228931
 50
199.20478820800781
 51
199.2048034667969
  0
CIRCLE
  8
_0-1_
  6
CONTINUOUS
 62
    7
 10
219.74984283152693
 20
889.11084414448976
 40
18.999999499228931
  0
CIRCLE
  8
_0-1_
  6
CONTINUOUS
 62
    7
 10
219.74984283152693
 20
889.11084414448976
 40
18.999999499228931
  0
CIRCLE
  8
_0-1_
  6
CONTINUOUS
 62
    7
 10
219.74984283152693
 20
889.11084414448976
 40
18.999999499228931
  0
ARC
  8
_0-1_
  6
CONTINUOUS
 62
    7
 10
219.74984283152693
 20
889.11084414448976
 40
18.999999499228931
 50
199.20478820800781
 51
199.2048034667969
  0
CIRCLE
  8
_0-1_
  6
CONTINUOUS
 62
    7
 10
219.74984283152693
 20
889.11084414448976
 40
18.999999499228931
  0
ARC
  8
_0-1_
  6
CONTINUOUS
 62
    7
 10
219.74984283152693
 20
889.11084414448976
 40
18.999999499228931
 50
199.20475769042969
 51
199.20498657226562
  0
ARC
  8
_0-1_
  6
CONTINUOUS
 62
    7
 10
219.74984283152693
 20
889.11084414448976
 40
18.999999499228931
 50
199.20477294921875
 51
199.20480346679687
  0
ARC
  8
_0-1_
  6
CONTINUOUS
 62
    7
 10
219.74984283152693
 20
889.11084414448976
 40
18.999999499228931
 50
199.20478820800781
 51
199.2048034667969
  0
ARC
  8
_0-1_
  6
CONTINUOUS
 62
    7
 10
219.74984283152693
 20
889.11084414448976
 40
18.999999499228931
 50
199.20478820800781
 51
199.20498657226562
  0
CIRCLE
  8
_0-1_
  6
CONTINUOUS
 62
    7
 10
219.74984283152693
 20
889.11084414448976
 40
18.999999499228931
  0
ARC
  8
_0-1_
  6
CONTINUOUS
 62
    7
 10
219.74984283152693
 20
889.11084414448976
 40
18.999999499228931
 50
199.20475769042969
 51
199.20495605468747
  0
CIRCLE
  8
_0-1_
  6
CONTINUOUS
 62
    7
 10
219.74984283152693
 20
889.11084414448976
 40
18.999999499228931
  0
ARC
  8
_0-1_
  6
CONTINUOUS
 62
    7
 10
219.74984283152693
 20
889.11084414448976
 40
18.999999499228931
 50
199.20478820800781
 51
199.2048034667969
  0
CIRCLE
  8
_0-1_
  6
CONTINUOUS
 62
    7
 10
219.74984283152693
 20
889.11084414448976
 40
18.999999499228931
  0
ARC
  8
_0-1_
  6
CONTINUOUS
 62
    7
 10
219.74984283152693
 20
889.11084414448976
 40
18.999999499228931
 50
199.2048034667969
 51
199.20498657226565
  0
CIRCLE
  8
_0-1_
  6
CONTINUOUS
 62
    7
 10
219.74984283152693
 20
889.11084414448976
 40
18.999999499228931
  0
ARC
  8
_0-1_
  6
CONTINUOUS
 62
    7
 10
219.74984283152693
 20
889.11084414448976
 40
18.999999499228931
 50
199.2048034667969
 51
199.20498657226565
  0
CIRCLE
  8
_0-1_
  6
CONTINUOUS
 62
    7
 10
219.74984283152693
 20
889.11084414448976
 40
18.999999499228931
  0
ARC
  8
_0-1_
  6
CONTINUOUS
 62
    7
 10
219.74984283152693
 20
889.11084414448976
 40
18.999999499228931
 50
199.20486450195312
 51
199.20491027832031
  0
CIRCLE
  8
_0-1_
  6
CONTINUOUS
 62
    7
 10
219.74984283152693
 20
889.11084414448976
 40
18.999999499228931
  0
ARC
  8
_0-1_
  6
CONTINUOUS
 62
    7
 10
219.74984283152693
 20
889.11084414448976
 40
18.999999499228931
 50
199.20487976074219
 51
199.20494079589847
  0
ARC
  8
_0-1_
  6
CONTINUOUS
 62
    7
 10
219.74984283152693
 20
889.11084414448976
 40
18.999999499228931
 50
199.20477294921875
 51
199.20492553710937
  0
ARC
  8
_0-1_
  6
CONTINUOUS
 62
    7
 10
219.74984283152693
 20
889.11084414448976
 40
18.999999499228931
 50
199.20489501953125
 51
199.2049560546875
  0
ARC
  8
_0-1_
  6
CONTINUOUS
 62
    7
 10
219.74984283152693
 20
889.11084414448976
 40
18.999999499228931
 50
199.20489501953125
 51
199.20494079589844
  0
ARC
  8
_0-1_
  6
CONTINUOUS
 62
    7
 10
219.74984283152693
 20
889.11084414448976
 40
18.999999499228931
 50
199.20489501953125
 51
199.2049560546875
  0
CIRCLE
  8
_0-1_
  6
CONTINUOUS
 62
    7
 10
206.41243783663597
 20
884.46498738292564
 40
4.8765986076192966
  0
ARC
  8
_0-1_
  6
CONTINUOUS
 62
    7
 10
219.74984283152693
 20
889.11084414448976
 40
18.999999499228931
 50
199.20489501953125
 51
199.20494079589844
  0
CIRCLE
  8
_0-1_
  6
CONTINUOUS
 62
    7
 10
206.41243783663597
 20
884.46498738292564
 40
4.8765986076192966
  0
ARC
  8
_0-1_
  6
CONTINUOUS
 62
    7
 10
219.74984283152693
 20
889.11084414448976
 40
18.999999499228931
 50
199.20487976074219
 51
199.20498657226565
  0
LINE
  8
_0-1_
  6
CONTINUOUS
 62
    7
 10
322.74985608907275
 20
518.12317586773611
 11
322.74985608907275
 21
518.12317586773611
  0
LINE
  8
_0-1_
  6
CONTINUOUS
 62
    7
 10
322.74985608907275
 20
518.12317586773611
 11
322.55235686813427
 21
518.73087506136801
  0
LINE
  8
_0-1_
  6
CONTINUOUS
 62
    7
 10
322.55235686813427
 20
518.73087506136801
 11
321.96586011920766
 21
519.32010962251195
  0
LINE
  8
_0-1_
  6
CONTINUOUS
 62
    7
 10
321.96586011920766
 20
519.32010962251195
 11
321.00818624922738
 21
519.87297595719485
  0
LINE
  8
_0-1_
  6
CONTINUOUS
 62
    7
 10
321.00818624922738
 20
519.87297595719485
 11
319.70843369412643
 21
520.37267550160107
  0
LINE
  8
_0-1_
  6
CONTINUOUS
 62
    7
 10
319.70843369412643
 20
520.37267550160107
 11
318.10609477758499
 21
520.80402513793399
  0
LINE
  8
_0-1_
  6
CONTINUOUS
 62
    7
 10
318.10609477758499
 20
520.80402513793399
 11
316.24985575675959
 21
521.15391852576715
  0
LINE
  8
_0-1_
  6
CONTINUOUS
 62
    7
 10
316.24985575675959
 20
521.15391852576715
 11
314.19611751499571
 21
521.41172433156589
  0
LINE
  8
_0-1_
  6
CONTINUOUS
 62
    7
 10
314.19611751499571
 20
521.41172433156589
 11
312.00728184952766
 21
521.56960925637691
  0
LINE
  8
_0-1_
  6
CONTINUOUS
 62
    7
 10
312.00728184952766
 20
521.56960925637691
 11
309.74985542444642
 21
521.62277604665348
  0
LINE
  8
_0-1_
  6
CONTINUOUS
 62
    7
 10
309.74985542444642
 20
521.62277604665348
 11
307.49242899936519
 21
521.56960925637691
  0
LINE
  8
_0-1_
  6
CONTINUOUS
 62
    7
 10
307.49242899936519
 20
521.56960925637691
 11
305.30359333389714
 21
521.41172433156589
  0
LINE
  8
_0-1_
  6
CONTINUOUS
 62
    7
 10
305.30359333389714
 20
521.41172433156589
 11
303.24985509213326
 21
521.15391852576715
  0
LINE
  8
_0-1_
  6
CONTINUOUS
 62
    7
 10
303.24985509213326
 20
521.15391852576715
 11
301.39361607130786
 21
520.80402513793399
  0
LINE
  8
_0-1_
  6
CONTINUOUS
 62
    7
 10
301.39361607130786
 20
520.80402513793399
 11
299.79127715476642
 21
520.37267550160107
  0
LINE
  8
_0-1_
  6
CONTINUOUS
 62
    7
 10
299.79127715476642
 20
520.37267550160107
 11
298.49152459966547
 21
519.87297595719485
  0
LINE
  8
_0-1_
  6
CONTINUOUS
 62
    7
 10
298.49152459966547
 20
519.87297595719485
 11
297.53385072968518
 21
519.32010962251195
  0
LINE
  8
_0-1_
  6
CONTINUOUS
 62
    7
 10
297.53385072968518
 20
519.32010962251195
 11
296.94735398075858
 21
518.73087506136801
  0
LINE
  8
_0-1_
  6
CONTINUOUS
 62
    7
 10
296.94735398075858
 20
518.73087506136801
 11
296.7498547598201
 21
518.12317586773611
  0
LINE
  8
_0-1_
  6
CONTINUOUS
 62
    7
 10
296.7498547598201
 20
518.12317586773611
 11
296.94735398075858
 21
517.51547667410421
  0
LINE
  8
_0-1_
  6
CONTINUOUS
 62
    7
 10
296.94735398075858
 20
517.51547667410421
 11
297.53385072968518
 21
516.92624211296027
  0
LINE
  8
_0-1_
  6
CONTINUOUS
 62
    7
 10
297.53385072968518
 20
516.92624211296027
 11
298.49152459966547
 21
516.37337577827736
  0
LINE
  8
_0-1_
  6
CONTINUOUS
 62
    7
 10
298.49152459966547
 20
516.37337577827736
 11
299.79127715476642
 21
515.87367623387127
  0
LINE
  8
_0-1_
  6
CONTINUOUS
 62
    7
 10
299.79127715476642
 20
515.87367623387127
 11
301.39361607130786
 21
515.44232659753823
  0
LINE
  8
_0-1_
  6
CONTINUOUS
 62
    7
 10
301.39361607130786
 20
515.44232659753823
 11
303.24985509213326
 21
515.09243320970506
  0
LINE
  8
_0-1_
  6
CONTINUOUS
 62
    7
 10
303.24985509213326
 20
515.09243320970506
 11
305.30359333389714
 21
514.83462740390644
  0
LINE
  8
_0-1_
  6
CONTINUOUS
 62
    7
 10
305.30359333389714
 20
514.83462740390644
 11
307.49242899936513
 21
514.67674247909531
  0
LINE
  8
_0-1_
  6
CONTINUOUS
 62
    7
 10
307.49242899936513
 20
514.67674247909531
 11
309.74985542444637
 21
514.62357568881873
  0
LINE
  8
_0-1_
  6
CONTINUOUS
 62
    7
 10
309.74985542444637
 20
514.62357568881873
 11
312.0072818495276
 21
514.67674247909531
  0
LINE
  8
_0-1_
  6
CONTINUOUS
 62
    7
 10
312.0072818495276
 20
514.67674247909531
 11
314.19611751499565
 21
514.83462740390632
  0
LINE
  8
_0-1_
  6
CONTINUOUS
 62
    7
 10
314.19611751499565
 20
514.83462740390632
 11
316.24985575675953
 21
515.09243320970506
  0
LINE
  8
_0-1_
  6
CONTINUOUS
 62
    7
 10
316.24985575675953
 20
515.09243320970506
 11
318.10609477758493
 21
515.44232659753823
  0
LINE
  8
_0-1_
  6
CONTINUOUS
 62
    7
 10
318.10609477758493
 20
515.44232659753823
 11
319.70843369412637
 21
515.87367623387115
  0
LINE
  8
_0-1_
  6
CONTINUOUS
 62
    7
 10
319.70843369412637
 20
515.87367623387115
 11
321.00818624922738
 21
516.37337577827736
  0
LINE
  8
_0-1_
  6
CONTINUOUS
 62
    7
 10
321.00818624922738
 20
516.37337577827736
 11
321.96586011920766
 21
516.92624211296027
  0
LINE
  8
_0-1_
  6
CONTINUOUS
 62
    7
 10
321.96586011920766
 20
516.92624211296027
 11
322.55235686813427
 21
517.51547667410421
  0
LINE
  8
_0-1_
  6
CONTINUOUS
 62
    7
 10
322.55235686813427
 20
517.51547667410421
 11
322.74985608907275
 21
518.12317586773611
  0
LINE
  8
_0-1_
  6
CONTINUOUS
 62
    7
 10
322.74985608907275
 20
518.12317586773611
 11
322.74985608907275
 21
518.12317586773611
  0
ARC
  8
_0-1_
  6
CONTINUOUS
 62
    7
 10
779.52433670809819
 20
522.23347697018653
 40
80.114788309487594
 50
2.933868408203125
 51
170.178955078125
  0
CIRCLE
  8
_0-1_
  6
CONTINUOUS
 62
    7
 10
873.75002474398218
 20
436.41482732470888
 40
9.0000003023957653
  0
TEXT
  8
_0-0_
 62
    6
 10
958.97415956475106
 20
758.18119918057346
 40
45
 41
1
 50
0
  1
TX-7243
  0
ENDSEC
  0
EOF
