  0
SECTION
  2
HEADER
  9
$ACADVER
  1
AC1009
  9
$INSBASE
 10
0
 20
0
 30
0
  9
$EXTMIN
 10
0
 20
0
  9
$EXTMAX
 10
1485
 20
1050
  9
$LIMMIN
 10
0
 20
0
  9
$LIMMAX
 10
1485
 20
1050
  9
$LTSCALE
 40
5
  0
ENDSEC
  0
SECTION
  2
TABLES
  0
TABLE
  2
LTYPE
 70
     9
  0
LTYPE
  2
CONTINUOUS
 70
    64
  3
実線
 72
    65
 73
     0
 40
0.0
  0
LTYPE
  2
DASHED1
 70
    64
  3
--  --  --  --  --  --  --  --  
 72
    65
 73
     2
 40
2.5
 49
1.25
 49
-1.25
  0
LTYPE
  2
DASHED2
 70
    64
  3
----    ----    ----    ----    
 72
    65
 73
     2
 40
5.0
 49
2.5
 49
-2.5
  0
LTYPE
  2
DASHED3
 70
    64
  3
------  ------  ------  ------  
 72
    65
 73
     2
 40
5.0
 49
3.75
 49
-1.25
  0
LTYPE
  2
CENTER1
 70
    64
  3
----- - ----- - ----- - ----- - 
 72
    65
 73
     4
 40
10.0
 49
6.25
 49
-1.25
 49
1.25
 49
-1.25
  0
LTYPE
  2
CENTER2
 70
    64
  3
----------  --  ----------  --  
 72
    65
 73
     4
 40
20.0
 49
12.5
 49
-2.5
 49
2.5
 49
-2.5
  0
LTYPE
  2
PHANTOM1
 70
    64
  3
--- - - --- - - --- - - --- - - 
 72
    65
 73
     6
 40
10.0
 49
3.25
 49
-1.25
 49
1.25
 49
-1.25
 49
1.25
 49
-1.25
  0
LTYPE
  2
PHANTOM2
 70
    64
  3
--------  -  -  --------  -  -  
 72
    65
 73
     6
 40
20.0
 49
10.0
 49
-2.5
 49
1.25
 49
-2.5
 49
1.25
 49
-2.5
  0
LTYPE
  2
DOT
 70
    64
  3
-   -   -   -   -   -   -   -   
 72
    65
 73
     2
 40
2.5
 49
0.625
 49
-1.875
  0
LTYPE
  2
DUMMY
 70
    64
  3
ダミー
 72
    65
 73
     0
 40
0.0
  0
LTYPE
  2
RAND1
 70
    64
  3
ランダム線1
 72
    65
 73
     4
 40
10.0
 49
1.0
 49
-2.0
 49
3.0
 49
-4.0
  0
LTYPE
  2
RAND2
 70
    64
  3
ランダム線2
 72
    65
 73
     4
 40
14.0
 49
2.0
 49
-3.0
 49
4.0
 49
-5.0
  0
LTYPE
  2
RAND3
 70
    64
  3
ランダム線3
 72
    65
 73
     4
 40
18.0
 49
3.0
 49
-4.0
 49
5.0
 49
-6.0
  0
LTYPE
  2
RAND4
 70
    64
  3
ランダム線4
 72
    65
 73
     4
 40
22.0
 49
4.0
 49
-5.0
 49
6.0
 49
-7.0
  0
LTYPE
  2
RAND5
 70
    64
  3
ランダム線5
 72
    65
 73
     4
 40
26.0
 49
5.0
 49
-6.0
 49
7.0
 49
-8.0
  0
LTYPE
  2
LONG1
 70
    64
  3
----------  --  ----------  --  
 72
    65
 73
     4
 40
40.0
 49
32.5
 49
-2.5
 49
2.5
 49
-2.5
  0
LTYPE
  2
LONG2
 70
    64
  3
--------  -  -  --------  -  -  
 72
    65
 73
     6
 40
40.0
 49
30.0
 49
-2.5
 49
1.25
 49
-2.5
 49
1.25
 49
-2.5
  0
LTYPE
  2
LONG3
 70
    64
  3
+++++++++++++++..+++++++++++++++
 72
    65
 73
     2
 40
40.0
 49
37.5
 49
-2.5
  0
LTYPE
  2
LONG4
 70
    64
  3
+++++++++++++++..+++++++++++++++
 72
    65
 73
     2
 40
80.0
 49
75.0
 49
-5.0
  0
LTYPE
  2
LONG5
 70
    64
  3
----------  --  ----------  --  
 72
    65
 73
     4
 40
60.0
 49
37.5
 49
-7.5
 49
7.5
 49
-7.5
  0
LTYPE
  2
dashed
 70
   64
  3
-------   -------------   ------
 72
   65
 73
    2
 40
7.5
 49
6
 49
-1.5
  0
LTYPE
  2
dashed_spaced
 70
   64
  3
----        --------        ----
 72
   65
 73
    2
 40
12
 49
6
 49
-6
  0
LTYPE
  2
long_dashed_dotted
 70
   64
  3
------------- --- --------------
 72
   65
 73
    4
 40
15.25
 49
12
 49
-1.5
 49
0.25
 49
-1.5
  0
LTYPE
  2
long_dashed_double-dotted
 70
   64
  3
----------- --- --- ------------
 72
   65
 73
    6
 40
17
 49
12
 49
-1.5
 49
0.25
 49
-1.5
 49
0.25
 49
-1.5
  0
LTYPE
  2
long_dashed_triplicate-dotted
 70
   64
  3
--------- --- --- --- ----------
 72
   65
 73
    8
 40
18.75
 49
12
 49
-1.5
 49
0.25
 49
-1.5
 49
0.25
 49
-1.5
 49
0.25
 49
-1.5
  0
LTYPE
  2
dotted
 70
   64
  3
   -       -       -       -    
 72
   65
 73
    2
 40
1.75
 49
0.25
 49
-1.5
  0
LTYPE
  2
chain
 70
   64
  3
-------------- -- --------------
 72
   65
 73
    4
 40
18.5
 49
12
 49
-1.5
 49
3.5
 49
-1.5
  0
LTYPE
  2
chain_double_dash
 70
   64
  3
------------ -- -- -------------
 72
   65
 73
    6
 40
23.5
 49
12
 49
-1.5
 49
3.5
 49
-1.5
 49
3.5
 49
-1.5
  0
LTYPE
  2
dashed_dotted
 70
   64
  3
-----------     -     ----------
 72
   65
 73
    4
 40
9.25
 49
6
 49
-1.5
 49
0.25
 49
-1.5
  0
LTYPE
  2
double-dashed_dotted
 70
   64
  3
------   -----------   -   -----
 72
   65
 73
    6
 40
16.75
 49
6
 49
-1.5
 49
6
 49
-1.5
 49
0.25
 49
-1.5
  0
LTYPE
  2
dashed_double-dotted
 70
   64
  3
---------    -    -    ---------
 72
   65
 73
    6
 40
11
 49
6
 49
-1.5
 49
0.25
 49
-1.5
 49
0.25
 49
-1.5
  0
LTYPE
  2
double-dashed_double-dotted
 70
   64
  3
-----   ---------   -   -   ----
 72
   65
 73
    8
 40
18.5
 49
6
 49
-1.5
 49
6
 49
-1.5
 49
0.25
 49
-1.5
 49
0.25
 49
-1.5
  0
LTYPE
  2
dashed_triplicate-dotted
 70
   64
  3
-------    -    -    -    ------
 72
   65
 73
    8
 40
12.75
 49
6
 49
-1.5
 49
0.25
 49
-1.5
 49
0.25
 49
-1.5
 49
0.25
 49
-1.5
  0
LTYPE
  2
double-dashed_triplicate-dotted
 70
   64
  3
-----  ---------  -  -  -  -----
 72
   65
 73
   10
 40
20.25
 49
6
 49
-1.5
 49
6
 49
-1.5
 49
0.25
 49
-1.5
 49
0.25
 49
-1.5
 49
0.25
 49
-1.5
  0
LTYPE
  2
undefined
 70
   64
  3
--------------------------------
 72
   65
 73
    0
 40
0
  0
LTYPE
  2
_
 70
   64
  3
                                
 72
   65
 73
    0
 40
0
  0
LTYPE
  2
__18
 70
   64
  3
                                
 72
   65
 73
    0
 40
0
  0
LTYPE
  2
__19
 70
   64
  3
                                
 72
   65
 73
    0
 40
0
  0
LTYPE
  2
__20
 70
   64
  3
                                
 72
   65
 73
    0
 40
0
  0
LTYPE
  2
__21
 70
   64
  3
                                
 72
   65
 73
    0
 40
0
  0
LTYPE
  2
__22
 70
   64
  3
                                
 72
   65
 73
    0
 40
0
  0
LTYPE
  2
__23
 70
   64
  3
                                
 72
   65
 73
    0
 40
0
  0
LTYPE
  2
__24
 70
   64
  3
                                
 72
   65
 73
    0
 40
0
  0
LTYPE
  2
__25
 70
   64
  3
                                
 72
   65
 73
    0
 40
0
  0
LTYPE
  2
__26
 70
   64
  3
                                
 72
   65
 73
    0
 40
0
  0
LTYPE
  2
__27
 70
   64
  3
                                
 72
   65
 73
    0
 40
0
  0
LTYPE
  2
__28
 70
   64
  3
                                
 72
   65
 73
    0
 40
0
  0
LTYPE
  2
__29
 70
   64
  3
                                
 72
   65
 73
    0
 40
0
  0
LTYPE
  2
__30
 70
   64
  3
                                
 72
   65
 73
    0
 40
0
  0
LTYPE
  2
__31
 70
   64
  3
                                
 72
   65
 73
    0
 40
0
  0
LTYPE
  2
__32
 70
   64
  3
                                
 72
   65
 73
    0
 40
0
  0
ENDTAB
  0
TABLE
  2
STYLE
  5
3
100
AcDbSymbolTable
 70
     1
  0
STYLE
  5
10
100
AcDbSymbolTableRecord
100
AcDbTextStyleTableRecord
  2
STANDARD
 70
     0
 40
0.0
 41
1.0
 50
0.0
 71
     0
 42
0.2
  3
txt
  4
bigfont.shx
  0
STYLE
  5
26
100
AcDbSymbolTableRecord
100
AcDbTextStyleTableRecord
  2
TATEGAKI
 70
    68
 40
0.0
 41
1.0
 50
0.0
 71
     0
 42
1.0
  3
txt
  4
bigfont.shx
  0
ENDTAB
  0
TABLE
  2
LAYER
 70
    3
  0
LAYER
  2
_0-0_
 70
   64
 62
    7
  6
CONTINUOUS
  0
LAYER
  2
_0-1_
 70
   64
 62
    7
  6
CONTINUOUS
  0
LAYER
  2
ADD_LINE
 70
   64
 62
    7
  6
CONTINUOUS
  0
ENDTAB
  0
ENDSEC
  0
SECTION
  2
BLOCKS
  0
ENDSEC
  0
SECTION
  2
ENTITIES
  0
LINE
  8
_0-0_
  6
CONTINUOUS
 62
    7
 10
304.57106763331581
 20
154.56141571280574
 11
290.42892934732919
 21
140.41927742681906
  0
LINE
  8
_0-0_
  6
CONTINUOUS
 62
    7
 10
304.57106763331581
 20
140.41927742681906
 11
290.42892934732919
 21
154.56141571280574
  0
LINE
  8
_0-0_
  6
CONTINUOUS
 62
    7
 10
804.49996152899894
 20
221.39640417798603
 11
799.5305754319121
 21
226.36579027507295
  0
LINE
  8
_0-0_
  6
CONTINUOUS
 62
    7
 10
799.5305754319121
 20
226.36579027507295
 11
804.49996152899894
 21
231.33519824407273
  0
LINE
  8
_0-0_
  6
CONTINUOUS
 62
    7
 10
804.49996152899894
 20
224.0165937269056
 11
800.61472241022398
 21
228.11005345642795
  0
LINE
  8
_0-0_
  6
CONTINUOUS
 62
    7
 10
800.61472241022398
 20
228.11005345642795
 11
799.88944977867095
 21
227.42165687001349
  0
LINE
  8
_0-0_
  6
CONTINUOUS
 62
    7
 10
799.88944977867095
 20
227.42165687001349
 11
804.49996152899894
 21
222.56399250398729
  0
LINE
  8
_0-0_
  6
CONTINUOUS
 62
    7
 10
804.49996152899894
 20
226.92081193666198
 11
802.02896029792691
 21
229.52426947221792
  0
LINE
  8
_0-0_
  6
CONTINUOUS
 62
    7
 10
802.02896029792691
 20
229.52426947221792
 11
801.30368766637378
 21
228.83585101389056
  0
LINE
  8
_0-0_
  6
CONTINUOUS
 62
    7
 10
801.30368766637378
 20
228.83585101389056
 11
804.49996152899894
 21
225.46821071374367
  0
LINE
  8
_0-1_
  6
CONTINUOUS
 62
    7
 10
798.49997089636361
 20
157.32557712834776
 11
848.50003864774362
 21
157.32557712834776
  0
LINE
  8
_0-1_
  6
CONTINUOUS
 62
    7
 10
848.50003864774362
 20
157.32557712834776
 11
848.50003864774362
 21
147.3255854499846
  0
LINE
  8
_0-1_
  6
CONTINUOUS
 62
    7
 10
848.50003864774362
 20
147.3255854499846
 11
798.49997089636361
 21
147.3255854499846
  0
LINE
  8
_0-1_
  6
CONTINUOUS
 62
    7
 10
798.49997089636361
 20
147.3255854499846
 11
798.49997089636361
 21
157.32557712834776
  0
LINE
  8
_0-1_
  6
CONTINUOUS
 62
    7
 10
815.92331168274154
 20
217.32558187830861
 11
804.49996152899894
 21
217.32558187830861
  0
LINE
  8
_0-1_
  6
CONTINUOUS
 62
    7
 10
804.49996152899894
 20
217.32558187830861
 11
804.49996152899894
 21
157.32557712834776
  0
LINE
  8
_0-1_
  6
CONTINUOUS
 62
    7
 10
804.49996152899894
 20
157.32557712834776
 11
842.49996052745689
 21
157.32557712834776
  0
LINE
  8
_0-1_
  6
CONTINUOUS
 62
    7
 10
842.49996052745689
 20
157.32557712834776
 11
842.49996052745689
 21
217.32558187830861
  0
LINE
  8
_0-1_
  6
CONTINUOUS
 62
    7
 10
842.49996052745689
 20
217.32558187830861
 11
831.08605904008425
 21
217.32558187830861
  0
LINE
  8
_0-0_
  6
CONTINUOUS
 62
    7
 10
288.5000016054131
 20
322.49035404455702
 11
284.5000005596853
 21
322.49035404455702
  0
LINE
  8
_0-0_
  6
CONTINUOUS
 62
    7
 10
284.5000005596853
 20
322.49035404455702
 11
284.5000005596853
 21
306.49034986164577
  0
LINE
  8
_0-0_
  6
CONTINUOUS
 62
    7
 10
284.5000005596853
 20
306.49034986164577
 11
228.50000779140871
 21
306.49034986164577
  0
LINE
  8
_0-0_
  6
CONTINUOUS
 62
    7
 10
228.50000779140871
 20
306.49034986164577
 11
228.10981286538612
 21
306.52877881259991
  0
LINE
  8
_0-0_
  6
CONTINUOUS
 62
    7
 10
228.10981286538612
 20
306.52877881259991
 11
227.73464394352146
 21
306.64257837538554
  0
LINE
  8
_0-0_
  6
CONTINUOUS
 62
    7
 10
227.73464394352146
 20
306.64257837538554
 11
227.38884900067305
 21
306.82741791124965
  0
LINE
  8
_0-0_
  6
CONTINUOUS
 62
    7
 10
227.38884900067305
 20
306.82741791124965
 11
227.08579177561873
 21
307.07612343276327
  0
LINE
  8
_0-0_
  6
CONTINUOUS
 62
    7
 10
227.08579177561873
 20
307.07612343276327
 11
226.83706438219224
 21
307.37920252973049
  0
LINE
  8
_0-0_
  6
CONTINUOUS
 62
    7
 10
226.83706438219224
 20
307.37920252973049
 11
226.65224671824092
 21
307.72497560066603
  0
LINE
  8
_0-0_
  6
CONTINUOUS
 62
    7
 10
226.65224671824092
 20
307.72497560066603
 11
226.53842528354247
 21
308.10016639444359
  0
LINE
  8
_0-0_
  6
CONTINUOUS
 62
    7
 10
226.53842528354247
 20
308.10016639444359
 11
226.4999963325883
 21
308.49033944855324
  0
LINE
  8
_0-0_
  6
CONTINUOUS
 62
    7
 10
226.4999963325883
 20
308.49033944855324
 11
226.4999963325883
 21
327.49033894778216
  0
LINE
  8
_0-0_
  6
CONTINUOUS
 62
    7
 10
226.4999963325883
 20
327.49033894778216
 11
188.49999733413043
 21
327.49033894778216
  0
LINE
  8
_0-0_
  6
CONTINUOUS
 62
    7
 10
188.49999733413043
 20
327.49033894778216
 11
188.49999733413043
 21
242.49035500191351
  0
LINE
  8
_0-0_
  6
CONTINUOUS
 62
    7
 10
188.49999733413043
 20
242.49035500191351
 11
226.4999963325883
 21
242.49035500191351
  0
LINE
  8
_0-0_
  6
CONTINUOUS
 62
    7
 10
226.4999963325883
 20
242.49035500191351
 11
226.4999963325883
 21
266.49033940436755
  0
LINE
  8
_0-0_
  6
CONTINUOUS
 62
    7
 10
226.4999963325883
 20
266.49033940436755
 11
226.53842528354247
 21
266.88053433039011
  0
LINE
  8
_0-0_
  6
CONTINUOUS
 62
    7
 10
226.53842528354247
 20
266.88053433039011
 11
226.65224671824092
 21
267.25572512416767
  0
LINE
  8
_0-0_
  6
CONTINUOUS
 62
    7
 10
226.65224671824092
 20
267.25572512416767
 11
226.83706438219224
 21
267.6014981951032
  0
LINE
  8
_0-0_
  6
CONTINUOUS
 62
    7
 10
226.83706438219224
 20
267.6014981951032
 11
227.08579177561873
 21
267.90455542015752
  0
LINE
  8
_0-0_
  6
CONTINUOUS
 62
    7
 10
227.08579177561873
 20
267.90455542015752
 11
227.38884900067305
 21
268.15328281358398
  0
LINE
  8
_0-0_
  6
CONTINUOUS
 62
    7
 10
227.38884900067305
 20
268.15328281358398
 11
227.73464394352146
 21
268.33810047753525
  0
LINE
  8
_0-0_
  6
CONTINUOUS
 62
    7
 10
227.73464394352146
 20
268.33810047753525
 11
228.10981286538612
 21
268.45192191223379
  0
LINE
  8
_0-0_
  6
CONTINUOUS
 62
    7
 10
228.10981286538612
 20
268.45192191223379
 11
228.50000779140871
 21
268.49035086318793
  0
LINE
  8
_0-0_
  6
CONTINUOUS
 62
    7
 10
228.50000779140871
 20
268.49035086318793
 11
284.61439066411907
 21
268.49035086318793
  0
LINE
  8
_0-0_
  6
CONTINUOUS
 62
    7
 10
306.49999537523183
 20
322.49035404455702
 11
310.49999642095969
 21
322.49035404455702
  0
LINE
  8
_0-0_
  6
CONTINUOUS
 62
    7
 10
310.49999642095969
 20
322.49035404455702
 11
310.49999642095969
 21
306.49034986164577
  0
LINE
  8
_0-0_
  6
CONTINUOUS
 62
    7
 10
310.49999642095969
 20
306.49034986164577
 11
366.49998918923632
 21
306.49034986164577
  0
LINE
  8
_0-0_
  6
CONTINUOUS
 62
    7
 10
366.49998918923632
 20
306.49034986164577
 11
366.89018411525888
 21
306.52877881259991
  0
LINE
  8
_0-0_
  6
CONTINUOUS
 62
    7
 10
366.89018411525888
 20
306.52877881259991
 11
367.26537490903638
 21
306.64257837538554
  0
LINE
  8
_0-0_
  6
CONTINUOUS
 62
    7
 10
367.26537490903638
 20
306.64257837538554
 11
367.61112610805912
 21
306.82741791124965
  0
LINE
  8
_0-0_
  6
CONTINUOUS
 62
    7
 10
367.61112610805912
 20
306.82741791124965
 11
367.9142270769392
 21
307.07612343276327
  0
LINE
  8
_0-0_
  6
CONTINUOUS
 62
    7
 10
367.9142270769392
 20
307.07612343276327
 11
368.16295447036566
 21
307.37920252973049
  0
LINE
  8
_0-0_
  6
CONTINUOUS
 62
    7
 10
368.16295447036566
 20
307.37920252973049
 11
368.34777213431693
 21
307.72497560066603
  0
LINE
  8
_0-0_
  6
CONTINUOUS
 62
    7
 10
368.34777213431693
 20
307.72497560066603
 11
368.46154982518959
 21
308.10016639444359
  0
LINE
  8
_0-0_
  6
CONTINUOUS
 62
    7
 10
368.46154982518959
 20
308.10016639444359
 11
368.50000064805664
 21
308.49033944855324
  0
LINE
  8
_0-0_
  6
CONTINUOUS
 62
    7
 10
368.50000064805664
 20
308.49033944855324
 11
368.50000064805664
 21
327.49033894778216
  0
LINE
  8
_0-0_
  6
CONTINUOUS
 62
    7
 10
368.50000064805664
 20
327.49033894778216
 11
406.49999964651448
 21
327.49033894778216
  0
LINE
  8
_0-0_
  6
CONTINUOUS
 62
    7
 10
406.49999964651448
 20
327.49033894778216
 11
406.49999964651448
 21
242.49035500191351
  0
LINE
  8
_0-0_
  6
CONTINUOUS
 62
    7
 10
406.49999964651448
 20
242.49035500191351
 11
368.50000064805664
 21
242.49035500191351
  0
LINE
  8
_0-0_
  6
CONTINUOUS
 62
    7
 10
368.50000064805664
 20
242.49035500191351
 11
368.50000064805664
 21
266.49033940436755
  0
LINE
  8
_0-0_
  6
CONTINUOUS
 62
    7
 10
368.50000064805664
 20
266.49033940436755
 11
368.46154982518959
 21
266.88053433039011
  0
LINE
  8
_0-0_
  6
CONTINUOUS
 62
    7
 10
368.46154982518959
 20
266.88053433039011
 11
368.34777213431693
 21
267.25572512416767
  0
LINE
  8
_0-0_
  6
CONTINUOUS
 62
    7
 10
368.34777213431693
 20
267.25572512416767
 11
368.16295447036566
 21
267.6014981951032
  0
LINE
  8
_0-0_
  6
CONTINUOUS
 62
    7
 10
368.16295447036566
 20
267.6014981951032
 11
367.9142270769392
 21
267.90455542015752
  0
LINE
  8
_0-0_
  6
CONTINUOUS
 62
    7
 10
367.9142270769392
 20
267.90455542015752
 11
367.61112610805912
 21
268.15328281358398
  0
LINE
  8
_0-0_
  6
CONTINUOUS
 62
    7
 10
367.61112610805912
 20
268.15328281358398
 11
367.26537490903638
 21
268.33810047753525
  0
LINE
  8
_0-0_
  6
CONTINUOUS
 62
    7
 10
367.26537490903638
 20
268.33810047753525
 11
366.89018411525888
 21
268.45192191223379
  0
LINE
  8
_0-0_
  6
CONTINUOUS
 62
    7
 10
366.89018411525888
 20
268.45192191223379
 11
366.49998918923632
 21
268.49035086318793
  0
LINE
  8
_0-0_
  6
CONTINUOUS
 62
    7
 10
366.49998918923632
 20
268.49035086318793
 11
310.49999642095969
 21
268.49035086318793
  0
LINE
  8
_0-0_
  6
CONTINUOUS
 62
    7
 10
288.5000016054131
 20
322.49035404455702
 11
284.5000005596853
 21
322.49035404455702
  0
LINE
  8
_0-0_
  6
CONTINUOUS
 62
    7
 10
284.5000005596853
 20
322.49035404455702
 11
284.5000005596853
 21
529.49035894916778
  0
LINE
  8
_0-0_
  6
CONTINUOUS
 62
    7
 10
284.5000005596853
 20
529.49035894916778
 11
284.74979967684362
 21
532.02653848066291
  0
LINE
  8
_0-0_
  6
CONTINUOUS
 62
    7
 10
284.74979967684362
 20
532.02653848066291
 11
285.48957338664525
 21
534.46521302447809
  0
LINE
  8
_0-0_
  6
CONTINUOUS
 62
    7
 10
285.48957338664525
 20
534.46521302447809
 11
286.69088820232844
 21
536.71277079342872
  0
LINE
  8
_0-0_
  6
CONTINUOUS
 62
    7
 10
286.69088820232844
 20
536.71277079342872
 11
288.30761625960065
 21
538.68273024393318
  0
LINE
  8
_0-0_
  6
CONTINUOUS
 62
    7
 10
288.30761625960065
 20
538.68273024393318
 11
290.27759758201802
 21
540.29945830120539
  0
LINE
  8
_0-0_
  6
CONTINUOUS
 62
    7
 10
290.27759758201802
 20
540.29945830120539
 11
292.52511160714283
 21
541.50079498880154
  0
LINE
  8
_0-0_
  6
CONTINUOUS
 62
    7
 10
292.52511160714283
 20
541.50079498880154
 11
294.96382989478383
 21
542.24054682669032
  0
LINE
  8
_0-0_
  6
CONTINUOUS
 62
    7
 10
294.96382989478383
 20
542.24054682669032
 11
297.50000942627889
 21
542.49036781576149
  0
LINE
  8
_0-0_
  6
CONTINUOUS
 62
    7
 10
297.50000942627889
 20
542.49036781576149
 11
300.03616708586105
 21
542.24054682669032
  0
LINE
  8
_0-0_
  6
CONTINUOUS
 62
    7
 10
300.03616708586105
 20
542.24054682669032
 11
302.47488537350216
 21
541.50079498880154
  0
LINE
  8
_0-0_
  6
CONTINUOUS
 62
    7
 10
302.47488537350216
 20
541.50079498880154
 11
304.72242127053988
 21
540.29945830120539
  0
LINE
  8
_0-0_
  6
CONTINUOUS
 62
    7
 10
304.72242127053988
 20
540.29945830120539
 11
306.69238072104434
 21
538.68273024393318
  0
LINE
  8
_0-0_
  6
CONTINUOUS
 62
    7
 10
306.69238072104434
 20
538.68273024393318
 11
308.30910877831656
 21
536.71277079342872
  0
LINE
  8
_0-0_
  6
CONTINUOUS
 62
    7
 10
308.30910877831656
 20
536.71277079342872
 11
309.5104235939998
 21
534.46521302447809
  0
LINE
  8
_0-0_
  6
CONTINUOUS
 62
    7
 10
309.5104235939998
 20
534.46521302447809
 11
310.25021917571428
 21
532.02653848066291
  0
LINE
  8
_0-0_
  6
CONTINUOUS
 62
    7
 10
310.25021917571428
 20
532.02653848066291
 11
310.49999642095969
 21
529.49035894916778
  0
LINE
  8
_0-0_
  6
CONTINUOUS
 62
    7
 10
310.49999642095969
 20
529.49035894916778
 11
310.49999642095969
 21
322.49035404455702
  0
LINE
  8
_0-0_
  6
CONTINUOUS
 62
    7
 10
310.49999642095969
 20
322.49035404455702
 11
306.49999537523183
 21
322.49035404455702
  0
LINE
  8
_0-0_
  6
CONTINUOUS
 62
    7
 10
302.84791084790322
 20
436.27209122116494
 11
303.21356548765903
 21
436.19510208777939
  0
LINE
  8
_0-0_
  6
CONTINUOUS
 62
    7
 10
303.21356548765903
 20
436.19510208777939
 11
303.56211629153216
 21
436.1134323650345
  0
LINE
  8
_0-0_
  6
CONTINUOUS
 62
    7
 10
303.56211629153216
 20
436.1134323650345
 11
303.89356325952241
 21
436.0271257967562
  0
LINE
  8
_0-0_
  6
CONTINUOUS
 62
    7
 10
303.89356325952241
 20
436.0271257967562
 11
304.20790639162982
 21
435.93613863911861
  0
LINE
  8
_0-0_
  6
CONTINUOUS
 62
    7
 10
304.20790639162982
 20
435.93613863911861
 11
304.50514568785434
 21
435.84051463594767
  0
LINE
  8
_0-0_
  6
CONTINUOUS
 62
    7
 10
304.50514568785434
 20
435.84051463594767
 11
304.78528114819619
 21
435.7402537872432
  0
LINE
  8
_0-0_
  6
CONTINUOUS
 62
    7
 10
304.78528114819619
 20
435.7402537872432
 11
305.04831277265509
 21
435.63531234917951
  0
LINE
  8
_0-0_
  6
CONTINUOUS
 62
    7
 10
305.04831277265509
 20
435.63531234917951
 11
305.29421868931831
 21
435.5256903217566
  0
LINE
  8
_0-0_
  6
CONTINUOUS
 62
    7
 10
305.29421868931831
 20
435.5256903217566
 11
305.57682567581708
 21
435.38221057317429
  0
LINE
  8
_0-0_
  6
CONTINUOUS
 62
    7
 10
305.57682567581708
 20
435.38221057317429
 11
305.82174735640012
 21
435.23593121974159
  0
LINE
  8
_0-0_
  6
CONTINUOUS
 62
    7
 10
305.82174735640012
 20
435.23593121974159
 11
306.02900560298019
 21
435.08693974911012
  0
LINE
  8
_0-0_
  6
CONTINUOUS
 62
    7
 10
306.02900560298019
 20
435.08693974911012
 11
306.19855667173169
 21
434.935192417454
  0
LINE
  8
_0-0_
  6
CONTINUOUS
 62
    7
 10
306.19855667173169
 20
434.935192417454
 11
306.33044430648033
 21
434.78068922477337
  0
LINE
  8
_0-0_
  6
CONTINUOUS
 62
    7
 10
306.33044430648033
 20
434.78068922477337
 11
306.42464663531325
 21
434.62343017106809
  0
LINE
  8
_0-0_
  6
CONTINUOUS
 62
    7
 10
306.42464663531325
 20
434.62343017106809
 11
306.48116365823046
 21
434.46345900016399
  0
LINE
  8
_0-0_
  6
CONTINUOUS
 62
    7
 10
306.48116365823046
 20
434.46345900016399
 11
306.49999537523183
 21
434.30073196823525
  0
LINE
  8
_0-0_
  6
CONTINUOUS
 62
    7
 10
306.49999537523183
 20
434.30073196823525
 11
306.48116365823046
 21
434.13796119248082
  0
LINE
  8
_0-0_
  6
CONTINUOUS
 62
    7
 10
306.48116365823046
 20
434.13796119248082
 11
306.42464663531325
 21
433.97799002157677
  0
LINE
  8
_0-0_
  6
CONTINUOUS
 62
    7
 10
306.42464663531325
 20
433.97799002157677
 11
306.33044430648033
 21
433.82073096787144
  0
LINE
  8
_0-0_
  6
CONTINUOUS
 62
    7
 10
306.33044430648033
 20
433.82073096787144
 11
306.19855667173169
 21
433.66622777519075
  0
LINE
  8
_0-0_
  6
CONTINUOUS
 62
    7
 10
306.19855667173169
 20
433.66622777519075
 11
306.02900560298019
 21
433.51448044353469
  0
LINE
  8
_0-0_
  6
CONTINUOUS
 62
    7
 10
306.02900560298019
 20
433.51448044353469
 11
305.82174735640012
 21
433.36548897290322
  0
LINE
  8
_0-0_
  6
CONTINUOUS
 62
    7
 10
305.82174735640012
 20
433.36548897290322
 11
305.57682567581708
 21
433.21920961947052
  0
LINE
  8
_0-0_
  6
CONTINUOUS
 62
    7
 10
305.57682567581708
 20
433.21920961947052
 11
305.29421868931831
 21
433.07572987088827
  0
LINE
  8
_0-0_
  6
CONTINUOUS
 62
    7
 10
305.29421868931831
 20
433.07572987088827
 11
304.97900068069509
 21
432.93732440609722
  0
LINE
  8
_0-0_
  6
CONTINUOUS
 62
    7
 10
304.97900068069509
 20
432.93732440609722
 11
304.63618031800024
 21
432.80648662316753
  0
LINE
  8
_0-0_
  6
CONTINUOUS
 62
    7
 10
304.63618031800024
 20
432.80648662316753
 11
304.26577947314638
 21
432.68312903444735
  0
LINE
  8
_0-0_
  6
CONTINUOUS
 62
    7
 10
304.26577947314638
 20
432.68312903444735
 11
303.86777627422077
 21
432.56725163993684
  0
LINE
  8
_0-0_
  6
CONTINUOUS
 62
    7
 10
303.86777627422077
 20
432.56725163993684
 11
303.44221446504918
 21
432.45889818346177
  0
LINE
  8
_0-0_
  6
CONTINUOUS
 62
    7
 10
303.44221446504918
 20
432.45889818346177
 11
302.98905030180595
 21
432.35806866502207
  0
LINE
  8
_0-0_
  6
CONTINUOUS
 62
    7
 10
302.98905030180595
 20
432.35806866502207
 11
302.50832752831656
 21
432.26476308461775
  0
LINE
  8
_0-0_
  6
CONTINUOUS
 62
    7
 10
302.50832752831656
 20
432.26476308461775
 11
302.00000240075542
 21
432.17893769842311
  0
LINE
  8
_0-0_
  6
CONTINUOUS
 62
    7
 10
302.00000240075542
 20
432.17893769842311
 11
301.47284555619285
 21
432.10203605268907
  0
LINE
  8
_0-0_
  6
CONTINUOUS
 62
    7
 10
301.47284555619285
 20
432.10203605268907
 11
300.93558388787346
 21
432.03532671836348
  0
LINE
  8
_0-0_
  6
CONTINUOUS
 62
    7
 10
300.93558388787346
 20
432.03532671836348
 11
300.38821739579714
 21
431.97894092692366
  0
LINE
  8
_0-0_
  6
CONTINUOUS
 62
    7
 10
300.38821739579714
 20
431.97894092692366
 11
299.83076795187696
 21
431.93279119071809
  0
LINE
  8
_0-0_
  6
CONTINUOUS
 62
    7
 10
299.83076795187696
 20
431.93279119071809
 11
299.26321368419985
 21
431.89687750974679
  0
LINE
  8
_0-0_
  6
CONTINUOUS
 62
    7
 10
299.26321368419985
 20
431.89687750974679
 11
298.68557646467877
 21
431.87124362783544
  0
LINE
  8
_0-0_
  6
CONTINUOUS
 62
    7
 10
298.68557646467877
 20
431.87124362783544
 11
298.09783442140088
 21
431.8558458011583
  0
LINE
  8
_0-0_
  6
CONTINUOUS
 62
    7
 10
298.09783442140088
 20
431.8558458011583
 11
297.50000942627889
 21
431.85072777354117
  0
LINE
  8
_0-0_
  6
CONTINUOUS
 62
    7
 10
297.50000942627889
 20
431.85072777354117
 11
296.90216255924412
 21
431.8558458011583
  0
LINE
  8
_0-0_
  6
CONTINUOUS
 62
    7
 10
296.90216255924412
 20
431.8558458011583
 11
296.31442051596622
 21
431.87124362783544
  0
LINE
  8
_0-0_
  6
CONTINUOUS
 62
    7
 10
296.31442051596622
 20
431.87124362783544
 11
295.73678329644514
 21
431.89687750974679
  0
LINE
  8
_0-0_
  6
CONTINUOUS
 62
    7
 10
295.73678329644514
 20
431.89687750974679
 11
295.16922902876797
 21
431.93279119071809
  0
LINE
  8
_0-0_
  6
CONTINUOUS
 62
    7
 10
295.16922902876797
 20
431.93279119071809
 11
294.6117795848478
 21
431.97894092692366
  0
LINE
  8
_0-0_
  6
CONTINUOUS
 62
    7
 10
294.6117795848478
 20
431.97894092692366
 11
294.06441309277159
 21
432.03532671836348
  0
LINE
  8
_0-0_
  6
CONTINUOUS
 62
    7
 10
294.06441309277159
 20
432.03532671836348
 11
293.52717329636505
 21
432.10203605268907
  0
LINE
  8
_0-0_
  6
CONTINUOUS
 62
    7
 10
293.52717329636505
 20
432.10203605268907
 11
292.99999457988963
 21
432.17893769842311
  0
LINE
  8
_0-0_
  6
CONTINUOUS
 62
    7
 10
292.99999457988963
 20
432.17893769842311
 11
292.49166945232844
 21
432.26476308461775
  0
LINE
  8
_0-0_
  6
CONTINUOUS
 62
    7
 10
292.49166945232844
 20
432.26476308461775
 11
292.0109466788391
 21
432.35806866502207
  0
LINE
  8
_0-0_
  6
CONTINUOUS
 62
    7
 10
292.0109466788391
 20
432.35806866502207
 11
291.55778251559576
 21
432.45889818346177
  0
LINE
  8
_0-0_
  6
CONTINUOUS
 62
    7
 10
291.55778251559576
 20
432.45889818346177
 11
291.13222070642422
 21
432.56725163993684
  0
LINE
  8
_0-0_
  6
CONTINUOUS
 62
    7
 10
291.13222070642422
 20
432.56725163993684
 11
290.73421750749856
 21
432.68312903444735
  0
LINE
  8
_0-0_
  6
CONTINUOUS
 62
    7
 10
290.73421750749856
 20
432.68312903444735
 11
290.36381666264475
 21
432.80648662316753
  0
LINE
  8
_0-0_
  6
CONTINUOUS
 62
    7
 10
290.36381666264475
 20
432.80648662316753
 11
290.02099629994984
 21
432.93732440609722
  0
LINE
  8
_0-0_
  6
CONTINUOUS
 62
    7
 10
290.02099629994984
 20
432.93732440609722
 11
289.70577829132662
 21
433.07572987088827
  0
LINE
  8
_0-0_
  6
CONTINUOUS
 62
    7
 10
289.70577829132662
 20
433.07572987088827
 11
289.42317130482792
 21
433.21920961947052
  0
LINE
  8
_0-0_
  6
CONTINUOUS
 62
    7
 10
289.42317130482792
 20
433.21920961947052
 11
289.17824962424493
 21
433.36548897290322
  0
LINE
  8
_0-0_
  6
CONTINUOUS
 62
    7
 10
289.17824962424493
 20
433.36548897290322
 11
288.97101324957771
 21
433.51448044353469
  0
LINE
  8
_0-0_
  6
CONTINUOUS
 62
    7
 10
288.97101324957771
 20
433.51448044353469
 11
288.8014403089133
 21
433.66622777519075
  0
LINE
  8
_0-0_
  6
CONTINUOUS
 62
    7
 10
288.8014403089133
 20
433.66622777519075
 11
288.66955267416461
 21
433.82073096787144
  0
LINE
  8
_0-0_
  6
CONTINUOUS
 62
    7
 10
288.66955267416461
 20
433.82073096787144
 11
288.57535034533169
 21
433.97799002157677
  0
LINE
  8
_0-0_
  6
CONTINUOUS
 62
    7
 10
288.57535034533169
 20
433.97799002157677
 11
288.51883332241459
 21
434.13796119248082
  0
LINE
  8
_0-0_
  6
CONTINUOUS
 62
    7
 10
288.51883332241459
 20
434.13796119248082
 11
288.5000016054131
 21
434.30073196823525
  0
LINE
  8
_0-0_
  6
CONTINUOUS
 62
    7
 10
288.5000016054131
 20
434.30073196823525
 11
288.51658051538652
 21
434.4624091483451
  0
LINE
  8
_0-0_
  6
CONTINUOUS
 62
    7
 10
288.51658051538652
 20
434.4624091483451
 11
288.56631724530666
 21
434.61918701996672
  0
LINE
  8
_0-0_
  6
CONTINUOUS
 62
    7
 10
288.56631724530666
 20
434.61918701996672
 11
288.64921179517353
 21
434.77110932692597
  0
LINE
  8
_0-0_
  6
CONTINUOUS
 62
    7
 10
288.64921179517353
 20
434.77110932692597
 11
288.76524229307438
 21
434.91813232539698
  0
LINE
  8
_0-0_
  6
CONTINUOUS
 62
    7
 10
288.76524229307438
 20
434.91813232539698
 11
288.91445248283475
 21
435.06029975920569
  0
LINE
  8
_0-0_
  6
CONTINUOUS
 62
    7
 10
288.91445248283475
 20
435.06029975920569
 11
289.09682049254184
 21
435.19756788452617
  0
LINE
  8
_0-0_
  6
CONTINUOUS
 62
    7
 10
289.09682049254184
 20
435.19756788452617
 11
289.31232445028297
 21
435.32993670135852
  0
LINE
  8
_0-0_
  6
CONTINUOUS
 62
    7
 10
289.31232445028297
 20
435.32993670135852
 11
289.56100809988368
 21
435.4574499535284
  0
LINE
  8
_0-0_
  6
CONTINUOUS
 62
    7
 10
289.56100809988368
 20
435.4574499535284
 11
289.8343413953155
 21
435.57975769042969
  0
LINE
  8
_0-0_
  6
CONTINUOUS
 62
    7
 10
289.8343413953155
 20
435.57975769042969
 11
290.12381616246284
 21
435.69650996145589
  0
LINE
  8
_0-0_
  6
CONTINUOUS
 62
    7
 10
290.12381616246284
 20
435.69650996145589
 11
290.42945427323855
 21
435.80775051043298
  0
LINE
  8
_0-0_
  6
CONTINUOUS
 62
    7
 10
290.42945427323855
 20
435.80775051043298
 11
290.75125572764279
 21
435.91343559353504
  0
LINE
  8
_0-0_
  6
CONTINUOUS
 62
    7
 10
290.75125572764279
 20
435.91343559353504
 11
291.08919865376237
 21
436.01356521076212
  0
LINE
  8
_0-0_
  6
CONTINUOUS
 62
    7
 10
291.08919865376237
 20
436.01356521076212
 11
291.44330492351048
 21
436.10818310594004
  0
LINE
  8
_0-0_
  6
CONTINUOUS
 62
    7
 10
291.44330492351048
 20
436.10818310594004
 11
291.8135745368869
 21
436.19728927906868
  0
LINE
  8
_0-0_
  6
CONTINUOUS
 62
    7
 10
291.8135745368869
 20
436.19728927906868
 11
292.20000749389169
 21
436.28083998632241
  0
LINE
  8
_0-0_
  6
CONTINUOUS
 62
    7
 10
284.5000005596853
 20
454.28597365567123
 11
284.5000005596853
 21
454.22442609278846
  0
LINE
  8
_0-0_
  6
CONTINUOUS
 62
    7
 10
284.5000005596853
 20
454.22442609278846
 11
284.5000005596853
 21
454.19179319875121
  0
LINE
  8
_0-0_
  6
CONTINUOUS
 62
    7
 10
284.5000005596853
 20
454.19179319875121
 11
284.5000005596853
 21
454.18803122973344
  0
LINE
  8
_0-0_
  6
CONTINUOUS
 62
    7
 10
284.5000005596853
 20
454.18803122973344
 11
284.5000005596853
 21
454.21322767338694
  0
LINE
  8
_0-0_
  6
CONTINUOUS
 62
    7
 10
284.5000005596853
 20
454.21322767338694
 11
284.5000005596853
 21
454.26729504206003
  0
LINE
  8
_0-0_
  6
CONTINUOUS
 62
    7
 10
284.5000005596853
 20
454.26729504206003
 11
284.5000005596853
 21
454.3502333357527
  0
LINE
  8
_0-0_
  6
CONTINUOUS
 62
    7
 10
284.5000005596853
 20
454.3502333357527
 11
284.5000005596853
 21
454.46213004211654
  0
LINE
  8
_0-0_
  6
CONTINUOUS
 62
    7
 10
284.5000005596853
 20
454.46213004211654
 11
284.5000005596853
 21
454.60289767350002
  0
LINE
  8
_0-0_
  6
CONTINUOUS
 62
    7
 10
284.5000005596853
 20
454.60289767350002
 11
284.52720921932496
 21
454.76111909137268
  0
LINE
  8
_0-0_
  6
CONTINUOUS
 62
    7
 10
284.52720921932496
 20
454.76111909137268
 11
284.60885707015689
 21
454.92528966955234
  0
LINE
  8
_0-0_
  6
CONTINUOUS
 62
    7
 10
284.60885707015689
 20
454.92528966955234
 11
284.74492224026835
 21
455.09545315186483
  0
LINE
  8
_0-0_
  6
CONTINUOUS
 62
    7
 10
284.74492224026835
 20
455.09545315186483
 11
284.93542660157186
 21
455.27160953831026
  0
LINE
  8
_0-0_
  6
CONTINUOUS
 62
    7
 10
284.93542660157186
 20
455.27160953831026
 11
285.18034828215491
 21
455.4537150850627
  0
LINE
  8
_0-0_
  6
CONTINUOUS
 62
    7
 10
285.18034828215491
 20
455.4537150850627
 11
285.47968728201727
 21
455.64181353594802
  0
LINE
  8
_0-0_
  6
CONTINUOUS
 62
    7
 10
285.47968728201727
 20
455.64181353594802
 11
285.83346547307195
 21
455.83590489096622
  0
LINE
  8
_0-0_
  6
CONTINUOUS
 62
    7
 10
285.83346547307195
 20
455.83590489096622
 11
286.24166098340595
 21
456.03594540629149
  0
LINE
  8
_0-0_
  6
CONTINUOUS
 62
    7
 10
286.24166098340595
 20
456.03594540629149
 11
286.69701233793876
 21
456.23362375502415
  0
LINE
  8
_0-0_
  6
CONTINUOUS
 62
    7
 10
286.69701233793876
 20
456.23362375502415
 11
287.19219244585076
 21
456.42058486643907
  0
LINE
  8
_0-0_
  6
CONTINUOUS
 62
    7
 10
287.19219244585076
 20
456.42058486643907
 11
287.72722317905499
 21
456.59682874053601
  0
LINE
  8
_0-0_
  6
CONTINUOUS
 62
    7
 10
287.72722317905499
 20
456.59682874053601
 11
288.30208266563858
 21
456.76231163348928
  0
LINE
  8
_0-0_
  6
CONTINUOUS
 62
    7
 10
288.30208266563858
 20
456.76231163348928
 11
288.91679277751439
 21
456.91707728912468
  0
LINE
  8
_0-0_
  6
CONTINUOUS
 62
    7
 10
288.91679277751439
 20
456.91707728912468
 11
289.57135351468241
 21
457.06112570744216
  0
LINE
  8
_0-0_
  6
CONTINUOUS
 62
    7
 10
289.57135351468241
 20
457.06112570744216
 11
290.2657648771426
 21
457.19445688844183
  0
LINE
  8
_0-0_
  6
CONTINUOUS
 62
    7
 10
290.2657648771426
 20
457.19445688844183
 11
291.0000049929821
 21
457.31702708829778
  0
LINE
  8
_0-0_
  6
CONTINUOUS
 62
    7
 10
291.0000049929821
 20
457.31702708829778
 11
291.76145376846137
 21
457.42695532250127
  0
LINE
  8
_0-0_
  6
CONTINUOUS
 62
    7
 10
291.76145376846137
 20
457.42695532250127
 11
292.53749110984063
 21
457.52218563124018
  0
LINE
  8
_0-0_
  6
CONTINUOUS
 62
    7
 10
292.53749110984063
 20
457.52218563124018
 11
293.32811701712001
 21
457.60280550216612
  0
LINE
  8
_0-0_
  6
CONTINUOUS
 62
    7
 10
293.32811701712001
 20
457.60280550216612
 11
294.13333149029938
 21
457.66872744762759
  0
LINE
  8
_0-0_
  6
CONTINUOUS
 62
    7
 10
294.13333149029938
 20
457.66872744762759
 11
294.95311265746591
 21
457.71999521145028
  0
LINE
  8
_0-0_
  6
CONTINUOUS
 62
    7
 10
294.95311265746591
 20
457.71999521145028
 11
295.78750426244551
 21
457.75665253746001
  0
LINE
  8
_0-0_
  6
CONTINUOUS
 62
    7
 10
295.78750426244551
 20
457.75665253746001
 11
296.6364625614122
 21
457.77861193800527
  0
LINE
  8
_0-0_
  6
CONTINUOUS
 62
    7
 10
296.6364625614122
 20
457.77861193800527
 11
297.50000942627889
 21
457.78596090073745
  0
LINE
  8
_0-0_
  6
CONTINUOUS
 62
    7
 10
297.50000942627889
 20
457.78596090073745
 11
298.36353441923279
 21
457.77861193800527
  0
LINE
  8
_0-0_
  6
CONTINUOUS
 62
    7
 10
298.36353441923279
 20
457.77861193800527
 11
299.21249271819943
 21
457.75665253746001
  0
LINE
  8
_0-0_
  6
CONTINUOUS
 62
    7
 10
299.21249271819943
 20
457.75665253746001
 11
300.04688432317903
 21
457.71999521145028
  0
LINE
  8
_0-0_
  6
CONTINUOUS
 62
    7
 10
300.04688432317903
 20
457.71999521145028
 11
300.86666549034561
 21
457.66872744762759
  0
LINE
  8
_0-0_
  6
CONTINUOUS
 62
    7
 10
300.86666549034561
 20
457.66872744762759
 11
301.67187996352493
 21
457.60280550216612
  0
LINE
  8
_0-0_
  6
CONTINUOUS
 62
    7
 10
301.67187996352493
 20
457.60280550216612
 11
302.46250587080442
 21
457.52218563124018
  0
LINE
  8
_0-0_
  6
CONTINUOUS
 62
    7
 10
302.46250587080442
 20
457.52218563124018
 11
303.23854321218363
 21
457.42695532250127
  0
LINE
  8
_0-0_
  6
CONTINUOUS
 62
    7
 10
303.23854321218363
 20
457.42695532250127
 11
303.9999919876629
 21
457.31702708829778
  0
LINE
  8
_0-0_
  6
CONTINUOUS
 62
    7
 10
303.9999919876629
 20
457.31702708829778
 11
304.72983584901078
 21
457.1965128482538
  0
LINE
  8
_0-0_
  6
CONTINUOUS
 62
    7
 10
304.72983584901078
 20
457.1965128482538
 11
305.41099283225748
 21
457.0693495466902
  0
LINE
  8
_0-0_
  6
CONTINUOUS
 62
    7
 10
305.41099283225748
 20
457.0693495466902
 11
306.04350668122868
 21
456.93558092743274
  0
LINE
  8
_0-0_
  6
CONTINUOUS
 62
    7
 10
306.04350668122868
 20
456.93558092743274
 11
306.62735552401159
 21
456.79520699048135
  0
LINE
  8
_0-0_
  6
CONTINUOUS
 62
    7
 10
306.62735552401159
 20
456.79520699048135
 11
307.1625393606061
 21
456.64822773583603
  0
LINE
  8
_0-0_
  6
CONTINUOUS
 62
    7
 10
307.1625393606061
 20
456.64822773583603
 11
307.64905819101222
 21
456.49464316349685
  0
LINE
  8
_0-0_
  6
CONTINUOUS
 62
    7
 10
307.64905819101222
 20
456.49464316349685
 11
308.08691201523004
 21
456.33440952963809
  0
LINE
  8
_0-0_
  6
CONTINUOUS
 62
    7
 10
308.08691201523004
 20
456.33440952963809
 11
308.47610083325947
 21
456.16757057808536
  0
LINE
  8
_0-0_
  6
CONTINUOUS
 62
    7
 10
308.47610083325947
 20
456.16757057808536
 11
308.82697005989928
 21
455.98931448800221
  0
LINE
  8
_0-0_
  6
CONTINUOUS
 62
    7
 10
308.82697005989928
 20
455.98931448800221
 11
309.14986510994811
 21
455.79474195090035
  0
LINE
  8
_0-0_
  6
CONTINUOUS
 62
    7
 10
309.14986510994811
 20
455.79474195090035
 11
309.4448078553188
 21
455.58394045443146
  0
LINE
  8
_0-0_
  6
CONTINUOUS
 62
    7
 10
309.4448078553188
 20
455.58394045443146
 11
309.71177642409862
 21
455.35686625476967
  0
LINE
  8
_0-0_
  6
CONTINUOUS
 62
    7
 10
309.71177642409862
 20
455.35686625476967
 11
309.95079268820035
 21
455.1135630957408
  0
LINE
  8
_0-0_
  6
CONTINUOUS
 62
    7
 10
309.95079268820035
 20
455.1135630957408
 11
310.1618347757111
 21
454.85394348969328
  0
LINE
  8
_0-0_
  6
CONTINUOUS
 62
    7
 10
310.1618347757111
 20
454.85394348969328
 11
310.34490268663092
 21
454.57809492427873
  0
LINE
  8
_0-0_
  6
CONTINUOUS
 62
    7
 10
310.34490268663092
 20
454.57809492427873
 11
310.49999642095969
 21
454.28597365567123
  0
LINE
  8
_0-0_
  6
CONTINUOUS
 62
    7
 10
626.22213076440528
 20
457.68657492854879
 11
626.16613866739749
 21
457.70241019348373
  0
LINE
  8
_0-0_
  6
CONTINUOUS
 62
    7
 10
626.16613866739749
 20
457.70241019348373
 11
620.18049600962047
 21
436.53236698459932
  0
LINE
  8
_0-0_
  6
CONTINUOUS
 62
    7
 10
620.18049600962047
 20
436.53236698459932
 11
645.19968968100534
 21
429.45837794123463
  0
LINE
  8
_0-0_
  6
CONTINUOUS
 62
    7
 10
645.19968968100534
 20
429.45837794123463
 11
651.18533233878225
 21
450.62846489394485
  0
LINE
  8
_0-0_
  6
CONTINUOUS
 62
    7
 10
651.18533233878225
 20
450.62846489394485
 11
626.22213076440528
 21
457.68657492854879
  0
LINE
  8
_0-0_
  6
CONTINUOUS
 62
    7
 10
626.22213076440528
 20
457.68657492854879
 11
626.16613866739749
 21
457.70241019348373
  0
LINE
  8
_0-0_
  6
CONTINUOUS
 62
    7
 10
626.16613866739749
 20
457.70241019348373
 11
626.71031186019127
 21
459.62696355282105
  0
LINE
  8
_0-0_
  6
CONTINUOUS
 62
    7
 10
651.72946178775032
 20
452.55301825328218
 11
651.18533233878225
 21
450.62846489394485
  0
LINE
  8
_0-0_
  6
CONTINUOUS
 62
    7
 10
651.18533233878225
 20
450.62846489394485
 11
626.22213076440528
 21
457.68657492854879
  0
LINE
  8
_0-0_
  6
CONTINUOUS
 62
    7
 10
810.50003964928578
 20
327.32557782795436
 11
810.50003964928578
 21
343.32558201086562
  0
LINE
  8
_0-0_
  6
CONTINUOUS
 62
    7
 10
810.50003964928578
 20
356.82558280620799
 11
810.50003964928578
 21
440.9948058846374
  0
LINE
  8
_0-0_
  6
CONTINUOUS
 62
    7
 10
836.49996989482145
 20
327.32557782795436
 11
836.49996989482145
 21
343.32558201086562
  0
LINE
  8
_0-0_
  6
CONTINUOUS
 62
    7
 10
629.68983506604047
 20
469.95111885218085
 11
629.22965001875821
 21
468.56054637422892
  0
LINE
  8
_0-0_
  6
CONTINUOUS
 62
    7
 10
629.22965001875821
 20
468.56054637422892
 11
628.88857940909486
 21
467.51170066332719
  0
LINE
  8
_0-0_
  6
CONTINUOUS
 62
    7
 10
628.88857940909486
 20
467.51170066332719
 11
628.5584010120524
 21
466.45935544636257
  0
LINE
  8
_0-0_
  6
CONTINUOUS
 62
    7
 10
628.5584010120524
 20
466.45935544636257
 11
628.23920231528268
 21
465.40364195481226
  0
LINE
  8
_0-0_
  6
CONTINUOUS
 62
    7
 10
628.23920231528268
 20
465.40364195481226
 11
627.93102706261118
 21
464.34464767632795
  0
LINE
  8
_0-0_
  6
CONTINUOUS
 62
    7
 10
627.93102706261118
 20
464.34464767632795
 11
627.63383151021242
 21
463.28250384238692
  0
LINE
  8
_0-0_
  6
CONTINUOUS
 62
    7
 10
627.63383151021242
 20
463.28250384238692
 11
627.3477031457378
 21
462.21738542829235
  0
LINE
  8
_0-0_
  6
CONTINUOUS
 62
    7
 10
627.3477031457378
 20
462.21738542829235
 11
627.07268571301313
 21
461.14929243404436
  0
LINE
  8
_0-0_
  6
CONTINUOUS
 62
    7
 10
627.07268571301313
 20
461.14929243404436
 11
626.80873546821272
 21
460.07839983494586
  0
LINE
  8
_0-0_
  6
CONTINUOUS
 62
    7
 10
626.80873546821272
 20
460.07839983494586
 11
626.46622131229822
 21
458.65676924068498
  0
LINE
  8
_0-0_
  6
CONTINUOUS
 62
    7
 10
836.49996989482145
 20
356.82558280620799
 11
836.49996989482145
 21
442.32558055273813
  0
LINE
  8
_0-0_
  6
CONTINUOUS
 62
    7
 10
836.49996989482145
 20
442.32558055273813
 11
833.82302273194296
 21
461.17851330967022
  0
LINE
  8
_0-0_
  6
CONTINUOUS
 62
    7
 10
833.82302273194296
 20
461.17851330967022
 11
827.81962008089624
 21
479.24943769300307
  0
LINE
  8
_0-0_
  6
CONTINUOUS
 62
    7
 10
827.81962008089624
 20
479.24943769300307
 11
818.68328462696445
 21
495.95647333211417
  0
LINE
  8
_0-0_
  6
CONTINUOUS
 62
    7
 10
818.68328462696445
 20
495.95647333211417
 11
806.70806236708938
 21
510.76161491364581
  0
LINE
  8
_0-0_
  6
CONTINUOUS
 62
    7
 10
806.70806236708938
 20
510.76161491364581
 11
792.2795988694121
 21
523.18814222416813
  0
LINE
  8
_0-0_
  6
CONTINUOUS
 62
    7
 10
792.2795988694121
 20
523.18814222416813
 11
775.86245356379322
 21
532.83588674537918
  0
LINE
  8
_0-0_
  6
CONTINUOUS
 62
    7
 10
775.86245356379322
 20
532.83588674537918
 11
757.98548930400113
 21
539.39417982653754
  0
LINE
  8
_0-0_
  6
CONTINUOUS
 62
    7
 10
757.98548930400113
 20
539.39417982653754
 11
739.22419986209343
 21
542.65182627674233
  0
LINE
  8
_0-0_
  6
CONTINUOUS
 62
    7
 10
739.22419986209343
 20
542.65182627674233
 11
721.52251711223118
 21
542.6265423454372
  0
LINE
  8
_0-0_
  6
CONTINUOUS
 62
    7
 10
721.52251711223118
 20
542.6265423454372
 11
704.07135525265244
 21
539.65900494785376
  0
LINE
  8
_0-0_
  6
CONTINUOUS
 62
    7
 10
704.07135525265244
 20
539.65900494785376
 11
687.35635823724806
 21
533.83175868325247
  0
LINE
  8
_0-0_
  6
CONTINUOUS
 62
    7
 10
687.35635823724806
 20
533.83175868325247
 11
671.84256667796251
 21
525.30696191382685
  0
LINE
  8
_0-0_
  6
CONTINUOUS
 62
    7
 10
671.84256667796251
 20
525.30696191382685
 11
657.9617758791419
 21
514.32183740682126
  0
LINE
  8
_0-0_
  6
CONTINUOUS
 62
    7
 10
657.9617758791419
 20
514.32183740682126
 11
646.1002438224881
 21
501.18211076066297
  0
LINE
  8
_0-0_
  6
CONTINUOUS
 62
    7
 10
646.1002438224881
 20
501.18211076066297
 11
636.58801767356601
 21
486.25339287128224
  0
LINE
  8
_0-0_
  6
CONTINUOUS
 62
    7
 10
636.58801767356601
 20
486.25339287128224
 11
629.68983506604047
 21
469.95111885218085
  0
LINE
  8
_0-0_
  6
CONTINUOUS
 62
    7
 10
804.49996152899894
 20
246.6037181721691
 11
804.49996152899894
 21
242.32557201017283
  0
LINE
  8
_0-0_
  6
CONTINUOUS
 62
    7
 10
804.49996152899894
 20
242.32557201017283
 11
810.34247438880004
 21
242.32557201017283
  0
LINE
  8
_0-0_
  6
CONTINUOUS
 62
    7
 10
804.49996152899894
 20
278.31683265656574
 11
804.49996152899894
 21
327.32557782795436
  0
LINE
  8
_0-0_
  6
CONTINUOUS
 62
    7
 10
804.49996152899894
 20
327.32557782795436
 11
842.49996052745689
 21
327.32557782795436
  0
LINE
  8
_0-0_
  6
CONTINUOUS
 62
    7
 10
842.49996052745689
 20
327.32557782795436
 11
842.49996052745689
 21
242.32557201017283
  0
LINE
  8
_0-0_
  6
CONTINUOUS
 62
    7
 10
842.49996052745689
 20
242.32557201017283
 11
835.2616696744351
 21
242.32557201017283
  0
LINE
  8
_0-0_
  6
CONTINUOUS
 62
    7
 10
227.45805173306849
 20
306.49034986164577
 11
225.3777703539285
 21
302.31134908079639
  0
LINE
  8
_0-0_
  6
CONTINUOUS
 62
    7
 10
225.3777703539285
 20
302.31134908079639
 11
223.86530570542027
 21
297.96406580214335
  0
LINE
  8
_0-0_
  6
CONTINUOUS
 62
    7
 10
223.86530570542027
 20
297.96406580214335
 11
222.92067965945677
 21
293.44854376951236
  0
LINE
  8
_0-0_
  6
CONTINUOUS
 62
    7
 10
222.92067965945677
 20
293.44854376951236
 11
222.54384847221223
 21
288.76476111099066
  0
LINE
  8
_0-0_
  6
CONTINUOUS
 62
    7
 10
222.54384847221223
 20
288.76476111099066
 11
222.73483401559957
 21
283.91273969849101
  0
LINE
  8
_0-0_
  6
CONTINUOUS
 62
    7
 10
222.73483401559957
 20
283.91273969849101
 11
223.49363628961868
 21
278.8924357881877
  0
LINE
  8
_0-0_
  6
CONTINUOUS
 62
    7
 10
223.49363628961868
 20
278.8924357881877
 11
224.82025529426954
 21
273.70389312390654
  0
LINE
  8
_0-0_
  6
CONTINUOUS
 62
    7
 10
224.82025529426954
 20
273.70389312390654
 11
226.71469102955228
 21
268.34706796182166
  0
LINE
  8
_0-0_
  6
CONTINUOUS
 62
    7
 10
369.69823152402194
 20
306.49034986164577
 11
371.77851290316192
 21
302.31134908079639
  0
LINE
  8
_0-0_
  6
CONTINUOUS
 62
    7
 10
371.77851290316192
 20
302.31134908079639
 11
373.29095567975719
 21
297.96406580214335
  0
LINE
  8
_0-0_
  6
CONTINUOUS
 62
    7
 10
373.29095567975719
 20
297.96406580214335
 11
374.2356035976336
 21
293.44854376951236
  0
LINE
  8
_0-0_
  6
CONTINUOUS
 62
    7
 10
374.2356035976336
 20
293.44854376951236
 11
374.61245665679098
 21
288.76476111099066
  0
LINE
  8
_0-0_
  6
CONTINUOUS
 62
    7
 10
374.61245665679098
 20
288.76476111099066
 11
374.42147111340375
 21
283.91273969849101
  0
LINE
  8
_0-0_
  6
CONTINUOUS
 62
    7
 10
374.42147111340375
 20
283.91273969849101
 11
373.6626469674718
 21
278.8924357881877
  0
LINE
  8
_0-0_
  6
CONTINUOUS
 62
    7
 10
373.6626469674718
 20
278.8924357881877
 11
372.33602796282082
 21
273.70389312390654
  0
LINE
  8
_0-0_
  6
CONTINUOUS
 62
    7
 10
372.33602796282082
 20
273.70389312390654
 11
370.44161409945099
 21
268.34706796182166
  0
LINE
  8
_0-0_
  6
CONTINUOUS
 62
    7
 10
284.5000005596853
 20
227.05302765010404
 11
284.5000005596853
 21
268.49035086318793
  0
LINE
  8
_0-0_
  6
CONTINUOUS
 62
    7
 10
284.5000005596853
 20
268.49035086318793
 11
284.51058656552584
 21
268.49035086318793
  0
LINE
  8
_0-0_
  6
CONTINUOUS
 62
    7
 10
284.51058656552584
 20
268.49035086318793
 11
284.57195915310535
 21
270.41330757288398
  0
LINE
  8
_0-0_
  6
CONTINUOUS
 62
    7
 10
284.57195915310535
 20
270.41330757288398
 11
284.76132617493852
 21
272.07985984772785
  0
LINE
  8
_0-0_
  6
CONTINUOUS
 62
    7
 10
284.76132617493852
 20
272.07985984772785
 11
285.07873137485103
 21
273.49002955963249
  0
LINE
  8
_0-0_
  6
CONTINUOUS
 62
    7
 10
285.07873137485103
 20
273.49002955963249
 11
285.52415288093005
 21
274.643794836685
  0
LINE
  8
_0-0_
  6
CONTINUOUS
 62
    7
 10
285.52415288093005
 20
274.643794836685
 11
286.09759069317556
 21
275.54117755079818
  0
LINE
  8
_0-0_
  6
CONTINUOUS
 62
    7
 10
286.09759069317556
 20
275.54117755079818
 11
286.79904481158752
 21
276.18215583005929
  0
LINE
  8
_0-0_
  6
CONTINUOUS
 62
    7
 10
286.79904481158752
 20
276.18215583005929
 11
287.62851523616598
 21
276.56675154638106
  0
LINE
  8
_0-0_
  6
CONTINUOUS
 62
    7
 10
287.62851523616598
 20
276.56675154638106
 11
288.58600196691094
 21
276.6949428278507
  0
LINE
  8
_0-0_
  6
CONTINUOUS
 62
    7
 10
310.45887722471957
 20
226.91379105262314
 11
310.49999642095969
 21
226.91379105262314
  0
LINE
  8
_0-0_
  6
CONTINUOUS
 62
    7
 10
310.49999642095969
 20
226.91379105262314
 11
310.49999642095969
 21
268.49035086318793
  0
LINE
  8
_0-0_
  6
CONTINUOUS
 62
    7
 10
310.49999642095969
 20
268.49035086318793
 11
310.45981771697404
 21
268.49035086318793
  0
LINE
  8
_0-0_
  6
CONTINUOUS
 62
    7
 10
310.45981771697404
 20
268.49035086318793
 11
310.40537852578183
 21
270.41330757288398
  0
LINE
  8
_0-0_
  6
CONTINUOUS
 62
    7
 10
310.40537852578183
 20
270.41330757288398
 11
310.2220262799944
 21
272.07985984772785
  0
LINE
  8
_0-0_
  6
CONTINUOUS
 62
    7
 10
310.2220262799944
 20
272.07985984772785
 11
309.90969536387325
 21
273.49002955963249
  0
LINE
  8
_0-0_
  6
CONTINUOUS
 62
    7
 10
309.90969536387325
 20
273.49002955963249
 11
309.46845139315684
 21
274.643794836685
  0
LINE
  8
_0-0_
  6
CONTINUOUS
 62
    7
 10
309.46845139315684
 20
274.643794836685
 11
308.89825062401968
 21
275.54117755079818
  0
LINE
  8
_0-0_
  6
CONTINUOUS
 62
    7
 10
308.89825062401968
 20
275.54117755079818
 11
308.1991149283744
 21
276.18215583005929
  0
LINE
  8
_0-0_
  6
CONTINUOUS
 62
    7
 10
308.1991149283744
 20
276.18215583005929
 11
307.37102243430826
 21
276.56675154638106
  0
LINE
  8
_0-0_
  6
CONTINUOUS
 62
    7
 10
307.37102243430826
 20
276.56675154638106
 11
306.41399501373405
 21
276.6949428278507
  0
LINE
  8
_0-0_
  6
CONTINUOUS
 62
    7
 10
291.25000095735641
 20
299.45645203461515
 11
290.22517060681196
 21
298.86254211190123
  0
LINE
  8
_0-0_
  6
CONTINUOUS
 62
    7
 10
290.22517060681196
 20
298.86254211190123
 11
289.25633235327524
 21
298.18107892187402
  0
LINE
  8
_0-0_
  6
CONTINUOUS
 62
    7
 10
289.25633235327524
 20
298.18107892187402
 11
288.35096639095582
 21
297.41733359554098
  0
LINE
  8
_0-0_
  6
CONTINUOUS
 62
    7
 10
288.35096639095582
 20
297.41733359554098
 11
287.51602798815395
 21
296.57716780555751
  0
LINE
  8
_0-0_
  6
CONTINUOUS
 62
    7
 10
287.51602798815395
 20
296.57716780555751
 11
286.75794748726037
 21
295.66703376622735
  0
LINE
  8
_0-0_
  6
CONTINUOUS
 62
    7
 10
286.75794748726037
 20
295.66703376622735
 11
286.08256468901754
 21
294.6939523615892
  0
LINE
  8
_0-0_
  6
CONTINUOUS
 62
    7
 10
286.08256468901754
 20
294.6939523615892
 11
285.4950632367815
 21
293.66542565776575
  0
LINE
  8
_0-0_
  6
CONTINUOUS
 62
    7
 10
285.4950632367815
 20
293.66542565776575
 11
284.99999248843392
 21
292.58937128722437
  0
LINE
  8
_0-0_
  6
CONTINUOUS
 62
    7
 10
284.99999248843392
 20
292.58937128722437
 11
284.99999248843392
 21
282.39132943760933
  0
LINE
  8
_0-0_
  6
CONTINUOUS
 62
    7
 10
284.99999248843392
 20
282.39132943760933
 11
285.88810151148027
 21
280.60456912950195
  0
LINE
  8
_0-0_
  6
CONTINUOUS
 62
    7
 10
285.88810151148027
 20
280.60456912950195
 11
287.02988098026702
 21
278.96824383827709
  0
LINE
  8
_0-0_
  6
CONTINUOUS
 62
    7
 10
287.02988098026702
 20
278.96824383827709
 11
288.40035317026974
 21
277.51807039769
  0
LINE
  8
_0-0_
  6
CONTINUOUS
 62
    7
 10
288.40035317026974
 20
277.51807039769
 11
289.96961917656267
 21
276.28574120952356
  0
LINE
  8
_0-0_
  6
CONTINUOUS
 62
    7
 10
289.96961917656267
 20
276.28574120952356
 11
291.70338383972876
 21
275.29815872663693
  0
LINE
  8
_0-0_
  6
CONTINUOUS
 62
    7
 10
291.70338383972876
 20
275.29815872663693
 11
293.56378687854897
 21
274.57693239896912
  0
LINE
  8
_0-0_
  6
CONTINUOUS
 62
    7
 10
293.56378687854897
 20
274.57693239896912
 11
295.51014653504126
 21
274.13781000380351
  0
LINE
  8
_0-0_
  6
CONTINUOUS
 62
    7
 10
295.51014653504126
 20
274.13781000380351
 11
297.50000942627889
 21
273.99034956707459
  0
LINE
  8
_0-0_
  6
CONTINUOUS
 62
    7
 10
297.50000942627889
 20
273.99034956707459
 11
299.48985044560374
 21
274.13781000380351
  0
LINE
  8
_0-0_
  6
CONTINUOUS
 62
    7
 10
299.48985044560374
 20
274.13781000380351
 11
301.43623197400893
 21
274.57693239896912
  0
LINE
  8
_0-0_
  6
CONTINUOUS
 62
    7
 10
301.43623197400893
 20
274.57693239896912
 11
303.29661314091624
 21
275.29815872663693
  0
LINE
  8
_0-0_
  6
CONTINUOUS
 62
    7
 10
303.29661314091624
 20
275.29815872663693
 11
305.03037780408238
 21
276.28574120952356
  0
LINE
  8
_0-0_
  6
CONTINUOUS
 62
    7
 10
305.03037780408238
 20
276.28574120952356
 11
306.59964381037526
 21
277.51807039769
  0
LINE
  8
_0-0_
  6
CONTINUOUS
 62
    7
 10
306.59964381037526
 20
277.51807039769
 11
307.97013787229093
 21
278.96824383827709
  0
LINE
  8
_0-0_
  6
CONTINUOUS
 62
    7
 10
307.97013787229093
 20
278.96824383827709
 11
309.11189546916478
 21
280.60456912950195
  0
LINE
  8
_0-0_
  6
CONTINUOUS
 62
    7
 10
309.11189546916478
 20
280.60456912950195
 11
310.00000449221102
 21
282.39132943760933
  0
LINE
  8
_0-0_
  6
CONTINUOUS
 62
    7
 10
310.00000449221102
 20
282.39132943760933
 11
310.00000449221102
 21
292.58937128722437
  0
LINE
  8
_0-0_
  6
CONTINUOUS
 62
    7
 10
310.00000449221102
 20
292.58937128722437
 11
309.48877040023501
 21
293.69672436511655
  0
LINE
  8
_0-0_
  6
CONTINUOUS
 62
    7
 10
309.48877040023501
 20
293.69672436511655
 11
308.87970324188586
 21
294.75342209274703
  0
LINE
  8
_0-0_
  6
CONTINUOUS
 62
    7
 10
308.87970324188586
 20
294.75342209274703
 11
308.17774606947739
 21
295.75084693643578
  0
LINE
  8
_0-0_
  6
CONTINUOUS
 62
    7
 10
308.17774606947739
 20
295.75084693643578
 11
307.3886293241876
 21
296.68084067267341
  0
LINE
  8
_0-0_
  6
CONTINUOUS
 62
    7
 10
307.3886293241876
 20
296.68084067267341
 11
306.51878334840745
 21
297.53581374768584
  0
LINE
  8
_0-0_
  6
CONTINUOUS
 62
    7
 10
306.51878334840745
 20
297.53581374768584
 11
305.57533838574034
 21
298.30878902126005
  0
LINE
  8
_0-0_
  6
CONTINUOUS
 62
    7
 10
305.57533838574034
 20
298.30878902126005
 11
304.56597147761158
 21
298.99346738248255
  0
LINE
  8
_0-0_
  6
CONTINUOUS
 62
    7
 10
304.56597147761158
 20
298.99346738248255
 11
303.49895020709533
 21
299.5842496216527
  0
LINE
  8
_0-0_
  6
CONTINUOUS
 62
    7
 10
284.5000005596853
 20
306.49034986164577
 11
285.3537488075757
 21
306.05179613621539
  0
LINE
  8
_0-0_
  6
CONTINUOUS
 62
    7
 10
285.3537488075757
 20
306.05179613621539
 11
286.20465370678994
 21
305.64091038059541
  0
LINE
  8
_0-0_
  6
CONTINUOUS
 62
    7
 10
286.20465370678994
 20
305.64091038059541
 11
287.05269338541513
 21
305.25769259478591
  0
LINE
  8
_0-0_
  6
CONTINUOUS
 62
    7
 10
287.05269338541513
 20
305.25769259478591
 11
287.89786784345119
 21
304.90214277878687
  0
LINE
  8
_0-0_
  6
CONTINUOUS
 62
    7
 10
287.89786784345119
 20
304.90214277878687
 11
288.74019895281106
 21
304.57426093259829
  0
LINE
  8
_0-0_
  6
CONTINUOUS
 62
    7
 10
288.74019895281106
 20
304.57426093259829
 11
289.57964296966907
 21
304.27402518430728
  0
LINE
  8
_0-0_
  6
CONTINUOUS
 62
    7
 10
289.57964296966907
 20
304.27402518430728
 11
290.41624363785081
 21
304.00147927773963
  0
LINE
  8
_0-0_
  6
CONTINUOUS
 62
    7
 10
290.41624363785081
 20
304.00147927773963
 11
291.25000095735641
 21
303.75657946906955
  0
LINE
  8
_0-0_
  6
CONTINUOUS
 62
    7
 10
303.49892833518243
 20
303.42312028509309
 11
304.40107912630651
 21
303.65542187193643
  0
LINE
  8
_0-0_
  6
CONTINUOUS
 62
    7
 10
304.40107912630651
 20
303.65542187193643
 11
305.29946794841283
 21
303.92403083418327
  0
LINE
  8
_0-0_
  6
CONTINUOUS
 62
    7
 10
305.29946794841283
 20
303.92403083418327
 11
306.19409480150136
 21
304.2289252999206
  0
LINE
  8
_0-0_
  6
CONTINUOUS
 62
    7
 10
306.19409480150136
 20
304.2289252999206
 11
307.08498155748515
 21
304.5701490129743
  0
LINE
  8
_0-0_
  6
CONTINUOUS
 62
    7
 10
307.08498155748515
 20
304.5701490129743
 11
307.97210634445128
 21
304.9476801014315
  0
LINE
  8
_0-0_
  6
CONTINUOUS
 62
    7
 10
307.97210634445128
 20
304.9476801014315
 11
308.85549103431259
 21
305.36151856529204
  0
LINE
  8
_0-0_
  6
CONTINUOUS
 62
    7
 10
308.85549103431259
 20
305.36151856529204
 11
309.73511375515614
 21
305.81164253264319
  0
LINE
  8
_0-0_
  6
CONTINUOUS
 62
    7
 10
309.73511375515614
 20
305.81164253264319
 11
310.61099637889492
 21
306.29809574731064
  0
LINE
  8
_0-0_
  6
CONTINUOUS
 62
    7
 10
288.5000016054131
 20
376.24033938963896
 11
306.49999537523183
 21
376.24033938963896
  0
LINE
  8
_0-0_
  6
CONTINUOUS
 62
    7
 10
306.49999537523183
 20
376.24033938963896
 11
306.49999537523183
 21
306.24035389727146
  0
LINE
  8
_0-0_
  6
CONTINUOUS
 62
    7
 10
306.49999537523183
 20
306.24035389727146
 11
288.5000016054131
 21
306.24035389727146
  0
LINE
  8
_0-0_
  6
CONTINUOUS
 62
    7
 10
288.5000016054131
 20
306.24035389727146
 11
288.5000016054131
 21
376.24033938963896
  0
LINE
  8
_0-0_
  6
CONTINUOUS
 62
    7
 10
297.50000942627889
 20
281.24034189349436
 11
296.28069402628427
 21
281.36044056719334
  0
LINE
  8
_0-0_
  6
CONTINUOUS
 62
    7
 10
296.28069402628427
 20
281.36044056719334
 11
295.1082282637077
 21
281.7160997427568
  0
LINE
  8
_0-0_
  6
CONTINUOUS
 62
    7
 10
295.1082282637077
 20
281.7160997427568
 11
294.02769015102308
 21
282.29367134653921
  0
LINE
  8
_0-0_
  6
CONTINUOUS
 62
    7
 10
294.02769015102308
 20
282.29367134653921
 11
293.08059257890261
 21
283.07093351504056
  0
LINE
  8
_0-0_
  6
CONTINUOUS
 62
    7
 10
293.08059257890261
 20
283.07093351504056
 11
292.30330853848841
 21
284.01803108716103
  0
LINE
  8
_0-0_
  6
CONTINUOUS
 62
    7
 10
292.30330853848841
 20
284.01803108716103
 11
291.72575880661896
 21
285.09856919984554
  0
LINE
  8
_0-0_
  6
CONTINUOUS
 62
    7
 10
291.72575880661896
 20
285.09856919984554
 11
291.37009963105538
 21
286.27103496242216
  0
LINE
  8
_0-0_
  6
CONTINUOUS
 62
    7
 10
291.37009963105538
 20
286.27103496242216
 11
291.25000095735641
 21
287.49035036241685
  0
LINE
  8
_0-0_
  6
CONTINUOUS
 62
    7
 10
291.25000095735641
 20
287.49035036241685
 11
291.25000095735641
 21
306.44433135691759
  0
LINE
  8
_0-0_
  6
CONTINUOUS
 62
    7
 10
291.25000095735641
 20
306.44433135691759
 11
303.49895020709533
 21
306.44433135691759
  0
LINE
  8
_0-0_
  6
CONTINUOUS
 62
    7
 10
303.49895020709533
 20
306.44433135691759
 11
303.49895020709533
 21
289.24397472249035
  0
LINE
  8
_0-0_
  6
CONTINUOUS
 62
    7
 10
303.49895020709533
 20
289.24397472249035
 11
303.55747944599869
 21
289.02962997613264
  0
LINE
  8
_0-0_
  6
CONTINUOUS
 62
    7
 10
303.55747944599869
 20
289.02962997613264
 11
303.6083535153893
 21
288.81338237335319
  0
LINE
  8
_0-0_
  6
CONTINUOUS
 62
    7
 10
303.6083535153893
 20
288.81338237335319
 11
303.65152867144133
 21
288.59542876136805
  0
LINE
  8
_0-0_
  6
CONTINUOUS
 62
    7
 10
303.65152867144133
 20
288.59542876136805
 11
303.68691742650327
 21
288.37609721887065
  0
LINE
  8
_0-0_
  6
CONTINUOUS
 62
    7
 10
303.68691742650327
 20
288.37609721887065
 11
303.71449790866217
 21
288.15565020881564
  0
LINE
  8
_0-0_
  6
CONTINUOUS
 62
    7
 10
303.71449790866217
 20
288.15565020881564
 11
303.73420450217935
 21
287.93435019415779
  0
LINE
  8
_0-0_
  6
CONTINUOUS
 62
    7
 10
303.73420450217935
 20
287.93435019415779
 11
303.74605907896762
 21
287.71248150976464
  0
LINE
  8
_0-0_
  6
CONTINUOUS
 62
    7
 10
303.74605907896762
 20
287.71248150976464
 11
303.74999602328853
 21
287.49035036241685
  0
LINE
  8
_0-0_
  6
CONTINUOUS
 62
    7
 10
303.74999602328853
 20
287.49035036241685
 11
303.62989734958956
 21
286.27103496242216
  0
LINE
  8
_0-0_
  6
CONTINUOUS
 62
    7
 10
303.62989734958956
 20
286.27103496242216
 11
303.27423817402604
 21
285.09856919984554
  0
LINE
  8
_0-0_
  6
CONTINUOUS
 62
    7
 10
303.27423817402604
 20
285.09856919984554
 11
302.69668844215659
 21
284.01803108716103
  0
LINE
  8
_0-0_
  6
CONTINUOUS
 62
    7
 10
302.69668844215659
 20
284.01803108716103
 11
301.91942627365518
 21
283.07093351504056
  0
LINE
  8
_0-0_
  6
CONTINUOUS
 62
    7
 10
301.91942627365518
 20
283.07093351504056
 11
300.97230682962191
 21
282.29367134653921
  0
LINE
  8
_0-0_
  6
CONTINUOUS
 62
    7
 10
300.97230682962191
 20
282.29367134653921
 11
299.89176871693729
 21
281.7160997427568
  0
LINE
  8
_0-0_
  6
CONTINUOUS
 62
    7
 10
299.89176871693729
 20
281.7160997427568
 11
298.71932482627363
 21
281.36044056719334
  0
LINE
  8
_0-0_
  6
CONTINUOUS
 62
    7
 10
298.71932482627363
 20
281.36044056719334
 11
297.50000942627889
 21
281.24034189349436
  0
LINE
  8
_0-0_
  6
CONTINUOUS
 62
    7
 10
287.49999587600291
 20
241.49034927250335
 11
307.50000110464202
 21
241.49034927250335
  0
LINE
  8
_0-0_
  6
CONTINUOUS
 62
    7
 10
368.50000064805664
 20
242.49035500191351
 11
406.49999964651448
 21
242.49035500191351
  0
LINE
  8
_0-0_
  6
CONTINUOUS
 62
    7
 10
406.49999964651448
 20
242.49035500191351
 11
406.49999964651448
 21
217.49034299813641
  0
LINE
  8
_0-0_
  6
CONTINUOUS
 62
    7
 10
406.49999964651448
 20
217.49034299813641
 11
368.50000064805664
 21
217.49034299813641
  0
LINE
  8
_0-0_
  6
CONTINUOUS
 62
    7
 10
368.50000064805664
 20
217.49034299813641
 11
368.50000064805664
 21
242.49035500191351
  0
LINE
  8
_0-0_
  6
CONTINUOUS
 62
    7
 10
188.49999733413043
 20
242.49035500191351
 11
226.4999963325883
 21
242.49035500191351
  0
LINE
  8
_0-0_
  6
CONTINUOUS
 62
    7
 10
226.4999963325883
 20
242.49035500191351
 11
226.4999963325883
 21
217.49034299813641
  0
LINE
  8
_0-0_
  6
CONTINUOUS
 62
    7
 10
226.4999963325883
 20
217.49034299813641
 11
188.49999733413043
 21
217.49034299813641
  0
LINE
  8
_0-0_
  6
CONTINUOUS
 62
    7
 10
188.49999733413043
 20
217.49034299813641
 11
188.49999733413043
 21
242.49035500191351
  0
LINE
  8
_0-0_
  6
CONTINUOUS
 62
    7
 10
428.49999446206107
 20
235.99035056861669
 11
428.49999446206107
 21
237.99034015552417
  0
LINE
  8
_0-0_
  6
CONTINUOUS
 62
    7
 10
428.49999446206107
 20
237.99034015552417
 11
443.7789254206948
 21
237.99034015552417
  0
LINE
  8
_0-0_
  6
CONTINUOUS
 62
    7
 10
443.7789254206948
 20
221.99035784452576
 11
428.49999446206107
 21
221.99035784452576
  0
LINE
  8
_0-0_
  6
CONTINUOUS
 62
    7
 10
428.49999446206107
 20
221.99035784452576
 11
428.49999446206107
 21
223.99034743143324
  0
LINE
  8
_0-0_
  6
CONTINUOUS
 62
    7
 10
456.49997991024293
 20
229.75042505153817
 11
456.49997991024293
 21
221.99035784452576
  0
LINE
  8
_0-0_
  6
CONTINUOUS
 62
    7
 10
456.49997991024293
 20
221.99035784452576
 11
451.52893154777615
 21
221.99035784452576
  0
LINE
  8
_0-0_
  6
CONTINUOUS
 62
    7
 10
456.49997991024293
 20
233.73026019357806
 11
456.49997991024293
 21
237.99034015552417
  0
LINE
  8
_0-0_
  6
CONTINUOUS
 62
    7
 10
456.49997991024293
 20
237.99034015552417
 11
443.7789254206948
 21
237.99034015552417
  0
LINE
  8
_0-0_
  6
CONTINUOUS
 62
    7
 10
428.49999446206107
 20
223.99034743143324
 11
406.49999964651448
 21
223.99034743143324
  0
LINE
  8
_0-0_
  6
CONTINUOUS
 62
    7
 10
406.49999964651448
 20
223.99034743143324
 11
406.49999964651448
 21
235.99035056861669
  0
LINE
  8
_0-0_
  6
CONTINUOUS
 62
    7
 10
406.49999964651448
 20
235.99035056861669
 11
428.49999446206107
 21
235.99035056861669
  0
LINE
  8
_0-0_
  6
CONTINUOUS
 62
    7
 10
810.34247438880004
 20
242.32557201017283
 11
804.49996152899894
 21
242.32557201017283
  0
LINE
  8
_0-0_
  6
CONTINUOUS
 62
    7
 10
804.49996152899894
 20
242.32557201017283
 11
804.49996152899894
 21
217.32558187830861
  0
LINE
  8
_0-0_
  6
CONTINUOUS
 62
    7
 10
804.49996152899894
 20
217.32558187830861
 11
815.92331168274154
 21
217.32558187830861
  0
LINE
  8
_0-0_
  6
CONTINUOUS
 62
    7
 10
835.2616696744351
 20
242.32557201017283
 11
842.49996052745689
 21
242.32557201017283
  0
LINE
  8
_0-0_
  6
CONTINUOUS
 62
    7
 10
842.49996052745689
 20
242.32557201017283
 11
842.49996052745689
 21
217.32558187830861
  0
LINE
  8
_0-0_
  6
CONTINUOUS
 62
    7
 10
842.49996052745689
 20
217.32558187830861
 11
831.08605904008425
 21
217.32558187830861
  0
LINE
  8
_0-0_
  6
CONTINUOUS
 62
    7
 10
823.50464161758714
 20
221.82557485278508
 11
823.50000477205367
 21
221.82557485278508
  0
LINE
  8
_0-0_
  6
CONTINUOUS
 62
    7
 10
815.75463549050585
 20
221.82557485278508
 11
809.49996830413693
 21
221.82557485278508
  0
LINE
  8
_0-0_
  6
CONTINUOUS
 62
    7
 10
809.49996830413693
 20
221.82557485278508
 11
809.49996830413693
 21
237.82557903569636
  0
LINE
  8
_0-0_
  6
CONTINUOUS
 62
    7
 10
809.49996830413693
 20
237.82557903569636
 11
823.50464161758714
 21
237.82557903569636
  0
LINE
  8
_0-0_
  6
CONTINUOUS
 62
    7
 10
823.50464161758714
 20
237.82557903569636
 11
837.50004123997041
 21
237.82557903569636
  0
LINE
  8
_0-0_
  6
CONTINUOUS
 62
    7
 10
837.50004123997041
 20
237.82557903569636
 11
837.50004123997041
 21
221.82557485278508
  0
LINE
  8
_0-0_
  6
CONTINUOUS
 62
    7
 10
837.50004123997041
 20
221.82557485278508
 11
823.50464161758714
 21
221.82557485278508
  0
LINE
  8
_0-0_
  6
CONTINUOUS
 62
    7
 10
823.50000477205367
 20
237.82557903569636
 11
823.50000477205367
 21
221.82557485278508
  0
LINE
  8
_0-0_
  6
CONTINUOUS
 62
    7
 10
662.98693535410746
 20
377.40536870183172
 11
646.92678341073872
 21
354.469102911047
  0
LINE
  8
_0-0_
  6
CONTINUOUS
 62
    7
 10
646.92678341073872
 20
354.469102911047
 11
655.36404878476401
 21
348.56125864743262
  0
LINE
  8
_0-0_
  6
CONTINUOUS
 62
    7
 10
655.36404878476401
 20
348.56125864743262
 11
658.63328734880247
 21
352.00975940954726
  0
LINE
  8
_0-0_
  6
CONTINUOUS
 62
    7
 10
658.63328734880247
 20
352.00975940954726
 11
706.96325957544968
 21
318.16874839164115
  0
LINE
  8
_0-0_
  6
CONTINUOUS
 62
    7
 10
706.96325957544968
 20
318.16874839164115
 11
704.84085289207655
 21
313.91724221954934
  0
LINE
  8
_0-0_
  6
CONTINUOUS
 62
    7
 10
704.84085289207655
 20
313.91724221954934
 11
798.46996263187361
 21
248.35745189180702
  0
LINE
  8
_0-0_
  6
CONTINUOUS
 62
    7
 10
798.46996263187361
 20
248.35745189180702
 11
814.53007083141654
 21
271.2937176825917
  0
LINE
  8
_0-0_
  6
CONTINUOUS
 62
    7
 10
814.53007083141654
 20
271.2937176825917
 11
662.98693535410746
 21
377.40536870183172
  0
LINE
  8
_0-0_
  6
CONTINUOUS
 62
    7
 10
665.44441974301139
 20
375.68461782683733
 11
649.38426779964243
 21
352.74837390796557
  0
LINE
  8
_0-0_
  6
CONTINUOUS
 62
    7
 10
655.76539838636234
 20
347.91400312917114
 11
658.63328734880247
 21
352.00975940954726
  0
LINE
  8
_0-0_
  6
CONTINUOUS
 62
    7
 10
658.63328734880247
 20
352.00975940954726
 11
706.96325957544968
 21
318.16874839164115
  0
LINE
  8
_0-0_
  6
CONTINUOUS
 62
    7
 10
706.96325957544968
 20
318.16874839164115
 11
704.09537061300966
 21
314.07299211126497
  0
LINE
  8
_0-0_
  6
CONTINUOUS
 62
    7
 10
704.09537061300966
 20
314.07299211126497
 11
655.76539838636234
 21
347.91400312917114
  0
LINE
  8
_0-0_
  6
CONTINUOUS
 62
    7
 10
657.28090323076287
 20
347.46322300443319
 11
656.59263787582574
 21
346.48023362325426
  0
LINE
  8
_0-0_
  6
CONTINUOUS
 62
    7
 10
656.59263787582574
 20
346.48023362325426
 11
656.51569248626583
 21
346.34357791149478
  0
LINE
  8
_0-0_
  6
CONTINUOUS
 62
    7
 10
656.51569248626583
 20
346.34357791149478
 11
656.46691812051301
 21
346.19452082512458
  0
LINE
  8
_0-0_
  6
CONTINUOUS
 62
    7
 10
656.46691812051301
 20
346.19452082512458
 11
656.4481520192503
 21
346.03883654914767
  0
LINE
  8
_0-0_
  6
CONTINUOUS
 62
    7
 10
656.4481520192503
 20
346.03883654914767
 11
656.46009408369025
 21
345.88245237195815
  0
LINE
  8
_0-0_
  6
CONTINUOUS
 62
    7
 10
656.46009408369025
 20
345.88245237195815
 11
656.50235061940077
 21
345.7314268134275
  0
LINE
  8
_0-0_
  6
CONTINUOUS
 62
    7
 10
656.50235061940077
 20
345.7314268134275
 11
656.57321561717606
 21
345.59153405855977
  0
LINE
  8
_0-0_
  6
CONTINUOUS
 62
    7
 10
656.57321561717606
 20
345.59153405855977
 11
656.67006444746914
 21
345.46815459792674
  0
LINE
  8
_0-0_
  6
CONTINUOUS
 62
    7
 10
656.67006444746914
 20
345.46815459792674
 11
656.78909139743632
 21
345.3660565085392
  0
LINE
  8
_0-0_
  6
CONTINUOUS
 62
    7
 10
656.78909139743632
 20
345.3660565085392
 11
657.1167326525831
 21
345.13662014228493
  0
LINE
  8
_0-0_
  6
CONTINUOUS
 62
    7
 10
657.1167326525831
 20
345.13662014228493
 11
657.25343210816845
 21
345.05969662463798
  0
LINE
  8
_0-0_
  6
CONTINUOUS
 62
    7
 10
657.25343210816845
 20
345.05969662463798
 11
657.40246732262563
 21
345.01090038697225
  0
LINE
  8
_0-0_
  6
CONTINUOUS
 62
    7
 10
657.40246732262563
 20
345.01090038697225
 11
657.55815159860265
 21
344.99213428570954
  0
LINE
  8
_0-0_
  6
CONTINUOUS
 62
    7
 10
657.55815159860265
 20
344.99213428570954
 11
657.71453577579211
 21
345.00409822206234
  0
LINE
  8
_0-0_
  6
CONTINUOUS
 62
    7
 10
657.71453577579211
 20
345.00409822206234
 11
657.86553946240986
 21
345.04633288586001
  0
LINE
  8
_0-0_
  6
CONTINUOUS
 62
    7
 10
657.86553946240986
 20
345.04633288586001
 11
658.00543221727764
 21
345.11724162746123
  0
LINE
  8
_0-0_
  6
CONTINUOUS
 62
    7
 10
658.00543221727764
 20
345.11724162746123
 11
658.12883354982341
 21
345.21404671392844
  0
LINE
  8
_0-0_
  6
CONTINUOUS
 62
    7
 10
658.12883354982341
 20
345.21404671392844
 11
658.23093163921101
 21
345.33307366389568
  0
LINE
  8
_0-0_
  6
CONTINUOUS
 62
    7
 10
658.23093163921101
 20
345.33307366389568
 11
658.91924073797395
 21
346.31606304507454
  0
LINE
  8
_0-0_
  6
CONTINUOUS
 62
    7
 10
657.28090323076287
 20
347.46322300443319
 11
657.55815159860265
 21
347.4232848914894
  0
LINE
  8
_0-0_
  6
CONTINUOUS
 62
    7
 10
657.55815159860265
 20
347.4232848914894
 11
657.81466539301914
 21
347.35377595231336
  0
LINE
  8
_0-0_
  6
CONTINUOUS
 62
    7
 10
657.81466539301914
 20
347.35377595231336
 11
658.0505321016642
 21
347.25471805881807
  0
LINE
  8
_0-0_
  6
CONTINUOUS
 62
    7
 10
658.0505321016642
 20
347.25471805881807
 11
658.26566423688621
 21
347.12611121100343
  0
LINE
  8
_0-0_
  6
CONTINUOUS
 62
    7
 10
658.26566423688621
 20
347.12611121100343
 11
658.46010554251063
 21
346.96793353695671
  0
LINE
  8
_0-0_
  6
CONTINUOUS
 62
    7
 10
658.46010554251063
 20
346.96793353695671
 11
658.633812274712
 21
346.78020690859051
  0
LINE
  8
_0-0_
  6
CONTINUOUS
 62
    7
 10
658.633812274712
 20
346.78020690859051
 11
658.7868719211416
 21
346.56290945399223
  0
LINE
  8
_0-0_
  6
CONTINUOUS
 62
    7
 10
658.7868719211416
 20
346.56290945399223
 11
658.91924073797395
 21
346.31606304507454
  0
LINE
  8
_0-0_
  6
CONTINUOUS
 62
    7
 10
659.45160309780522
 20
345.33292056050533
 11
659.05007852090364
 21
344.75950462017283
  0
LINE
  8
_0-0_
  6
CONTINUOUS
 62
    7
 10
659.05007852090364
 20
344.75950462017283
 11
658.97313313134396
 21
344.62284890841329
  0
LINE
  8
_0-0_
  6
CONTINUOUS
 62
    7
 10
658.97313313134396
 20
344.62284890841329
 11
658.92435876559102
 21
344.47379182204315
  0
LINE
  8
_0-0_
  6
CONTINUOUS
 62
    7
 10
658.92435876559102
 20
344.47379182204315
 11
658.90559266432831
 21
344.31810754606624
  0
LINE
  8
_0-0_
  6
CONTINUOUS
 62
    7
 10
658.90559266432831
 20
344.31810754606624
 11
658.91757847259396
 21
344.16172336887666
  0
LINE
  8
_0-0_
  6
CONTINUOUS
 62
    7
 10
658.91757847259396
 20
344.16172336887666
 11
658.95979126447867
 21
344.01069781034607
  0
LINE
  8
_0-0_
  6
CONTINUOUS
 62
    7
 10
658.95979126447867
 20
344.01069781034607
 11
659.03070000608
 21
343.87080505547834
  0
LINE
  8
_0-0_
  6
CONTINUOUS
 62
    7
 10
659.03070000608
 20
343.87080505547834
 11
659.12750509254715
 21
343.74742559484531
  0
LINE
  8
_0-0_
  6
CONTINUOUS
 62
    7
 10
659.12750509254715
 20
343.74742559484531
 11
659.24653204251445
 21
343.64532750545777
  0
LINE
  8
_0-0_
  6
CONTINUOUS
 62
    7
 10
659.24653204251445
 20
343.64532750545777
 11
659.57421704148692
 21
343.4158911392035
  0
LINE
  8
_0-0_
  6
CONTINUOUS
 62
    7
 10
659.57421704148692
 20
343.4158911392035
 11
659.7380376690603
 21
343.30117295607636
  0
LINE
  8
_0-0_
  6
CONTINUOUS
 62
    7
 10
659.7380376690603
 20
343.30117295607636
 11
659.84052945287988
 21
343.24347484986288
  0
LINE
  8
_0-0_
  6
CONTINUOUS
 62
    7
 10
659.84052945287988
 20
343.24347484986288
 11
659.95229492776639
 21
343.20688313959187
  0
LINE
  8
_0-0_
  6
CONTINUOUS
 62
    7
 10
659.95229492776639
 20
343.20688313959187
 11
660.06909094261846
 21
343.19281949960123
  0
LINE
  8
_0-0_
  6
CONTINUOUS
 62
    7
 10
660.06909094261846
 20
343.19281949960123
 11
660.18636813955413
 21
343.20178698388764
  0
LINE
  8
_0-0_
  6
CONTINUOUS
 62
    7
 10
660.18636813955413
 20
343.20178698388764
 11
660.2996209045175
 21
343.23345751375763
  0
LINE
  8
_0-0_
  6
CONTINUOUS
 62
    7
 10
660.2996209045175
 20
343.23345751375763
 11
660.40456234258113
 21
343.28662813400206
  0
LINE
  8
_0-0_
  6
CONTINUOUS
 62
    7
 10
660.40456234258113
 20
343.28662813400206
 11
660.49708053412121
 21
343.35924288480896
  0
LINE
  8
_0-0_
  6
CONTINUOUS
 62
    7
 10
660.49708053412121
 20
343.35924288480896
 11
660.57367597307473
 21
343.4485240332408
  0
LINE
  8
_0-0_
  6
CONTINUOUS
 62
    7
 10
660.57367597307473
 20
343.4485240332408
 11
661.08989686119048
 21
344.1857606011468
  0
LINE
  8
_0-0_
  6
CONTINUOUS
 62
    7
 10
659.45160309780522
 20
345.33292056050533
 11
659.72880772181907
 21
345.29298244756154
  0
LINE
  8
_0-0_
  6
CONTINUOUS
 62
    7
 10
659.72880772181907
 20
345.29298244756154
 11
659.9853652600616
 21
345.22347350838561
  0
LINE
  8
_0-0_
  6
CONTINUOUS
 62
    7
 10
659.9853652600616
 20
345.22347350838561
 11
660.22118822488085
 21
345.12441561489027
  0
LINE
  8
_0-0_
  6
CONTINUOUS
 62
    7
 10
660.22118822488085
 20
345.12441561489027
 11
660.43632036010263
 21
344.99580876707569
  0
LINE
  8
_0-0_
  6
CONTINUOUS
 62
    7
 10
660.43632036010263
 20
344.99580876707569
 11
660.63076166572716
 21
344.83763109302885
  0
LINE
  8
_0-0_
  6
CONTINUOUS
 62
    7
 10
660.63076166572716
 20
344.83763109302885
 11
660.80451214175423
 21
344.64990446466277
  0
LINE
  8
_0-0_
  6
CONTINUOUS
 62
    7
 10
660.80451214175423
 20
344.64990446466277
 11
660.95752804435824
 21
344.43260701006443
  0
LINE
  8
_0-0_
  6
CONTINUOUS
 62
    7
 10
660.95752804435824
 20
344.43260701006443
 11
661.08989686119048
 21
344.1857606011468
  0
LINE
  8
_0-0_
  6
CONTINUOUS
 62
    7
 10
662.19582826474448
 20
344.02176499827027
 11
661.50751916598165
 21
343.03877561709135
  0
LINE
  8
_0-0_
  6
CONTINUOUS
 62
    7
 10
661.50751916598165
 20
343.03877561709135
 11
661.43061752024767
 21
342.90211990533186
  0
LINE
  8
_0-0_
  6
CONTINUOUS
 62
    7
 10
661.43061752024767
 20
342.90211990533186
 11
661.38184315449485
 21
342.75306281896172
  0
LINE
  8
_0-0_
  6
CONTINUOUS
 62
    7
 10
661.38184315449485
 20
342.75306281896172
 11
661.36303330940621
 21
342.59737854298476
  0
LINE
  8
_0-0_
  6
CONTINUOUS
 62
    7
 10
661.36303330940621
 20
342.59737854298476
 11
661.37501911767208
 21
342.44099436579523
  0
LINE
  8
_0-0_
  6
CONTINUOUS
 62
    7
 10
661.37501911767208
 20
342.44099436579523
 11
661.41723190955668
 21
342.28996880726464
  0
LINE
  8
_0-0_
  6
CONTINUOUS
 62
    7
 10
661.41723190955668
 20
342.28996880726464
 11
661.48814065115789
 21
342.15007605239691
  0
LINE
  8
_0-0_
  6
CONTINUOUS
 62
    7
 10
661.48814065115789
 20
342.15007605239691
 11
661.58498948145098
 21
342.02669659176388
  0
LINE
  8
_0-0_
  6
CONTINUOUS
 62
    7
 10
661.58498948145098
 20
342.02669659176388
 11
661.70401643141815
 21
341.92459850237634
  0
LINE
  8
_0-0_
  6
CONTINUOUS
 62
    7
 10
661.70401643141815
 20
341.92459850237634
 11
662.03165768656493
 21
341.69516213612206
  0
LINE
  8
_0-0_
  6
CONTINUOUS
 62
    7
 10
662.03165768656493
 20
341.69516213612206
 11
662.16831339832436
 21
341.61823861847506
  0
LINE
  8
_0-0_
  6
CONTINUOUS
 62
    7
 10
662.16831339832436
 20
341.61823861847506
 11
662.31734861278153
 21
341.56944238080939
  0
LINE
  8
_0-0_
  6
CONTINUOUS
 62
    7
 10
662.31734861278153
 20
341.56944238080939
 11
662.47307663258437
 21
341.55067627954668
  0
LINE
  8
_0-0_
  6
CONTINUOUS
 62
    7
 10
662.47307663258437
 20
341.55067627954668
 11
662.62946080977383
 21
341.56264021589948
  0
LINE
  8
_0-0_
  6
CONTINUOUS
 62
    7
 10
662.62946080977383
 20
341.56264021589948
 11
662.78046449639169
 21
341.60487487969709
  0
LINE
  8
_0-0_
  6
CONTINUOUS
 62
    7
 10
662.78046449639169
 20
341.60487487969709
 11
662.92035725125925
 21
341.67578362129831
  0
LINE
  8
_0-0_
  6
CONTINUOUS
 62
    7
 10
662.92035725125925
 20
341.67578362129831
 11
663.04371483997943
 21
341.77258870776552
  0
LINE
  8
_0-0_
  6
CONTINUOUS
 62
    7
 10
663.04371483997943
 20
341.77258870776552
 11
663.14585667319284
 21
341.89161565773276
  0
LINE
  8
_0-0_
  6
CONTINUOUS
 62
    7
 10
663.14585667319284
 20
341.89161565773276
 11
663.83412202812997
 21
342.87460503891168
  0
LINE
  8
_0-0_
  6
CONTINUOUS
 62
    7
 10
662.19582826474448
 20
344.02176499827027
 11
662.47307663258437
 21
343.98182688532648
  0
LINE
  8
_0-0_
  6
CONTINUOUS
 62
    7
 10
662.47307663258437
 20
343.98182688532648
 11
662.72959042700097
 21
343.91231794615044
  0
LINE
  8
_0-0_
  6
CONTINUOUS
 62
    7
 10
662.72959042700097
 20
343.91231794615044
 11
662.96541339182022
 21
343.81326005265515
  0
LINE
  8
_0-0_
  6
CONTINUOUS
 62
    7
 10
662.96541339182022
 20
343.81326005265515
 11
663.18054552704211
 21
343.68465320484057
  0
LINE
  8
_0-0_
  6
CONTINUOUS
 62
    7
 10
663.18054552704211
 20
343.68465320484057
 11
663.37498683266654
 21
343.52647553079373
  0
LINE
  8
_0-0_
  6
CONTINUOUS
 62
    7
 10
663.37498683266654
 20
343.52647553079373
 11
663.5487373086936
 21
343.3387489024276
  0
LINE
  8
_0-0_
  6
CONTINUOUS
 62
    7
 10
663.5487373086936
 20
343.3387489024276
 11
663.70179695512331
 21
343.12145144782932
  0
LINE
  8
_0-0_
  6
CONTINUOUS
 62
    7
 10
663.70179695512331
 20
343.12145144782932
 11
663.83412202812997
 21
342.87460503891168
  0
LINE
  8
_0-0_
  6
CONTINUOUS
 62
    7
 10
667.11075329872631
 20
340.58030699210735
 11
666.42244419996348
 21
339.59731761092837
  0
LINE
  8
_0-0_
  6
CONTINUOUS
 62
    7
 10
666.42244419996348
 20
339.59731761092837
 11
666.34554255422938
 21
339.460661899169
  0
LINE
  8
_0-0_
  6
CONTINUOUS
 62
    7
 10
666.34554255422938
 20
339.460661899169
 11
666.29672444465075
 21
339.31160481279881
  0
LINE
  8
_0-0_
  6
CONTINUOUS
 62
    7
 10
666.29672444465075
 20
339.31160481279881
 11
666.27795834338804
 21
339.15592053682184
  0
LINE
  8
_0-0_
  6
CONTINUOUS
 62
    7
 10
666.27795834338804
 20
339.15592053682184
 11
666.28994415165369
 21
338.99953635963232
  0
LINE
  8
_0-0_
  6
CONTINUOUS
 62
    7
 10
666.28994415165369
 20
338.99953635963232
 11
666.33215694353839
 21
338.84851080110172
  0
LINE
  8
_0-0_
  6
CONTINUOUS
 62
    7
 10
666.33215694353839
 20
338.84851080110172
 11
666.40306568513961
 21
338.70861804623405
  0
LINE
  8
_0-0_
  6
CONTINUOUS
 62
    7
 10
666.40306568513961
 20
338.70861804623405
 11
666.49987077160688
 21
338.58523858560096
  0
LINE
  8
_0-0_
  6
CONTINUOUS
 62
    7
 10
666.49987077160688
 20
338.58523858560096
 11
666.61889772157406
 21
338.48314049621342
  0
LINE
  8
_0-0_
  6
CONTINUOUS
 62
    7
 10
666.61889772157406
 20
338.48314049621342
 11
666.94658272054664
 21
338.25370412995915
  0
LINE
  8
_0-0_
  6
CONTINUOUS
 62
    7
 10
666.94658272054664
 20
338.25370412995915
 11
667.08323843230596
 21
338.1767806123122
  0
LINE
  8
_0-0_
  6
CONTINUOUS
 62
    7
 10
667.08323843230596
 20
338.1767806123122
 11
667.23227364676336
 21
338.12798437464653
  0
LINE
  8
_0-0_
  6
CONTINUOUS
 62
    7
 10
667.23227364676336
 20
338.12798437464653
 11
667.38800166656597
 21
338.10921827338376
  0
LINE
  8
_0-0_
  6
CONTINUOUS
 62
    7
 10
667.38800166656597
 20
338.10921827338376
 11
667.54434209992974
 21
338.12118220973662
  0
LINE
  8
_0-0_
  6
CONTINUOUS
 62
    7
 10
667.54434209992974
 20
338.12118220973662
 11
667.69538953037329
 21
338.16341687353423
  0
LINE
  8
_0-0_
  6
CONTINUOUS
 62
    7
 10
667.69538953037329
 20
338.16341687353423
 11
667.83528228524108
 21
338.23430374322248
  0
LINE
  8
_0-0_
  6
CONTINUOUS
 62
    7
 10
667.83528228524108
 20
338.23430374322248
 11
667.95863987396115
 21
338.33113070160266
  0
LINE
  8
_0-0_
  6
CONTINUOUS
 62
    7
 10
667.95863987396115
 20
338.33113070160266
 11
668.06073796334874
 21
338.45015765156978
  0
LINE
  8
_0-0_
  6
CONTINUOUS
 62
    7
 10
668.06073796334874
 20
338.45015765156978
 11
668.74904706211157
 21
339.43314703274882
  0
LINE
  8
_0-0_
  6
CONTINUOUS
 62
    7
 10
667.11075329872631
 20
340.58030699210735
 11
667.38795792274027
 21
340.54036887916357
  0
LINE
  8
_0-0_
  6
CONTINUOUS
 62
    7
 10
667.38795792274027
 20
340.54036887916357
 11
667.64451546098269
 21
340.47085993998758
  0
LINE
  8
_0-0_
  6
CONTINUOUS
 62
    7
 10
667.64451546098269
 20
340.47085993998758
 11
667.88033842580194
 21
340.37180204649223
  0
LINE
  8
_0-0_
  6
CONTINUOUS
 62
    7
 10
667.88033842580194
 20
340.37180204649223
 11
668.09547056102372
 21
340.24319519867765
  0
LINE
  8
_0-0_
  6
CONTINUOUS
 62
    7
 10
668.09547056102372
 20
340.24319519867765
 11
668.28991186664825
 21
340.08501752463081
  0
LINE
  8
_0-0_
  6
CONTINUOUS
 62
    7
 10
668.28991186664825
 20
340.08501752463081
 11
668.46366234267532
 21
339.89729089626474
  0
LINE
  8
_0-0_
  6
CONTINUOUS
 62
    7
 10
668.46366234267532
 20
339.89729089626474
 11
668.61667824527922
 21
339.6799934416664
  0
LINE
  8
_0-0_
  6
CONTINUOUS
 62
    7
 10
668.61667824527922
 20
339.6799934416664
 11
668.74904706211157
 21
339.43314703274882
  0
LINE
  8
_0-0_
  6
CONTINUOUS
 62
    7
 10
672.02563458888221
 20
337.13884898594443
 11
671.33736923394508
 21
336.15585960476551
  0
LINE
  8
_0-0_
  6
CONTINUOUS
 62
    7
 10
671.33736923394508
 20
336.15585960476551
 11
671.26042384438529
 21
336.01920389300602
  0
LINE
  8
_0-0_
  6
CONTINUOUS
 62
    7
 10
671.26042384438529
 20
336.01920389300602
 11
671.21164947863247
 21
335.87014680663583
  0
LINE
  8
_0-0_
  6
CONTINUOUS
 62
    7
 10
671.21164947863247
 20
335.87014680663583
 11
671.19288337736975
 21
335.71444065874607
  0
LINE
  8
_0-0_
  6
CONTINUOUS
 62
    7
 10
671.19288337736975
 20
335.71444065874607
 11
671.20482544180959
 21
335.5580783534694
  0
LINE
  8
_0-0_
  6
CONTINUOUS
 62
    7
 10
671.20482544180959
 20
335.5580783534694
 11
671.24708197752011
 21
335.40705279493886
  0
LINE
  8
_0-0_
  6
CONTINUOUS
 62
    7
 10
671.24708197752011
 20
335.40705279493886
 11
671.31799071912144
 21
335.26716004007108
  0
LINE
  8
_0-0_
  6
CONTINUOUS
 62
    7
 10
671.31799071912144
 20
335.26716004007108
 11
671.41479580558871
 21
335.1437805794381
  0
LINE
  8
_0-0_
  6
CONTINUOUS
 62
    7
 10
671.41479580558871
 20
335.1437805794381
 11
671.53382275555589
 21
335.04168249005056
  0
LINE
  8
_0-0_
  6
CONTINUOUS
 62
    7
 10
671.53382275555589
 20
335.04168249005056
 11
671.86146401070255
 21
334.81224612379629
  0
LINE
  8
_0-0_
  6
CONTINUOUS
 62
    7
 10
671.86146401070255
 20
334.81224612379629
 11
671.99816346628779
 21
334.73532260614934
  0
LINE
  8
_0-0_
  6
CONTINUOUS
 62
    7
 10
671.99816346628779
 20
334.73532260614934
 11
672.14719868074508
 21
334.68652636848361
  0
LINE
  8
_0-0_
  6
CONTINUOUS
 62
    7
 10
672.14719868074508
 20
334.68652636848361
 11
672.30288295672199
 21
334.66776026722084
  0
LINE
  8
_0-0_
  6
CONTINUOUS
 62
    7
 10
672.30288295672199
 20
334.66776026722084
 11
672.45926713391157
 21
334.6797242035737
  0
LINE
  8
_0-0_
  6
CONTINUOUS
 62
    7
 10
672.45926713391157
 20
334.6797242035737
 11
672.61031456435501
 21
334.72195886737126
  0
LINE
  8
_0-0_
  6
CONTINUOUS
 62
    7
 10
672.61031456435501
 20
334.72195886737126
 11
672.75016357539698
 21
334.79284573705962
  0
LINE
  8
_0-0_
  6
CONTINUOUS
 62
    7
 10
672.75016357539698
 20
334.79284573705962
 11
672.87356490794298
 21
334.88967269543969
  0
LINE
  8
_0-0_
  6
CONTINUOUS
 62
    7
 10
672.87356490794298
 20
334.88967269543969
 11
672.97566299733046
 21
335.00869964540692
  0
LINE
  8
_0-0_
  6
CONTINUOUS
 62
    7
 10
672.97566299733046
 20
335.00869964540692
 11
673.66397209609329
 21
335.99168902658585
  0
LINE
  8
_0-0_
  6
CONTINUOUS
 62
    7
 10
672.02563458888221
 20
337.13884898594443
 11
672.30288295672199
 21
337.09891087300065
  0
LINE
  8
_0-0_
  6
CONTINUOUS
 62
    7
 10
672.30288295672199
 20
337.09891087300065
 11
672.55939675113859
 21
337.02940193382466
  0
LINE
  8
_0-0_
  6
CONTINUOUS
 62
    7
 10
672.55939675113859
 20
337.02940193382466
 11
672.79526345978365
 21
336.93034404032937
  0
LINE
  8
_0-0_
  6
CONTINUOUS
 62
    7
 10
672.79526345978365
 20
336.93034404032937
 11
673.01039559500555
 21
336.80173719251479
  0
LINE
  8
_0-0_
  6
CONTINUOUS
 62
    7
 10
673.01039559500555
 20
336.80173719251479
 11
673.20483690062997
 21
336.64355951846795
  0
LINE
  8
_0-0_
  6
CONTINUOUS
 62
    7
 10
673.20483690062997
 20
336.64355951846795
 11
673.37854363283122
 21
336.45583289010182
  0
LINE
  8
_0-0_
  6
CONTINUOUS
 62
    7
 10
673.37854363283122
 20
336.45583289010182
 11
673.53160327926105
 21
336.23853543550348
  0
LINE
  8
_0-0_
  6
CONTINUOUS
 62
    7
 10
673.53160327926105
 20
336.23853543550348
 11
673.66397209609329
 21
335.99168902658585
  0
LINE
  8
_0-0_
  6
CONTINUOUS
 62
    7
 10
676.94055962286393
 20
333.69739097978152
 11
676.2522942679268
 21
332.71440159860265
  0
LINE
  8
_0-0_
  6
CONTINUOUS
 62
    7
 10
676.2522942679268
 20
332.71440159860265
 11
676.175348878367
 21
332.5777458868431
  0
LINE
  8
_0-0_
  6
CONTINUOUS
 62
    7
 10
676.175348878367
 20
332.5777458868431
 11
676.1265745126143
 21
332.42868880047297
  0
LINE
  8
_0-0_
  6
CONTINUOUS
 62
    7
 10
676.1265745126143
 20
332.42868880047297
 11
676.10780841135147
 21
332.2729826525831
  0
LINE
  8
_0-0_
  6
CONTINUOUS
 62
    7
 10
676.10780841135147
 20
332.2729826525831
 11
676.11975047579131
 21
332.11662034730648
  0
LINE
  8
_0-0_
  6
CONTINUOUS
 62
    7
 10
676.11975047579131
 20
332.11662034730648
 11
676.16200701150194
 21
331.96559478877589
  0
LINE
  8
_0-0_
  6
CONTINUOUS
 62
    7
 10
676.16200701150194
 20
331.96559478877589
 11
676.23287200927734
 21
331.82570203390816
  0
LINE
  8
_0-0_
  6
CONTINUOUS
 62
    7
 10
676.23287200927734
 20
331.82570203390816
 11
676.32972083957031
 21
331.70232257327513
  0
LINE
  8
_0-0_
  6
CONTINUOUS
 62
    7
 10
676.32972083957031
 20
331.70232257327513
 11
676.44874778953749
 21
331.60022448388764
  0
LINE
  8
_0-0_
  6
CONTINUOUS
 62
    7
 10
676.44874778953749
 20
331.60022448388764
 11
676.77638904468427
 21
331.37078811763331
  0
LINE
  8
_0-0_
  6
CONTINUOUS
 62
    7
 10
676.77638904468427
 20
331.37078811763331
 11
676.9130447564437
 21
331.29386459998642
  0
LINE
  8
_0-0_
  6
CONTINUOUS
 62
    7
 10
676.9130447564437
 20
331.29386459998642
 11
677.06212371472691
 21
331.24506836232069
  0
LINE
  8
_0-0_
  6
CONTINUOUS
 62
    7
 10
677.06212371472691
 20
331.24506836232069
 11
677.2178079907037
 21
331.22630226105798
  0
LINE
  8
_0-0_
  6
CONTINUOUS
 62
    7
 10
677.2178079907037
 20
331.22630226105798
 11
677.3741921678934
 21
331.23826619741072
  0
LINE
  8
_0-0_
  6
CONTINUOUS
 62
    7
 10
677.3741921678934
 20
331.23826619741072
 11
677.52519585451091
 21
331.28050086120834
  0
LINE
  8
_0-0_
  6
CONTINUOUS
 62
    7
 10
677.52519585451091
 20
331.28050086120834
 11
677.6650886093787
 21
331.35138773089665
  0
LINE
  8
_0-0_
  6
CONTINUOUS
 62
    7
 10
677.6650886093787
 20
331.35138773089665
 11
677.78844619809888
 21
331.44821468927682
  0
LINE
  8
_0-0_
  6
CONTINUOUS
 62
    7
 10
677.78844619809888
 20
331.44821468927682
 11
677.89058803131206
 21
331.567241639244
  0
LINE
  8
_0-0_
  6
CONTINUOUS
 62
    7
 10
677.89058803131206
 20
331.567241639244
 11
678.57885338624919
 21
332.55023102042293
  0
LINE
  8
_0-0_
  6
CONTINUOUS
 62
    7
 10
676.94055962286393
 20
333.69739097978152
 11
677.2178079907037
 21
333.65745286683773
  0
LINE
  8
_0-0_
  6
CONTINUOUS
 62
    7
 10
677.2178079907037
 20
333.65745286683773
 11
677.47432178512042
 21
333.5879439276618
  0
LINE
  8
_0-0_
  6
CONTINUOUS
 62
    7
 10
677.47432178512042
 20
333.5879439276618
 11
677.71014474993967
 21
333.48888603416646
  0
LINE
  8
_0-0_
  6
CONTINUOUS
 62
    7
 10
677.71014474993967
 20
333.48888603416646
 11
677.92527688516145
 21
333.36027918635187
  0
LINE
  8
_0-0_
  6
CONTINUOUS
 62
    7
 10
677.92527688516145
 20
333.36027918635187
 11
678.11971819078599
 21
333.20210151230503
  0
LINE
  8
_0-0_
  6
CONTINUOUS
 62
    7
 10
678.11971819078599
 20
333.20210151230503
 11
678.29346866681306
 21
333.01437488393896
  0
LINE
  8
_0-0_
  6
CONTINUOUS
 62
    7
 10
678.29346866681306
 20
333.01437488393896
 11
678.44652831324265
 21
332.79707742934056
  0
LINE
  8
_0-0_
  6
CONTINUOUS
 62
    7
 10
678.44652831324265
 20
332.79707742934056
 11
678.57885338624919
 21
332.55023102042293
  0
LINE
  8
_0-0_
  6
CONTINUOUS
 62
    7
 10
681.85548465684576
 20
330.25593297361866
 11
681.16717555808282
 21
329.27294359243973
  0
LINE
  8
_0-0_
  6
CONTINUOUS
 62
    7
 10
681.16717555808282
 20
329.27294359243973
 11
681.09027391234872
 21
329.13628788068024
  0
LINE
  8
_0-0_
  6
CONTINUOUS
 62
    7
 10
681.09027391234872
 20
329.13628788068024
 11
681.0414558027702
 21
328.98723079431011
  0
LINE
  8
_0-0_
  6
CONTINUOUS
 62
    7
 10
681.0414558027702
 20
328.98723079431011
 11
681.02268970150749
 21
328.83152464642023
  0
LINE
  8
_0-0_
  6
CONTINUOUS
 62
    7
 10
681.02268970150749
 20
328.83152464642023
 11
681.03467550977314
 21
328.67516234114362
  0
LINE
  8
_0-0_
  6
CONTINUOUS
 62
    7
 10
681.03467550977314
 20
328.67516234114362
 11
681.07688830165785
 21
328.52413678261303
  0
LINE
  8
_0-0_
  6
CONTINUOUS
 62
    7
 10
681.07688830165785
 20
328.52413678261303
 11
681.14779704325895
 21
328.3842440277453
  0
LINE
  8
_0-0_
  6
CONTINUOUS
 62
    7
 10
681.14779704325895
 20
328.3842440277453
 11
681.24460212972633
 21
328.26086456711221
  0
LINE
  8
_0-0_
  6
CONTINUOUS
 62
    7
 10
681.24460212972633
 20
328.26086456711221
 11
681.3636290796934
 21
328.15876647772478
  0
LINE
  8
_0-0_
  6
CONTINUOUS
 62
    7
 10
681.3636290796934
 20
328.15876647772478
 11
681.69131407866598
 21
327.92933011147045
  0
LINE
  8
_0-0_
  6
CONTINUOUS
 62
    7
 10
681.69131407866598
 20
327.92933011147045
 11
681.82796979042553
 21
327.8524065938235
  0
LINE
  8
_0-0_
  6
CONTINUOUS
 62
    7
 10
681.82796979042553
 20
327.8524065938235
 11
681.97700500488281
 21
327.80361035615778
  0
LINE
  8
_0-0_
  6
CONTINUOUS
 62
    7
 10
681.97700500488281
 20
327.80361035615778
 11
682.13273302468554
 21
327.78484425489501
  0
LINE
  8
_0-0_
  6
CONTINUOUS
 62
    7
 10
682.13273302468554
 20
327.78484425489501
 11
682.2890734580493
 21
327.79680819124786
  0
LINE
  8
_0-0_
  6
CONTINUOUS
 62
    7
 10
682.2890734580493
 20
327.79680819124786
 11
682.44012088849274
 21
327.83904285504548
  0
LINE
  8
_0-0_
  6
CONTINUOUS
 62
    7
 10
682.44012088849274
 20
327.83904285504548
 11
682.58001364336053
 21
327.90992972473373
  0
LINE
  8
_0-0_
  6
CONTINUOUS
 62
    7
 10
682.58001364336053
 20
327.90992972473373
 11
682.7033712320806
 21
328.00675668311391
  0
LINE
  8
_0-0_
  6
CONTINUOUS
 62
    7
 10
682.7033712320806
 20
328.00675668311391
 11
682.80551306529389
 21
328.12578363308114
  0
LINE
  8
_0-0_
  6
CONTINUOUS
 62
    7
 10
682.80551306529389
 20
328.12578363308114
 11
683.49377842023102
 21
329.10877301426007
  0
LINE
  8
_0-0_
  6
CONTINUOUS
 62
    7
 10
681.85548465684576
 20
330.25593297361866
 11
682.13268928085972
 21
330.21599486067487
  0
LINE
  8
_0-0_
  6
CONTINUOUS
 62
    7
 10
682.13268928085972
 20
330.21599486067487
 11
682.38924681910203
 21
330.14648592149888
  0
LINE
  8
_0-0_
  6
CONTINUOUS
 62
    7
 10
682.38924681910203
 20
330.14648592149888
 11
682.62506978392139
 21
330.04742802800359
  0
LINE
  8
_0-0_
  6
CONTINUOUS
 62
    7
 10
682.62506978392139
 20
330.04742802800359
 11
682.84020191914328
 21
329.91882118018896
  0
LINE
  8
_0-0_
  6
CONTINUOUS
 62
    7
 10
682.84020191914328
 20
329.91882118018896
 11
683.03464322476771
 21
329.76064350614217
  0
LINE
  8
_0-0_
  6
CONTINUOUS
 62
    7
 10
683.03464322476771
 20
329.76064350614217
 11
683.20839370079489
 21
329.57291687777604
  0
LINE
  8
_0-0_
  6
CONTINUOUS
 62
    7
 10
683.20839370079489
 20
329.57291687777604
 11
683.36145334722448
 21
329.3556194231777
  0
LINE
  8
_0-0_
  6
CONTINUOUS
 62
    7
 10
683.36145334722448
 20
329.3556194231777
 11
683.49377842023102
 21
329.10877301426007
  0
LINE
  8
_0-0_
  6
CONTINUOUS
 62
    7
 10
686.77040969082736
 20
326.81447496745579
 11
686.08210059206453
 21
325.83148558627681
  0
LINE
  8
_0-0_
  6
CONTINUOUS
 62
    7
 10
686.08210059206453
 20
325.83148558627681
 11
686.00515520250474
 21
325.69482987451738
  0
LINE
  8
_0-0_
  6
CONTINUOUS
 62
    7
 10
686.00515520250474
 20
325.69482987451738
 11
685.9563808367518
 21
325.54577278814719
  0
LINE
  8
_0-0_
  6
CONTINUOUS
 62
    7
 10
685.9563808367518
 20
325.54577278814719
 11
685.93761473548909
 21
325.39006664025737
  0
LINE
  8
_0-0_
  6
CONTINUOUS
 62
    7
 10
685.93761473548909
 20
325.39006664025737
 11
685.94955679992904
 21
325.23370433498076
  0
LINE
  8
_0-0_
  6
CONTINUOUS
 62
    7
 10
685.94955679992904
 20
325.23370433498076
 11
685.99181333563956
 21
325.08267877645011
  0
LINE
  8
_0-0_
  6
CONTINUOUS
 62
    7
 10
685.99181333563956
 20
325.08267877645011
 11
686.06272207724078
 21
324.94278602158238
  0
LINE
  8
_0-0_
  6
CONTINUOUS
 62
    7
 10
686.06272207724078
 20
324.94278602158238
 11
686.15952716370793
 21
324.81940656094935
  0
LINE
  8
_0-0_
  6
CONTINUOUS
 62
    7
 10
686.15952716370793
 20
324.81940656094935
 11
686.27855411367523
 21
324.71730847156181
  0
LINE
  8
_0-0_
  6
CONTINUOUS
 62
    7
 10
686.27855411367523
 20
324.71730847156181
 11
686.60623911264781
 21
324.48787210530753
  0
LINE
  8
_0-0_
  6
CONTINUOUS
 62
    7
 10
686.60623911264781
 20
324.48787210530753
 11
686.74289482440724
 21
324.41094858766058
  0
LINE
  8
_0-0_
  6
CONTINUOUS
 62
    7
 10
686.74289482440724
 20
324.41094858766058
 11
686.89193003886442
 21
324.36215234999486
  0
LINE
  8
_0-0_
  6
CONTINUOUS
 62
    7
 10
686.89193003886442
 20
324.36215234999486
 11
687.04761431484144
 21
324.34338624873214
  0
LINE
  8
_0-0_
  6
CONTINUOUS
 62
    7
 10
687.04761431484144
 20
324.34338624873214
 11
687.20399849203102
 21
324.35535018508494
  0
LINE
  8
_0-0_
  6
CONTINUOUS
 62
    7
 10
687.20399849203102
 20
324.35535018508494
 11
687.35504592247457
 21
324.39758484888262
  0
LINE
  8
_0-0_
  6
CONTINUOUS
 62
    7
 10
687.35504592247457
 20
324.39758484888262
 11
687.49493867734213
 21
324.46847171857087
  0
LINE
  8
_0-0_
  6
CONTINUOUS
 62
    7
 10
687.49493867734213
 20
324.46847171857087
 11
687.61829626606232
 21
324.56529867695104
  0
LINE
  8
_0-0_
  6
CONTINUOUS
 62
    7
 10
687.61829626606232
 20
324.56529867695104
 11
687.7203943554498
 21
324.68432562691822
  0
LINE
  8
_0-0_
  6
CONTINUOUS
 62
    7
 10
687.7203943554498
 20
324.68432562691822
 11
688.40870345421285
 21
325.66731500809715
  0
LINE
  8
_0-0_
  6
CONTINUOUS
 62
    7
 10
686.77040969082736
 20
326.81447496745579
 11
687.04761431484144
 21
326.77453685451201
  0
LINE
  8
_0-0_
  6
CONTINUOUS
 62
    7
 10
687.04761431484144
 20
326.77453685451201
 11
687.30417185308386
 21
326.70502791533602
  0
LINE
  8
_0-0_
  6
CONTINUOUS
 62
    7
 10
687.30417185308386
 20
326.70502791533602
 11
687.53999481790311
 21
326.60597002184068
  0
LINE
  8
_0-0_
  6
CONTINUOUS
 62
    7
 10
687.53999481790311
 20
326.60597002184068
 11
687.755126953125
 21
326.47736317402604
  0
LINE
  8
_0-0_
  6
CONTINUOUS
 62
    7
 10
687.755126953125
 20
326.47736317402604
 11
687.94956825874942
 21
326.31918549997926
  0
LINE
  8
_0-0_
  6
CONTINUOUS
 62
    7
 10
687.94956825874942
 20
326.31918549997926
 11
688.12331873477649
 21
326.13145887161306
  0
LINE
  8
_0-0_
  6
CONTINUOUS
 62
    7
 10
688.12331873477649
 20
326.13145887161306
 11
688.27633463738039
 21
325.91416141701478
  0
LINE
  8
_0-0_
  6
CONTINUOUS
 62
    7
 10
688.27633463738039
 20
325.91416141701478
 11
688.40870345421285
 21
325.66731500809715
  0
LINE
  8
_0-0_
  6
CONTINUOUS
 62
    7
 10
691.68529098098338
 20
323.37301696129288
 11
690.99702562604637
 21
322.39002758011395
  0
LINE
  8
_0-0_
  6
CONTINUOUS
 62
    7
 10
690.99702562604637
 20
322.39002758011395
 11
690.92008023648646
 21
322.25337186835446
  0
LINE
  8
_0-0_
  6
CONTINUOUS
 62
    7
 10
690.92008023648646
 20
322.25337186835446
 11
690.87130587073364
 21
322.10431478198427
  0
LINE
  8
_0-0_
  6
CONTINUOUS
 62
    7
 10
690.87130587073364
 20
322.10431478198427
 11
690.85253976947092
 21
321.94860863409446
  0
LINE
  8
_0-0_
  6
CONTINUOUS
 62
    7
 10
690.85253976947092
 20
321.94860863409446
 11
690.86448183391087
 21
321.79224632881784
  0
LINE
  8
_0-0_
  6
CONTINUOUS
 62
    7
 10
690.86448183391087
 20
321.79224632881784
 11
690.90673836962128
 21
321.64122077028719
  0
LINE
  8
_0-0_
  6
CONTINUOUS
 62
    7
 10
690.90673836962128
 20
321.64122077028719
 11
690.97760336739668
 21
321.50132801541952
  0
LINE
  8
_0-0_
  6
CONTINUOUS
 62
    7
 10
690.97760336739668
 20
321.50132801541952
 11
691.07445219768977
 21
321.37794855478649
  0
LINE
  8
_0-0_
  6
CONTINUOUS
 62
    7
 10
691.07445219768977
 20
321.37794855478649
 11
691.19347914765694
 21
321.27585046539889
  0
LINE
  8
_0-0_
  6
CONTINUOUS
 62
    7
 10
691.19347914765694
 20
321.27585046539889
 11
691.52112040280372
 21
321.04641409914461
  0
LINE
  8
_0-0_
  6
CONTINUOUS
 62
    7
 10
691.52112040280372
 20
321.04641409914461
 11
691.65777611456315
 21
320.96949058149767
  0
LINE
  8
_0-0_
  6
CONTINUOUS
 62
    7
 10
691.65777611456315
 20
320.96949058149767
 11
691.80685507284625
 21
320.920694343832
  0
LINE
  8
_0-0_
  6
CONTINUOUS
 62
    7
 10
691.80685507284625
 20
320.920694343832
 11
691.96253934882316
 21
320.90192824256923
  0
LINE
  8
_0-0_
  6
CONTINUOUS
 62
    7
 10
691.96253934882316
 20
320.90192824256923
 11
692.11892352601262
 21
320.91389217892208
  0
LINE
  8
_0-0_
  6
CONTINUOUS
 62
    7
 10
692.11892352601262
 20
320.91389217892208
 11
692.26992721263048
 21
320.9561268427197
  0
LINE
  8
_0-0_
  6
CONTINUOUS
 62
    7
 10
692.26992721263048
 20
320.9561268427197
 11
692.40981996749815
 21
321.02701371240801
  0
LINE
  8
_0-0_
  6
CONTINUOUS
 62
    7
 10
692.40981996749815
 20
321.02701371240801
 11
692.53322130004403
 21
321.12384067078813
  0
LINE
  8
_0-0_
  6
CONTINUOUS
 62
    7
 10
692.53322130004403
 20
321.12384067078813
 11
692.63531938943163
 21
321.24286762075536
  0
LINE
  8
_0-0_
  6
CONTINUOUS
 62
    7
 10
692.63531938943163
 20
321.24286762075536
 11
693.32362848819446
 21
322.22585700193429
  0
LINE
  8
_0-0_
  6
CONTINUOUS
 62
    7
 10
691.68529098098338
 20
323.37301696129288
 11
691.96253934882316
 21
323.33307884834909
  0
LINE
  8
_0-0_
  6
CONTINUOUS
 62
    7
 10
691.96253934882316
 20
323.33307884834909
 11
692.21905314323976
 21
323.26356990917304
  0
LINE
  8
_0-0_
  6
CONTINUOUS
 62
    7
 10
692.21905314323976
 20
323.26356990917304
 11
692.45487610805912
 21
323.16451201567781
  0
LINE
  8
_0-0_
  6
CONTINUOUS
 62
    7
 10
692.45487610805912
 20
323.16451201567781
 11
692.6700519871066
 21
323.03590516786312
  0
LINE
  8
_0-0_
  6
CONTINUOUS
 62
    7
 10
692.6700519871066
 20
323.03590516786312
 11
692.86449329273114
 21
322.87772749381634
  0
LINE
  8
_0-0_
  6
CONTINUOUS
 62
    7
 10
692.86449329273114
 20
322.87772749381634
 11
693.03820002493251
 21
322.6900008654502
  0
LINE
  8
_0-0_
  6
CONTINUOUS
 62
    7
 10
693.03820002493251
 20
322.6900008654502
 11
693.1912596713621
 21
322.47270341085192
  0
LINE
  8
_0-0_
  6
CONTINUOUS
 62
    7
 10
693.1912596713621
 20
322.47270341085192
 11
693.32362848819446
 21
322.22585700193429
  0
LINE
  8
_0-0_
  6
CONTINUOUS
 62
    7
 10
696.6002160149651
 20
319.93155895512996
 11
695.91190691620227
 21
318.94856957395103
  0
LINE
  8
_0-0_
  6
CONTINUOUS
 62
    7
 10
695.91190691620227
 20
318.94856957395103
 11
695.83500527046817
 21
318.81191386219155
  0
LINE
  8
_0-0_
  6
CONTINUOUS
 62
    7
 10
695.83500527046817
 20
318.81191386219155
 11
695.78618716088954
 21
318.66285677582135
  0
LINE
  8
_0-0_
  6
CONTINUOUS
 62
    7
 10
695.78618716088954
 20
318.66285677582135
 11
695.76742105962683
 21
318.50715062793154
  0
LINE
  8
_0-0_
  6
CONTINUOUS
 62
    7
 10
695.76742105962683
 20
318.50715062793154
 11
695.77940686789248
 21
318.35078832265492
  0
LINE
  8
_0-0_
  6
CONTINUOUS
 62
    7
 10
695.77940686789248
 20
318.35078832265492
 11
695.8216196597773
 21
318.19976276412433
  0
LINE
  8
_0-0_
  6
CONTINUOUS
 62
    7
 10
695.8216196597773
 20
318.19976276412433
 11
695.89252840137851
 21
318.0598700092566
  0
LINE
  8
_0-0_
  6
CONTINUOUS
 62
    7
 10
695.89252840137851
 20
318.0598700092566
 11
695.98933348784567
 21
317.93649054862357
  0
LINE
  8
_0-0_
  6
CONTINUOUS
 62
    7
 10
695.98933348784567
 20
317.93649054862357
 11
696.10840418163878
 21
317.83439245923603
  0
LINE
  8
_0-0_
  6
CONTINUOUS
 62
    7
 10
696.10840418163878
 20
317.83439245923603
 11
696.43604543678543
 21
317.60495609298175
  0
LINE
  8
_0-0_
  6
CONTINUOUS
 62
    7
 10
696.43604543678543
 20
317.60495609298175
 11
696.57270114854498
 21
317.52803257533481
  0
LINE
  8
_0-0_
  6
CONTINUOUS
 62
    7
 10
696.57270114854498
 20
317.52803257533481
 11
696.72173636300215
 21
317.47923633766908
  0
LINE
  8
_0-0_
  6
CONTINUOUS
 62
    7
 10
696.72173636300215
 20
317.47923633766908
 11
696.87746438280487
 21
317.46047023640637
  0
LINE
  8
_0-0_
  6
CONTINUOUS
 62
    7
 10
696.87746438280487
 20
317.46047023640637
 11
697.03380481616864
 21
317.47243417275916
  0
LINE
  8
_0-0_
  6
CONTINUOUS
 62
    7
 10
697.03380481616864
 20
317.47243417275916
 11
697.18485224661208
 21
317.51466883655678
  0
LINE
  8
_0-0_
  6
CONTINUOUS
 62
    7
 10
697.18485224661208
 20
317.51466883655678
 11
697.32474500147987
 21
317.58555570624509
  0
LINE
  8
_0-0_
  6
CONTINUOUS
 62
    7
 10
697.32474500147987
 20
317.58555570624509
 11
697.44810259020005
 21
317.68238266462521
  0
LINE
  8
_0-0_
  6
CONTINUOUS
 62
    7
 10
697.44810259020005
 20
317.68238266462521
 11
697.55024442341335
 21
317.80140961459244
  0
LINE
  8
_0-0_
  6
CONTINUOUS
 62
    7
 10
697.55024442341335
 20
317.80140961459244
 11
698.23850977835036
 21
318.78439899577137
  0
LINE
  8
_0-0_
  6
CONTINUOUS
 62
    7
 10
696.6002160149651
 20
319.93155895512996
 11
696.87746438280487
 21
319.89162084218617
  0
LINE
  8
_0-0_
  6
CONTINUOUS
 62
    7
 10
696.87746438280487
 20
319.89162084218617
 11
697.13397817722148
 21
319.82211190301018
  0
LINE
  8
_0-0_
  6
CONTINUOUS
 62
    7
 10
697.13397817722148
 20
319.82211190301018
 11
697.36980114204073
 21
319.7230540095149
  0
LINE
  8
_0-0_
  6
CONTINUOUS
 62
    7
 10
697.36980114204073
 20
319.7230540095149
 11
697.58493327726273
 21
319.59444716170026
  0
LINE
  8
_0-0_
  6
CONTINUOUS
 62
    7
 10
697.58493327726273
 20
319.59444716170026
 11
697.77937458288704
 21
319.43626948765348
  0
LINE
  8
_0-0_
  6
CONTINUOUS
 62
    7
 10
697.77937458288704
 20
319.43626948765348
 11
697.95312505891411
 21
319.24854285928734
  0
LINE
  8
_0-0_
  6
CONTINUOUS
 62
    7
 10
697.95312505891411
 20
319.24854285928734
 11
698.10618470534394
 21
319.031245404689
  0
LINE
  8
_0-0_
  6
CONTINUOUS
 62
    7
 10
698.10618470534394
 20
319.031245404689
 11
698.23850977835036
 21
318.78439899577137
  0
LINE
  8
_0-0_
  6
CONTINUOUS
 62
    7
 10
701.51514104894682
 20
316.49010094896704
 11
700.82683195018387
 21
315.50711156778812
  0
LINE
  8
_0-0_
  6
CONTINUOUS
 62
    7
 10
700.82683195018387
 20
315.50711156778812
 11
700.74993030444989
 21
315.37045585602863
  0
LINE
  8
_0-0_
  6
CONTINUOUS
 62
    7
 10
700.74993030444989
 20
315.37045585602863
 11
700.70111219487126
 21
315.22139876965849
  0
LINE
  8
_0-0_
  6
CONTINUOUS
 62
    7
 10
700.70111219487126
 20
315.22139876965849
 11
700.68234609360854
 21
315.06569262176862
  0
LINE
  8
_0-0_
  6
CONTINUOUS
 62
    7
 10
700.68234609360854
 20
315.06569262176862
 11
700.69433190187419
 21
314.909330316492
  0
LINE
  8
_0-0_
  6
CONTINUOUS
 62
    7
 10
700.69433190187419
 20
314.909330316492
 11
700.73654469375901
 21
314.75830475796141
  0
LINE
  8
_0-0_
  6
CONTINUOUS
 62
    7
 10
700.73654469375901
 20
314.75830475796141
 11
700.80745343536023
 21
314.61841200309368
  0
LINE
  8
_0-0_
  6
CONTINUOUS
 62
    7
 10
700.80745343536023
 20
314.61841200309368
 11
700.9042585218275
 21
314.49503254246065
  0
LINE
  8
_0-0_
  6
CONTINUOUS
 62
    7
 10
700.9042585218275
 20
314.49503254246065
 11
701.02328547179468
 21
314.39293445307317
  0
LINE
  8
_0-0_
  6
CONTINUOUS
 62
    7
 10
701.02328547179468
 20
314.39293445307317
 11
701.35097047076715
 21
314.16349808681883
  0
LINE
  8
_0-0_
  6
CONTINUOUS
 62
    7
 10
701.35097047076715
 20
314.16349808681883
 11
701.48762618252658
 21
314.08657456917189
  0
LINE
  8
_0-0_
  6
CONTINUOUS
 62
    7
 10
701.48762618252658
 20
314.08657456917189
 11
701.63666139698398
 21
314.03777833150622
  0
LINE
  8
_0-0_
  6
CONTINUOUS
 62
    7
 10
701.63666139698398
 20
314.03777833150622
 11
701.79234567296089
 21
314.01901223024345
  0
LINE
  8
_0-0_
  6
CONTINUOUS
 62
    7
 10
701.79234567296089
 20
314.01901223024345
 11
701.94872985015036
 21
314.03097616659625
  0
LINE
  8
_0-0_
  6
CONTINUOUS
 62
    7
 10
701.94872985015036
 20
314.03097616659625
 11
702.0997772805938
 21
314.07321083039386
  0
LINE
  8
_0-0_
  6
CONTINUOUS
 62
    7
 10
702.0997772805938
 20
314.07321083039386
 11
702.23967003546159
 21
314.14409770008217
  0
LINE
  8
_0-0_
  6
CONTINUOUS
 62
    7
 10
702.23967003546159
 20
314.14409770008217
 11
702.36302762418177
 21
314.24092465846235
  0
LINE
  8
_0-0_
  6
CONTINUOUS
 62
    7
 10
702.36302762418177
 20
314.24092465846235
 11
702.46512571356925
 21
314.35995160842953
  0
LINE
  8
_0-0_
  6
CONTINUOUS
 62
    7
 10
702.46512571356925
 20
314.35995160842953
 11
703.15343481233208
 21
315.34294098960845
  0
LINE
  8
_0-0_
  6
CONTINUOUS
 62
    7
 10
701.51514104894682
 20
316.49010094896704
 11
701.79234567296089
 21
316.45016283602325
  0
LINE
  8
_0-0_
  6
CONTINUOUS
 62
    7
 10
701.79234567296089
 20
316.45016283602325
 11
702.04890321120331
 21
316.38065389684726
  0
LINE
  8
_0-0_
  6
CONTINUOUS
 62
    7
 10
702.04890321120331
 20
316.38065389684726
 11
702.28472617602256
 21
316.28159600335198
  0
LINE
  8
_0-0_
  6
CONTINUOUS
 62
    7
 10
702.28472617602256
 20
316.28159600335198
 11
702.49985831124434
 21
316.1529891555374
  0
LINE
  8
_0-0_
  6
CONTINUOUS
 62
    7
 10
702.49985831124434
 20
316.1529891555374
 11
702.69429961686888
 21
315.9948114814905
  0
LINE
  8
_0-0_
  6
CONTINUOUS
 62
    7
 10
702.69429961686888
 20
315.9948114814905
 11
702.86805009289594
 21
315.80708485312442
  0
LINE
  8
_0-0_
  6
CONTINUOUS
 62
    7
 10
702.86805009289594
 20
315.80708485312442
 11
703.02106599549984
 21
315.58978739852608
  0
LINE
  8
_0-0_
  6
CONTINUOUS
 62
    7
 10
703.02106599549984
 20
315.58978739852608
 11
703.15343481233208
 21
315.34294098960845
  0
LINE
  8
_0-0_
  6
CONTINUOUS
 62
    7
 10
664.36648438796112
 20
341.89146255434247
 11
663.96500355488547
 21
341.31804661400992
  0
LINE
  8
_0-0_
  6
CONTINUOUS
 62
    7
 10
663.96500355488547
 20
341.31804661400992
 11
663.88805816532556
 21
341.18139090225043
  0
LINE
  8
_0-0_
  6
CONTINUOUS
 62
    7
 10
663.88805816532556
 20
341.18139090225043
 11
663.83928379957285
 21
341.03233381588029
  0
LINE
  8
_0-0_
  6
CONTINUOUS
 62
    7
 10
663.83928379957285
 20
341.03233381588029
 11
663.82051769831014
 21
340.87664953990327
  0
LINE
  8
_0-0_
  6
CONTINUOUS
 62
    7
 10
663.82051769831014
 20
340.87664953990327
 11
663.83245976274998
 21
340.72026536271375
  0
LINE
  8
_0-0_
  6
CONTINUOUS
 62
    7
 10
663.83245976274998
 20
340.72026536271375
 11
663.8747162984605
 21
340.56923980418321
  0
LINE
  8
_0-0_
  6
CONTINUOUS
 62
    7
 10
663.8747162984605
 20
340.56923980418321
 11
663.9455812962359
 21
340.42934704931548
  0
LINE
  8
_0-0_
  6
CONTINUOUS
 62
    7
 10
663.9455812962359
 20
340.42934704931548
 11
664.04243012652887
 21
340.30596758868239
  0
LINE
  8
_0-0_
  6
CONTINUOUS
 62
    7
 10
664.04243012652887
 20
340.30596758868239
 11
664.16145707649605
 21
340.20386949929491
  0
LINE
  8
_0-0_
  6
CONTINUOUS
 62
    7
 10
664.16145707649605
 20
340.20386949929491
 11
664.48909833164282
 21
339.97443313304063
  0
LINE
  8
_0-0_
  6
CONTINUOUS
 62
    7
 10
664.48909833164282
 20
339.97443313304063
 11
664.65296270304202
 21
339.8597149499135
  0
LINE
  8
_0-0_
  6
CONTINUOUS
 62
    7
 10
664.65296270304202
 20
339.8597149499135
 11
664.75545448686159
 21
339.80201684370002
  0
LINE
  8
_0-0_
  6
CONTINUOUS
 62
    7
 10
664.75545448686159
 20
339.80201684370002
 11
664.86721996174811
 21
339.76542513342901
  0
LINE
  8
_0-0_
  6
CONTINUOUS
 62
    7
 10
664.86721996174811
 20
339.76542513342901
 11
664.98401597660018
 21
339.75136149343831
  0
LINE
  8
_0-0_
  6
CONTINUOUS
 62
    7
 10
664.98401597660018
 20
339.75136149343831
 11
665.10129317353585
 21
339.76032897772478
  0
LINE
  8
_0-0_
  6
CONTINUOUS
 62
    7
 10
665.10129317353585
 20
339.76032897772478
 11
665.2145459384991
 21
339.79199950759471
  0
LINE
  8
_0-0_
  6
CONTINUOUS
 62
    7
 10
665.2145459384991
 20
339.79199950759471
 11
665.31948737656285
 21
339.8451701278392
  0
LINE
  8
_0-0_
  6
CONTINUOUS
 62
    7
 10
665.31948737656285
 20
339.8451701278392
 11
665.41200556810293
 21
339.9177848786461
  0
LINE
  8
_0-0_
  6
CONTINUOUS
 62
    7
 10
665.41200556810293
 20
339.9177848786461
 11
665.48860100705656
 21
340.00706602707794
  0
LINE
  8
_0-0_
  6
CONTINUOUS
 62
    7
 10
665.48860100705656
 20
340.00706602707794
 11
666.0048218951722
 21
340.74430259498388
  0
LINE
  8
_0-0_
  6
CONTINUOUS
 62
    7
 10
664.36648438796112
 20
341.89146255434247
 11
664.6437327558009
 21
341.85152444139868
  0
LINE
  8
_0-0_
  6
CONTINUOUS
 62
    7
 10
664.6437327558009
 20
341.85152444139868
 11
664.90024655021762
 21
341.78201550222269
  0
LINE
  8
_0-0_
  6
CONTINUOUS
 62
    7
 10
664.90024655021762
 20
341.78201550222269
 11
665.13606951503675
 21
341.68295760872741
  0
LINE
  8
_0-0_
  6
CONTINUOUS
 62
    7
 10
665.13606951503675
 20
341.68295760872741
 11
665.35124539408446
 21
341.55435076091283
  0
LINE
  8
_0-0_
  6
CONTINUOUS
 62
    7
 10
665.35124539408446
 20
341.55435076091283
 11
665.54568669970888
 21
341.39617308686593
  0
LINE
  8
_0-0_
  6
CONTINUOUS
 62
    7
 10
665.54568669970888
 20
341.39617308686593
 11
665.71939343191025
 21
341.20844645849985
  0
LINE
  8
_0-0_
  6
CONTINUOUS
 62
    7
 10
665.71939343191025
 20
341.20844645849985
 11
665.87245307833984
 21
340.99114900390146
  0
LINE
  8
_0-0_
  6
CONTINUOUS
 62
    7
 10
665.87245307833984
 20
340.99114900390146
 11
666.0048218951722
 21
340.74430259498388
  0
LINE
  8
_0-0_
  6
CONTINUOUS
 62
    7
 10
669.28140942194295
 20
338.45000454817955
 11
668.87988484504137
 21
337.87658860784694
  0
LINE
  8
_0-0_
  6
CONTINUOUS
 62
    7
 10
668.87988484504137
 20
337.87658860784694
 11
668.80298319930728
 21
337.73993289608757
  0
LINE
  8
_0-0_
  6
CONTINUOUS
 62
    7
 10
668.80298319930728
 20
337.73993289608757
 11
668.75420883355446
 21
337.59087580971737
  0
LINE
  8
_0-0_
  6
CONTINUOUS
 62
    7
 10
668.75420883355446
 20
337.59087580971737
 11
668.73539898846605
 21
337.43516966182756
  0
LINE
  8
_0-0_
  6
CONTINUOUS
 62
    7
 10
668.73539898846605
 20
337.43516966182756
 11
668.74738479673169
 21
337.27880735655083
  0
LINE
  8
_0-0_
  6
CONTINUOUS
 62
    7
 10
668.74738479673169
 20
337.27880735655083
 11
668.78964133244222
 21
337.12778179802029
  0
LINE
  8
_0-0_
  6
CONTINUOUS
 62
    7
 10
668.78964133244222
 20
337.12778179802029
 11
668.8605063302175
 21
336.98788904315251
  0
LINE
  8
_0-0_
  6
CONTINUOUS
 62
    7
 10
668.8605063302175
 20
336.98788904315251
 11
668.95735516051059
 21
336.86450958251953
  0
LINE
  8
_0-0_
  6
CONTINUOUS
 62
    7
 10
668.95735516051059
 20
336.86450958251953
 11
669.07638211047788
 21
336.76241149313199
  0
LINE
  8
_0-0_
  6
CONTINUOUS
 62
    7
 10
669.07638211047788
 20
336.76241149313199
 11
669.40402336562454
 21
336.53297512687772
  0
LINE
  8
_0-0_
  6
CONTINUOUS
 62
    7
 10
669.40402336562454
 20
336.53297512687772
 11
669.56784399319804
 21
336.41825694375058
  0
LINE
  8
_0-0_
  6
CONTINUOUS
 62
    7
 10
669.56784399319804
 20
336.41825694375058
 11
669.6703357770175
 21
336.36055883753716
  0
LINE
  8
_0-0_
  6
CONTINUOUS
 62
    7
 10
669.6703357770175
 20
336.36055883753716
 11
669.78214499572982
 21
336.32396712726603
  0
LINE
  8
_0-0_
  6
CONTINUOUS
 62
    7
 10
669.78214499572982
 20
336.32396712726603
 11
669.89889726675619
 21
336.30990348727545
  0
LINE
  8
_0-0_
  6
CONTINUOUS
 62
    7
 10
669.89889726675619
 20
336.30990348727545
 11
670.01617446369187
 21
336.31887097156181
  0
LINE
  8
_0-0_
  6
CONTINUOUS
 62
    7
 10
670.01617446369187
 20
336.31887097156181
 11
670.12947097248093
 21
336.35054150143185
  0
LINE
  8
_0-0_
  6
CONTINUOUS
 62
    7
 10
670.12947097248093
 20
336.35054150143185
 11
670.23436866671875
 21
336.40371212167628
  0
LINE
  8
_0-0_
  6
CONTINUOUS
 62
    7
 10
670.23436866671875
 20
336.40371212167628
 11
670.32693060208476
 21
336.47632687248318
  0
LINE
  8
_0-0_
  6
CONTINUOUS
 62
    7
 10
670.32693060208476
 20
336.47632687248318
 11
670.40348229721246
 21
336.56560802091496
  0
LINE
  8
_0-0_
  6
CONTINUOUS
 62
    7
 10
670.40348229721246
 20
336.56560802091496
 11
670.91970318532822
 21
337.30284458882096
  0
LINE
  8
_0-0_
  6
CONTINUOUS
 62
    7
 10
669.28140942194295
 20
338.45000454817955
 11
669.55865778978261
 21
338.41006643523576
  0
LINE
  8
_0-0_
  6
CONTINUOUS
 62
    7
 10
669.55865778978261
 20
338.41006643523576
 11
669.81517158419922
 21
338.34055749605977
  0
LINE
  8
_0-0_
  6
CONTINUOUS
 62
    7
 10
669.81517158419922
 20
338.34055749605977
 11
670.05099454901847
 21
338.24149960256449
  0
LINE
  8
_0-0_
  6
CONTINUOUS
 62
    7
 10
670.05099454901847
 20
338.24149960256449
 11
670.26612668424036
 21
338.11289275474991
  0
LINE
  8
_0-0_
  6
CONTINUOUS
 62
    7
 10
670.26612668424036
 20
338.11289275474991
 11
670.46056798986478
 21
337.95471508070307
  0
LINE
  8
_0-0_
  6
CONTINUOUS
 62
    7
 10
670.46056798986478
 20
337.95471508070307
 11
670.63431846589197
 21
337.76698845233693
  0
LINE
  8
_0-0_
  6
CONTINUOUS
 62
    7
 10
670.63431846589197
 20
337.76698845233693
 11
670.78737811232156
 21
337.54969099773859
  0
LINE
  8
_0-0_
  6
CONTINUOUS
 62
    7
 10
670.78737811232156
 20
337.54969099773859
 11
670.91970318532822
 21
337.30284458882096
  0
LINE
  8
_0-0_
  6
CONTINUOUS
 62
    7
 10
674.19633445592456
 20
335.00854654201669
 11
673.79480987902309
 21
334.43513060168408
  0
LINE
  8
_0-0_
  6
CONTINUOUS
 62
    7
 10
673.79480987902309
 20
334.43513060168408
 11
673.71790823328911
 21
334.29847488992459
  0
LINE
  8
_0-0_
  6
CONTINUOUS
 62
    7
 10
673.71790823328911
 20
334.29847488992459
 11
673.66909012371036
 21
334.1494178035544
  0
LINE
  8
_0-0_
  6
CONTINUOUS
 62
    7
 10
673.66909012371036
 20
334.1494178035544
 11
673.65032402244765
 21
333.99371165566464
  0
LINE
  8
_0-0_
  6
CONTINUOUS
 62
    7
 10
673.65032402244765
 20
333.99371165566464
 11
673.66230983071341
 21
333.83734935038797
  0
LINE
  8
_0-0_
  6
CONTINUOUS
 62
    7
 10
673.66230983071341
 20
333.83734935038797
 11
673.70452262259823
 21
333.68632379185738
  0
LINE
  8
_0-0_
  6
CONTINUOUS
 62
    7
 10
673.70452262259823
 20
333.68632379185738
 11
673.77543136419933
 21
333.54643103698959
  0
LINE
  8
_0-0_
  6
CONTINUOUS
 62
    7
 10
673.77543136419933
 20
333.54643103698959
 11
673.87223645066661
 21
333.42305157635667
  0
LINE
  8
_0-0_
  6
CONTINUOUS
 62
    7
 10
673.87223645066661
 20
333.42305157635667
 11
673.99126340063378
 21
333.32095348696907
  0
LINE
  8
_0-0_
  6
CONTINUOUS
 62
    7
 10
673.99126340063378
 20
333.32095348696907
 11
674.31894839960637
 21
333.0915171207148
  0
LINE
  8
_0-0_
  6
CONTINUOUS
 62
    7
 10
674.31894839960637
 20
333.0915171207148
 11
674.48276902717964
 21
332.9767989375876
  0
LINE
  8
_0-0_
  6
CONTINUOUS
 62
    7
 10
674.48276902717964
 20
332.9767989375876
 11
674.58526081099933
 21
332.91910083137424
  0
LINE
  8
_0-0_
  6
CONTINUOUS
 62
    7
 10
674.58526081099933
 20
332.91910083137424
 11
674.69707002971165
 21
332.88250912110311
  0
LINE
  8
_0-0_
  6
CONTINUOUS
 62
    7
 10
674.69707002971165
 20
332.88250912110311
 11
674.81382230073791
 21
332.86844548111253
  0
LINE
  8
_0-0_
  6
CONTINUOUS
 62
    7
 10
674.81382230073791
 20
332.86844548111253
 11
674.93109949767359
 21
332.87741296539889
  0
LINE
  8
_0-0_
  6
CONTINUOUS
 62
    7
 10
674.93109949767359
 20
332.87741296539889
 11
675.04439600646265
 21
332.90908349526893
  0
LINE
  8
_0-0_
  6
CONTINUOUS
 62
    7
 10
675.04439600646265
 20
332.90908349526893
 11
675.14929370070047
 21
332.96225411551342
  0
LINE
  8
_0-0_
  6
CONTINUOUS
 62
    7
 10
675.14929370070047
 20
332.96225411551342
 11
675.24181189224066
 21
333.03486886632027
  0
LINE
  8
_0-0_
  6
CONTINUOUS
 62
    7
 10
675.24181189224066
 20
333.03486886632027
 11
675.31840733119407
 21
333.1241500147521
  0
LINE
  8
_0-0_
  6
CONTINUOUS
 62
    7
 10
675.31840733119407
 20
333.1241500147521
 11
675.83462821930993
 21
333.86138658265804
  0
LINE
  8
_0-0_
  6
CONTINUOUS
 62
    7
 10
674.19633445592456
 20
335.00854654201669
 11
674.47353907993852
 21
334.9686084290729
  0
LINE
  8
_0-0_
  6
CONTINUOUS
 62
    7
 10
674.47353907993852
 20
334.9686084290729
 11
674.73009661818094
 21
334.89909948989691
  0
LINE
  8
_0-0_
  6
CONTINUOUS
 62
    7
 10
674.73009661818094
 20
334.89909948989691
 11
674.9659195830003
 21
334.80004159640157
  0
LINE
  8
_0-0_
  6
CONTINUOUS
 62
    7
 10
674.9659195830003
 20
334.80004159640157
 11
675.18105171822208
 21
334.67143474858693
  0
LINE
  8
_0-0_
  6
CONTINUOUS
 62
    7
 10
675.18105171822208
 20
334.67143474858693
 11
675.37549302384662
 21
334.51325707454021
  0
LINE
  8
_0-0_
  6
CONTINUOUS
 62
    7
 10
675.37549302384662
 20
334.51325707454021
 11
675.54924349987357
 21
334.32553044617407
  0
LINE
  8
_0-0_
  6
CONTINUOUS
 62
    7
 10
675.54924349987357
 20
334.32553044617407
 11
675.70225940247747
 21
334.10823299157573
  0
LINE
  8
_0-0_
  6
CONTINUOUS
 62
    7
 10
675.70225940247747
 20
334.10823299157573
 11
675.83462821930993
 21
333.86138658265804
  0
LINE
  8
_0-0_
  6
CONTINUOUS
 62
    7
 10
679.11121574608046
 20
331.56708853585377
 11
678.70973491300492
 21
330.99367259552116
  0
LINE
  8
_0-0_
  6
CONTINUOUS
 62
    7
 10
678.70973491300492
 20
330.99367259552116
 11
678.63278952344501
 21
330.85701688376167
  0
LINE
  8
_0-0_
  6
CONTINUOUS
 62
    7
 10
678.63278952344501
 20
330.85701688376167
 11
678.58401515769219
 21
330.70795979739154
  0
LINE
  8
_0-0_
  6
CONTINUOUS
 62
    7
 10
678.58401515769219
 20
330.70795979739154
 11
678.56524905642937
 21
330.55225364950167
  0
LINE
  8
_0-0_
  6
CONTINUOUS
 62
    7
 10
678.56524905642937
 20
330.55225364950167
 11
678.57719112086943
 21
330.39589134422505
  0
LINE
  8
_0-0_
  6
CONTINUOUS
 62
    7
 10
678.57719112086943
 20
330.39589134422505
 11
678.61944765657984
 21
330.24486578569446
  0
LINE
  8
_0-0_
  6
CONTINUOUS
 62
    7
 10
678.61944765657984
 20
330.24486578569446
 11
678.69035639818105
 21
330.10497303082673
  0
LINE
  8
_0-0_
  6
CONTINUOUS
 62
    7
 10
678.69035639818105
 20
330.10497303082673
 11
678.78716148464832
 21
329.9815935701937
  0
LINE
  8
_0-0_
  6
CONTINUOUS
 62
    7
 10
678.78716148464832
 20
329.9815935701937
 11
678.9061884346155
 21
329.87949548080621
  0
LINE
  8
_0-0_
  6
CONTINUOUS
 62
    7
 10
678.9061884346155
 20
329.87949548080621
 11
679.23387343358809
 21
329.65005911455188
  0
LINE
  8
_0-0_
  6
CONTINUOUS
 62
    7
 10
679.23387343358809
 20
329.65005911455188
 11
679.39769406116147
 21
329.53534093142474
  0
LINE
  8
_0-0_
  6
CONTINUOUS
 62
    7
 10
679.39769406116147
 20
329.53534093142474
 11
679.50018584498093
 21
329.47764282521132
  0
LINE
  8
_0-0_
  6
CONTINUOUS
 62
    7
 10
679.50018584498093
 20
329.47764282521132
 11
679.61195131986756
 21
329.44105111494025
  0
LINE
  8
_0-0_
  6
CONTINUOUS
 62
    7
 10
679.61195131986756
 20
329.44105111494025
 11
679.72874733471951
 21
329.42698747494967
  0
LINE
  8
_0-0_
  6
CONTINUOUS
 62
    7
 10
679.72874733471951
 20
329.42698747494967
 11
679.84602453165519
 21
329.43595495923603
  0
LINE
  8
_0-0_
  6
CONTINUOUS
 62
    7
 10
679.84602453165519
 20
329.43595495923603
 11
679.95927729661855
 21
329.46762548910607
  0
LINE
  8
_0-0_
  6
CONTINUOUS
 62
    7
 10
679.95927729661855
 20
329.46762548910607
 11
680.0642187346823
 21
329.52079610935044
  0
LINE
  8
_0-0_
  6
CONTINUOUS
 62
    7
 10
680.0642187346823
 20
329.52079610935044
 11
680.15673692622227
 21
329.59341086015735
  0
LINE
  8
_0-0_
  6
CONTINUOUS
 62
    7
 10
680.15673692622227
 20
329.59341086015735
 11
680.2333323651759
 21
329.68269200858919
  0
LINE
  8
_0-0_
  6
CONTINUOUS
 62
    7
 10
680.2333323651759
 20
329.68269200858919
 11
680.74955325329154
 21
330.41992857649518
  0
LINE
  8
_0-0_
  6
CONTINUOUS
 62
    7
 10
679.11121574608046
 20
331.56708853585377
 11
679.38846411392035
 21
331.52715042290998
  0
LINE
  8
_0-0_
  6
CONTINUOUS
 62
    7
 10
679.38846411392035
 20
331.52715042290998
 11
679.64497790833684
 21
331.45764148373405
  0
LINE
  8
_0-0_
  6
CONTINUOUS
 62
    7
 10
679.64497790833684
 20
331.45764148373405
 11
679.8808446169819
 21
331.35858359023871
  0
LINE
  8
_0-0_
  6
CONTINUOUS
 62
    7
 10
679.8808446169819
 20
331.35858359023871
 11
680.0959767522038
 21
331.22997674242407
  0
LINE
  8
_0-0_
  6
CONTINUOUS
 62
    7
 10
680.0959767522038
 20
331.22997674242407
 11
680.29041805782822
 21
331.07179906837729
  0
LINE
  8
_0-0_
  6
CONTINUOUS
 62
    7
 10
680.29041805782822
 20
331.07179906837729
 11
680.46412479002947
 21
330.8840724400111
  0
LINE
  8
_0-0_
  6
CONTINUOUS
 62
    7
 10
680.46412479002947
 20
330.8840724400111
 11
680.6171844364593
 21
330.66677498541281
  0
LINE
  8
_0-0_
  6
CONTINUOUS
 62
    7
 10
680.6171844364593
 20
330.66677498541281
 11
680.74955325329154
 21
330.41992857649518
  0
LINE
  8
_0-0_
  6
CONTINUOUS
 62
    7
 10
684.02614078006218
 20
328.12563052969091
 11
683.62465994698653
 21
327.5522145893583
  0
LINE
  8
_0-0_
  6
CONTINUOUS
 62
    7
 10
683.62465994698653
 20
327.5522145893583
 11
683.54771455742684
 21
327.41555887759881
  0
LINE
  8
_0-0_
  6
CONTINUOUS
 62
    7
 10
683.54771455742684
 20
327.41555887759881
 11
683.49894019167391
 21
327.26650179122862
  0
LINE
  8
_0-0_
  6
CONTINUOUS
 62
    7
 10
683.49894019167391
 20
327.26650179122862
 11
683.4801740904112
 21
327.1107956433388
  0
LINE
  8
_0-0_
  6
CONTINUOUS
 62
    7
 10
683.4801740904112
 20
327.1107956433388
 11
683.49211615485103
 21
326.95443333806219
  0
LINE
  8
_0-0_
  6
CONTINUOUS
 62
    7
 10
683.49211615485103
 20
326.95443333806219
 11
683.53437269056155
 21
326.80340777953154
  0
LINE
  8
_0-0_
  6
CONTINUOUS
 62
    7
 10
683.53437269056155
 20
326.80340777953154
 11
683.60523768833696
 21
326.66351502466387
  0
LINE
  8
_0-0_
  6
CONTINUOUS
 62
    7
 10
683.60523768833696
 20
326.66351502466387
 11
683.70208651863004
 21
326.54013556403078
  0
LINE
  8
_0-0_
  6
CONTINUOUS
 62
    7
 10
683.70208651863004
 20
326.54013556403078
 11
683.82111346859733
 21
326.43803747464335
  0
LINE
  8
_0-0_
  6
CONTINUOUS
 62
    7
 10
683.82111346859733
 20
326.43803747464335
 11
684.1487547237441
 21
326.20860110838896
  0
LINE
  8
_0-0_
  6
CONTINUOUS
 62
    7
 10
684.1487547237441
 20
326.20860110838896
 11
684.31257535131738
 21
326.09388292526182
  0
LINE
  8
_0-0_
  6
CONTINUOUS
 62
    7
 10
684.31257535131738
 20
326.09388292526182
 11
684.41511087896276
 21
326.0361848190484
  0
LINE
  8
_0-0_
  6
CONTINUOUS
 62
    7
 10
684.41511087896276
 20
326.0361848190484
 11
684.52687635384927
 21
325.99959310877739
  0
LINE
  8
_0-0_
  6
CONTINUOUS
 62
    7
 10
684.52687635384927
 20
325.99959310877739
 11
684.64367236870135
 21
325.98552946878675
  0
LINE
  8
_0-0_
  6
CONTINUOUS
 62
    7
 10
684.64367236870135
 20
325.98552946878675
 11
684.76094956563702
 21
325.99449695307317
  0
LINE
  8
_0-0_
  6
CONTINUOUS
 62
    7
 10
684.76094956563702
 20
325.99449695307317
 11
684.87420233060038
 21
326.02616748294309
  0
LINE
  8
_0-0_
  6
CONTINUOUS
 62
    7
 10
684.87420233060038
 20
326.02616748294309
 11
684.9791000248382
 21
326.07933810318752
  0
LINE
  8
_0-0_
  6
CONTINUOUS
 62
    7
 10
684.9791000248382
 20
326.07933810318752
 11
685.0716619602041
 21
326.15195285399443
  0
LINE
  8
_0-0_
  6
CONTINUOUS
 62
    7
 10
685.0716619602041
 20
326.15195285399443
 11
685.1482136553318
 21
326.24123400242632
  0
LINE
  8
_0-0_
  6
CONTINUOUS
 62
    7
 10
685.1482136553318
 20
326.24123400242632
 11
685.66443454344744
 21
326.97847057033232
  0
LINE
  8
_0-0_
  6
CONTINUOUS
 62
    7
 10
684.02614078006218
 20
328.12563052969091
 11
684.30338914790195
 21
328.08567054483422
  0
LINE
  8
_0-0_
  6
CONTINUOUS
 62
    7
 10
684.30338914790195
 20
328.08567054483422
 11
684.55990294231867
 21
328.01618347757108
  0
LINE
  8
_0-0_
  6
CONTINUOUS
 62
    7
 10
684.55990294231867
 20
328.01618347757108
 11
684.79572590713792
 21
327.91712558407585
  0
LINE
  8
_0-0_
  6
CONTINUOUS
 62
    7
 10
684.79572590713792
 20
327.91712558407585
 11
685.0108580423597
 21
327.78851873626115
  0
LINE
  8
_0-0_
  6
CONTINUOUS
 62
    7
 10
685.0108580423597
 20
327.78851873626115
 11
685.20529934798424
 21
327.63034106221437
  0
LINE
  8
_0-0_
  6
CONTINUOUS
 62
    7
 10
685.20529934798424
 20
327.63034106221437
 11
685.3790498240113
 21
327.44261443384823
  0
LINE
  8
_0-0_
  6
CONTINUOUS
 62
    7
 10
685.3790498240113
 20
327.44261443384823
 11
685.53210947044113
 21
327.2253169792499
  0
LINE
  8
_0-0_
  6
CONTINUOUS
 62
    7
 10
685.53210947044113
 20
327.2253169792499
 11
685.66443454344744
 21
326.97847057033232
  0
LINE
  8
_0-0_
  6
CONTINUOUS
 62
    7
 10
688.94106581404401
 20
324.68417252352799
 11
688.53954123714243
 21
324.11075658319538
  0
LINE
  8
_0-0_
  6
CONTINUOUS
 62
    7
 10
688.53954123714243
 20
324.11075658319538
 11
688.46263959140845
 21
323.97410087143589
  0
LINE
  8
_0-0_
  6
CONTINUOUS
 62
    7
 10
688.46263959140845
 20
323.97410087143589
 11
688.41382148182993
 21
323.82504378506576
  0
LINE
  8
_0-0_
  6
CONTINUOUS
 62
    7
 10
688.41382148182993
 20
323.82504378506576
 11
688.3950553805671
 21
323.66933763717589
  0
LINE
  8
_0-0_
  6
CONTINUOUS
 62
    7
 10
688.3950553805671
 20
323.66933763717589
 11
688.40704118883286
 21
323.51297533189927
  0
LINE
  8
_0-0_
  6
CONTINUOUS
 62
    7
 10
688.40704118883286
 20
323.51297533189927
 11
688.44925398071746
 21
323.36194977336868
  0
LINE
  8
_0-0_
  6
CONTINUOUS
 62
    7
 10
688.44925398071746
 20
323.36194977336868
 11
688.52016272231879
 21
323.22205701850095
  0
LINE
  8
_0-0_
  6
CONTINUOUS
 62
    7
 10
688.52016272231879
 20
323.22205701850095
 11
688.61696780878606
 21
323.09867755786792
  0
LINE
  8
_0-0_
  6
CONTINUOUS
 62
    7
 10
688.61696780878606
 20
323.09867755786792
 11
688.73599475875324
 21
322.99657946848038
  0
LINE
  8
_0-0_
  6
CONTINUOUS
 62
    7
 10
688.73599475875324
 20
322.99657946848038
 11
689.06367975772571
 21
322.7671431022261
  0
LINE
  8
_0-0_
  6
CONTINUOUS
 62
    7
 10
689.06367975772571
 20
322.7671431022261
 11
689.22750038529909
 21
322.65242491909896
  0
LINE
  8
_0-0_
  6
CONTINUOUS
 62
    7
 10
689.22750038529909
 20
322.65242491909896
 11
689.32999216911867
 21
322.59472681288548
  0
LINE
  8
_0-0_
  6
CONTINUOUS
 62
    7
 10
689.32999216911867
 20
322.59472681288548
 11
689.44180138783099
 21
322.55813510261447
  0
LINE
  8
_0-0_
  6
CONTINUOUS
 62
    7
 10
689.44180138783099
 20
322.55813510261447
 11
689.55855365885725
 21
322.54407146262389
  0
LINE
  8
_0-0_
  6
CONTINUOUS
 62
    7
 10
689.55855365885725
 20
322.54407146262389
 11
689.67583085579292
 21
322.55303894691025
  0
LINE
  8
_0-0_
  6
CONTINUOUS
 62
    7
 10
689.67583085579292
 20
322.55303894691025
 11
689.78912736458199
 21
322.58470947678018
  0
LINE
  8
_0-0_
  6
CONTINUOUS
 62
    7
 10
689.78912736458199
 20
322.58470947678018
 11
689.89402505882003
 21
322.63788009702466
  0
LINE
  8
_0-0_
  6
CONTINUOUS
 62
    7
 10
689.89402505882003
 20
322.63788009702466
 11
689.98654325036
 21
322.71049484783157
  0
LINE
  8
_0-0_
  6
CONTINUOUS
 62
    7
 10
689.98654325036
 20
322.71049484783157
 11
690.06313868931352
 21
322.79977599626341
  0
LINE
  8
_0-0_
  6
CONTINUOUS
 62
    7
 10
690.06313868931352
 20
322.79977599626341
 11
690.57935957742927
 21
323.5370125641694
  0
LINE
  8
_0-0_
  6
CONTINUOUS
 62
    7
 10
688.94106581404401
 20
324.68417252352799
 11
689.21827043805808
 21
324.6442125386713
  0
LINE
  8
_0-0_
  6
CONTINUOUS
 62
    7
 10
689.21827043805808
 20
324.6442125386713
 11
689.4748279763005
 21
324.57472547140816
  0
LINE
  8
_0-0_
  6
CONTINUOUS
 62
    7
 10
689.4748279763005
 20
324.57472547140816
 11
689.71065094111964
 21
324.47566757791287
  0
LINE
  8
_0-0_
  6
CONTINUOUS
 62
    7
 10
689.71065094111964
 20
324.47566757791287
 11
689.92578307634153
 21
324.34706073009829
  0
LINE
  8
_0-0_
  6
CONTINUOUS
 62
    7
 10
689.92578307634153
 20
324.34706073009829
 11
690.12022438196595
 21
324.18888305605145
  0
LINE
  8
_0-0_
  6
CONTINUOUS
 62
    7
 10
690.12022438196595
 20
324.18888305605145
 11
690.29397485799313
 21
324.00115642768532
  0
LINE
  8
_0-0_
  6
CONTINUOUS
 62
    7
 10
690.29397485799313
 20
324.00115642768532
 11
690.44703450442273
 21
323.78385897308704
  0
LINE
  8
_0-0_
  6
CONTINUOUS
 62
    7
 10
690.44703450442273
 20
323.78385897308704
 11
690.57935957742927
 21
323.5370125641694
  0
LINE
  8
_0-0_
  6
CONTINUOUS
 62
    7
 10
693.85599084802584
 20
321.24269264545217
 11
693.45446627112426
 21
320.66929857703252
  0
LINE
  8
_0-0_
  6
CONTINUOUS
 62
    7
 10
693.45446627112426
 20
320.66929857703252
 11
693.37752088156435
 21
320.53264286527303
  0
LINE
  8
_0-0_
  6
CONTINUOUS
 62
    7
 10
693.37752088156435
 20
320.53264286527303
 11
693.32874651581164
 21
320.38358577890284
  0
LINE
  8
_0-0_
  6
CONTINUOUS
 62
    7
 10
693.32874651581164
 20
320.38358577890284
 11
693.30998041454893
 21
320.22787963101302
  0
LINE
  8
_0-0_
  6
CONTINUOUS
 62
    7
 10
693.30998041454893
 20
320.22787963101302
 11
693.32192247898877
 21
320.07151732573641
  0
LINE
  8
_0-0_
  6
CONTINUOUS
 62
    7
 10
693.32192247898877
 20
320.07151732573641
 11
693.36417901469929
 21
319.92049176720576
  0
LINE
  8
_0-0_
  6
CONTINUOUS
 62
    7
 10
693.36417901469929
 20
319.92049176720576
 11
693.43508775630039
 21
319.78059901233803
  0
LINE
  8
_0-0_
  6
CONTINUOUS
 62
    7
 10
693.43508775630039
 20
319.78059901233803
 11
693.53189284276777
 21
319.657219551705
  0
LINE
  8
_0-0_
  6
CONTINUOUS
 62
    7
 10
693.53189284276777
 20
319.657219551705
 11
693.65091979273484
 21
319.55512146231746
  0
LINE
  8
_0-0_
  6
CONTINUOUS
 62
    7
 10
693.65091979273484
 20
319.55512146231746
 11
693.97860479170743
 21
319.32568509606318
  0
LINE
  8
_0-0_
  6
CONTINUOUS
 62
    7
 10
693.97860479170743
 20
319.32568509606318
 11
694.14242541928093
 21
319.21096691293604
  0
LINE
  8
_0-0_
  6
CONTINUOUS
 62
    7
 10
694.14242541928093
 20
319.21096691293604
 11
694.24491720310039
 21
319.15326880672262
  0
LINE
  8
_0-0_
  6
CONTINUOUS
 62
    7
 10
694.24491720310039
 20
319.15326880672262
 11
694.3566826779869
 21
319.11667709645155
  0
LINE
  8
_0-0_
  6
CONTINUOUS
 62
    7
 10
694.3566826779869
 20
319.11667709645155
 11
694.47347869283908
 21
319.10259158454801
  0
LINE
  8
_0-0_
  6
CONTINUOUS
 62
    7
 10
694.47347869283908
 20
319.10259158454801
 11
694.59075588977475
 21
319.11158094074733
  0
LINE
  8
_0-0_
  6
CONTINUOUS
 62
    7
 10
694.59075588977475
 20
319.11158094074733
 11
694.70400865473789
 21
319.14325147061732
  0
LINE
  8
_0-0_
  6
CONTINUOUS
 62
    7
 10
694.70400865473789
 20
319.14325147061732
 11
694.80895009280164
 21
319.1964220908618
  0
LINE
  8
_0-0_
  6
CONTINUOUS
 62
    7
 10
694.80895009280164
 20
319.1964220908618
 11
694.90146828434172
 21
319.26903684166865
  0
LINE
  8
_0-0_
  6
CONTINUOUS
 62
    7
 10
694.90146828434172
 20
319.26903684166865
 11
694.97806372329535
 21
319.35831799010049
  0
LINE
  8
_0-0_
  6
CONTINUOUS
 62
    7
 10
694.97806372329535
 20
319.35831799010049
 11
695.4942846114111
 21
320.09555455800643
  0
LINE
  8
_0-0_
  6
CONTINUOUS
 62
    7
 10
693.85599084802584
 20
321.24269264545217
 11
694.13319547203969
 21
321.20275453250838
  0
LINE
  8
_0-0_
  6
CONTINUOUS
 62
    7
 10
694.13319547203969
 20
321.20275453250838
 11
694.38970926645641
 21
321.1332674652453
  0
LINE
  8
_0-0_
  6
CONTINUOUS
 62
    7
 10
694.38970926645641
 20
321.1332674652453
 11
694.62557597510136
 21
321.03420957174995
  0
LINE
  8
_0-0_
  6
CONTINUOUS
 62
    7
 10
694.62557597510136
 20
321.03420957174995
 11
694.84070811032325
 21
320.90560272393537
  0
LINE
  8
_0-0_
  6
CONTINUOUS
 62
    7
 10
694.84070811032325
 20
320.90560272393537
 11
695.03514941594767
 21
320.74742504988853
  0
LINE
  8
_0-0_
  6
CONTINUOUS
 62
    7
 10
695.03514941594767
 20
320.74742504988853
 11
695.20889989197485
 21
320.55969842152246
  0
LINE
  8
_0-0_
  6
CONTINUOUS
 62
    7
 10
695.20889989197485
 20
320.55969842152246
 11
695.36191579457875
 21
320.34240096692406
  0
LINE
  8
_0-0_
  6
CONTINUOUS
 62
    7
 10
695.36191579457875
 20
320.34240096692406
 11
695.4942846114111
 21
320.09555455800643
  0
LINE
  8
_0-0_
  6
CONTINUOUS
 62
    7
 10
698.77087213818174
 20
317.80123463928925
 11
698.36939130510598
 21
317.2278405708696
  0
LINE
  8
_0-0_
  6
CONTINUOUS
 62
    7
 10
698.36939130510598
 20
317.2278405708696
 11
698.29244591554607
 21
317.09118485911011
  0
LINE
  8
_0-0_
  6
CONTINUOUS
 62
    7
 10
698.29244591554607
 20
317.09118485911011
 11
698.24367154979325
 21
316.94212777273992
  0
LINE
  8
_0-0_
  6
CONTINUOUS
 62
    7
 10
698.24367154979325
 20
316.94212777273992
 11
698.22490544853054
 21
316.78642162485011
  0
LINE
  8
_0-0_
  6
CONTINUOUS
 62
    7
 10
698.22490544853054
 20
316.78642162485011
 11
698.23684751297048
 21
316.63005931957349
  0
LINE
  8
_0-0_
  6
CONTINUOUS
 62
    7
 10
698.23684751297048
 20
316.63005931957349
 11
698.27910404868112
 21
316.47903376104284
  0
LINE
  8
_0-0_
  6
CONTINUOUS
 62
    7
 10
698.27910404868112
 20
316.47903376104284
 11
698.34996904645652
 21
316.33914100617511
  0
LINE
  8
_0-0_
  6
CONTINUOUS
 62
    7
 10
698.34996904645652
 20
316.33914100617511
 11
698.44681787674949
 21
316.21576154554214
  0
LINE
  8
_0-0_
  6
CONTINUOUS
 62
    7
 10
698.44681787674949
 20
316.21576154554214
 11
698.56584482671667
 21
316.1136634561546
  0
LINE
  8
_0-0_
  6
CONTINUOUS
 62
    7
 10
698.56584482671667
 20
316.1136634561546
 11
698.89348608186333
 21
315.88422708990026
  0
LINE
  8
_0-0_
  6
CONTINUOUS
 62
    7
 10
698.89348608186333
 20
315.88422708990026
 11
699.05735045326253
 21
315.76950890677313
  0
LINE
  8
_0-0_
  6
CONTINUOUS
 62
    7
 10
699.05735045326253
 20
315.76950890677313
 11
699.15984223708222
 21
315.7118108005597
  0
LINE
  8
_0-0_
  6
CONTINUOUS
 62
    7
 10
699.15984223708222
 20
315.7118108005597
 11
699.27160771196873
 21
315.67521909028864
  0
LINE
  8
_0-0_
  6
CONTINUOUS
 62
    7
 10
699.27160771196873
 20
315.67521909028864
 11
699.3884037268208
 21
315.66113357838515
  0
LINE
  8
_0-0_
  6
CONTINUOUS
 62
    7
 10
699.3884037268208
 20
315.66113357838515
 11
699.50568092375647
 21
315.67012293458441
  0
LINE
  8
_0-0_
  6
CONTINUOUS
 62
    7
 10
699.50568092375647
 20
315.67012293458441
 11
699.61893368871972
 21
315.70179346445445
  0
LINE
  8
_0-0_
  6
CONTINUOUS
 62
    7
 10
699.61893368871972
 20
315.70179346445445
 11
699.72387512678335
 21
315.75496408469888
  0
LINE
  8
_0-0_
  6
CONTINUOUS
 62
    7
 10
699.72387512678335
 20
315.75496408469888
 11
699.81639331832355
 21
315.82757883550573
  0
LINE
  8
_0-0_
  6
CONTINUOUS
 62
    7
 10
699.81639331832355
 20
315.82757883550573
 11
699.89298875727695
 21
315.91685998393763
  0
LINE
  8
_0-0_
  6
CONTINUOUS
 62
    7
 10
699.89298875727695
 20
315.91685998393763
 11
700.40916590156701
 21
316.65409655184357
  0
LINE
  8
_0-0_
  6
CONTINUOUS
 62
    7
 10
698.77087213818174
 20
317.80123463928925
 11
699.04812050602141
 21
317.76129652634546
  0
LINE
  8
_0-0_
  6
CONTINUOUS
 62
    7
 10
699.04812050602141
 20
317.76129652634546
 11
699.30463430043812
 21
317.69180945908238
  0
LINE
  8
_0-0_
  6
CONTINUOUS
 62
    7
 10
699.30463430043812
 20
317.69180945908238
 11
699.54045726525737
 21
317.59275156558709
  0
LINE
  8
_0-0_
  6
CONTINUOUS
 62
    7
 10
699.54045726525737
 20
317.59275156558709
 11
699.75563314430497
 21
317.46414471777246
  0
LINE
  8
_0-0_
  6
CONTINUOUS
 62
    7
 10
699.75563314430497
 20
317.46414471777246
 11
699.95003070610369
 21
317.30596704372567
  0
LINE
  8
_0-0_
  6
CONTINUOUS
 62
    7
 10
699.95003070610369
 20
317.30596704372567
 11
700.12378118213076
 21
317.11824041535954
  0
LINE
  8
_0-0_
  6
CONTINUOUS
 62
    7
 10
700.12378118213076
 20
317.11824041535954
 11
700.27684082856035
 21
316.9009429607612
  0
LINE
  8
_0-0_
  6
CONTINUOUS
 62
    7
 10
700.27684082856035
 20
316.9009429607612
 11
700.40916590156701
 21
316.65409655184357
  0
LINE
  8
_0-0_
  6
CONTINUOUS
 62
    7
 10
823.50464161758714
 20
237.82557903569636
 11
835.49998603732422
 21
237.82557903569636
  0
LINE
  8
_0-0_
  6
CONTINUOUS
 62
    7
 10
835.49998603732422
 20
237.82557903569636
 11
835.49998603732422
 21
238.55183590332973
  0
LINE
  8
_0-0_
  6
CONTINUOUS
 62
    7
 10
835.49998603732422
 20
238.55183590332973
 11
835.28432897619291
 21
242.14296340942383
  0
LINE
  8
_0-0_
  6
CONTINUOUS
 62
    7
 10
835.28432897619291
 20
242.14296340942383
 11
834.64024488530094
 21
245.68242945726311
  0
LINE
  8
_0-0_
  6
CONTINUOUS
 62
    7
 10
834.64024488530094
 20
245.68242945726311
 11
833.5771824310184
 21
249.11933810554416
  0
LINE
  8
_0-0_
  6
CONTINUOUS
 62
    7
 10
833.5771824310184
 20
249.11933810554416
 11
832.11036446471917
 21
252.40430257495305
  0
LINE
  8
_0-0_
  6
CONTINUOUS
 62
    7
 10
832.11036446471917
 20
252.40430257495305
 11
830.2607880227813
 21
255.49005766172667
  0
LINE
  8
_0-0_
  6
CONTINUOUS
 62
    7
 10
830.2607880227813
 20
255.49005766172667
 11
828.05522432658665
 21
258.33222525460377
  0
LINE
  8
_0-0_
  6
CONTINUOUS
 62
    7
 10
828.05522432658665
 20
258.33222525460377
 11
825.52525641835337
 21
260.88992674838619
  0
LINE
  8
_0-0_
  6
CONTINUOUS
 62
    7
 10
825.52525641835337
 20
260.88992674838619
 11
822.70727916113651
 21
263.12641732941262
  0
LINE
  8
_0-0_
  6
CONTINUOUS
 62
    7
 10
822.70727916113651
 20
263.12641732941262
 11
813.38293274397085
 21
269.65540204729348
  0
LINE
  8
_0-0_
  6
CONTINUOUS
 62
    7
 10
813.38293274397085
 20
269.65540204729348
 11
799.6171007193193
 21
249.99576752710524
  0
LINE
  8
_0-0_
  6
CONTINUOUS
 62
    7
 10
799.6171007193193
 20
249.99576752710524
 11
809.35263909888533
 21
243.23270959743661
  0
LINE
  8
_0-0_
  6
CONTINUOUS
 62
    7
 10
809.35263909888533
 20
243.23270959743661
 11
809.82542236799429
 21
242.86016530511921
  0
LINE
  8
_0-0_
  6
CONTINUOUS
 62
    7
 10
809.82542236799429
 20
242.86016530511921
 11
810.24999994108566
 21
242.43350990030294
  0
LINE
  8
_0-0_
  6
CONTINUOUS
 62
    7
 10
810.24999994108566
 20
242.43350990030294
 11
810.62024768254923
 21
241.95893313433672
  0
LINE
  8
_0-0_
  6
CONTINUOUS
 62
    7
 10
810.62024768254923
 20
241.95893313433672
 11
810.93074135798747
 21
241.4433027878691
  0
LINE
  8
_0-0_
  6
CONTINUOUS
 62
    7
 10
810.93074135798747
 20
241.4433027878691
 11
811.17710658482133
 21
240.89409905510979
  0
LINE
  8
_0-0_
  6
CONTINUOUS
 62
    7
 10
811.17710658482133
 20
240.89409905510979
 11
811.35558139403338
 21
240.31926144043911
  0
LINE
  8
_0-0_
  6
CONTINUOUS
 62
    7
 10
811.35558139403338
 20
240.31926144043911
 11
811.4638036190313
 21
239.72714501458245
  0
LINE
  8
_0-0_
  6
CONTINUOUS
 62
    7
 10
811.4638036190313
 20
239.72714501458245
 11
811.50002350678301
 21
239.12630169548123
  0
LINE
  8
_0-0_
  6
CONTINUOUS
 62
    7
 10
811.50002350678301
 20
239.12630169548123
 11
811.50002350678301
 21
237.82557903569636
  0
LINE
  8
_0-0_
  6
CONTINUOUS
 62
    7
 10
811.50002350678301
 20
237.82557903569636
 11
823.50464161758714
 21
237.82557903569636
  0
LINE
  8
_0-0_
  6
CONTINUOUS
 62
    7
 10
831.25464774466855
 20
221.82557485278508
 11
831.25464774466855
 21
219.34919313114122
  0
LINE
  8
_0-0_
  6
CONTINUOUS
 62
    7
 10
831.25464774466855
 20
219.34919313114122
 11
831.00469552411994
 21
216.34917594291068
  0
LINE
  8
_0-0_
  6
CONTINUOUS
 62
    7
 10
831.00469552411994
 20
216.34917594291068
 11
831.00469552411994
 21
209.34917958086518
  0
LINE
  8
_0-0_
  6
CONTINUOUS
 62
    7
 10
831.00469552411994
 20
209.34917958086518
 11
816.00467519870585
 21
209.34917958086518
  0
LINE
  8
_0-0_
  6
CONTINUOUS
 62
    7
 10
816.00467519870585
 20
209.34917958086518
 11
816.00467519870585
 21
216.34917594291068
  0
LINE
  8
_0-0_
  6
CONTINUOUS
 62
    7
 10
816.00467519870585
 20
216.34917594291068
 11
815.75463549050585
 21
219.34919313114122
  0
LINE
  8
_0-0_
  6
CONTINUOUS
 62
    7
 10
815.75463549050585
 20
219.34919313114122
 11
815.75463549050585
 21
225.34918376377649
  0
LINE
  8
_0-0_
  6
CONTINUOUS
 62
    7
 10
815.75463549050585
 20
225.34918376377649
 11
823.50464161758714
 21
225.34918376377649
  0
LINE
  8
_0-0_
  6
CONTINUOUS
 62
    7
 10
817.50465098495181
 20
209.34917958086518
 11
817.50465098495181
 21
153.97278785705566
  0
LINE
  8
_0-0_
  6
CONTINUOUS
 62
    7
 10
829.50463225022247
 20
209.34917958086518
 11
829.50463225022247
 21
153.97278785705566
  0
LINE
  8
_0-0_
  6
CONTINUOUS
 62
    7
 10
830.00462417897108
 20
187.3491847653186
 11
830.27539846059437
 21
189.83449022742306
  0
LINE
  8
_0-0_
  6
CONTINUOUS
 62
    7
 10
830.27539846059437
 20
189.83449022742306
 11
817.35189754530268
 21
191.24236338847396
  0
LINE
  8
_0-0_
  6
CONTINUOUS
 62
    7
 10
817.35189754530268
 20
191.24236338847396
 11
817.08112326367939
 21
188.75705792636944
  0
LINE
  8
_0-0_
  6
CONTINUOUS
 62
    7
 10
817.08112326367939
 20
188.75705792636944
 11
830.00462417897108
 21
187.3491847653186
  0
LINE
  8
_0-0_
  6
CONTINUOUS
 62
    7
 10
830.00462417897108
 20
191.84917773979507
 11
830.27539846059437
 21
194.33448320189953
  0
LINE
  8
_0-0_
  6
CONTINUOUS
 62
    7
 10
830.27539846059437
 20
194.33448320189953
 11
817.35189754530268
 21
195.74235636295037
  0
LINE
  8
_0-0_
  6
CONTINUOUS
 62
    7
 10
817.35189754530268
 20
195.74235636295037
 11
817.08112326367939
 21
193.25705090084591
  0
LINE
  8
_0-0_
  6
CONTINUOUS
 62
    7
 10
817.08112326367939
 20
193.25705090084591
 11
830.00462417897108
 21
191.84917773979507
  0
LINE
  8
_0-0_
  6
CONTINUOUS
 62
    7
 10
830.00462417897108
 20
196.34919258618447
 11
830.27539846059437
 21
198.834476176376
  0
LINE
  8
_0-0_
  6
CONTINUOUS
 62
    7
 10
830.27539846059437
 20
198.834476176376
 11
817.35189754530268
 21
200.24234933742684
  0
LINE
  8
_0-0_
  6
CONTINUOUS
 62
    7
 10
817.35189754530268
 20
200.24234933742684
 11
817.08112326367939
 21
197.75706574723529
  0
LINE
  8
_0-0_
  6
CONTINUOUS
 62
    7
 10
817.08112326367939
 20
197.75706574723529
 11
830.00462417897108
 21
196.34919258618447
  0
LINE
  8
_0-0_
  6
CONTINUOUS
 62
    7
 10
830.00462417897108
 20
200.84918556066094
 11
830.27539846059437
 21
203.33449102276541
  0
LINE
  8
_0-0_
  6
CONTINUOUS
 62
    7
 10
830.27539846059437
 20
203.33449102276541
 11
817.35189754530268
 21
204.74236418381622
  0
LINE
  8
_0-0_
  6
CONTINUOUS
 62
    7
 10
817.35189754530268
 20
204.74236418381622
 11
817.08112326367939
 21
202.25705872171176
  0
LINE
  8
_0-0_
  6
CONTINUOUS
 62
    7
 10
817.08112326367939
 20
202.25705872171176
 11
830.00462417897108
 21
200.84918556066094
  0
LINE
  8
_0-0_
  6
CONTINUOUS
 62
    7
 10
830.00462417897108
 20
205.34917853513741
 11
830.27539846059437
 21
207.83448399724188
  0
LINE
  8
_0-0_
  6
CONTINUOUS
 62
    7
 10
830.27539846059437
 20
207.83448399724188
 11
817.35189754530268
 21
209.24235715829266
  0
LINE
  8
_0-0_
  6
CONTINUOUS
 62
    7
 10
817.35189754530268
 20
209.24235715829266
 11
817.08112326367939
 21
206.7570516961882
  0
LINE
  8
_0-0_
  6
CONTINUOUS
 62
    7
 10
817.08112326367939
 20
206.7570516961882
 11
830.00462417897108
 21
205.34917853513741
  0
LINE
  8
_0-0_
  6
CONTINUOUS
 62
    7
 10
830.00462417897108
 20
182.84919179084213
 11
830.27539846059437
 21
185.33447538103374
  0
LINE
  8
_0-0_
  6
CONTINUOUS
 62
    7
 10
830.27539846059437
 20
185.33447538103374
 11
817.35189754530268
 21
186.74234854208459
  0
LINE
  8
_0-0_
  6
CONTINUOUS
 62
    7
 10
817.35189754530268
 20
186.74234854208459
 11
817.08112326367939
 21
184.25706495189297
  0
LINE
  8
_0-0_
  6
CONTINUOUS
 62
    7
 10
817.08112326367939
 20
184.25706495189297
 11
830.00462417897108
 21
182.84919179084213
  0
LINE
  8
_0-0_
  6
CONTINUOUS
 62
    7
 10
830.00462417897108
 20
178.34918788040923
 11
830.27539846059437
 21
180.83448240655727
  0
LINE
  8
_0-0_
  6
CONTINUOUS
 62
    7
 10
830.27539846059437
 20
180.83448240655727
 11
817.35189754530268
 21
182.24235556760812
  0
LINE
  8
_0-0_
  6
CONTINUOUS
 62
    7
 10
817.35189754530268
 20
182.24235556760812
 11
817.08112326367939
 21
179.75706104146008
  0
LINE
  8
_0-0_
  6
CONTINUOUS
 62
    7
 10
817.08112326367939
 20
179.75706104146008
 11
830.00462417897108
 21
178.34918788040923
  0
LINE
  8
_0-0_
  6
CONTINUOUS
 62
    7
 10
830.00462417897108
 20
173.84918396997634
 11
830.27539846059437
 21
176.33447849612438
  0
LINE
  8
_0-0_
  6
CONTINUOUS
 62
    7
 10
830.27539846059437
 20
176.33447849612438
 11
817.35189754530268
 21
177.74235165717513
  0
LINE
  8
_0-0_
  6
CONTINUOUS
 62
    7
 10
817.35189754530268
 20
177.74235165717513
 11
817.08112326367939
 21
175.25705713102718
  0
LINE
  8
_0-0_
  6
CONTINUOUS
 62
    7
 10
817.08112326367939
 20
175.25705713102718
 11
830.00462417897108
 21
173.84918396997634
  0
LINE
  8
_0-0_
  6
CONTINUOUS
 62
    7
 10
830.00462417897108
 20
169.34919099549987
 11
830.27539846059437
 21
171.83448552164791
  0
LINE
  8
_0-0_
  6
CONTINUOUS
 62
    7
 10
830.27539846059437
 20
171.83448552164791
 11
817.35189754530268
 21
173.24235868269867
  0
LINE
  8
_0-0_
  6
CONTINUOUS
 62
    7
 10
817.35189754530268
 20
173.24235868269867
 11
817.08112326367939
 21
170.7570532205942
  0
LINE
  8
_0-0_
  6
CONTINUOUS
 62
    7
 10
817.08112326367939
 20
170.7570532205942
 11
830.00462417897108
 21
169.34919099549987
  0
LINE
  8
_0-0_
  6
CONTINUOUS
 62
    7
 10
823.50464161758714
 20
237.84917882970859
 11
812.50464420981393
 21
237.84917882970859
  0
LINE
  8
_0-0_
  6
CONTINUOUS
 62
    7
 10
812.50464420981393
 20
237.84917882970859
 11
809.97966309772028
 21
231.59919223269898
  0
LINE
  8
_0-0_
  6
CONTINUOUS
 62
    7
 10
809.97966309772028
 20
231.59919223269898
 11
812.50464420981393
 21
225.34918376377649
  0
LINE
  8
_0-0_
  6
CONTINUOUS
 62
    7
 10
812.50464420981393
 20
225.34918376377649
 11
823.50464161758714
 21
225.34918376377649
  0
LINE
  8
_0-0_
  6
CONTINUOUS
 62
    7
 10
809.97966309772028
 20
231.59497095351054
 11
809.97966309772028
 21
231.59549587941996
  0
LINE
  8
_0-0_
  6
CONTINUOUS
 62
    7
 10
809.97966309772028
 20
231.59549587941996
 11
809.97966309772028
 21
231.59602080532943
  0
LINE
  8
_0-0_
  6
CONTINUOUS
 62
    7
 10
809.97966309772028
 20
231.59602080532943
 11
809.97966309772028
 21
231.59654573123888
  0
LINE
  8
_0-0_
  6
CONTINUOUS
 62
    7
 10
809.97966309772028
 20
231.59654573123888
 11
809.97966309772028
 21
231.59707065714829
  0
LINE
  8
_0-0_
  6
CONTINUOUS
 62
    7
 10
809.97966309772028
 20
231.59707065714829
 11
809.97966309772028
 21
231.59759558305777
  0
LINE
  8
_0-0_
  6
CONTINUOUS
 62
    7
 10
809.97966309772028
 20
231.59759558305777
 11
809.97966309772028
 21
231.59814238088012
  0
LINE
  8
_0-0_
  6
CONTINUOUS
 62
    7
 10
809.97966309772028
 20
231.59814238088012
 11
809.97966309772028
 21
231.59866730678954
  0
LINE
  8
_0-0_
  6
CONTINUOUS
 62
    7
 10
809.97966309772028
 20
231.59866730678954
 11
809.97966309772028
 21
231.59919223269898
  0
LINE
  8
_0-0_
  6
CONTINUOUS
 62
    7
 10
809.97966309772028
 20
231.59919223269898
 11
809.97966309772028
 21
231.59997962156319
  0
LINE
  8
_0-0_
  6
CONTINUOUS
 62
    7
 10
809.97966309772028
 20
231.59997962156319
 11
809.97966309772028
 21
231.60076701042732
  0
LINE
  8
_0-0_
  6
CONTINUOUS
 62
    7
 10
809.97966309772028
 20
231.60076701042732
 11
809.97966309772028
 21
231.60153252737859
  0
LINE
  8
_0-0_
  6
CONTINUOUS
 62
    7
 10
809.97966309772028
 20
231.60153252737859
 11
809.97966309772028
 21
231.60231991624278
  0
LINE
  8
_0-0_
  6
CONTINUOUS
 62
    7
 10
809.97966309772028
 20
231.60231991624278
 11
809.97966309772028
 21
231.60310730510696
  0
LINE
  8
_0-0_
  6
CONTINUOUS
 62
    7
 10
809.97966309772028
 20
231.60310730510696
 11
809.97966309772028
 21
231.60389469397114
  0
LINE
  8
_0-0_
  6
CONTINUOUS
 62
    7
 10
809.97966309772028
 20
231.60389469397114
 11
809.97966309772028
 21
231.6046820828353
  0
LINE
  8
_0-0_
  6
CONTINUOUS
 62
    7
 10
809.97966309772028
 20
231.6046820828353
 11
809.97966309772028
 21
231.60546947169948
  0
LINE
  8
_0-0_
  6
CONTINUOUS
 62
    7
 10
812.32468211052492
 20
225.79469275750708
 11
812.42223084203056
 21
225.74887109999491
  0
LINE
  8
_0-0_
  6
CONTINUOUS
 62
    7
 10
812.42223084203056
 20
225.74887109999491
 11
812.52074193770352
 21
225.70917357809293
  0
LINE
  8
_0-0_
  6
CONTINUOUS
 62
    7
 10
812.52074193770352
 20
225.70917357809293
 11
812.62004042224066
 21
225.6755564479754
  0
LINE
  8
_0-0_
  6
CONTINUOUS
 62
    7
 10
812.62004042224066
 20
225.6755564479754
 11
812.72030127094513
 21
225.6480634534681
  0
LINE
  8
_0-0_
  6
CONTINUOUS
 62
    7
 10
812.72030127094513
 20
225.6480634534681
 11
812.82134950851378
 21
225.62667272265813
  0
LINE
  8
_0-0_
  6
CONTINUOUS
 62
    7
 10
812.82134950851378
 20
225.62667272265813
 11
812.92327262259823
 21
225.61140612745834
  0
LINE
  8
_0-0_
  6
CONTINUOUS
 62
    7
 10
812.92327262259823
 20
225.61140612745834
 11
813.02607061319816
 21
225.60224179595593
  0
LINE
  8
_0-0_
  6
CONTINUOUS
 62
    7
 10
813.02607061319816
 20
225.60224179595593
 11
813.12965599266249
 21
225.59917972815083
  0
LINE
  8
_0-0_
  6
CONTINUOUS
 62
    7
 10
813.12965599266249
 20
225.59917972815083
 11
813.33892645522894
 21
225.61175607806464
  0
LINE
  8
_0-0_
  6
CONTINUOUS
 62
    7
 10
813.33892645522894
 20
225.61175607806464
 11
813.54460992408065
 21
225.64941951206751
  0
LINE
  8
_0-0_
  6
CONTINUOUS
 62
    7
 10
813.54460992408065
 20
225.64941951206751
 11
813.74679388686957
 21
225.71223564589803
  0
LINE
  8
_0-0_
  6
CONTINUOUS
 62
    7
 10
813.74679388686957
 20
225.71223564589803
 11
813.94539085594374
 21
225.80013886381761
  0
LINE
  8
_0-0_
  6
CONTINUOUS
 62
    7
 10
813.94539085594374
 20
225.80013886381761
 11
814.14057580660665
 21
225.91319478156481
  0
LINE
  8
_0-0_
  6
CONTINUOUS
 62
    7
 10
814.14057580660665
 20
225.91319478156481
 11
814.33208627590329
 21
226.05135965531395
  0
LINE
  8
_0-0_
  6
CONTINUOUS
 62
    7
 10
814.33208627590329
 20
226.05135965531395
 11
814.52018472678878
 21
226.21463348506498
  0
LINE
  8
_0-0_
  6
CONTINUOUS
 62
    7
 10
814.52018472678878
 20
226.21463348506498
 11
814.70469618395941
 21
226.40303814273082
  0
LINE
  8
_0-0_
  6
CONTINUOUS
 62
    7
 10
814.70469618395941
 20
226.40303814273082
 11
814.88255857961053
 21
226.61318348181294
  0
LINE
  8
_0-0_
  6
CONTINUOUS
 62
    7
 10
814.88255857961053
 20
226.61318348181294
 11
815.05079733358843
 21
226.84174497155146
  0
LINE
  8
_0-0_
  6
CONTINUOUS
 62
    7
 10
815.05079733358843
 20
226.84174497155146
 11
815.20941244589312
 21
227.0886788681207
  0
LINE
  8
_0-0_
  6
CONTINUOUS
 62
    7
 10
815.20941244589312
 20
227.0886788681207
 11
815.35840391652459
 21
227.35398517152055
  0
LINE
  8
_0-0_
  6
CONTINUOUS
 62
    7
 10
815.35840391652459
 20
227.35398517152055
 11
815.49768425783122
 21
227.63770762557687
  0
LINE
  8
_0-0_
  6
CONTINUOUS
 62
    7
 10
815.49768425783122
 20
227.63770762557687
 11
815.62734095746475
 21
227.93980248646386
  0
LINE
  8
_0-0_
  6
CONTINUOUS
 62
    7
 10
815.62734095746475
 20
227.93980248646386
 11
815.74728652777355
 21
228.26031349800726
  0
LINE
  8
_0-0_
  6
CONTINUOUS
 62
    7
 10
815.74728652777355
 20
228.26031349800726
 11
815.85760845640903
 21
228.59919691638137
  0
LINE
  8
_0-0_
  6
CONTINUOUS
 62
    7
 10
815.85760845640903
 20
228.59919691638137
 11
815.95655699033978
 21
228.95063481275639
  0
LINE
  8
_0-0_
  6
CONTINUOUS
 62
    7
 10
815.95655699033978
 20
228.95063481275639
 11
816.04229488888291
 21
229.30880925830266
  0
LINE
  8
_0-0_
  6
CONTINUOUS
 62
    7
 10
816.04229488888291
 20
229.30880925830266
 11
816.11482215203841
 21
229.67369838110727
  0
LINE
  8
_0-0_
  6
CONTINUOUS
 62
    7
 10
816.11482215203841
 20
229.67369838110727
 11
816.17413877980584
 21
230.04534592499601
  0
LINE
  8
_0-0_
  6
CONTINUOUS
 62
    7
 10
816.17413877980584
 20
230.04534592499601
 11
816.22033225983728
 21
230.42370814614313
  0
LINE
  8
_0-0_
  6
CONTINUOUS
 62
    7
 10
816.22033225983728
 20
230.42370814614313
 11
816.25331510448075
 21
230.80880691646146
  0
LINE
  8
_0-0_
  6
CONTINUOUS
 62
    7
 10
816.25331510448075
 20
230.80880691646146
 11
816.27308731373671
 21
231.20062036403817
  0
LINE
  8
_0-0_
  6
CONTINUOUS
 62
    7
 10
816.27308731373671
 20
231.20062036403817
 11
816.27964888760471
 21
231.59919223269898
  0
LINE
  8
_0-0_
  6
CONTINUOUS
 62
    7
 10
816.27964888760471
 20
231.59919223269898
 11
816.27308731373671
 21
231.99774222944694
  0
LINE
  8
_0-0_
  6
CONTINUOUS
 62
    7
 10
816.27308731373671
 20
231.99774222944694
 11
816.25331510448075
 21
232.3895775489365
  0
LINE
  8
_0-0_
  6
CONTINUOUS
 62
    7
 10
816.25331510448075
 20
232.3895775489365
 11
816.22033225983728
 21
232.77467631925487
  0
LINE
  8
_0-0_
  6
CONTINUOUS
 62
    7
 10
816.22033225983728
 20
232.77467631925487
 11
816.17413877980584
 21
233.15303854040195
  0
LINE
  8
_0-0_
  6
CONTINUOUS
 62
    7
 10
816.17413877980584
 20
233.15303854040195
 11
816.11482215203841
 21
233.52466421237781
  0
LINE
  8
_0-0_
  6
CONTINUOUS
 62
    7
 10
816.11482215203841
 20
233.52466421237781
 11
816.04229488888291
 21
233.88957520709533
  0
LINE
  8
_0-0_
  6
CONTINUOUS
 62
    7
 10
816.04229488888291
 20
233.88957520709533
 11
815.95655699033978
 21
234.2477496526416
  0
LINE
  8
_0-0_
  6
CONTINUOUS
 62
    7
 10
815.95655699033978
 20
234.2477496526416
 11
815.85760845640903
 21
234.59918754901665
  0
LINE
  8
_0-0_
  6
CONTINUOUS
 62
    7
 10
815.85760845640903
 20
234.59918754901665
 11
815.74728652777355
 21
234.93807096739073
  0
LINE
  8
_0-0_
  6
CONTINUOUS
 62
    7
 10
815.74728652777355
 20
234.93807096739073
 11
815.62734095746475
 21
235.25856010702125
  0
LINE
  8
_0-0_
  6
CONTINUOUS
 62
    7
 10
815.62734095746475
 20
235.25856010702125
 11
815.49768425783122
 21
235.56065496790822
  0
LINE
  8
_0-0_
  6
CONTINUOUS
 62
    7
 10
815.49768425783122
 20
235.56065496790822
 11
815.35840391652459
 21
235.84437742196454
  0
LINE
  8
_0-0_
  6
CONTINUOUS
 62
    7
 10
815.35840391652459
 20
235.84437742196454
 11
815.20941244589312
 21
236.1097055972773
  0
LINE
  8
_0-0_
  6
CONTINUOUS
 62
    7
 10
815.20941244589312
 20
236.1097055972773
 11
815.05079733358843
 21
236.3566394938465
  0
LINE
  8
_0-0_
  6
CONTINUOUS
 62
    7
 10
815.05079733358843
 20
236.3566394938465
 11
814.88255857961053
 21
236.58517911167218
  0
LINE
  8
_0-0_
  6
CONTINUOUS
 62
    7
 10
814.88255857961053
 20
236.58517911167218
 11
814.70469618395941
 21
236.79534632266717
  0
LINE
  8
_0-0_
  6
CONTINUOUS
 62
    7
 10
814.70469618395941
 20
236.79534632266717
 11
814.52018472678878
 21
236.98375098033299
  0
LINE
  8
_0-0_
  6
CONTINUOUS
 62
    7
 10
814.52018472678878
 20
236.98375098033299
 11
814.33208627590329
 21
237.14702481008402
  0
LINE
  8
_0-0_
  6
CONTINUOUS
 62
    7
 10
814.33208627590329
 20
237.14702481008402
 11
814.14057580660665
 21
237.28518968383315
  0
LINE
  8
_0-0_
  6
CONTINUOUS
 62
    7
 10
814.14057580660665
 20
237.28518968383315
 11
813.94539085594374
 21
237.39822372966751
  0
LINE
  8
_0-0_
  6
CONTINUOUS
 62
    7
 10
813.94539085594374
 20
237.39822372966751
 11
813.74679388686957
 21
237.48614881949993
  0
LINE
  8
_0-0_
  6
CONTINUOUS
 62
    7
 10
813.74679388686957
 20
237.48614881949993
 11
813.54460992408065
 21
237.54894308141758
  0
LINE
  8
_0-0_
  6
CONTINUOUS
 62
    7
 10
813.54460992408065
 20
237.54894308141758
 11
813.33892645522894
 21
237.58662838733332
  0
LINE
  8
_0-0_
  6
CONTINUOUS
 62
    7
 10
813.33892645522894
 20
237.58662838733332
 11
813.12965599266249
 21
237.59918286533428
  0
LINE
  8
_0-0_
  6
CONTINUOUS
 62
    7
 10
813.12965599266249
 20
237.59918286533428
 11
813.02607061319816
 21
237.59612079752915
  0
LINE
  8
_0-0_
  6
CONTINUOUS
 62
    7
 10
813.02607061319816
 20
237.59612079752915
 11
812.92327262259823
 21
237.58695646602675
  0
LINE
  8
_0-0_
  6
CONTINUOUS
 62
    7
 10
812.92327262259823
 20
237.58695646602675
 11
812.82134950851378
 21
237.57168987082696
  0
LINE
  8
_0-0_
  6
CONTINUOUS
 62
    7
 10
812.82134950851378
 20
237.57168987082696
 11
812.72030127094513
 21
237.55029914001699
  0
LINE
  8
_0-0_
  6
CONTINUOUS
 62
    7
 10
812.72030127094513
 20
237.55029914001699
 11
812.62004042224066
 21
237.52280614550969
  0
LINE
  8
_0-0_
  6
CONTINUOUS
 62
    7
 10
812.62004042224066
 20
237.52280614550969
 11
812.52074193770352
 21
237.48921088730503
  0
LINE
  8
_0-0_
  6
CONTINUOUS
 62
    7
 10
812.52074193770352
 20
237.48921088730503
 11
812.42223084203056
 21
237.4494914934902
  0
LINE
  8
_0-0_
  6
CONTINUOUS
 62
    7
 10
812.42223084203056
 20
237.4494914934902
 11
812.32468211052492
 21
237.40366983597801
  0
LINE
  8
_0-0_
  6
CONTINUOUS
 62
    7
 10
431.80392187994875
 20
238.24035799181138
 11
431.80392187994875
 21
253.78479210106099
  0
LINE
  8
_0-0_
  6
CONTINUOUS
 62
    7
 10
443.7789254206948
 20
237.99034015552417
 11
431.80392187994875
 21
237.99034015552417
  0
LINE
  8
_0-0_
  6
CONTINUOUS
 62
    7
 10
431.80392187994875
 20
237.99034015552417
 11
431.80392187994875
 21
238.24035799181138
  0
LINE
  8
_0-0_
  6
CONTINUOUS
 62
    7
 10
455.80392815431571
 20
253.78479210106099
 11
455.80392815431571
 21
237.99034015552417
  0
LINE
  8
_0-0_
  6
CONTINUOUS
 62
    7
 10
455.80392815431571
 20
237.99034015552417
 11
443.7789254206948
 21
237.99034015552417
  0
LINE
  8
_0-0_
  6
CONTINUOUS
 62
    7
 10
457.77257529004657
 20
364.54595249131836
 11
457.80393961313609
 21
364.54595249131836
  0
LINE
  8
_0-0_
  6
CONTINUOUS
 62
    7
 10
457.80393961313609
 20
364.54595249131836
 11
457.80393961313609
 21
260.145953631309
  0
LINE
  8
_0-0_
  6
CONTINUOUS
 62
    7
 10
457.80393961313609
 20
260.145953631309
 11
457.77463124985854
 21
259.32558192249428
  0
LINE
  8
_0-0_
  6
CONTINUOUS
 62
    7
 10
457.77463124985854
 20
259.32558192249428
 11
457.68670616002618
 21
258.51907700645415
  0
LINE
  8
_0-0_
  6
CONTINUOUS
 62
    7
 10
457.68670616002618
 20
258.51907700645415
 11
457.54016434363876
 21
257.72641701127566
  0
LINE
  8
_0-0_
  6
CONTINUOUS
 62
    7
 10
457.54016434363876
 20
257.72641701127566
 11
457.33500580069636
 21
256.94762380887181
  0
LINE
  8
_0-0_
  6
CONTINUOUS
 62
    7
 10
457.33500580069636
 20
256.94762380887181
 11
457.07127427502485
 21
256.18267552732959
  0
LINE
  8
_0-0_
  6
CONTINUOUS
 62
    7
 10
457.07127427502485
 20
256.18267552732959
 11
456.74888227897259
 21
255.43157216664906
  0
LINE
  8
_0-0_
  6
CONTINUOUS
 62
    7
 10
456.74888227897259
 20
255.43157216664906
 11
456.36787355636534
 21
254.69433559874307
  0
LINE
  8
_0-0_
  6
CONTINUOUS
 62
    7
 10
456.36787355636534
 20
254.69433559874307
 11
455.92829185102892
 21
253.97094395169881
  0
LINE
  8
_0-0_
  6
CONTINUOUS
 62
    7
 10
455.92829185102892
 20
253.97094395169881
 11
455.43792356395352
 21
253.27342677760768
  0
LINE
  8
_0-0_
  6
CONTINUOUS
 62
    7
 10
455.43792356395352
 20
253.27342677760768
 11
454.90464258378074
 21
252.61374801282255
  0
LINE
  8
_0-0_
  6
CONTINUOUS
 62
    7
 10
454.90464258378074
 20
252.61374801282255
 11
454.32844891051059
 21
251.99190765734343
  0
LINE
  8
_0-0_
  6
CONTINUOUS
 62
    7
 10
454.32844891051059
 20
251.99190765734343
 11
453.70938628796898
 21
251.40792758308322
  0
LINE
  8
_0-0_
  6
CONTINUOUS
 62
    7
 10
453.70938628796898
 20
251.40792758308322
 11
453.0473672285043
 21
250.86180779004189
  0
LINE
  8
_0-0_
  6
CONTINUOUS
 62
    7
 10
453.0473672285043
 20
250.86180779004189
 11
452.34247921976805
 21
250.35352640630657
  0
LINE
  8
_0-0_
  6
CONTINUOUS
 62
    7
 10
452.34247921976805
 20
250.35352640630657
 11
451.59463477410861
 21
249.8831053037901
  0
LINE
  8
_0-0_
  6
CONTINUOUS
 62
    7
 10
451.59463477410861
 20
249.8831053037901
 11
450.80392137917772
 21
249.45054448249255
  0
LINE
  8
_0-0_
  6
CONTINUOUS
 62
    7
 10
450.80392137917772
 20
249.45054448249255
 11
449.98389962096928
 21
249.06275546688829
  0
LINE
  8
_0-0_
  6
CONTINUOUS
 62
    7
 10
449.98389962096928
 20
249.06275546688829
 11
449.14817382930323
 21
248.7266497814517
  0
LINE
  8
_0-0_
  6
CONTINUOUS
 62
    7
 10
449.14817382930323
 20
248.7266497814517
 11
448.29670026035382
 21
248.44227117000858
  0
LINE
  8
_0-0_
  6
CONTINUOUS
 62
    7
 10
448.29670026035382
 20
248.44227117000858
 11
447.42956640177249
 21
248.20959776064601
  0
LINE
  8
_0-0_
  6
CONTINUOUS
 62
    7
 10
447.42956640177249
 20
248.20959776064601
 11
446.54672850973355
 21
248.02862955336406
  0
LINE
  8
_0-0_
  6
CONTINUOUS
 62
    7
 10
446.54672850973355
 20
248.02862955336406
 11
445.6481428404112
 21
247.89936654816262
  0
LINE
  8
_0-0_
  6
CONTINUOUS
 62
    7
 10
445.6481428404112
 20
247.89936654816262
 11
444.73389688145693
 21
247.82180874504178
  0
LINE
  8
_0-0_
  6
CONTINUOUS
 62
    7
 10
444.73389688145693
 20
247.82180874504178
 11
443.80394688904511
 21
247.79595614400148
  0
LINE
  8
_0-0_
  6
CONTINUOUS
 62
    7
 10
443.80394688904511
 20
247.79595614400148
 11
442.87395315280747
 21
247.82180874504178
  0
LINE
  8
_0-0_
  6
CONTINUOUS
 62
    7
 10
442.87395315280747
 20
247.82180874504178
 11
441.95970719385332
 21
247.89936654816262
  0
LINE
  8
_0-0_
  6
CONTINUOUS
 62
    7
 10
441.95970719385332
 20
247.89936654816262
 11
441.0611215245309
 21
248.02862955336406
  0
LINE
  8
_0-0_
  6
CONTINUOUS
 62
    7
 10
441.0611215245309
 20
248.02862955336406
 11
440.17828363249203
 21
248.20959776064601
  0
LINE
  8
_0-0_
  6
CONTINUOUS
 62
    7
 10
440.17828363249203
 20
248.20959776064601
 11
439.3111497739107
 21
248.44227117000858
  0
LINE
  8
_0-0_
  6
CONTINUOUS
 62
    7
 10
439.3111497739107
 20
248.44227117000858
 11
438.45967620496117
 21
248.7266497814517
  0
LINE
  8
_0-0_
  6
CONTINUOUS
 62
    7
 10
438.45967620496117
 20
248.7266497814517
 11
437.62395041329518
 21
249.06275546688829
  0
LINE
  8
_0-0_
  6
CONTINUOUS
 62
    7
 10
437.62395041329518
 20
249.06275546688829
 11
436.80392865508679
 21
249.45054448249255
  0
LINE
  8
_0-0_
  6
CONTINUOUS
 62
    7
 10
436.80392865508679
 20
249.45054448249255
 11
436.01321526015579
 21
249.8831053037901
  0
LINE
  8
_0-0_
  6
CONTINUOUS
 62
    7
 10
436.01321526015579
 20
249.8831053037901
 11
435.26537081449646
 21
250.35352640630657
  0
LINE
  8
_0-0_
  6
CONTINUOUS
 62
    7
 10
435.26537081449646
 20
250.35352640630657
 11
434.56048280576022
 21
250.86180779004189
  0
LINE
  8
_0-0_
  6
CONTINUOUS
 62
    7
 10
434.56048280576022
 20
250.86180779004189
 11
433.89846374629542
 21
251.40792758308322
  0
LINE
  8
_0-0_
  6
CONTINUOUS
 62
    7
 10
433.89846374629542
 20
251.40792758308322
 11
433.27940112375381
 21
251.99190765734343
  0
LINE
  8
_0-0_
  6
CONTINUOUS
 62
    7
 10
433.27940112375381
 20
251.99190765734343
 11
432.70320745048372
 21
252.61374801282255
  0
LINE
  8
_0-0_
  6
CONTINUOUS
 62
    7
 10
432.70320745048372
 20
252.61374801282255
 11
432.169926470311
 21
253.27342677760768
  0
LINE
  8
_0-0_
  6
CONTINUOUS
 62
    7
 10
432.169926470311
 20
253.27342677760768
 11
431.67955818323554
 21
253.97094395169881
  0
LINE
  8
_0-0_
  6
CONTINUOUS
 62
    7
 10
431.67955818323554
 20
253.97094395169881
 11
431.23997647789912
 21
254.69433559874307
  0
LINE
  8
_0-0_
  6
CONTINUOUS
 62
    7
 10
431.23997647789912
 20
254.69433559874307
 11
430.85896775529187
 21
255.43157216664906
  0
LINE
  8
_0-0_
  6
CONTINUOUS
 62
    7
 10
430.85896775529187
 20
255.43157216664906
 11
430.53661950306542
 21
256.18267552732959
  0
LINE
  8
_0-0_
  6
CONTINUOUS
 62
    7
 10
430.53661950306542
 20
256.18267552732959
 11
430.27284423356809
 21
256.94762380887181
  0
LINE
  8
_0-0_
  6
CONTINUOUS
 62
    7
 10
430.27284423356809
 20
256.94762380887181
 11
430.06768569062569
 21
257.72641701127566
  0
LINE
  8
_0-0_
  6
CONTINUOUS
 62
    7
 10
430.06768569062569
 20
257.72641701127566
 11
429.92114387423834
 21
258.51907700645415
  0
LINE
  8
_0-0_
  6
CONTINUOUS
 62
    7
 10
429.92114387423834
 20
258.51907700645415
 11
429.83321878440591
 21
259.32558192249428
  0
LINE
  8
_0-0_
  6
CONTINUOUS
 62
    7
 10
429.83321878440591
 20
259.32558192249428
 11
429.80391042112842
 21
260.145953631309
  0
LINE
  8
_0-0_
  6
CONTINUOUS
 62
    7
 10
429.80391042112842
 20
260.145953631309
 11
429.80391042112842
 21
351.44826366174175
  0
LINE
  8
_0-0_
  6
CONTINUOUS
 62
    7
 10
429.80391042112842
 20
351.44826366174175
 11
429.80391042112842
 21
364.54595249131836
  0
LINE
  8
_0-0_
  6
CONTINUOUS
 62
    7
 10
429.80391042112842
 20
364.54595249131836
 11
429.82726962409885
 21
364.54595249131836
  0
LINE
  8
_0-0_
  6
CONTINUOUS
 62
    7
 10
454.80285070117372
 20
318.04827789542293
 11
454.47481575159492
 21
317.64264139889747
  0
LINE
  8
_0-0_
  6
CONTINUOUS
 62
    7
 10
454.47481575159492
 20
317.64264139889747
 11
454.08973885318943
 21
317.23973889148374
  0
LINE
  8
_0-0_
  6
CONTINUOUS
 62
    7
 10
454.08973885318943
 20
317.23973889148374
 11
453.64753251830575
 21
316.83954850126878
  0
LINE
  8
_0-0_
  6
CONTINUOUS
 62
    7
 10
453.64753251830575
 20
316.83954850126878
 11
453.14824049076975
 21
316.4421139720784
  0
LINE
  8
_0-0_
  6
CONTINUOUS
 62
    7
 10
453.14824049076975
 20
316.4421139720784
 11
452.59186277058132
 21
316.04741343199976
  0
LINE
  8
_0-0_
  6
CONTINUOUS
 62
    7
 10
452.59186277058132
 20
316.04741343199976
 11
451.97835561391463
 21
315.65542500911994
  0
LINE
  8
_0-0_
  6
CONTINUOUS
 62
    7
 10
451.97835561391463
 20
315.65542500911994
 11
451.30780650842144
 21
315.26619244726464
  0
LINE
  8
_0-0_
  6
CONTINUOUS
 62
    7
 10
451.30780650842144
 20
315.26619244726464
 11
450.58012796644994
 21
314.87967200260823
  0
LINE
  8
_0-0_
  6
CONTINUOUS
 62
    7
 10
450.58012796644994
 20
314.87967200260823
 11
449.81255505536046
 21
314.51858859264712
  0
LINE
  8
_0-0_
  6
CONTINUOUS
 62
    7
 10
449.81255505536046
 20
314.51858859264712
 11
449.02227909868748
 21
314.20564526296488
  0
LINE
  8
_0-0_
  6
CONTINUOUS
 62
    7
 10
449.02227909868748
 20
314.20564526296488
 11
448.20930009643075
 21
313.94086388547447
  0
LINE
  8
_0-0_
  6
CONTINUOUS
 62
    7
 10
448.20930009643075
 20
313.94086388547447
 11
447.37361804859057
 21
313.72422258826293
  0
LINE
  8
_0-0_
  6
CONTINUOUS
 62
    7
 10
447.37361804859057
 20
313.72422258826293
 11
446.51523295516665
 21
313.55572137133032
  0
LINE
  8
_0-0_
  6
CONTINUOUS
 62
    7
 10
446.51523295516665
 20
313.55572137133032
 11
445.63418855998509
 21
313.43536023467664
  0
LINE
  8
_0-0_
  6
CONTINUOUS
 62
    7
 10
445.63418855998509
 20
313.43536023467664
 11
444.73039737539403
 21
313.36313917830182
  0
LINE
  8
_0-0_
  6
CONTINUOUS
 62
    7
 10
444.73039737539403
 20
313.36313917830182
 11
443.80394688904511
 21
313.33908007411884
  0
LINE
  8
_0-0_
  6
CONTINUOUS
 62
    7
 10
443.80394688904511
 20
313.33908007411884
 11
442.88445167099644
 21
313.35957405650015
  0
LINE
  8
_0-0_
  6
CONTINUOUS
 62
    7
 10
442.88445167099644
 20
313.35957405650015
 11
442.00170126660907
 21
313.4210778755571
  0
LINE
  8
_0-0_
  6
CONTINUOUS
 62
    7
 10
442.00170126660907
 20
313.4210778755571
 11
441.15569567588301
 21
313.52359153128958
  0
LINE
  8
_0-0_
  6
CONTINUOUS
 62
    7
 10
441.15569567588301
 20
313.52359153128958
 11
440.34634741116668
 21
313.66711502369765
  0
LINE
  8
_0-0_
  6
CONTINUOUS
 62
    7
 10
440.34634741116668
 20
313.66711502369765
 11
439.57378770393751
 21
313.85162648086839
  0
LINE
  8
_0-0_
  6
CONTINUOUS
 62
    7
 10
439.57378770393751
 20
313.85162648086839
 11
438.83788532271808
 21
314.07716964662762
  0
LINE
  8
_0-0_
  6
CONTINUOUS
 62
    7
 10
438.83788532271808
 20
314.07716964662762
 11
438.13872775515989
 21
314.34370077714954
  0
LINE
  8
_0-0_
  6
CONTINUOUS
 62
    7
 10
438.13872775515989
 20
314.34370077714954
 11
437.47627125743736
 21
314.65124174434703
  0
LINE
  8
_0-0_
  6
CONTINUOUS
 62
    7
 10
437.47627125743736
 20
314.65124174434703
 11
436.83966736075496
 21
314.99134998984317
  0
LINE
  8
_0-0_
  6
CONTINUOUS
 62
    7
 10
436.83966736075496
 20
314.99134998984317
 11
436.21815508396929
 21
315.35560482717386
  0
LINE
  8
_0-0_
  6
CONTINUOUS
 62
    7
 10
436.21815508396929
 20
315.35560482717386
 11
435.61169068325444
 21
315.74402812825207
  0
LINE
  8
_0-0_
  6
CONTINUOUS
 62
    7
 10
435.61169068325444
 20
315.74402812825207
 11
435.02027415861028
 21
316.15657614925192
  0
LINE
  8
_0-0_
  6
CONTINUOUS
 62
    7
 10
435.02027415861028
 20
316.15657614925192
 11
434.44386176621128
 21
316.59327076208638
  0
LINE
  8
_0-0_
  6
CONTINUOUS
 62
    7
 10
434.44386176621128
 20
316.59327076208638
 11
433.88254099370891
 21
317.05413383866824
  0
LINE
  8
_0-0_
  6
CONTINUOUS
 62
    7
 10
433.88254099370891
 20
317.05413383866824
 11
433.33626809727724
 21
317.53912163517191
  0
LINE
  8
_0-0_
  6
CONTINUOUS
 62
    7
 10
433.33626809727724
 20
317.53912163517191
 11
432.80499933309073
 21
318.04827789542293
  0
LINE
  8
_0-0_
  6
CONTINUOUS
 62
    7
 10
432.80499933309073
 20
351.44826366174175
 11
432.80499933309073
 21
318.04827789542293
  0
LINE
  8
_0-0_
  6
CONTINUOUS
 62
    7
 10
454.80285070117372
 20
318.04827789542293
 11
454.80285070117372
 21
351.44826366174175
  0
LINE
  8
_0-0_
  6
CONTINUOUS
 62
    7
 10
450.58012796644994
 20
348.27965776892705
 11
449.81255505536046
 21
347.91859623087879
  0
LINE
  8
_0-0_
  6
CONTINUOUS
 62
    7
 10
449.81255505536046
 20
347.91859623087879
 11
449.02227909868748
 21
347.60565290119655
  0
LINE
  8
_0-0_
  6
CONTINUOUS
 62
    7
 10
449.02227909868748
 20
347.60565290119655
 11
448.20930009643075
 21
347.34087152370614
  0
LINE
  8
_0-0_
  6
CONTINUOUS
 62
    7
 10
448.20930009643075
 20
347.34087152370614
 11
447.37361804859057
 21
347.1242083545817
  0
LINE
  8
_0-0_
  6
CONTINUOUS
 62
    7
 10
447.37361804859057
 20
347.1242083545817
 11
446.51523295516665
 21
346.95570713764909
  0
LINE
  8
_0-0_
  6
CONTINUOUS
 62
    7
 10
446.51523295516665
 20
346.95570713764909
 11
445.63418855998509
 21
346.8353460009954
  0
LINE
  8
_0-0_
  6
CONTINUOUS
 62
    7
 10
445.63418855998509
 20
346.8353460009954
 11
444.73039737539403
 21
346.76314681653344
  0
LINE
  8
_0-0_
  6
CONTINUOUS
 62
    7
 10
444.73039737539403
 20
346.76314681653344
 11
443.80394688904511
 21
346.73906584043755
  0
LINE
  8
_0-0_
  6
CONTINUOUS
 62
    7
 10
443.80394688904511
 20
346.73906584043755
 11
442.88445167099644
 21
346.75958169473182
  0
LINE
  8
_0-0_
  6
CONTINUOUS
 62
    7
 10
442.88445167099644
 20
346.75958169473182
 11
442.00170126660907
 21
346.82108551378872
  0
LINE
  8
_0-0_
  6
CONTINUOUS
 62
    7
 10
442.00170126660907
 20
346.82108551378872
 11
441.15569567588301
 21
346.9235991695212
  0
LINE
  8
_0-0_
  6
CONTINUOUS
 62
    7
 10
441.15569567588301
 20
346.9235991695212
 11
440.34634741116668
 21
347.06710079001641
  0
LINE
  8
_0-0_
  6
CONTINUOUS
 62
    7
 10
440.34634741116668
 20
347.06710079001641
 11
439.57378770393751
 21
347.25163411910012
  0
LINE
  8
_0-0_
  6
CONTINUOUS
 62
    7
 10
439.57378770393751
 20
347.25163411910012
 11
438.83788532271808
 21
347.47715541294639
  0
LINE
  8
_0-0_
  6
CONTINUOUS
 62
    7
 10
438.83788532271808
 20
347.47715541294639
 11
438.13872775515989
 21
347.7436865434683
  0
LINE
  8
_0-0_
  6
CONTINUOUS
 62
    7
 10
438.13872775515989
 20
347.7436865434683
 11
437.47627125743736
 21
348.05122751066585
  0
LINE
  8
_0-0_
  6
CONTINUOUS
 62
    7
 10
437.47627125743736
 20
348.05122751066585
 11
436.83966736075496
 21
348.39135762807479
  0
LINE
  8
_0-0_
  6
CONTINUOUS
 62
    7
 10
436.83966736075496
 20
348.39135762807479
 11
436.21815508396929
 21
348.75561246540553
  0
LINE
  8
_0-0_
  6
CONTINUOUS
 62
    7
 10
436.21815508396929
 20
348.75561246540553
 11
435.61169068325444
 21
349.14401389457083
  0
LINE
  8
_0-0_
  6
CONTINUOUS
 62
    7
 10
435.61169068325444
 20
349.14401389457083
 11
435.02027415861028
 21
349.55658378748359
  0
LINE
  8
_0-0_
  6
CONTINUOUS
 62
    7
 10
435.02027415861028
 20
349.55658378748359
 11
434.44386176621128
 21
349.99327840031805
  0
LINE
  8
_0-0_
  6
CONTINUOUS
 62
    7
 10
434.44386176621128
 20
349.99327840031805
 11
433.88254099370891
 21
350.45411960498706
  0
LINE
  8
_0-0_
  6
CONTINUOUS
 62
    7
 10
433.88254099370891
 20
350.45411960498706
 11
433.33626809727724
 21
350.93912927340352
  0
LINE
  8
_0-0_
  6
CONTINUOUS
 62
    7
 10
433.33626809727724
 20
350.93912927340352
 11
432.80499933309073
 21
351.44826366174175
  0
LINE
  8
_0-0_
  6
CONTINUOUS
 62
    7
 10
432.80499933309073
 20
351.44826366174175
 11
432.80499933309073
 21
318.04827789542293
  0
LINE
  8
_0-0_
  6
CONTINUOUS
 62
    7
 10
454.80285070117372
 20
318.04827789542293
 11
454.80285070117372
 21
351.44826366174175
  0
LINE
  8
_0-0_
  6
CONTINUOUS
 62
    7
 10
454.80285070117372
 20
351.44826366174175
 11
454.47468452011753
 21
351.04256154947757
  0
LINE
  8
_0-0_
  6
CONTINUOUS
 62
    7
 10
454.47468452011753
 20
351.04256154947757
 11
454.08947639023472
 21
350.63959342632518
  0
LINE
  8
_0-0_
  6
CONTINUOUS
 62
    7
 10
454.08947639023472
 20
350.63959342632518
 11
453.64718256769947
 21
350.23938116419731
  0
LINE
  8
_0-0_
  6
CONTINUOUS
 62
    7
 10
453.64718256769947
 20
350.23938116419731
 11
453.14789054016342
 21
349.84192476309403
  0
LINE
  8
_0-0_
  6
CONTINUOUS
 62
    7
 10
453.14789054016342
 20
349.84192476309403
 11
452.59151281997504
 21
349.44722422301538
  0
LINE
  8
_0-0_
  6
CONTINUOUS
 62
    7
 10
452.59151281997504
 20
349.44722422301538
 11
451.97809315095992
 21
349.05527954396132
  0
LINE
  8
_0-0_
  6
CONTINUOUS
 62
    7
 10
451.97809315095992
 20
349.05527954396132
 11
451.30763153311824
 21
348.66609072593184
  0
LINE
  8
_0-0_
  6
CONTINUOUS
 62
    7
 10
451.30763153311824
 20
348.66609072593184
 11
450.58012796644994
 21
348.27965776892705
  0
LINE
  8
_0-0_
  6
CONTINUOUS
 62
    7
 10
443.7789254206948
 20
225.49034508959207
 11
451.52893154777615
 21
225.49034508959207
  0
LINE
  8
_0-0_
  6
CONTINUOUS
 62
    7
 10
451.52893154777615
 20
225.49034508959207
 11
451.52893154777615
 21
219.49035445695677
  0
LINE
  8
_0-0_
  6
CONTINUOUS
 62
    7
 10
451.52893154777615
 20
219.49035445695677
 11
451.27893558340185
 21
216.49033726872625
  0
LINE
  8
_0-0_
  6
CONTINUOUS
 62
    7
 10
451.27893558340185
 20
216.49033726872625
 11
451.27893558340185
 21
209.49034090668079
  0
LINE
  8
_0-0_
  6
CONTINUOUS
 62
    7
 10
451.27893558340185
 20
209.49034090668079
 11
436.27891525798782
 21
209.49034090668079
  0
LINE
  8
_0-0_
  6
CONTINUOUS
 62
    7
 10
436.27891525798782
 20
209.49034090668079
 11
436.27891525798782
 21
216.49033726872625
  0
LINE
  8
_0-0_
  6
CONTINUOUS
 62
    7
 10
436.27891525798782
 20
216.49033726872625
 11
436.02891929361351
 21
219.49035445695677
  0
LINE
  8
_0-0_
  6
CONTINUOUS
 62
    7
 10
436.02891929361351
 20
219.49035445695677
 11
436.02891929361351
 21
221.99035784452576
  0
LINE
  8
_0-0_
  6
CONTINUOUS
 62
    7
 10
437.77893478805947
 20
209.49034090668079
 11
437.77893478805947
 21
154.11394918287124
  0
LINE
  8
_0-0_
  6
CONTINUOUS
 62
    7
 10
449.77891605333008
 20
209.49034090668079
 11
449.77891605333008
 21
154.11394918287124
  0
LINE
  8
_0-0_
  6
CONTINUOUS
 62
    7
 10
450.27890798207869
 20
187.49034609113423
 11
450.54968226370198
 21
189.97565155323869
  0
LINE
  8
_0-0_
  6
CONTINUOUS
 62
    7
 10
450.54968226370198
 20
189.97565155323869
 11
437.62613760458459
 21
191.38352471428945
  0
LINE
  8
_0-0_
  6
CONTINUOUS
 62
    7
 10
437.62613760458459
 20
191.38352471428945
 11
437.35540706678705
 21
188.89821925218499
  0
LINE
  8
_0-0_
  6
CONTINUOUS
 62
    7
 10
437.35540706678705
 20
188.89821925218499
 11
450.27890798207869
 21
187.49034609113423
  0
LINE
  8
_0-0_
  6
CONTINUOUS
 62
    7
 10
450.27890798207869
 20
191.9903390656107
 11
450.54968226370198
 21
194.47564452771516
  0
LINE
  8
_0-0_
  6
CONTINUOUS
 62
    7
 10
450.54968226370198
 20
194.47564452771516
 11
437.62613760458459
 21
195.88351768876592
  0
LINE
  8
_0-0_
  6
CONTINUOUS
 62
    7
 10
437.62613760458459
 20
195.88351768876592
 11
437.35540706678705
 21
193.39821222666146
  0
LINE
  8
_0-0_
  6
CONTINUOUS
 62
    7
 10
437.35540706678705
 20
193.39821222666146
 11
450.27890798207869
 21
191.9903390656107
  0
LINE
  8
_0-0_
  6
CONTINUOUS
 62
    7
 10
450.27890798207869
 20
196.49035391200002
 11
450.54968226370198
 21
198.97563750219163
  0
LINE
  8
_0-0_
  6
CONTINUOUS
 62
    7
 10
450.54968226370198
 20
198.97563750219163
 11
437.62613760458459
 21
200.38351066324239
  0
LINE
  8
_0-0_
  6
CONTINUOUS
 62
    7
 10
437.62613760458459
 20
200.38351066324239
 11
437.35540706678705
 21
197.89822707305078
  0
LINE
  8
_0-0_
  6
CONTINUOUS
 62
    7
 10
437.35540706678705
 20
197.89822707305078
 11
450.27890798207869
 21
196.49035391200002
  0
LINE
  8
_0-0_
  6
CONTINUOUS
 62
    7
 10
450.27890798207869
 20
200.99034688647649
 11
450.54968226370198
 21
203.47565234858095
  0
LINE
  8
_0-0_
  6
CONTINUOUS
 62
    7
 10
450.54968226370198
 20
203.47565234858095
 11
437.62613760458459
 21
204.88352550963171
  0
LINE
  8
_0-0_
  6
CONTINUOUS
 62
    7
 10
437.62613760458459
 20
204.88352550963171
 11
437.35540706678705
 21
202.39822004752725
  0
LINE
  8
_0-0_
  6
CONTINUOUS
 62
    7
 10
437.35540706678705
 20
202.39822004752725
 11
450.27890798207869
 21
200.99034688647649
  0
LINE
  8
_0-0_
  6
CONTINUOUS
 62
    7
 10
450.27890798207869
 20
205.49033986095296
 11
450.54968226370198
 21
207.97564532305742
  0
LINE
  8
_0-0_
  6
CONTINUOUS
 62
    7
 10
450.54968226370198
 20
207.97564532305742
 11
437.62613760458459
 21
209.38351848410821
  0
LINE
  8
_0-0_
  6
CONTINUOUS
 62
    7
 10
437.62613760458459
 20
209.38351848410821
 11
437.35540706678705
 21
206.89821302200374
  0
LINE
  8
_0-0_
  6
CONTINUOUS
 62
    7
 10
437.35540706678705
 20
206.89821302200374
 11
450.27890798207869
 21
205.49033986095296
  0
LINE
  8
_0-0_
  6
CONTINUOUS
 62
    7
 10
450.27890798207869
 20
182.99034218070133
 11
450.54968226370198
 21
185.47563670684929
  0
LINE
  8
_0-0_
  6
CONTINUOUS
 62
    7
 10
450.54968226370198
 20
185.47563670684929
 11
437.62613760458459
 21
186.88350986790013
  0
LINE
  8
_0-0_
  6
CONTINUOUS
 62
    7
 10
437.62613760458459
 20
186.88350986790013
 11
437.35540706678705
 21
184.39822627770852
  0
LINE
  8
_0-0_
  6
CONTINUOUS
 62
    7
 10
437.35540706678705
 20
184.39822627770852
 11
450.27890798207869
 21
182.99034218070133
  0
LINE
  8
_0-0_
  6
CONTINUOUS
 62
    7
 10
450.27890798207869
 20
178.49034920622486
 11
450.54968226370198
 21
180.97564373237282
  0
LINE
  8
_0-0_
  6
CONTINUOUS
 62
    7
 10
450.54968226370198
 20
180.97564373237282
 11
437.62613760458459
 21
182.38351689342366
  0
LINE
  8
_0-0_
  6
CONTINUOUS
 62
    7
 10
437.62613760458459
 20
182.38351689342366
 11
437.35540706678705
 21
179.89822236727562
  0
LINE
  8
_0-0_
  6
CONTINUOUS
 62
    7
 10
437.35540706678705
 20
179.89822236727562
 11
450.27890798207869
 21
178.49034920622486
  0
LINE
  8
_0-0_
  6
CONTINUOUS
 62
    7
 10
450.27890798207869
 20
173.99034529579188
 11
450.54968226370198
 21
176.47563982193992
  0
LINE
  8
_0-0_
  6
CONTINUOUS
 62
    7
 10
450.54968226370198
 20
176.47563982193992
 11
437.62613760458459
 21
177.88351298299077
  0
LINE
  8
_0-0_
  6
CONTINUOUS
 62
    7
 10
437.62613760458459
 20
177.88351298299077
 11
437.35540706678705
 21
175.39821845684273
  0
LINE
  8
_0-0_
  6
CONTINUOUS
 62
    7
 10
437.35540706678705
 20
175.39821845684273
 11
450.27890798207869
 21
173.99034529579188
  0
LINE
  8
_0-0_
  6
CONTINUOUS
 62
    7
 10
450.27890798207869
 20
169.4903523213155
 11
450.54968226370198
 21
171.97564684746345
  0
LINE
  8
_0-0_
  6
CONTINUOUS
 62
    7
 10
450.54968226370198
 20
171.97564684746345
 11
437.62613760458459
 21
173.3835200085143
  0
LINE
  8
_0-0_
  6
CONTINUOUS
 62
    7
 10
437.62613760458459
 20
173.3835200085143
 11
437.35540706678705
 21
170.89821454640983
  0
LINE
  8
_0-0_
  6
CONTINUOUS
 62
    7
 10
437.35540706678705
 20
170.89821454640983
 11
450.27890798207869
 21
169.4903523213155
  0
LINE
  8
_0-0_
  6
CONTINUOUS
 62
    7
 10
443.7789254206948
 20
225.49034508959207
 11
454.77892282846813
 21
225.49034508959207
  0
LINE
  8
_0-0_
  6
CONTINUOUS
 62
    7
 10
454.77892282846813
 20
225.49034508959207
 11
457.30394768438742
 21
231.74035355851456
  0
LINE
  8
_0-0_
  6
CONTINUOUS
 62
    7
 10
457.30394768438742
 20
231.74035355851456
 11
454.77892282846813
 21
237.99034015552417
  0
LINE
  8
_0-0_
  6
CONTINUOUS
 62
    7
 10
454.77892282846813
 20
237.99034015552417
 11
443.7789254206948
 21
237.99034015552417
  0
LINE
  8
_0-0_
  6
CONTINUOUS
 62
    7
 10
457.30394768438742
 20
231.73263277326311
 11
457.30394768438742
 21
231.7335951374304
  0
LINE
  8
_0-0_
  6
CONTINUOUS
 62
    7
 10
457.30394768438742
 20
231.7335951374304
 11
457.30394768438742
 21
231.73455750159775
  0
LINE
  8
_0-0_
  6
CONTINUOUS
 62
    7
 10
457.30394768438742
 20
231.73455750159775
 11
457.30394768438742
 21
231.73551986576507
  0
LINE
  8
_0-0_
  6
CONTINUOUS
 62
    7
 10
457.30394768438742
 20
231.73551986576507
 11
457.30394768438742
 21
231.73648222993236
  0
LINE
  8
_0-0_
  6
CONTINUOUS
 62
    7
 10
457.30394768438742
 20
231.73648222993236
 11
457.30394768438742
 21
231.73744459409971
  0
LINE
  8
_0-0_
  6
CONTINUOUS
 62
    7
 10
457.30394768438742
 20
231.73744459409971
 11
457.30394768438742
 21
231.73840695826701
  0
LINE
  8
_0-0_
  6
CONTINUOUS
 62
    7
 10
457.30394768438742
 20
231.73840695826701
 11
457.30394768438742
 21
231.73939119434723
  0
LINE
  8
_0-0_
  6
CONTINUOUS
 62
    7
 10
457.30394768438742
 20
231.73939119434723
 11
457.30394768438742
 21
231.74035355851456
  0
LINE
  8
_0-0_
  6
CONTINUOUS
 62
    7
 10
457.30394768438742
 20
231.74035355851456
 11
457.30394768438742
 21
231.74173148902685
  0
LINE
  8
_0-0_
  6
CONTINUOUS
 62
    7
 10
457.30394768438742
 20
231.74173148902685
 11
457.30394768438742
 21
231.74308754762626
  0
LINE
  8
_0-0_
  6
CONTINUOUS
 62
    7
 10
457.30394768438742
 20
231.74308754762626
 11
457.30394768438742
 21
231.74446547813855
  0
LINE
  8
_0-0_
  6
CONTINUOUS
 62
    7
 10
457.30394768438742
 20
231.74446547813855
 11
457.30394768438742
 21
231.74584340865084
  0
LINE
  8
_0-0_
  6
CONTINUOUS
 62
    7
 10
457.30394768438742
 20
231.74584340865084
 11
457.30394768438742
 21
231.74722133916316
  0
LINE
  8
_0-0_
  6
CONTINUOUS
 62
    7
 10
457.30394768438742
 20
231.74722133916316
 11
457.30390394056167
 21
231.74859926967545
  0
LINE
  8
_0-0_
  6
CONTINUOUS
 62
    7
 10
457.30390394056167
 20
231.74859926967545
 11
457.30390394056167
 21
231.74995532827489
  0
LINE
  8
_0-0_
  6
CONTINUOUS
 62
    7
 10
457.30390394056167
 20
231.74995532827489
 11
457.30390394056167
 21
231.75133325878716
  0
LINE
  8
_0-0_
  6
CONTINUOUS
 62
    7
 10
456.50002365406868
 20
227.73158187571639
 11
456.49997991024293
 21
227.73158187571639
  0
LINE
  8
_0-0_
  6
CONTINUOUS
 62
    7
 10
456.49997991024293
 20
227.73158187571639
 11
456.49997991024293
 21
227.73156000380351
  0
LINE
  8
_0-0_
  6
CONTINUOUS
 62
    7
 10
454.95892867158273
 20
225.93585408332262
 11
454.86133619625139
 21
225.89003242581046
  0
LINE
  8
_0-0_
  6
CONTINUOUS
 62
    7
 10
454.86133619625139
 20
225.89003242581046
 11
454.76286884440412
 21
225.8503349039085
  0
LINE
  8
_0-0_
  6
CONTINUOUS
 62
    7
 10
454.76286884440412
 20
225.8503349039085
 11
454.66352661604128
 21
225.81671777379097
  0
LINE
  8
_0-0_
  6
CONTINUOUS
 62
    7
 10
454.66352661604128
 20
225.81671777379097
 11
454.56330951116257
 21
225.78922477928364
  0
LINE
  8
_0-0_
  6
CONTINUOUS
 62
    7
 10
454.56330951116257
 20
225.78922477928364
 11
454.46226127359398
 21
225.76783404847367
  0
LINE
  8
_0-0_
  6
CONTINUOUS
 62
    7
 10
454.46226127359398
 20
225.76783404847367
 11
454.36033815950958
 21
225.75256745327391
  0
LINE
  8
_0-0_
  6
CONTINUOUS
 62
    7
 10
454.36033815950958
 20
225.75256745327391
 11
454.25758391273524
 21
225.74340312177151
  0
LINE
  8
_0-0_
  6
CONTINUOUS
 62
    7
 10
454.25758391273524
 20
225.74340312177151
 11
454.1539110456194
 21
225.74034105396638
  0
LINE
  8
_0-0_
  6
CONTINUOUS
 62
    7
 10
454.1539110456194
 20
225.74034105396638
 11
453.94468432687881
 21
225.75291740388022
  0
LINE
  8
_0-0_
  6
CONTINUOUS
 62
    7
 10
453.94468432687881
 20
225.75291740388022
 11
453.73895711420124
 21
225.79058083788308
  0
LINE
  8
_0-0_
  6
CONTINUOUS
 62
    7
 10
453.73895711420124
 20
225.79058083788308
 11
453.53681689523819
 21
225.85339697171361
  0
LINE
  8
_0-0_
  6
CONTINUOUS
 62
    7
 10
453.53681689523819
 20
225.85339697171361
 11
453.33817618233815
 21
225.94130018963315
  0
LINE
  8
_0-0_
  6
CONTINUOUS
 62
    7
 10
453.33817618233815
 20
225.94130018963315
 11
453.14303497550105
 21
226.05435610738039
  0
LINE
  8
_0-0_
  6
CONTINUOUS
 62
    7
 10
453.14303497550105
 20
226.05435610738039
 11
452.95148076237859
 21
226.19252098112952
  0
LINE
  8
_0-0_
  6
CONTINUOUS
 62
    7
 10
452.95148076237859
 20
226.19252098112952
 11
452.76342605531903
 21
226.35579481088055
  0
LINE
  8
_0-0_
  6
CONTINUOUS
 62
    7
 10
452.76342605531903
 20
226.35579481088055
 11
452.57891459814829
 21
226.54419946854637
  0
LINE
  8
_0-0_
  6
CONTINUOUS
 62
    7
 10
452.57891459814829
 20
226.54419946854637
 11
452.40100845867141
 21
226.75434480762848
  0
LINE
  8
_0-0_
  6
CONTINUOUS
 62
    7
 10
452.40100845867141
 20
226.75434480762848
 11
452.23276970469351
 21
226.98290629736704
  0
LINE
  8
_0-0_
  6
CONTINUOUS
 62
    7
 10
452.23276970469351
 20
226.98290629736704
 11
452.07415459238882
 21
227.22984019393624
  0
LINE
  8
_0-0_
  6
CONTINUOUS
 62
    7
 10
452.07415459238882
 20
227.22984019393624
 11
451.92520686558311
 21
227.49514649733612
  0
LINE
  8
_0-0_
  6
CONTINUOUS
 62
    7
 10
451.92520686558311
 20
227.49514649733612
 11
451.78592652427642
 21
227.77886895139244
  0
LINE
  8
_0-0_
  6
CONTINUOUS
 62
    7
 10
451.78592652427642
 20
227.77886895139244
 11
451.65626982464289
 21
228.08096381227941
  0
LINE
  8
_0-0_
  6
CONTINUOUS
 62
    7
 10
451.65626982464289
 20
228.08096381227941
 11
451.53628051050839
 21
228.40147482382281
  0
LINE
  8
_0-0_
  6
CONTINUOUS
 62
    7
 10
451.53628051050839
 20
228.40147482382281
 11
451.42595858187286
 21
228.74035824219692
  0
LINE
  8
_0-0_
  6
CONTINUOUS
 62
    7
 10
451.42595858187286
 20
228.74035824219692
 11
451.32705379176787
 21
229.09179613857194
  0
LINE
  8
_0-0_
  6
CONTINUOUS
 62
    7
 10
451.32705379176787
 20
229.09179613857194
 11
451.24131589322474
 21
229.4499705841182
  0
LINE
  8
_0-0_
  6
CONTINUOUS
 62
    7
 10
451.24131589322474
 20
229.4499705841182
 11
451.16878863006946
 21
229.81485970692285
  0
LINE
  8
_0-0_
  6
CONTINUOUS
 62
    7
 10
451.16878863006946
 20
229.81485970692285
 11
451.1094282584761
 21
230.18650725081159
  0
LINE
  8
_0-0_
  6
CONTINUOUS
 62
    7
 10
451.1094282584761
 20
230.18650725081159
 11
451.06327852227048
 21
230.56486947195867
  0
LINE
  8
_0-0_
  6
CONTINUOUS
 62
    7
 10
451.06327852227048
 20
230.56486947195867
 11
451.0302956776269
 21
230.94996824227704
  0
LINE
  8
_0-0_
  6
CONTINUOUS
 62
    7
 10
451.0302956776269
 20
230.94996824227704
 11
451.01052346837099
 21
231.34178168985372
  0
LINE
  8
_0-0_
  6
CONTINUOUS
 62
    7
 10
451.01052346837099
 20
231.34178168985372
 11
451.00391815067718
 21
231.74035355851456
  0
LINE
  8
_0-0_
  6
CONTINUOUS
 62
    7
 10
451.00391815067718
 20
231.74035355851456
 11
451.01052346837099
 21
232.13890355526249
  0
LINE
  8
_0-0_
  6
CONTINUOUS
 62
    7
 10
451.01052346837099
 20
232.13890355526249
 11
451.0302956776269
 21
232.53073887475207
  0
LINE
  8
_0-0_
  6
CONTINUOUS
 62
    7
 10
451.0302956776269
 20
232.53073887475207
 11
451.06327852227048
 21
232.91583764507041
  0
LINE
  8
_0-0_
  6
CONTINUOUS
 62
    7
 10
451.06327852227048
 20
232.91583764507041
 11
451.1094282584761
 21
233.29419986621753
  0
LINE
  8
_0-0_
  6
CONTINUOUS
 62
    7
 10
451.1094282584761
 20
233.29419986621753
 11
451.16878863006946
 21
233.66582553819339
  0
LINE
  8
_0-0_
  6
CONTINUOUS
 62
    7
 10
451.16878863006946
 20
233.66582553819339
 11
451.24131589322474
 21
234.03073653291088
  0
LINE
  8
_0-0_
  6
CONTINUOUS
 62
    7
 10
451.24131589322474
 20
234.03073653291088
 11
451.32705379176787
 21
234.38891097845715
  0
LINE
  8
_0-0_
  6
CONTINUOUS
 62
    7
 10
451.32705379176787
 20
234.38891097845715
 11
451.42595858187286
 21
234.74034887483219
  0
LINE
  8
_0-0_
  6
CONTINUOUS
 62
    7
 10
451.42595858187286
 20
234.74034887483219
 11
451.53628051050839
 21
235.07923229320627
  0
LINE
  8
_0-0_
  6
CONTINUOUS
 62
    7
 10
451.53628051050839
 20
235.07923229320627
 11
451.65626982464289
 21
235.3997214328368
  0
LINE
  8
_0-0_
  6
CONTINUOUS
 62
    7
 10
451.65626982464289
 20
235.3997214328368
 11
451.78592652427642
 21
235.70181629372377
  0
LINE
  8
_0-0_
  6
CONTINUOUS
 62
    7
 10
451.78592652427642
 20
235.70181629372377
 11
451.92520686558311
 21
235.98553874778008
  0
LINE
  8
_0-0_
  6
CONTINUOUS
 62
    7
 10
451.92520686558311
 20
235.98553874778008
 11
452.07415459238882
 21
236.25086692309284
  0
LINE
  8
_0-0_
  6
CONTINUOUS
 62
    7
 10
452.07415459238882
 20
236.25086692309284
 11
452.23276970469351
 21
236.49780081966207
  0
LINE
  8
_0-0_
  6
CONTINUOUS
 62
    7
 10
452.23276970469351
 20
236.49780081966207
 11
452.40100845867141
 21
236.72634043748772
  0
LINE
  8
_0-0_
  6
CONTINUOUS
 62
    7
 10
452.40100845867141
 20
236.72634043748772
 11
452.57891459814829
 21
236.93650764848272
  0
LINE
  8
_0-0_
  6
CONTINUOUS
 62
    7
 10
452.57891459814829
 20
236.93650764848272
 11
452.76342605531903
 21
237.12491230614856
  0
LINE
  8
_0-0_
  6
CONTINUOUS
 62
    7
 10
452.76342605531903
 20
237.12491230614856
 11
452.95148076237859
 21
237.28818613589959
  0
LINE
  8
_0-0_
  6
CONTINUOUS
 62
    7
 10
452.95148076237859
 20
237.28818613589959
 11
453.14303497550105
 21
237.42635100964873
  0
LINE
  8
_0-0_
  6
CONTINUOUS
 62
    7
 10
453.14303497550105
 20
237.42635100964873
 11
453.33817618233815
 21
237.53938505548305
  0
LINE
  8
_0-0_
  6
CONTINUOUS
 62
    7
 10
453.33817618233815
 20
237.53938505548305
 11
453.53681689523819
 21
237.6273101453155
  0
LINE
  8
_0-0_
  6
CONTINUOUS
 62
    7
 10
453.53681689523819
 20
237.6273101453155
 11
453.73895711420124
 21
237.69010440723315
  0
LINE
  8
_0-0_
  6
CONTINUOUS
 62
    7
 10
453.73895711420124
 20
237.69010440723315
 11
453.94468432687881
 21
237.72778971314889
  0
LINE
  8
_0-0_
  6
CONTINUOUS
 62
    7
 10
453.94468432687881
 20
237.72778971314889
 11
454.1539110456194
 21
237.74034419114983
  0
LINE
  8
_0-0_
  6
CONTINUOUS
 62
    7
 10
454.1539110456194
 20
237.74034419114983
 11
454.25758391273524
 21
237.73728212334473
  0
LINE
  8
_0-0_
  6
CONTINUOUS
 62
    7
 10
454.25758391273524
 20
237.73728212334473
 11
454.36033815950958
 21
237.72811779184229
  0
LINE
  8
_0-0_
  6
CONTINUOUS
 62
    7
 10
454.36033815950958
 20
237.72811779184229
 11
454.46226127359398
 21
237.71285119664253
  0
LINE
  8
_0-0_
  6
CONTINUOUS
 62
    7
 10
454.46226127359398
 20
237.71285119664253
 11
454.56330951116257
 21
237.69146046583256
  0
LINE
  8
_0-0_
  6
CONTINUOUS
 62
    7
 10
454.56330951116257
 20
237.69146046583256
 11
454.66352661604128
 21
237.66396747132524
  0
LINE
  8
_0-0_
  6
CONTINUOUS
 62
    7
 10
454.66352661604128
 20
237.66396747132524
 11
454.76286884440412
 21
237.63037221312061
  0
LINE
  8
_0-0_
  6
CONTINUOUS
 62
    7
 10
454.76286884440412
 20
237.63037221312061
 11
454.86133619625139
 21
237.59065281930575
  0
LINE
  8
_0-0_
  6
CONTINUOUS
 62
    7
 10
454.86133619625139
 20
237.59065281930575
 11
454.95892867158273
 21
237.54483116179358
  0
LINE
  8
_0-0_
  6
CONTINUOUS
 62
    7
 10
428.49999446206107
 20
238.24035799181138
 11
443.7789254206948
 21
238.24035799181138
  0
LINE
  8
_0-0_
  6
CONTINUOUS
 62
    7
 10
428.49999446206107
 20
223.99034743143324
 11
428.49999446206107
 21
221.99035784452576
  0
LINE
  8
_0-0_
  6
CONTINUOUS
 62
    7
 10
428.49999446206107
 20
221.99035784452576
 11
443.7789254206948
 21
221.99035784452576
  0
LINE
  8
_0-0_
  6
CONTINUOUS
 62
    7
 10
428.49999446206107
 20
235.99035056861669
 11
428.49999446206107
 21
238.24035799181138
  0
LINE
  8
_0-0_
  6
CONTINUOUS
 62
    7
 10
443.7789254206948
 20
238.24035799181138
 11
443.7789254206948
 21
221.99035784452576
  0
LINE
  8
_0-0_
  6
CONTINUOUS
 62
    7
 10
305.24999368144734
 20
219.50352134851872
 11
305.24999368144734
 21
213.50350884397056
  0
LINE
  8
_0-0_
  6
CONTINUOUS
 62
    7
 10
305.24999368144734
 20
213.50350884397056
 11
304.99999771707309
 21
210.50351352765293
  0
LINE
  8
_0-0_
  6
CONTINUOUS
 62
    7
 10
304.99999771707309
 20
210.50351352765293
 11
304.99999771707309
 21
203.50351716560743
  0
LINE
  8
_0-0_
  6
CONTINUOUS
 62
    7
 10
304.99999771707309
 20
203.50351716560743
 11
289.99999926357191
 21
203.50351716560743
  0
LINE
  8
_0-0_
  6
CONTINUOUS
 62
    7
 10
289.99999926357191
 20
203.50351716560743
 11
289.99999926357191
 21
210.50351352765293
  0
LINE
  8
_0-0_
  6
CONTINUOUS
 62
    7
 10
289.99999926357191
 20
210.50351352765293
 11
289.75000329919766
 21
213.50350884397056
  0
LINE
  8
_0-0_
  6
CONTINUOUS
 62
    7
 10
289.75000329919766
 20
213.50350884397056
 11
289.75000329919766
 21
219.50352134851872
  0
LINE
  8
_0-0_
  6
CONTINUOUS
 62
    7
 10
289.75000329919766
 20
219.50352134851872
 11
305.24999368144734
 21
219.50352134851872
  0
LINE
  8
_0-0_
  6
CONTINUOUS
 62
    7
 10
291.49999692173077
 20
203.50351716560743
 11
291.49999692173077
 21
148.12712544179789
  0
LINE
  8
_0-0_
  6
CONTINUOUS
 62
    7
 10
303.50000005891422
 20
203.50351716560743
 11
303.50000005891422
 21
148.12712544179789
  0
LINE
  8
_0-0_
  6
CONTINUOUS
 62
    7
 10
303.9999919876629
 20
181.5035223500609
 11
304.27074439737328
 21
183.98880594025243
  0
LINE
  8
_0-0_
  6
CONTINUOUS
 62
    7
 10
304.27074439737328
 20
183.98880594025243
 11
291.34719973825582
 21
185.39667910130328
  0
LINE
  8
_0-0_
  6
CONTINUOUS
 62
    7
 10
291.34719973825582
 20
185.39667910130328
 11
291.07646920045823
 21
182.91139551111172
  0
LINE
  8
_0-0_
  6
CONTINUOUS
 62
    7
 10
291.07646920045823
 20
182.91139551111172
 11
303.9999919876629
 21
181.5035223500609
  0
LINE
  8
_0-0_
  6
CONTINUOUS
 62
    7
 10
303.9999919876629
 20
186.00351532453737
 11
304.27074439737328
 21
188.48882078664184
  0
LINE
  8
_0-0_
  6
CONTINUOUS
 62
    7
 10
304.27074439737328
 20
188.48882078664184
 11
291.34719973825582
 21
189.89669394769265
  0
LINE
  8
_0-0_
  6
CONTINUOUS
 62
    7
 10
291.34719973825582
 20
189.89669394769265
 11
291.07646920045823
 21
187.41138848558819
  0
LINE
  8
_0-0_
  6
CONTINUOUS
 62
    7
 10
291.07646920045823
 20
187.41138848558819
 11
303.9999919876629
 21
186.00351532453737
  0
LINE
  8
_0-0_
  6
CONTINUOUS
 62
    7
 10
303.9999919876629
 20
190.50350829901376
 11
304.27074439737328
 21
192.98881376111831
  0
LINE
  8
_0-0_
  6
CONTINUOUS
 62
    7
 10
304.27074439737328
 20
192.98881376111831
 11
291.34719973825582
 21
194.39668692216912
  0
LINE
  8
_0-0_
  6
CONTINUOUS
 62
    7
 10
291.34719973825582
 20
194.39668692216912
 11
291.07646920045823
 21
191.91138146006466
  0
LINE
  8
_0-0_
  6
CONTINUOUS
 62
    7
 10
291.07646920045823
 20
191.91138146006466
 11
303.9999919876629
 21
190.50350829901376
  0
LINE
  8
_0-0_
  6
CONTINUOUS
 62
    7
 10
303.9999919876629
 20
195.00352314540322
 11
304.27074439737328
 21
197.48880673559478
  0
LINE
  8
_0-0_
  6
CONTINUOUS
 62
    7
 10
304.27074439737328
 20
197.48880673559478
 11
291.34719973825582
 21
198.89667989664559
  0
LINE
  8
_0-0_
  6
CONTINUOUS
 62
    7
 10
291.34719973825582
 20
198.89667989664559
 11
291.07646920045823
 21
196.41139630645398
  0
LINE
  8
_0-0_
  6
CONTINUOUS
 62
    7
 10
291.07646920045823
 20
196.41139630645398
 11
303.9999919876629
 21
195.00352314540322
  0
LINE
  8
_0-0_
  6
CONTINUOUS
 62
    7
 10
303.9999919876629
 20
199.50351611987963
 11
304.27074439737328
 21
201.98882158198415
  0
LINE
  8
_0-0_
  6
CONTINUOUS
 62
    7
 10
304.27074439737328
 20
201.98882158198415
 11
291.34719973825582
 21
203.39669474303491
  0
LINE
  8
_0-0_
  6
CONTINUOUS
 62
    7
 10
291.34719973825582
 20
203.39669474303491
 11
291.07646920045823
 21
200.91138928093045
  0
LINE
  8
_0-0_
  6
CONTINUOUS
 62
    7
 10
291.07646920045823
 20
200.91138928093045
 11
303.9999919876629
 21
199.50351611987963
  0
LINE
  8
_0-0_
  6
CONTINUOUS
 62
    7
 10
303.9999919876629
 20
177.00351843962792
 11
304.27074439737328
 21
179.48881296577596
  0
LINE
  8
_0-0_
  6
CONTINUOUS
 62
    7
 10
304.27074439737328
 20
179.48881296577596
 11
291.34719973825582
 21
180.89668612682681
  0
LINE
  8
_0-0_
  6
CONTINUOUS
 62
    7
 10
291.34719973825582
 20
180.89668612682681
 11
291.07646920045823
 21
178.41139160067883
  0
LINE
  8
_0-0_
  6
CONTINUOUS
 62
    7
 10
291.07646920045823
 20
178.41139160067883
 11
303.9999919876629
 21
177.00351843962792
  0
LINE
  8
_0-0_
  6
CONTINUOUS
 62
    7
 10
303.9999919876629
 20
172.50351452919503
 11
304.27074439737328
 21
174.98881999129949
  0
LINE
  8
_0-0_
  6
CONTINUOUS
 62
    7
 10
304.27074439737328
 20
174.98881999129949
 11
291.34719973825582
 21
176.39668221639391
  0
LINE
  8
_0-0_
  6
CONTINUOUS
 62
    7
 10
291.34719973825582
 20
176.39668221639391
 11
291.07646920045823
 21
173.91138769024587
  0
LINE
  8
_0-0_
  6
CONTINUOUS
 62
    7
 10
291.07646920045823
 20
173.91138769024587
 11
303.9999919876629
 21
172.50351452919503
  0
LINE
  8
_0-0_
  6
CONTINUOUS
 62
    7
 10
303.9999919876629
 20
168.00352155471856
 11
304.27074439737328
 21
170.4888160808666
  0
LINE
  8
_0-0_
  6
CONTINUOUS
 62
    7
 10
304.27074439737328
 20
170.4888160808666
 11
291.34719973825582
 21
171.89668924191744
  0
LINE
  8
_0-0_
  6
CONTINUOUS
 62
    7
 10
291.34719973825582
 20
171.89668924191744
 11
291.07646920045823
 21
169.4113947157694
  0
LINE
  8
_0-0_
  6
CONTINUOUS
 62
    7
 10
291.07646920045823
 20
169.4113947157694
 11
303.9999919876629
 21
168.00352155471856
  0
LINE
  8
_0-0_
  6
CONTINUOUS
 62
    7
 10
303.9999919876629
 20
163.50351764428567
 11
304.27074439737328
 21
165.9888121704337
  0
LINE
  8
_0-0_
  6
CONTINUOUS
 62
    7
 10
304.27074439737328
 20
165.9888121704337
 11
291.34719973825582
 21
167.39668533148446
  0
LINE
  8
_0-0_
  6
CONTINUOUS
 62
    7
 10
291.34719973825582
 20
167.39668533148446
 11
291.07646920045823
 21
164.91139080533651
  0
LINE
  8
_0-0_
  6
CONTINUOUS
 62
    7
 10
291.07646920045823
 20
164.91139080533651
 11
303.9999919876629
 21
163.50351764428567
  0
LINE
  8
_0-0_
  6
CONTINUOUS
 62
    7
 10
283.97500903449924
 20
225.75350794552836
 11
286.49999014659272
 21
219.50352134851872
  0
LINE
  8
_0-0_
  6
CONTINUOUS
 62
    7
 10
286.49999014659272
 20
219.50352134851872
 11
308.50000683405227
 21
219.50352134851872
  0
LINE
  8
_0-0_
  6
CONTINUOUS
 62
    7
 10
308.50000683405227
 20
219.50352134851872
 11
311.02500981805861
 21
225.75350794552836
  0
LINE
  8
_0-0_
  6
CONTINUOUS
 62
    7
 10
311.02500981805861
 20
225.75350794552836
 11
308.50000683405227
 21
232.00351641445084
  0
LINE
  8
_0-0_
  6
CONTINUOUS
 62
    7
 10
308.50000683405227
 20
232.00351641445084
 11
286.49999014659272
 21
232.00351641445084
  0
LINE
  8
_0-0_
  6
CONTINUOUS
 62
    7
 10
286.49999014659272
 20
232.00351641445084
 11
283.97500903449924
 21
225.75350794552836
  0
LINE
  8
_0-0_
  6
CONTINUOUS
 62
    7
 10
311.02498794614576
 20
225.74189395978183
 11
311.02498794614576
 21
225.74335937794569
  0
LINE
  8
_0-0_
  6
CONTINUOUS
 62
    7
 10
311.02498794614576
 20
225.74335937794569
 11
311.02498794614576
 21
225.74480292419668
  0
LINE
  8
_0-0_
  6
CONTINUOUS
 62
    7
 10
311.02498794614576
 20
225.74480292419668
 11
311.02498794614576
 21
225.74626834236057
  0
LINE
  8
_0-0_
  6
CONTINUOUS
 62
    7
 10
311.02498794614576
 20
225.74626834236057
 11
311.02498794614576
 21
225.74771188861152
  0
LINE
  8
_0-0_
  6
CONTINUOUS
 62
    7
 10
311.02498794614576
 20
225.74771188861152
 11
311.02500981805861
 21
225.74915543486253
  0
LINE
  8
_0-0_
  6
CONTINUOUS
 62
    7
 10
311.02500981805861
 20
225.74915543486253
 11
311.02500981805861
 21
225.75062085302642
  0
LINE
  8
_0-0_
  6
CONTINUOUS
 62
    7
 10
311.02500981805861
 20
225.75062085302642
 11
311.02500981805861
 21
225.75206439927737
  0
LINE
  8
_0-0_
  6
CONTINUOUS
 62
    7
 10
311.02500981805861
 20
225.75206439927737
 11
311.02500981805861
 21
225.75350794552836
  0
LINE
  8
_0-0_
  6
CONTINUOUS
 62
    7
 10
311.02500981805861
 20
225.75350794552836
 11
311.02500981805861
 21
225.75482026030198
  0
LINE
  8
_0-0_
  6
CONTINUOUS
 62
    7
 10
311.02500981805861
 20
225.75482026030198
 11
311.02500981805861
 21
225.7561107031627
  0
LINE
  8
_0-0_
  6
CONTINUOUS
 62
    7
 10
311.02500981805861
 20
225.7561107031627
 11
311.02500981805861
 21
225.75740114602343
  0
LINE
  8
_0-0_
  6
CONTINUOUS
 62
    7
 10
311.02500981805861
 20
225.75740114602343
 11
311.02500981805861
 21
225.75869158888412
  0
LINE
  8
_0-0_
  6
CONTINUOUS
 62
    7
 10
311.02500981805861
 20
225.75869158888412
 11
311.02498794614576
 21
225.75998203174487
  0
LINE
  8
_0-0_
  6
CONTINUOUS
 62
    7
 10
311.02498794614576
 20
225.75998203174487
 11
311.02498794614576
 21
225.76127247460559
  0
LINE
  8
_0-0_
  6
CONTINUOUS
 62
    7
 10
311.02498794614576
 20
225.76127247460559
 11
311.02498794614576
 21
225.76258478937919
  0
LINE
  8
_0-0_
  6
CONTINUOUS
 62
    7
 10
311.02498794614576
 20
225.76258478937919
 11
311.02498794614576
 21
225.76387523223991
  0
LINE
  8
_0-0_
  6
CONTINUOUS
 62
    7
 10
308.68001267716693
 20
219.94903034224933
 11
308.58239832992251
 21
219.90320868473714
  0
LINE
  8
_0-0_
  6
CONTINUOUS
 62
    7
 10
308.58239832992251
 20
219.90320868473714
 11
308.48393097807548
 21
219.8634892909223
  0
LINE
  8
_0-0_
  6
CONTINUOUS
 62
    7
 10
308.48393097807548
 20
219.8634892909223
 11
308.38458874971252
 21
219.82989403271768
  0
LINE
  8
_0-0_
  6
CONTINUOUS
 62
    7
 10
308.38458874971252
 20
219.82989403271768
 11
308.28439351674672
 21
219.80240103821035
  0
LINE
  8
_0-0_
  6
CONTINUOUS
 62
    7
 10
308.28439351674672
 20
219.80240103821035
 11
308.18332340726522
 21
219.78101030740038
  0
LINE
  8
_0-0_
  6
CONTINUOUS
 62
    7
 10
308.18332340726522
 20
219.78101030740038
 11
308.08142216509367
 21
219.76574371220062
  0
LINE
  8
_0-0_
  6
CONTINUOUS
 62
    7
 10
308.08142216509367
 20
219.76574371220062
 11
307.97864604640654
 21
219.75657938069816
  0
LINE
  8
_0-0_
  6
CONTINUOUS
 62
    7
 10
307.97864604640654
 20
219.75657938069816
 11
307.87499505120354
 21
219.75351731289305
  0
LINE
  8
_0-0_
  6
CONTINUOUS
 62
    7
 10
307.87499505120354
 20
219.75351731289305
 11
307.66574646055005
 21
219.76607179089402
  0
LINE
  8
_0-0_
  6
CONTINUOUS
 62
    7
 10
307.66574646055005
 20
219.76607179089402
 11
307.46004111978539
 21
219.80375709680973
  0
LINE
  8
_0-0_
  6
CONTINUOUS
 62
    7
 10
307.46004111978539
 20
219.80375709680973
 11
307.25787902890943
 21
219.86655135872741
  0
LINE
  8
_0-0_
  6
CONTINUOUS
 62
    7
 10
307.25787902890943
 20
219.86655135872741
 11
307.05923831600944
 21
219.95447644855983
  0
LINE
  8
_0-0_
  6
CONTINUOUS
 62
    7
 10
307.05923831600944
 20
219.95447644855983
 11
306.8641189810852
 21
220.06753236630709
  0
LINE
  8
_0-0_
  6
CONTINUOUS
 62
    7
 10
306.8641189810852
 20
220.06753236630709
 11
306.67254289604983
 21
220.20567536814329
  0
LINE
  8
_0-0_
  6
CONTINUOUS
 62
    7
 10
306.67254289604983
 20
220.20567536814329
 11
306.48451006090312
 21
220.36897106980723
  0
LINE
  8
_0-0_
  6
CONTINUOUS
 62
    7
 10
306.48451006090312
 20
220.36897106980723
 11
306.29999860373243
 21
220.55737572747307
  0
LINE
  8
_0-0_
  6
CONTINUOUS
 62
    7
 10
306.29999860373243
 20
220.55737572747307
 11
306.1220924642555
 21
220.76752106655516
  0
LINE
  8
_0-0_
  6
CONTINUOUS
 62
    7
 10
306.1220924642555
 20
220.76752106655516
 11
305.95383183836475
 21
220.99606068438081
  0
LINE
  8
_0-0_
  6
CONTINUOUS
 62
    7
 10
305.95383183836475
 20
220.99606068438081
 11
305.79521672606006
 21
221.24299458095004
  0
LINE
  8
_0-0_
  6
CONTINUOUS
 62
    7
 10
305.79521672606006
 20
221.24299458095004
 11
305.64626899925435
 21
221.50832275626283
  0
LINE
  8
_0-0_
  6
CONTINUOUS
 62
    7
 10
305.64626899925435
 20
221.50832275626283
 11
305.50698865794766
 21
221.79204521031915
  0
LINE
  8
_0-0_
  6
CONTINUOUS
 62
    7
 10
305.50698865794766
 20
221.79204521031915
 11
305.37733195831413
 21
222.09414007120611
  0
LINE
  8
_0-0_
  6
CONTINUOUS
 62
    7
 10
305.37733195831413
 20
222.09414007120611
 11
305.25734264417963
 21
222.41462921083664
  0
LINE
  8
_0-0_
  6
CONTINUOUS
 62
    7
 10
305.25734264417963
 20
222.41462921083664
 11
305.1470207155441
 21
222.75351262921072
  0
LINE
  8
_0-0_
  6
CONTINUOUS
 62
    7
 10
305.1470207155441
 20
222.75351262921072
 11
305.04811592543899
 21
223.10495052558571
  0
LINE
  8
_0-0_
  6
CONTINUOUS
 62
    7
 10
305.04811592543899
 20
223.10495052558571
 11
304.96237802689598
 21
223.463124971132
  0
LINE
  8
_0-0_
  6
CONTINUOUS
 62
    7
 10
304.96237802689598
 20
223.463124971132
 11
304.88985076374064
 21
223.82803596584952
  0
LINE
  8
_0-0_
  6
CONTINUOUS
 62
    7
 10
304.88985076374064
 20
223.82803596584952
 11
304.83051226406019
 21
224.19966163782536
  0
LINE
  8
_0-0_
  6
CONTINUOUS
 62
    7
 10
304.83051226406019
 20
224.19966163782536
 11
304.78434065594172
 21
224.57804573088538
  0
LINE
  8
_0-0_
  6
CONTINUOUS
 62
    7
 10
304.78434065594172
 20
224.57804573088538
 11
304.7513796832111
 21
224.96312262929084
  0
LINE
  8
_0-0_
  6
CONTINUOUS
 62
    7
 10
304.7513796832111
 20
224.96312262929084
 11
304.73158560204229
 21
225.35495794878042
  0
LINE
  8
_0-0_
  6
CONTINUOUS
 62
    7
 10
304.73158560204229
 20
225.35495794878042
 11
304.72500215626127
 21
225.75350794552836
  0
LINE
  8
_0-0_
  6
CONTINUOUS
 62
    7
 10
304.72500215626127
 20
225.75350794552836
 11
304.73158560204229
 21
226.15207981418916
  0
LINE
  8
_0-0_
  6
CONTINUOUS
 62
    7
 10
304.73158560204229
 20
226.15207981418916
 11
304.7513796832111
 21
226.54391513367875
  0
LINE
  8
_0-0_
  6
CONTINUOUS
 62
    7
 10
304.7513796832111
 20
226.54391513367875
 11
304.78434065594172
 21
226.92899203208418
  0
LINE
  8
_0-0_
  6
CONTINUOUS
 62
    7
 10
304.78434065594172
 20
226.92899203208418
 11
304.83051226406019
 21
227.3073761251442
  0
LINE
  8
_0-0_
  6
CONTINUOUS
 62
    7
 10
304.83051226406019
 20
227.3073761251442
 11
304.88985076374064
 21
227.67900179712007
  0
LINE
  8
_0-0_
  6
CONTINUOUS
 62
    7
 10
304.88985076374064
 20
227.67900179712007
 11
304.96237802689598
 21
228.04391279183758
  0
LINE
  8
_0-0_
  6
CONTINUOUS
 62
    7
 10
304.96237802689598
 20
228.04391279183758
 11
305.04811592543899
 21
228.40208723738385
  0
LINE
  8
_0-0_
  6
CONTINUOUS
 62
    7
 10
305.04811592543899
 20
228.40208723738385
 11
305.1470207155441
 21
228.75352513375887
  0
LINE
  8
_0-0_
  6
CONTINUOUS
 62
    7
 10
305.1470207155441
 20
228.75352513375887
 11
305.25734264417963
 21
229.09240855213298
  0
LINE
  8
_0-0_
  6
CONTINUOUS
 62
    7
 10
305.25734264417963
 20
229.09240855213298
 11
305.37733195831413
 21
229.4128976917635
  0
LINE
  8
_0-0_
  6
CONTINUOUS
 62
    7
 10
305.37733195831413
 20
229.4128976917635
 11
305.50698865794766
 21
229.71499255265047
  0
LINE
  8
_0-0_
  6
CONTINUOUS
 62
    7
 10
305.50698865794766
 20
229.71499255265047
 11
305.64626899925435
 21
229.99871500670679
  0
LINE
  8
_0-0_
  6
CONTINUOUS
 62
    7
 10
305.64626899925435
 20
229.99871500670679
 11
305.79521672606006
 21
230.26404318201955
  0
LINE
  8
_0-0_
  6
CONTINUOUS
 62
    7
 10
305.79521672606006
 20
230.26404318201955
 11
305.95383183836475
 21
230.51097707858875
  0
LINE
  8
_0-0_
  6
CONTINUOUS
 62
    7
 10
305.95383183836475
 20
230.51097707858875
 11
306.1220924642555
 21
230.73951669641443
  0
LINE
  8
_0-0_
  6
CONTINUOUS
 62
    7
 10
306.1220924642555
 20
230.73951669641443
 11
306.29999860373243
 21
230.94966203549654
  0
LINE
  8
_0-0_
  6
CONTINUOUS
 62
    7
 10
306.29999860373243
 20
230.94966203549654
 11
306.48451006090312
 21
231.13806669316236
  0
LINE
  8
_0-0_
  6
CONTINUOUS
 62
    7
 10
306.48451006090312
 20
231.13806669316236
 11
306.67254289604983
 21
231.30136239482627
  0
LINE
  8
_0-0_
  6
CONTINUOUS
 62
    7
 10
306.67254289604983
 20
231.30136239482627
 11
306.8641189810852
 21
231.43950539666253
  0
LINE
  8
_0-0_
  6
CONTINUOUS
 62
    7
 10
306.8641189810852
 20
231.43950539666253
 11
307.05923831600944
 21
231.55256131440976
  0
LINE
  8
_0-0_
  6
CONTINUOUS
 62
    7
 10
307.05923831600944
 20
231.55256131440976
 11
307.25787902890943
 21
231.64048640424221
  0
LINE
  8
_0-0_
  6
CONTINUOUS
 62
    7
 10
307.25787902890943
 20
231.64048640424221
 11
307.46004111978539
 21
231.70328066615983
  0
LINE
  8
_0-0_
  6
CONTINUOUS
 62
    7
 10
307.46004111978539
 20
231.70328066615983
 11
307.66574646055005
 21
231.74096597207557
  0
LINE
  8
_0-0_
  6
CONTINUOUS
 62
    7
 10
307.66574646055005
 20
231.74096597207557
 11
307.87499505120354
 21
231.75352045007654
  0
LINE
  8
_0-0_
  6
CONTINUOUS
 62
    7
 10
307.87499505120354
 20
231.75352045007654
 11
307.97864604640654
 21
231.7504583822714
  0
LINE
  8
_0-0_
  6
CONTINUOUS
 62
    7
 10
307.97864604640654
 20
231.7504583822714
 11
308.08142216509367
 21
231.74129405076897
  0
LINE
  8
_0-0_
  6
CONTINUOUS
 62
    7
 10
308.08142216509367
 20
231.74129405076897
 11
308.18332340726522
 21
231.72602745556924
  0
LINE
  8
_0-0_
  6
CONTINUOUS
 62
    7
 10
308.18332340726522
 20
231.72602745556924
 11
308.28439351674672
 21
231.70463672475927
  0
LINE
  8
_0-0_
  6
CONTINUOUS
 62
    7
 10
308.28439351674672
 20
231.70463672475927
 11
308.38458874971252
 21
231.67714373025194
  0
LINE
  8
_0-0_
  6
CONTINUOUS
 62
    7
 10
308.38458874971252
 20
231.67714373025194
 11
308.48393097807548
 21
231.64354847204731
  0
LINE
  8
_0-0_
  6
CONTINUOUS
 62
    7
 10
308.48393097807548
 20
231.64354847204731
 11
308.58239832992251
 21
231.60382907823245
  0
LINE
  8
_0-0_
  6
CONTINUOUS
 62
    7
 10
308.58239832992251
 20
231.60382907823245
 11
308.68001267716693
 21
231.55800742072029
  0
LINE
  8
_0-0_
  6
CONTINUOUS
 62
    7
 10
286.31998430347807
 20
219.94903034224933
 11
286.41759865072243
 21
219.90320868473714
  0
LINE
  8
_0-0_
  6
CONTINUOUS
 62
    7
 10
286.41759865072243
 20
219.90320868473714
 11
286.51606600256957
 21
219.8634892909223
  0
LINE
  8
_0-0_
  6
CONTINUOUS
 62
    7
 10
286.51606600256957
 20
219.8634892909223
 11
286.61540823093247
 21
219.82989403271768
  0
LINE
  8
_0-0_
  6
CONTINUOUS
 62
    7
 10
286.61540823093247
 20
219.82989403271768
 11
286.71560346389822
 21
219.80240103821035
  0
LINE
  8
_0-0_
  6
CONTINUOUS
 62
    7
 10
286.71560346389822
 20
219.80240103821035
 11
286.81667357337977
 21
219.78101030740038
  0
LINE
  8
_0-0_
  6
CONTINUOUS
 62
    7
 10
286.81667357337977
 20
219.78101030740038
 11
286.91859668746417
 21
219.76574371220062
  0
LINE
  8
_0-0_
  6
CONTINUOUS
 62
    7
 10
286.91859668746417
 20
219.76574371220062
 11
287.02137280615136
 21
219.75657938069816
  0
LINE
  8
_0-0_
  6
CONTINUOUS
 62
    7
 10
287.02137280615136
 20
219.75657938069816
 11
287.12500192944151
 21
219.75351731289305
  0
LINE
  8
_0-0_
  6
CONTINUOUS
 62
    7
 10
287.12500192944151
 20
219.75351731289305
 11
287.33425052009494
 21
219.76607179089402
  0
LINE
  8
_0-0_
  6
CONTINUOUS
 62
    7
 10
287.33425052009494
 20
219.76607179089402
 11
287.53995586085966
 21
219.80375709680973
  0
LINE
  8
_0-0_
  6
CONTINUOUS
 62
    7
 10
287.53995586085966
 20
219.80375709680973
 11
287.74211795173557
 21
219.86655135872741
  0
LINE
  8
_0-0_
  6
CONTINUOUS
 62
    7
 10
287.74211795173557
 20
219.86655135872741
 11
287.94078053654852
 21
219.95447644855983
  0
LINE
  8
_0-0_
  6
CONTINUOUS
 62
    7
 10
287.94078053654852
 20
219.95447644855983
 11
288.13587799955985
 21
220.06753236630709
  0
LINE
  8
_0-0_
  6
CONTINUOUS
 62
    7
 10
288.13587799955985
 20
220.06753236630709
 11
288.32745408459516
 21
220.20567536814329
  0
LINE
  8
_0-0_
  6
CONTINUOUS
 62
    7
 10
288.32745408459516
 20
220.20567536814329
 11
288.51548691974182
 21
220.36897106980723
  0
LINE
  8
_0-0_
  6
CONTINUOUS
 62
    7
 10
288.51548691974182
 20
220.36897106980723
 11
288.6999983769125
 21
220.55737572747307
  0
LINE
  8
_0-0_
  6
CONTINUOUS
 62
    7
 10
288.6999983769125
 20
220.55737572747307
 11
288.87790451638949
 21
220.76752106655516
  0
LINE
  8
_0-0_
  6
CONTINUOUS
 62
    7
 10
288.87790451638949
 20
220.76752106655516
 11
289.04616514228024
 21
220.99606068438081
  0
LINE
  8
_0-0_
  6
CONTINUOUS
 62
    7
 10
289.04616514228024
 20
220.99606068438081
 11
289.20478025458493
 21
221.24299458095004
  0
LINE
  8
_0-0_
  6
CONTINUOUS
 62
    7
 10
289.20478025458493
 20
221.24299458095004
 11
289.35372798139065
 21
221.50832275626283
  0
LINE
  8
_0-0_
  6
CONTINUOUS
 62
    7
 10
289.35372798139065
 20
221.50832275626283
 11
289.49303019461024
 21
221.79204521031915
  0
LINE
  8
_0-0_
  6
CONTINUOUS
 62
    7
 10
289.49303019461024
 20
221.79204521031915
 11
289.62266502233086
 21
222.09414007120611
  0
LINE
  8
_0-0_
  6
CONTINUOUS
 62
    7
 10
289.62266502233086
 20
222.09414007120611
 11
289.74265433646536
 21
222.41462921083664
  0
LINE
  8
_0-0_
  6
CONTINUOUS
 62
    7
 10
289.74265433646536
 20
222.41462921083664
 11
289.85297626510089
 21
222.75351262921072
  0
LINE
  8
_0-0_
  6
CONTINUOUS
 62
    7
 10
289.85297626510089
 20
222.75351262921072
 11
289.95188105520594
 21
223.10495052558571
  0
LINE
  8
_0-0_
  6
CONTINUOUS
 62
    7
 10
289.95188105520594
 20
223.10495052558571
 11
290.03761895374902
 21
223.463124971132
  0
LINE
  8
_0-0_
  6
CONTINUOUS
 62
    7
 10
290.03761895374902
 20
223.463124971132
 11
290.11014621690435
 21
223.82803596584952
  0
LINE
  8
_0-0_
  6
CONTINUOUS
 62
    7
 10
290.11014621690435
 20
223.82803596584952
 11
290.1694847165848
 21
224.19966163782536
  0
LINE
  8
_0-0_
  6
CONTINUOUS
 62
    7
 10
290.1694847165848
 20
224.19966163782536
 11
290.21565632470328
 21
224.57804573088538
  0
LINE
  8
_0-0_
  6
CONTINUOUS
 62
    7
 10
290.21565632470328
 20
224.57804573088538
 11
290.24861729743395
 21
224.96312262929084
  0
LINE
  8
_0-0_
  6
CONTINUOUS
 62
    7
 10
290.24861729743395
 20
224.96312262929084
 11
290.26841137860276
 21
225.35495794878042
  0
LINE
  8
_0-0_
  6
CONTINUOUS
 62
    7
 10
290.26841137860276
 20
225.35495794878042
 11
290.27499482438373
 21
225.75350794552836
  0
LINE
  8
_0-0_
  6
CONTINUOUS
 62
    7
 10
290.27499482438373
 20
225.75350794552836
 11
290.26841137860276
 21
226.15207981418916
  0
LINE
  8
_0-0_
  6
CONTINUOUS
 62
    7
 10
290.26841137860276
 20
226.15207981418916
 11
290.24861729743395
 21
226.54391513367875
  0
LINE
  8
_0-0_
  6
CONTINUOUS
 62
    7
 10
290.24861729743395
 20
226.54391513367875
 11
290.21565632470328
 21
226.92899203208418
  0
LINE
  8
_0-0_
  6
CONTINUOUS
 62
    7
 10
290.21565632470328
 20
226.92899203208418
 11
290.1694847165848
 21
227.3073761251442
  0
LINE
  8
_0-0_
  6
CONTINUOUS
 62
    7
 10
290.1694847165848
 20
227.3073761251442
 11
290.11014621690435
 21
227.67900179712007
  0
LINE
  8
_0-0_
  6
CONTINUOUS
 62
    7
 10
290.11014621690435
 20
227.67900179712007
 11
290.03761895374902
 21
228.04391279183758
  0
LINE
  8
_0-0_
  6
CONTINUOUS
 62
    7
 10
290.03761895374902
 20
228.04391279183758
 11
289.95188105520594
 21
228.40208723738385
  0
LINE
  8
_0-0_
  6
CONTINUOUS
 62
    7
 10
289.95188105520594
 20
228.40208723738385
 11
289.85297626510089
 21
228.75352513375887
  0
LINE
  8
_0-0_
  6
CONTINUOUS
 62
    7
 10
289.85297626510089
 20
228.75352513375887
 11
289.74265433646536
 21
229.09240855213298
  0
LINE
  8
_0-0_
  6
CONTINUOUS
 62
    7
 10
289.74265433646536
 20
229.09240855213298
 11
289.62266502233086
 21
229.4128976917635
  0
LINE
  8
_0-0_
  6
CONTINUOUS
 62
    7
 10
289.62266502233086
 20
229.4128976917635
 11
289.49303019461024
 21
229.71499255265047
  0
LINE
  8
_0-0_
  6
CONTINUOUS
 62
    7
 10
289.49303019461024
 20
229.71499255265047
 11
289.35372798139065
 21
229.99871500670679
  0
LINE
  8
_0-0_
  6
CONTINUOUS
 62
    7
 10
289.35372798139065
 20
229.99871500670679
 11
289.20478025458493
 21
230.26404318201955
  0
LINE
  8
_0-0_
  6
CONTINUOUS
 62
    7
 10
289.20478025458493
 20
230.26404318201955
 11
289.04616514228024
 21
230.51097707858875
  0
LINE
  8
_0-0_
  6
CONTINUOUS
 62
    7
 10
289.04616514228024
 20
230.51097707858875
 11
288.87790451638949
 21
230.73951669641443
  0
LINE
  8
_0-0_
  6
CONTINUOUS
 62
    7
 10
288.87790451638949
 20
230.73951669641443
 11
288.6999983769125
 21
230.94966203549654
  0
LINE
  8
_0-0_
  6
CONTINUOUS
 62
    7
 10
288.6999983769125
 20
230.94966203549654
 11
288.51548691974182
 21
231.13806669316236
  0
LINE
  8
_0-0_
  6
CONTINUOUS
 62
    7
 10
288.51548691974182
 20
231.13806669316236
 11
288.32745408459516
 21
231.30136239482627
  0
LINE
  8
_0-0_
  6
CONTINUOUS
 62
    7
 10
288.32745408459516
 20
231.30136239482627
 11
288.13587799955985
 21
231.43950539666253
  0
LINE
  8
_0-0_
  6
CONTINUOUS
 62
    7
 10
288.13587799955985
 20
231.43950539666253
 11
287.94078053654852
 21
231.55256131440976
  0
LINE
  8
_0-0_
  6
CONTINUOUS
 62
    7
 10
287.94078053654852
 20
231.55256131440976
 11
287.74211795173557
 21
231.64048640424221
  0
LINE
  8
_0-0_
  6
CONTINUOUS
 62
    7
 10
287.74211795173557
 20
231.64048640424221
 11
287.53995586085966
 21
231.70328066615983
  0
LINE
  8
_0-0_
  6
CONTINUOUS
 62
    7
 10
287.53995586085966
 20
231.70328066615983
 11
287.33425052009494
 21
231.74096597207557
  0
LINE
  8
_0-0_
  6
CONTINUOUS
 62
    7
 10
287.33425052009494
 20
231.74096597207557
 11
287.12500192944151
 21
231.75352045007654
  0
LINE
  8
_0-0_
  6
CONTINUOUS
 62
    7
 10
287.12500192944151
 20
231.75352045007654
 11
287.02137280615136
 21
231.7504583822714
  0
LINE
  8
_0-0_
  6
CONTINUOUS
 62
    7
 10
287.02137280615136
 20
231.7504583822714
 11
286.91859668746417
 21
231.74129405076897
  0
LINE
  8
_0-0_
  6
CONTINUOUS
 62
    7
 10
286.91859668746417
 20
231.74129405076897
 11
286.81667357337977
 21
231.72602745556924
  0
LINE
  8
_0-0_
  6
CONTINUOUS
 62
    7
 10
286.81667357337977
 20
231.72602745556924
 11
286.71560346389822
 21
231.70463672475927
  0
LINE
  8
_0-0_
  6
CONTINUOUS
 62
    7
 10
286.71560346389822
 20
231.70463672475927
 11
286.61540823093247
 21
231.67714373025194
  0
LINE
  8
_0-0_
  6
CONTINUOUS
 62
    7
 10
286.61540823093247
 20
231.67714373025194
 11
286.51606600256957
 21
231.64354847204731
  0
LINE
  8
_0-0_
  6
CONTINUOUS
 62
    7
 10
286.51606600256957
 20
231.64354847204731
 11
286.41759865072243
 21
231.60382907823245
  0
LINE
  8
_0-0_
  6
CONTINUOUS
 62
    7
 10
286.41759865072243
 20
231.60382907823245
 11
286.31998430347807
 21
231.55800742072029
  0
LINE
  8
_0-1_
  6
CONTINUOUS
 62
    7
 10
200.7499964356883
 20
343.49034313069347
 11
214.24999723103056
 21
343.49034313069347
  0
LINE
  8
_0-1_
  6
CONTINUOUS
 62
    7
 10
214.24999723103056
 20
343.49034313069347
 11
214.24999723103056
 21
327.49033894778216
  0
LINE
  8
_0-1_
  6
CONTINUOUS
 62
    7
 10
214.24999723103056
 20
327.49033894778216
 11
200.7499964356883
 21
327.49033894778216
  0
LINE
  8
_0-1_
  6
CONTINUOUS
 62
    7
 10
200.7499964356883
 20
327.49033894778216
 11
200.7499964356883
 21
343.49034313069347
  0
LINE
  8
_0-1_
  6
CONTINUOUS
 62
    7
 10
233.68592582614264
 20
356.9852040265057
 11
233.68592582614264
 21
356.99034392603573
  0
LINE
  8
_0-1_
  6
CONTINUOUS
 62
    7
 10
233.68592582614264
 20
356.99034392603573
 11
181.3140787765326
 21
356.99034392603573
  0
LINE
  8
_0-1_
  6
CONTINUOUS
 62
    7
 10
181.3140787765326
 20
356.99034392603573
 11
181.3140787765326
 21
356.97750511316718
  0
LINE
  8
_0-1_
  6
CONTINUOUS
 62
    7
 10
233.68592582614264
 20
343.51158075811321
 11
233.68592582614264
 21
343.49034313069347
  0
LINE
  8
_0-1_
  6
CONTINUOUS
 62
    7
 10
233.68592582614264
 20
343.49034313069347
 11
181.3140787765326
 21
343.49034313069347
  0
LINE
  8
_0-1_
  6
CONTINUOUS
 62
    7
 10
181.3140787765326
 20
343.49034313069347
 11
181.3140787765326
 21
343.50385997286173
  0
LINE
  8
_0-1_
  6
CONTINUOUS
 62
    7
 10
207.49999683335943
 20
356.99034392603573
 11
207.49999683335943
 21
343.49034313069347
  0
LINE
  8
_0-1_
  6
CONTINUOUS
 62
    7
 10
380.75002162152737
 20
343.49034313069347
 11
394.24997867304387
 21
343.49034313069347
  0
LINE
  8
_0-1_
  6
CONTINUOUS
 62
    7
 10
394.24997867304387
 20
343.49034313069347
 11
394.24997867304387
 21
327.49033894778216
  0
LINE
  8
_0-1_
  6
CONTINUOUS
 62
    7
 10
394.24997867304387
 20
327.49033894778216
 11
380.75002162152737
 21
327.49033894778216
  0
LINE
  8
_0-1_
  6
CONTINUOUS
 62
    7
 10
380.75002162152737
 20
327.49033894778216
 11
380.75002162152737
 21
343.49034313069347
  0
LINE
  8
_0-1_
  6
CONTINUOUS
 62
    7
 10
413.68592914006882
 20
356.97921112237287
 11
413.68592914006882
 21
356.99034392603573
  0
LINE
  8
_0-1_
  6
CONTINUOUS
 62
    7
 10
413.68592914006882
 20
356.99034392603573
 11
361.31407115450236
 21
356.99034392603573
  0
LINE
  8
_0-1_
  6
CONTINUOUS
 62
    7
 10
361.31407115450236
 20
356.99034392603573
 11
361.31407115450236
 21
356.97407122284289
  0
LINE
  8
_0-1_
  6
CONTINUOUS
 62
    7
 10
413.68592914006882
 20
343.50556598206742
 11
413.68592914006882
 21
343.49034313069347
  0
LINE
  8
_0-1_
  6
CONTINUOUS
 62
    7
 10
413.68592914006882
 20
343.49034313069347
 11
361.31407115450236
 21
343.49034313069347
  0
LINE
  8
_0-1_
  6
CONTINUOUS
 62
    7
 10
361.31407115450236
 20
343.49034313069347
 11
361.31407115450236
 21
343.50042608253744
  0
LINE
  8
_0-1_
  6
CONTINUOUS
 62
    7
 10
387.50000014728556
 20
356.99034392603573
 11
387.50000014728556
 21
343.49034313069347
  0
LINE
  8
_0-1_
  6
CONTINUOUS
 62
    7
 10
816.74998250246961
 20
343.32558201086562
 11
830.25002704163762
 21
343.32558201086562
  0
LINE
  8
_0-1_
  6
CONTINUOUS
 62
    7
 10
830.25002704163762
 20
343.32558201086562
 11
830.25002704163762
 21
327.32557782795436
  0
LINE
  8
_0-1_
  6
CONTINUOUS
 62
    7
 10
830.25002704163762
 20
327.32557782795436
 11
816.74998250246961
 21
327.32557782795436
  0
LINE
  8
_0-1_
  6
CONTINUOUS
 62
    7
 10
816.74998250246961
 20
327.32557782795436
 11
816.74998250246961
 21
343.32558201086562
  0
LINE
  8
_0-1_
  6
CONTINUOUS
 62
    7
 10
849.68593376483693
 20
356.81027246718236
 11
849.68593376483693
 21
356.82558280620799
  0
LINE
  8
_0-1_
  6
CONTINUOUS
 62
    7
 10
849.68593376483693
 20
356.82558280620799
 11
797.31407577927041
 21
356.82558280620799
  0
LINE
  8
_0-1_
  6
CONTINUOUS
 62
    7
 10
797.31407577927041
 20
356.82558280620799
 11
797.31407577927041
 21
356.80793217250277
  0
LINE
  8
_0-1_
  6
CONTINUOUS
 62
    7
 10
849.68593376483693
 20
343.33662732687691
 11
849.68593376483693
 21
343.32558201086562
  0
LINE
  8
_0-1_
  6
CONTINUOUS
 62
    7
 10
849.68593376483693
 20
343.32558201086562
 11
797.31407577927041
 21
343.32558201086562
  0
LINE
  8
_0-1_
  6
CONTINUOUS
 62
    7
 10
797.31407577927041
 20
343.32558201086562
 11
797.31407577927041
 21
343.33430890411023
  0
LINE
  8
_0-1_
  6
CONTINUOUS
 62
    7
 10
823.50000477205367
 20
356.82558280620799
 11
823.50000477205367
 21
343.32558201086562
  0
LINE
  8
_0-0_
  6
CONTINUOUS
 62
    7
 10
387.50000014728556
 20
855.67761307057265
 11
378.04595328666068
 21
855.67761307057265
  0
LINE
  8
_0-0_
  6
CONTINUOUS
 62
    7
 10
216.95406556589717
 20
855.67761307057265
 11
207.49999683335943
 21
855.67761307057265
  0
LINE
  8
_0-0_
  6
CONTINUOUS
 62
    7
 10
236.04594897119233
 20
855.67761307057265
 11
358.95404800945266
 21
855.67761307057265
  0
LINE
  8
_0-0_
  6
CONTINUOUS
 62
    7
 10
207.49999683335943
 20
846.22360995377346
 11
207.49999683335943
 21
827.1317046765655
  0
LINE
  8
_0-0_
  6
CONTINUOUS
 62
    7
 10
216.95406556589717
 20
817.67761407211481
 11
207.49999683335943
 21
817.67761407211481
  0
LINE
  8
_0-0_
  6
CONTINUOUS
 62
    7
 10
236.04594897119233
 20
817.67761407211481
 11
284.5000005596853
 21
817.67761407211481
  0
LINE
  8
_0-0_
  6
CONTINUOUS
 62
    7
 10
387.50000014728556
 20
846.22360995377346
 11
387.50000014728556
 21
827.1317046765655
  0
LINE
  8
_0-0_
  6
CONTINUOUS
 62
    7
 10
387.50000014728556
 20
817.67761407211481
 11
378.04595328666068
 21
817.67761407211481
  0
LINE
  8
_0-0_
  6
CONTINUOUS
 62
    7
 10
358.95404800945266
 20
817.67761407211481
 11
310.49999642095969
 21
817.67761407211481
  0
LINE
  8
_0-0_
  6
CONTINUOUS
 62
    7
 10
310.49999642095969
 20
645.85812174675539
 11
310.47278776132003
 21
645.0278201894871
  0
LINE
  8
_0-0_
  6
CONTINUOUS
 62
    7
 10
310.47278776132003
 20
645.0278201894871
 11
310.39113991048805
 21
644.21151665647062
  0
LINE
  8
_0-0_
  6
CONTINUOUS
 62
    7
 10
310.39113991048805
 20
644.21151665647062
 11
310.2550747403767
 21
643.40921114770595
  0
LINE
  8
_0-0_
  6
CONTINUOUS
 62
    7
 10
310.2550747403767
 20
643.40921114770595
 11
310.06459225098592
 21
642.62094740701912
  0
LINE
  8
_0-0_
  6
CONTINUOUS
 62
    7
 10
310.06459225098592
 20
642.62094740701912
 11
309.81967057040293
 21
641.84672543441002
  0
LINE
  8
_0-0_
  6
CONTINUOUS
 62
    7
 10
309.81967057040293
 20
641.84672543441002
 11
309.52030969862778
 21
641.08650148605284
  0
LINE
  8
_0-0_
  6
CONTINUOUS
 62
    7
 10
309.52030969862778
 20
641.08650148605284
 11
309.16653150757304
 21
640.34031930577339
  0
LINE
  8
_0-0_
  6
CONTINUOUS
 62
    7
 10
309.16653150757304
 20
640.34031930577339
 11
308.75833599723904
 21
639.60813514974586
  0
LINE
  8
_0-0_
  6
CONTINUOUS
 62
    7
 10
308.75833599723904
 20
639.60813514974586
 11
308.30298464270629
 21
638.90210980153915
  0
LINE
  8
_0-0_
  6
CONTINUOUS
 62
    7
 10
308.30298464270629
 20
638.90210980153915
 11
307.80780453479423
 21
638.23444778854775
  0
LINE
  8
_0-0_
  6
CONTINUOUS
 62
    7
 10
307.80780453479423
 20
638.23444778854775
 11
307.27277380159001
 21
637.60506162312038
  0
LINE
  8
_0-0_
  6
CONTINUOUS
 62
    7
 10
307.27277380159001
 20
637.60506162312038
 11
306.69791431500641
 21
637.01399504908261
  0
LINE
  8
_0-0_
  6
CONTINUOUS
 62
    7
 10
306.69791431500641
 20
637.01399504908261
 11
306.08320420313066
 21
636.46124806643445
  0
LINE
  8
_0-0_
  6
CONTINUOUS
 62
    7
 10
306.08320420313066
 20
636.46124806643445
 11
305.42864346596264
 21
635.94677693135031
  0
LINE
  8
_0-0_
  6
CONTINUOUS
 62
    7
 10
305.42864346596264
 20
635.94677693135031
 11
304.7342539754153
 21
635.47062538765567
  0
LINE
  8
_0-0_
  6
CONTINUOUS
 62
    7
 10
304.7342539754153
 20
635.47062538765567
 11
303.9999919876629
 21
635.03283717917657
  0
LINE
  8
_0-0_
  6
CONTINUOUS
 62
    7
 10
303.9999919876629
 20
635.03283717917657
 11
303.23854321218363
 21
634.64032383038727
  0
LINE
  8
_0-0_
  6
CONTINUOUS
 62
    7
 10
303.23854321218363
 20
634.64032383038727
 11
302.46250587080442
 21
634.30012809723951
  0
LINE
  8
_0-0_
  6
CONTINUOUS
 62
    7
 10
302.46250587080442
 20
634.30012809723951
 11
301.67187996352493
 21
634.01229372355931
  0
LINE
  8
_0-0_
  6
CONTINUOUS
 62
    7
 10
301.67187996352493
 20
634.01229372355931
 11
300.86666549034561
 21
633.77682070934634
  0
LINE
  8
_0-0_
  6
CONTINUOUS
 62
    7
 10
300.86666549034561
 20
633.77682070934634
 11
300.04688432317903
 21
633.5936215669492
  0
LINE
  8
_0-0_
  6
CONTINUOUS
 62
    7
 10
300.04688432317903
 20
633.5936215669492
 11
299.21249271819943
 21
633.46278378401939
  0
LINE
  8
_0-0_
  6
CONTINUOUS
 62
    7
 10
299.21249271819943
 20
633.46278378401939
 11
298.36353441923279
 21
633.38430736055693
  0
LINE
  8
_0-0_
  6
CONTINUOUS
 62
    7
 10
298.36353441923279
 20
633.38430736055693
 11
297.50000942627889
 21
633.35814855273622
  0
LINE
  8
_0-0_
  6
CONTINUOUS
 62
    7
 10
297.50000942627889
 20
633.35814855273622
 11
296.6364625614122
 21
633.38430736055693
  0
LINE
  8
_0-0_
  6
CONTINUOUS
 62
    7
 10
296.6364625614122
 20
633.38430736055693
 11
295.78750426244551
 21
633.46278378401939
  0
LINE
  8
_0-0_
  6
CONTINUOUS
 62
    7
 10
295.78750426244551
 20
633.46278378401939
 11
294.95311265746591
 21
633.5936215669492
  0
LINE
  8
_0-0_
  6
CONTINUOUS
 62
    7
 10
294.95311265746591
 20
633.5936215669492
 11
294.13333149029938
 21
633.77682070934634
  0
LINE
  8
_0-0_
  6
CONTINUOUS
 62
    7
 10
294.13333149029938
 20
633.77682070934634
 11
293.32811701712001
 21
634.01229372355931
  0
LINE
  8
_0-0_
  6
CONTINUOUS
 62
    7
 10
293.32811701712001
 20
634.01229372355931
 11
292.53749110984063
 21
634.30012809723951
  0
LINE
  8
_0-0_
  6
CONTINUOUS
 62
    7
 10
292.53749110984063
 20
634.30012809723951
 11
291.76145376846137
 21
634.64032383038727
  0
LINE
  8
_0-0_
  6
CONTINUOUS
 62
    7
 10
291.76145376846137
 20
634.64032383038727
 11
291.0000049929821
 21
635.03283717917657
  0
LINE
  8
_0-0_
  6
CONTINUOUS
 62
    7
 10
291.0000049929821
 20
635.03283717917657
 11
290.2657648771426
 21
635.47062538765567
  0
LINE
  8
_0-0_
  6
CONTINUOUS
 62
    7
 10
290.2657648771426
 20
635.47062538765567
 11
289.57135351468241
 21
635.94677693135031
  0
LINE
  8
_0-0_
  6
CONTINUOUS
 62
    7
 10
289.57135351468241
 20
635.94677693135031
 11
288.91679277751439
 21
636.46124806643445
  0
LINE
  8
_0-0_
  6
CONTINUOUS
 62
    7
 10
288.91679277751439
 20
636.46124806643445
 11
288.30208266563858
 21
637.01399504908261
  0
LINE
  8
_0-0_
  6
CONTINUOUS
 62
    7
 10
288.30208266563858
 20
637.01399504908261
 11
287.72722317905499
 21
637.60506162312038
  0
LINE
  8
_0-0_
  6
CONTINUOUS
 62
    7
 10
287.72722317905499
 20
637.60506162312038
 11
287.19219244585076
 21
638.23444778854775
  0
LINE
  8
_0-0_
  6
CONTINUOUS
 62
    7
 10
287.19219244585076
 20
638.23444778854775
 11
286.69701233793876
 21
638.90210980153915
  0
LINE
  8
_0-0_
  6
CONTINUOUS
 62
    7
 10
286.69701233793876
 20
638.90210980153915
 11
286.24166098340595
 21
639.60813514974586
  0
LINE
  8
_0-0_
  6
CONTINUOUS
 62
    7
 10
286.24166098340595
 20
639.60813514974586
 11
285.83346547307195
 21
640.34031930577339
  0
LINE
  8
_0-0_
  6
CONTINUOUS
 62
    7
 10
285.83346547307195
 20
640.34031930577339
 11
285.47968728201727
 21
641.08650148605284
  0
LINE
  8
_0-0_
  6
CONTINUOUS
 62
    7
 10
285.47968728201727
 20
641.08650148605284
 11
285.18034828215491
 21
641.84672543441002
  0
LINE
  8
_0-0_
  6
CONTINUOUS
 62
    7
 10
285.18034828215491
 20
641.84672543441002
 11
284.93542660157186
 21
642.62094740701912
  0
LINE
  8
_0-0_
  6
CONTINUOUS
 62
    7
 10
284.93542660157186
 20
642.62094740701912
 11
284.74492224026835
 21
643.40921114770595
  0
LINE
  8
_0-0_
  6
CONTINUOUS
 62
    7
 10
284.74492224026835
 20
643.40921114770595
 11
284.60885707015689
 21
644.21151665647062
  0
LINE
  8
_0-0_
  6
CONTINUOUS
 62
    7
 10
284.60885707015689
 20
644.21151665647062
 11
284.52720921932496
 21
645.0278201894871
  0
LINE
  8
_0-0_
  6
CONTINUOUS
 62
    7
 10
284.52720921932496
 20
645.0278201894871
 11
284.5000005596853
 21
645.85812174675539
  0
LINE
  8
_0-0_
  6
CONTINUOUS
 62
    7
 10
284.5000005596853
 20
645.85812174675539
 11
284.5000005596853
 21
836.67765731516954
  0
LINE
  8
_0-0_
  6
CONTINUOUS
 62
    7
 10
284.5000005596853
 20
836.67765731516954
 11
284.74979967684362
 21
839.21383684666455
  0
LINE
  8
_0-0_
  6
CONTINUOUS
 62
    7
 10
284.74979967684362
 20
839.21383684666455
 11
285.48957338664525
 21
841.65255513430554
  0
LINE
  8
_0-0_
  6
CONTINUOUS
 62
    7
 10
285.48957338664525
 20
841.65255513430554
 11
286.69088820232844
 21
843.90002541560466
  0
LINE
  8
_0-0_
  6
CONTINUOUS
 62
    7
 10
286.69088820232844
 20
843.90002541560466
 11
288.30761625960065
 21
845.87007235376063
  0
LINE
  8
_0-0_
  6
CONTINUOUS
 62
    7
 10
288.30761625960065
 20
845.87007235376063
 11
290.27759758201802
 21
847.48675666720703
  0
LINE
  8
_0-0_
  6
CONTINUOUS
 62
    7
 10
290.27759758201802
 20
847.48675666720703
 11
292.52511160714283
 21
848.68804961097737
  0
LINE
  8
_0-0_
  6
CONTINUOUS
 62
    7
 10
292.52511160714283
 20
848.68804961097737
 11
294.96382989478383
 21
849.42784519269196
  0
LINE
  8
_0-0_
  6
CONTINUOUS
 62
    7
 10
294.96382989478383
 20
849.42784519269196
 11
297.50000942627889
 21
849.67762243793732
  0
LINE
  8
_0-0_
  6
CONTINUOUS
 62
    7
 10
297.50000942627889
 20
849.67762243793732
 11
300.03616708586105
 21
849.42784519269196
  0
LINE
  8
_0-0_
  6
CONTINUOUS
 62
    7
 10
300.03616708586105
 20
849.42784519269196
 11
302.47488537350216
 21
848.68804961097737
  0
LINE
  8
_0-0_
  6
CONTINUOUS
 62
    7
 10
302.47488537350216
 20
848.68804961097737
 11
304.72242127053988
 21
847.48675666720703
  0
LINE
  8
_0-0_
  6
CONTINUOUS
 62
    7
 10
304.72242127053988
 20
847.48675666720703
 11
306.69238072104434
 21
845.87007235376063
  0
LINE
  8
_0-0_
  6
CONTINUOUS
 62
    7
 10
306.69238072104434
 20
845.87007235376063
 11
308.30910877831656
 21
843.90002541560466
  0
LINE
  8
_0-0_
  6
CONTINUOUS
 62
    7
 10
308.30910877831656
 20
843.90002541560466
 11
309.5104235939998
 21
841.65255513430554
  0
LINE
  8
_0-0_
  6
CONTINUOUS
 62
    7
 10
309.5104235939998
 20
841.65255513430554
 11
310.25021917571428
 21
839.21383684666455
  0
LINE
  8
_0-0_
  6
CONTINUOUS
 62
    7
 10
310.25021917571428
 20
839.21383684666455
 11
310.49999642095969
 21
836.67765731516954
  0
LINE
  8
_0-0_
  6
CONTINUOUS
 62
    7
 10
310.49999642095969
 20
836.67765731516954
 11
310.49999642095969
 21
645.85812174675539
  0
LINE
  8
_0-0_
  6
CONTINUOUS
 62
    7
 10
310.49999642095969
 20
652.54125970671066
 11
310.49999642095969
 21
652.86920716863801
  0
LINE
  8
_0-0_
  6
CONTINUOUS
 62
    7
 10
310.49999642095969
 20
652.86920716863801
 11
310.49999642095969
 21
653.07156610672996
  0
LINE
  8
_0-0_
  6
CONTINUOUS
 62
    7
 10
310.49999642095969
 20
653.07156610672996
 11
310.49999642095969
 21
653.1483365209865
  0
LINE
  8
_0-0_
  6
CONTINUOUS
 62
    7
 10
310.49999642095969
 20
653.1483365209865
 11
310.49999642095969
 21
653.09947466758217
  0
LINE
  8
_0-0_
  6
CONTINUOUS
 62
    7
 10
310.49999642095969
 20
653.09947466758217
 11
310.49999642095969
 21
652.92502429034255
  0
LINE
  8
_0-0_
  6
CONTINUOUS
 62
    7
 10
310.49999642095969
 20
652.92502429034255
 11
310.49999642095969
 21
652.62498538926764
  0
LINE
  8
_0-0_
  6
CONTINUOUS
 62
    7
 10
310.49999642095969
 20
652.62498538926764
 11
310.49999642095969
 21
652.19935796435732
  0
LINE
  8
_0-0_
  6
CONTINUOUS
 62
    7
 10
310.49999642095969
 20
652.19935796435732
 11
310.49999642095969
 21
651.64809827178601
  0
LINE
  8
_0-0_
  6
CONTINUOUS
 62
    7
 10
310.49999642095969
 20
651.64809827178601
 11
310.47278776132003
 21
651.02711092090976
  0
LINE
  8
_0-0_
  6
CONTINUOUS
 62
    7
 10
310.47278776132003
 20
651.02711092090976
 11
310.39113991048805
 21
650.39221303343311
  0
LINE
  8
_0-0_
  6
CONTINUOUS
 62
    7
 10
310.39113991048805
 20
650.39221303343311
 11
310.2550747403767
 21
649.74344835318198
  0
LINE
  8
_0-0_
  6
CONTINUOUS
 62
    7
 10
310.2550747403767
 20
649.74344835318198
 11
310.06459225098592
 21
649.08077313633032
  0
LINE
  8
_0-0_
  6
CONTINUOUS
 62
    7
 10
310.06459225098592
 20
649.08077313633032
 11
309.81967057040293
 21
648.40423112670419
  0
LINE
  8
_0-0_
  6
CONTINUOUS
 62
    7
 10
309.81967057040293
 20
648.40423112670419
 11
309.52030969862778
 21
647.71377858047776
  0
LINE
  8
_0-0_
  6
CONTINUOUS
 62
    7
 10
309.52030969862778
 20
647.71377858047776
 11
309.16653150757304
 21
647.00945924147675
  0
LINE
  8
_0-0_
  6
CONTINUOUS
 62
    7
 10
309.16653150757304
 20
647.00945924147675
 11
308.75833599723904
 21
646.29122936587532
  0
LINE
  8
_0-0_
  6
CONTINUOUS
 62
    7
 10
308.75833599723904
 20
646.29122936587532
 11
308.30298464270629
 21
645.58524776149443
  0
LINE
  8
_0-0_
  6
CONTINUOUS
 62
    7
 10
308.30298464270629
 20
645.58524776149443
 11
307.80780453479423
 21
644.91754200467722
  0
LINE
  8
_0-0_
  6
CONTINUOUS
 62
    7
 10
307.80780453479423
 20
644.91754200467722
 11
307.27277380159001
 21
644.28815583924984
  0
LINE
  8
_0-0_
  6
CONTINUOUS
 62
    7
 10
307.27277380159001
 20
644.28815583924984
 11
306.69791431500641
 21
643.69708926521207
  0
LINE
  8
_0-0_
  6
CONTINUOUS
 62
    7
 10
306.69791431500641
 20
643.69708926521207
 11
306.08320420313066
 21
643.14434228256403
  0
LINE
  8
_0-0_
  6
CONTINUOUS
 62
    7
 10
306.08320420313066
 20
643.14434228256403
 11
305.42864346596264
 21
642.62987114747966
  0
LINE
  8
_0-0_
  6
CONTINUOUS
 62
    7
 10
305.42864346596264
 20
642.62987114747966
 11
304.7342539754153
 21
642.15376334761106
  0
LINE
  8
_0-0_
  6
CONTINUOUS
 62
    7
 10
304.7342539754153
 20
642.15376334761106
 11
303.9999919876629
 21
641.71593139530603
  0
LINE
  8
_0-0_
  6
CONTINUOUS
 62
    7
 10
303.9999919876629
 20
641.71593139530603
 11
303.23854321218363
 21
641.32341804651674
  0
LINE
  8
_0-0_
  6
CONTINUOUS
 62
    7
 10
303.23854321218363
 20
641.32341804651674
 11
302.46250587080442
 21
640.98326605719478
  0
LINE
  8
_0-0_
  6
CONTINUOUS
 62
    7
 10
302.46250587080442
 20
640.98326605719478
 11
301.67187996352493
 21
640.69543168351458
  0
LINE
  8
_0-0_
  6
CONTINUOUS
 62
    7
 10
301.67187996352493
 20
640.69543168351458
 11
300.86666549034561
 21
640.45991492547591
  0
LINE
  8
_0-0_
  6
CONTINUOUS
 62
    7
 10
300.86666549034561
 20
640.45991492547591
 11
300.04688432317903
 21
640.27675952690447
  0
LINE
  8
_0-0_
  6
CONTINUOUS
 62
    7
 10
300.04688432317903
 20
640.27675952690447
 11
299.21249271819943
 21
640.14592174397467
  0
LINE
  8
_0-0_
  6
CONTINUOUS
 62
    7
 10
299.21249271819943
 20
640.14592174397467
 11
298.36353441923279
 21
640.06740157668651
  0
LINE
  8
_0-0_
  6
CONTINUOUS
 62
    7
 10
298.36353441923279
 20
640.06740157668651
 11
297.50000942627889
 21
640.04124276886569
  0
LINE
  8
_0-0_
  6
CONTINUOUS
 62
    7
 10
297.50000942627889
 20
640.04124276886569
 11
296.6364625614122
 21
640.06740157668651
  0
LINE
  8
_0-0_
  6
CONTINUOUS
 62
    7
 10
296.6364625614122
 20
640.06740157668651
 11
295.78750426244551
 21
640.14592174397467
  0
LINE
  8
_0-0_
  6
CONTINUOUS
 62
    7
 10
295.78750426244551
 20
640.14592174397467
 11
294.95311265746591
 21
640.27675952690447
  0
LINE
  8
_0-0_
  6
CONTINUOUS
 62
    7
 10
294.95311265746591
 20
640.27675952690447
 11
294.13333149029938
 21
640.45991492547591
  0
LINE
  8
_0-0_
  6
CONTINUOUS
 62
    7
 10
294.13333149029938
 20
640.45991492547591
 11
293.32811701712001
 21
640.69543168351458
  0
LINE
  8
_0-0_
  6
CONTINUOUS
 62
    7
 10
293.32811701712001
 20
640.69543168351458
 11
292.53749110984063
 21
640.98326605719478
  0
LINE
  8
_0-0_
  6
CONTINUOUS
 62
    7
 10
292.53749110984063
 20
640.98326605719478
 11
291.76145376846137
 21
641.32341804651674
  0
LINE
  8
_0-0_
  6
CONTINUOUS
 62
    7
 10
291.76145376846137
 20
641.32341804651674
 11
291.0000049929821
 21
641.71593139530603
  0
LINE
  8
_0-0_
  6
CONTINUOUS
 62
    7
 10
291.0000049929821
 20
641.71593139530603
 11
290.2657648771426
 21
642.15376334761106
  0
LINE
  8
_0-0_
  6
CONTINUOUS
 62
    7
 10
290.2657648771426
 20
642.15376334761106
 11
289.57135351468241
 21
642.62987114747966
  0
LINE
  8
_0-0_
  6
CONTINUOUS
 62
    7
 10
289.57135351468241
 20
642.62987114747966
 11
288.91679277751439
 21
643.14434228256403
  0
LINE
  8
_0-0_
  6
CONTINUOUS
 62
    7
 10
288.91679277751439
 20
643.14434228256403
 11
288.30208266563858
 21
643.69708926521207
  0
LINE
  8
_0-0_
  6
CONTINUOUS
 62
    7
 10
288.30208266563858
 20
643.69708926521207
 11
287.72722317905499
 21
644.28815583924984
  0
LINE
  8
_0-0_
  6
CONTINUOUS
 62
    7
 10
287.72722317905499
 20
644.28815583924984
 11
287.19219244585076
 21
644.91754200467722
  0
LINE
  8
_0-0_
  6
CONTINUOUS
 62
    7
 10
287.19219244585076
 20
644.91754200467722
 11
286.69701233793876
 21
645.58524776149443
  0
LINE
  8
_0-0_
  6
CONTINUOUS
 62
    7
 10
286.69701233793876
 20
645.58524776149443
 11
286.24166098340595
 21
646.29122936587532
  0
LINE
  8
_0-0_
  6
CONTINUOUS
 62
    7
 10
286.24166098340595
 20
646.29122936587532
 11
286.0112622529843
 21
646.72731156514874
  0
LINE
  8
_0-0_
  6
CONTINUOUS
 62
    7
 10
286.0112622529843
 20
646.72731156514874
 11
285.78449426010309
 21
647.26199234774663
  0
LINE
  8
_0-0_
  6
CONTINUOUS
 62
    7
 10
285.78449426010309
 20
647.26199234774663
 11
285.56133513284919
 21
647.89531545749492
  0
LINE
  8
_0-0_
  6
CONTINUOUS
 62
    7
 10
285.56133513284919
 20
647.89531545749492
 11
285.34180674313575
 21
648.62723715056768
  0
LINE
  8
_0-0_
  6
CONTINUOUS
 62
    7
 10
285.34180674313575
 20
648.62723715056768
 11
285.12590909096264
 21
649.45780117079096
  0
LINE
  8
_0-0_
  6
CONTINUOUS
 62
    7
 10
285.12590909096264
 20
649.45780117079096
 11
284.91364217632986
 21
650.38696377433871
  0
LINE
  8
_0-0_
  6
CONTINUOUS
 62
    7
 10
284.91364217632986
 20
650.38696377433871
 11
284.70500599923741
 21
651.41481244886234
  0
LINE
  8
_0-0_
  6
CONTINUOUS
 62
    7
 10
284.70500599923741
 20
651.41481244886234
 11
284.5000005596853
 21
652.54125970671066
  0
LINE
  8
_0-0_
  6
CONTINUOUS
 62
    7
 10
418.28655478576889
 20
815.13828498516307
 11
419.46356990622735
 21
814.2138029709746
  0
LINE
  8
_0-0_
  6
CONTINUOUS
 62
    7
 10
419.46356990622735
 20
814.2138029709746
 11
420.53157541282388
 21
813.45650985894508
  0
LINE
  8
_0-0_
  6
CONTINUOUS
 62
    7
 10
420.53157541282388
 20
813.45650985894508
 11
421.49057130555843
 21
812.86649313672626
  0
LINE
  8
_0-0_
  6
CONTINUOUS
 62
    7
 10
421.49057130555843
 20
812.86649313672626
 11
422.34055758443111
 21
812.44357782901477
  0
LINE
  8
_0-0_
  6
CONTINUOUS
 62
    7
 10
422.34055758443111
 20
812.44357782901477
 11
423.08149050561616
 21
812.18785142346235
  0
LINE
  8
_0-0_
  6
CONTINUOUS
 62
    7
 10
423.08149050561616
 20
812.18785142346235
 11
423.71341381293922
 21
812.09931392006888
  0
LINE
  8
_0-0_
  6
CONTINUOUS
 62
    7
 10
423.71341381293922
 20
812.09931392006888
 11
424.23632750640036
 21
812.17805280648599
  0
LINE
  8
_0-0_
  6
CONTINUOUS
 62
    7
 10
424.23632750640036
 20
812.17805280648599
 11
424.65023158599968
 21
812.42389310741044
  0
LINE
  8
_0-0_
  6
CONTINUOUS
 62
    7
 10
409.04186587536196
 20
805.89372730623336
 11
409.96661035250509
 21
804.71701839255547
  0
LINE
  8
_0-0_
  6
CONTINUOUS
 62
    7
 10
409.96661035250509
 20
804.71701839255547
 11
410.72399095218611
 21
803.64914411743621
  0
LINE
  8
_0-0_
  6
CONTINUOUS
 62
    7
 10
410.72399095218611
 20
803.64914411743621
 11
411.31400767440493
 21
802.69010448087579
  0
LINE
  8
_0-0_
  6
CONTINUOUS
 62
    7
 10
411.31400767440493
 20
802.69010448087579
 11
411.73666051916172
 21
801.83989948287433
  0
LINE
  8
_0-0_
  6
CONTINUOUS
 62
    7
 10
411.73666051916172
 20
801.83989948287433
 11
411.99194948645629
 21
801.09852912343149
  0
LINE
  8
_0-0_
  6
CONTINUOUS
 62
    7
 10
411.99194948645629
 20
801.09852912343149
 11
412.07991832011453
 21
800.46599340254727
  0
LINE
  8
_0-0_
  6
CONTINUOUS
 62
    7
 10
412.07991832011453
 20
800.46599340254727
 11
412.00052327631062
 21
799.9422923202219
  0
LINE
  8
_0-0_
  6
CONTINUOUS
 62
    7
 10
412.00052327631062
 20
799.9422923202219
 11
411.75376435504455
 21
799.52742587645525
  0
LINE
  8
_0-0_
  6
CONTINUOUS
 62
    7
 10
414.21409209262447
 20
790.75241442352649
 11
413.57525726082702
 21
791.94189653433432
  0
LINE
  8
_0-0_
  6
CONTINUOUS
 62
    7
 10
413.57525726082702
 20
791.94189653433432
 11
413.05396208891989
 21
793.18737074214982
  0
LINE
  8
_0-0_
  6
CONTINUOUS
 62
    7
 10
413.05396208891989
 20
793.18737074214982
 11
412.65510588539149
 21
794.47728867696514
  0
LINE
  8
_0-0_
  6
CONTINUOUS
 62
    7
 10
412.65510588539149
 20
794.47728867696514
 11
412.38231938778199
 21
795.79966453051475
  0
LINE
  8
_0-0_
  6
CONTINUOUS
 62
    7
 10
412.38231938778199
 20
795.79966453051475
 11
412.23822722563864
 21
797.14216254392636
  0
LINE
  8
_0-0_
  6
CONTINUOUS
 62
    7
 10
412.23822722563864
 20
797.14216254392636
 11
412.22409796990939
 21
798.49218449537352
  0
LINE
  8
_0-0_
  6
CONTINUOUS
 62
    7
 10
412.22409796990939
 20
798.49218449537352
 11
412.34006285207153
 21
799.83739462598407
  0
LINE
  8
_0-0_
  6
CONTINUOUS
 62
    7
 10
412.34006285207153
 20
799.83739462598407
 11
412.58511576413184
 21
801.16519471393121
  0
LINE
  8
_0-0_
  6
CONTINUOUS
 62
    7
 10
412.58511576413184
 20
801.16519471393121
 11
413.23755492574918
 21
803.21800497047684
  0
LINE
  8
_0-0_
  6
CONTINUOUS
 62
    7
 10
413.23755492574918
 20
803.21800497047684
 11
414.19720697587059
 21
805.14640778648345
  0
LINE
  8
_0-0_
  6
CONTINUOUS
 62
    7
 10
414.19720697587059
 20
805.14640778648345
 11
415.44128138126092
 21
806.90482209548065
  0
LINE
  8
_0-0_
  6
CONTINUOUS
 62
    7
 10
415.44128138126092
 20
806.90482209548065
 11
416.94042603481694
 21
808.45160377531897
  0
LINE
  8
_0-0_
  6
CONTINUOUS
 62
    7
 10
416.94042603481694
 20
808.45160377531897
 11
418.65907720617344
 21
809.75009549998856
  0
LINE
  8
_0-0_
  6
CONTINUOUS
 62
    7
 10
418.65907720617344
 20
809.75009549998856
 11
420.55659688117419
 21
810.76950161613559
  0
LINE
  8
_0-0_
  6
CONTINUOUS
 62
    7
 10
420.55659688117419
 20
810.76950161613559
 11
422.58801640690984
 21
811.48585050722795
  0
LINE
  8
_0-0_
  6
CONTINUOUS
 62
    7
 10
422.58801640690984
 20
811.48585050722795
 11
424.70530506266584
 21
811.88199459355769
  0
LINE
  8
_0-0_
  6
CONTINUOUS
 62
    7
 10
424.70530506266584
 20
811.88199459355769
 11
426.85828868026431
 21
811.94874767170904
  0
LINE
  8
_0-0_
  6
CONTINUOUS
 62
    7
 10
426.85828868026431
 20
811.94874767170904
 11
428.99604944648888
 21
811.68435998865061
  0
LINE
  8
_0-0_
  6
CONTINUOUS
 62
    7
 10
428.99604944648888
 20
811.68435998865061
 11
431.06793201107769
 21
811.09521814294749
  0
LINE
  8
_0-0_
  6
CONTINUOUS
 62
    7
 10
431.06793201107769
 20
811.09521814294749
 11
433.02489954532342
 21
810.19514518354845
  0
LINE
  8
_0-0_
  6
CONTINUOUS
 62
    7
 10
433.02489954532342
 20
810.19514518354845
 11
434.82067108154297
 21
809.0055755850891
  0
LINE
  8
_0-0_
  6
CONTINUOUS
 62
    7
 10
434.82067108154297
 20
809.0055755850891
 11
436.41268387724529
 21
807.55468037137643
  0
LINE
  8
_0-0_
  6
CONTINUOUS
 62
    7
 10
436.41268387724529
 20
807.55468037137643
 11
437.76327449842768
 21
805.87666721417634
  0
LINE
  8
_0-0_
  6
CONTINUOUS
 62
    7
 10
437.76327449842768
 20
805.87666721417634
 11
438.84046620843952
 21
804.01125550730342
  0
LINE
  8
_0-0_
  6
CONTINUOUS
 62
    7
 10
438.84046620843952
 20
804.01125550730342
 11
439.48914340103909
 21
802.41023148348881
  0
LINE
  8
_0-0_
  6
CONTINUOUS
 62
    7
 10
439.48914340103909
 20
802.41023148348881
 11
439.93572411850153
 21
800.74140452970391
  0
LINE
  8
_0-0_
  6
CONTINUOUS
 62
    7
 10
439.93572411850153
 20
800.74140452970391
 11
440.17338432400379
 21
799.03023355255709
  0
LINE
  8
_0-0_
  6
CONTINUOUS
 62
    7
 10
440.17338432400379
 20
799.03023355255709
 11
440.19849328000566
 21
797.30287735986894
  0
LINE
  8
_0-0_
  6
CONTINUOUS
 62
    7
 10
440.19849328000566
 20
797.30287735986894
 11
440.01065729207511
 21
795.58566973476331
  0
LINE
  8
_0-0_
  6
CONTINUOUS
 62
    7
 10
440.01065729207511
 20
795.58566973476331
 11
439.61276345271403
 21
793.90450702210637
  0
LINE
  8
_0-0_
  6
CONTINUOUS
 62
    7
 10
439.61276345271403
 20
793.90450702210637
 11
439.01084840988096
 21
792.2852855667644
  0
LINE
  8
_0-0_
  6
CONTINUOUS
 62
    7
 10
439.01084840988096
 20
792.2852855667644
 11
438.21409836699138
 21
790.75241442352649
  0
LINE
  8
_0-0_
  6
CONTINUOUS
 62
    7
 10
438.21409836699138
 20
785.08050248429583
 11
438.21409836699138
 21
797.96358410455991
  0
LINE
  8
_0-0_
  6
CONTINUOUS
 62
    7
 10
438.21409836699138
 20
797.96358410455991
 11
437.98352466126664
 21
800.30466617304387
  0
LINE
  8
_0-0_
  6
CONTINUOUS
 62
    7
 10
437.98352466126664
 20
800.30466617304387
 11
437.30063979690135
 21
802.55572344805739
  0
LINE
  8
_0-0_
  6
CONTINUOUS
 62
    7
 10
437.30063979690135
 20
802.55572344805739
 11
436.19173381319376
 21
804.63040561749665
  0
LINE
  8
_0-0_
  6
CONTINUOUS
 62
    7
 10
436.19173381319376
 20
804.63040561749665
 11
434.69936945263487
 21
806.44883645547395
  0
LINE
  8
_0-0_
  6
CONTINUOUS
 62
    7
 10
434.69936945263487
 20
806.44883645547395
 11
432.88093861465745
 21
807.94120081603296
  0
LINE
  8
_0-0_
  6
CONTINUOUS
 62
    7
 10
432.88093861465745
 20
807.94120081603296
 11
430.80630018904401
 21
809.05010679974055
  0
LINE
  8
_0-0_
  6
CONTINUOUS
 62
    7
 10
430.80630018904401
 20
809.05010679974055
 11
428.55519917020467
 21
809.73294792028003
  0
LINE
  8
_0-0_
  6
CONTINUOUS
 62
    7
 10
428.55519917020467
 20
809.73294792028003
 11
426.21411710172083
 21
809.96356536983058
  0
LINE
  8
_0-0_
  6
CONTINUOUS
 62
    7
 10
426.21411710172083
 20
809.96356536983058
 11
423.87299128941123
 21
809.73294792028003
  0
LINE
  8
_0-0_
  6
CONTINUOUS
 62
    7
 10
423.87299128941123
 20
809.73294792028003
 11
421.6218902705719
 21
809.05010679974055
  0
LINE
  8
_0-0_
  6
CONTINUOUS
 62
    7
 10
421.6218902705719
 20
809.05010679974055
 11
419.5472518449584
 21
807.94120081603296
  0
LINE
  8
_0-0_
  6
CONTINUOUS
 62
    7
 10
419.5472518449584
 20
807.94120081603296
 11
417.72882100698104
 21
806.44883645547395
  0
LINE
  8
_0-0_
  6
CONTINUOUS
 62
    7
 10
417.72882100698104
 20
806.44883645547395
 11
416.23645664642208
 21
804.63040561749665
  0
LINE
  8
_0-0_
  6
CONTINUOUS
 62
    7
 10
416.23645664642208
 20
804.63040561749665
 11
415.1275506627145
 21
802.55572344805739
  0
LINE
  8
_0-0_
  6
CONTINUOUS
 62
    7
 10
415.1275506627145
 20
802.55572344805739
 11
414.44466579834921
 21
800.30466617304387
  0
LINE
  8
_0-0_
  6
CONTINUOUS
 62
    7
 10
414.44466579834921
 20
800.30466617304387
 11
414.21409209262447
 21
797.96358410455991
  0
LINE
  8
_0-0_
  6
CONTINUOUS
 62
    7
 10
414.21409209262447
 20
797.96358410455991
 11
414.21409209262447
 21
785.0816398237663
  0
LINE
  8
_0-0_
  6
CONTINUOUS
 62
    7
 10
412.21408063380409
 20
629.44036402757558
 11
412.21408063380409
 21
780.9436488795925
  0
LINE
  8
_0-0_
  6
CONTINUOUS
 62
    7
 10
412.21408063380409
 20
780.9436488795925
 11
412.24535746924204
 21
781.45475174009107
  0
LINE
  8
_0-0_
  6
CONTINUOUS
 62
    7
 10
412.24535746924204
 20
781.45475174009107
 11
412.3391004879042
 21
781.96795430422742
  0
LINE
  8
_0-0_
  6
CONTINUOUS
 62
    7
 10
412.3391004879042
 20
781.96795430422742
 11
412.49535343361634
 21
782.48316908435004
  0
LINE
  8
_0-0_
  6
CONTINUOUS
 62
    7
 10
412.49535343361634
 20
782.48316908435004
 11
412.71411630637857
 21
783.00048356811044
  0
LINE
  8
_0-0_
  6
CONTINUOUS
 62
    7
 10
412.71411630637857
 20
783.00048356811044
 11
412.99534536236501
 21
783.51981026785711
  0
LINE
  8
_0-0_
  6
CONTINUOUS
 62
    7
 10
412.99534536236501
 20
783.51981026785711
 11
413.33908434540149
 21
784.04123667124156
  0
LINE
  8
_0-0_
  6
CONTINUOUS
 62
    7
 10
413.33908434540149
 20
784.04123667124156
 11
413.74533325548794
 21
784.56467529061217
  0
LINE
  8
_0-0_
  6
CONTINUOUS
 62
    7
 10
413.74533325548794
 20
784.56467529061217
 11
414.21409209262447
 21
785.09012612596894
  0
LINE
  8
_0-0_
  6
CONTINUOUS
 62
    7
 10
438.3384620637047
 20
784.96860577793188
 11
438.31746502732676
 21
784.98951532665831
  0
LINE
  8
_0-0_
  6
CONTINUOUS
 62
    7
 10
438.31746502732676
 20
784.98951532665831
 11
438.33316906078437
 21
784.97385503702628
  0
LINE
  8
_0-0_
  6
CONTINUOUS
 62
    7
 10
438.33316906078437
 20
784.97385503702628
 11
438.38553042025177
 21
784.92171239668789
  0
LINE
  8
_0-0_
  6
CONTINUOUS
 62
    7
 10
438.38553042025177
 20
784.92171239668789
 11
438.47459284955471
 21
784.83299991799129
  0
LINE
  8
_0-0_
  6
CONTINUOUS
 62
    7
 10
438.47459284955471
 20
784.83299991799129
 11
438.60031260486733
 21
784.70780508858809
  0
LINE
  8
_0-0_
  6
CONTINUOUS
 62
    7
 10
438.60031260486733
 20
784.70780508858809
 11
438.76273343001549
 21
784.54604042082678
  0
LINE
  8
_0-0_
  6
CONTINUOUS
 62
    7
 10
438.76273343001549
 20
784.54604042082678
 11
438.96181158117344
 21
784.34779340235877
  0
LINE
  8
_0-0_
  6
CONTINUOUS
 62
    7
 10
438.96181158117344
 20
784.34779340235877
 11
439.19759080216687
 21
784.11297654553266
  0
LINE
  8
_0-0_
  6
CONTINUOUS
 62
    7
 10
439.19759080216687
 20
784.11297654553266
 11
439.43586342123018
 21
783.84193980095461
  0
LINE
  8
_0-0_
  6
CONTINUOUS
 62
    7
 10
439.43586342123018
 20
783.84193980095461
 11
439.64233427894618
 21
783.53520809453425
  0
LINE
  8
_0-0_
  6
CONTINUOUS
 62
    7
 10
439.64233427894618
 20
783.53520809453425
 11
439.81704711914062
 21
783.19269393861975
  0
LINE
  8
_0-0_
  6
CONTINUOUS
 62
    7
 10
439.81704711914062
 20
783.19269393861975
 11
439.95995819798765
 21
782.81448482086284
  0
LINE
  8
_0-0_
  6
CONTINUOUS
 62
    7
 10
439.95995819798765
 20
782.81448482086284
 11
440.07115500313893
 21
782.40040576596061
  0
LINE
  8
_0-0_
  6
CONTINUOUS
 62
    7
 10
440.07115500313893
 20
782.40040576596061
 11
440.15055004694284
 21
781.95054426156412
  0
LINE
  8
_0-0_
  6
CONTINUOUS
 62
    7
 10
440.15055004694284
 20
781.95054426156412
 11
440.19823081705101
 21
781.46498779532521
  0
LINE
  8
_0-0_
  6
CONTINUOUS
 62
    7
 10
440.19823081705101
 20
781.46498779532521
 11
440.21410982581176
 21
780.9436488795925
  0
LINE
  8
_0-0_
  6
CONTINUOUS
 62
    7
 10
440.21410982581176
 20
780.9436488795925
 11
440.21410982581176
 21
629.44036402757558
  0
LINE
  8
_0-0_
  6
CONTINUOUS
 62
    7
 10
438.21409836699138
 20
785.08058997194735
 11
438.19511354659971
 21
785.09826247756541
  0
LINE
  8
_0-0_
  6
CONTINUOUS
 62
    7
 10
438.19511354659971
 20
785.09826247756541
 11
438.18601483083597
 21
785.10683626741968
  0
LINE
  8
_0-0_
  6
CONTINUOUS
 62
    7
 10
438.18601483083597
 20
785.10683626741968
 11
438.18675847587434
 21
785.10639882916178
  0
LINE
  8
_0-0_
  6
CONTINUOUS
 62
    7
 10
438.18675847587434
 20
785.10639882916178
 11
438.19738822554064
 21
785.0968626751403
  0
LINE
  8
_0-0_
  6
CONTINUOUS
 62
    7
 10
438.19738822554064
 20
785.0968626751403
 11
438.2178603360091
 21
785.07840278065805
  0
LINE
  8
_0-0_
  6
CONTINUOUS
 62
    7
 10
438.2178603360091
 20
785.07840278065805
 11
438.24817480727972
 21
785.05084417041201
  0
LINE
  8
_0-0_
  6
CONTINUOUS
 62
    7
 10
438.24817480727972
 20
785.05084417041201
 11
438.28837538317822
 21
785.01427433205379
  0
LINE
  8
_0-0_
  6
CONTINUOUS
 62
    7
 10
438.28837538317822
 20
785.01427433205379
 11
438.3384620637047
 21
784.96860577793188
  0
LINE
  8
_0-0_
  6
CONTINUOUS
 62
    7
 10
414.21409209262447
 20
785.09012612596894
 11
414.16278058497596
 21
785.0395582633588
  0
LINE
  8
_0-0_
  6
CONTINUOUS
 62
    7
 10
414.16278058497596
 20
785.0395582633588
 11
414.12166138873596
 21
784.99913896833152
  0
LINE
  8
_0-0_
  6
CONTINUOUS
 62
    7
 10
414.12166138873596
 20
784.99913896833152
 11
414.09077824773016
 21
784.96878075323502
  0
LINE
  8
_0-0_
  6
CONTINUOUS
 62
    7
 10
414.09077824773016
 20
784.96878075323502
 11
414.07013116195856
 21
784.94848361806976
  0
LINE
  8
_0-0_
  6
CONTINUOUS
 62
    7
 10
414.07013116195856
 20
784.94848361806976
 11
414.05972013142116
 21
784.93842253813864
  0
LINE
  8
_0-0_
  6
CONTINUOUS
 62
    7
 10
414.05972013142116
 20
784.93842253813864
 11
414.05950141229221
 21
784.93833505048713
  0
LINE
  8
_0-0_
  6
CONTINUOUS
 62
    7
 10
414.05950141229221
 20
784.93833505048713
 11
414.06951874839751
 21
784.94839613041813
  0
LINE
  8
_0-0_
  6
CONTINUOUS
 62
    7
 10
414.06951874839751
 20
784.94839613041813
 11
414.08972839591121
 21
784.96860577793188
  0
LINE
  8
_0-0_
  6
CONTINUOUS
 62
    7
 10
414.08972839591121
 20
784.96860577793188
 11
414.58009668298666
 21
785.42327910316487
  0
LINE
  8
_0-0_
  6
CONTINUOUS
 62
    7
 10
414.58009668298666
 20
785.42327910316487
 11
415.11337766315944
 21
785.85328091065389
  0
LINE
  8
_0-0_
  6
CONTINUOUS
 62
    7
 10
415.11337766315944
 20
785.85328091065389
 11
415.68957133642954
 21
786.25861120039883
  0
LINE
  8
_0-0_
  6
CONTINUOUS
 62
    7
 10
415.68957133642954
 20
786.25861120039883
 11
416.30863395897114
 21
786.6392699723998
  0
LINE
  8
_0-0_
  6
CONTINUOUS
 62
    7
 10
416.30863395897114
 20
786.6392699723998
 11
416.97065301843588
 21
786.99525722665669
  0
LINE
  8
_0-0_
  6
CONTINUOUS
 62
    7
 10
416.97065301843588
 20
786.99525722665669
 11
417.67554102717219
 21
787.32648547551798
  0
LINE
  8
_0-0_
  6
CONTINUOUS
 62
    7
 10
417.67554102717219
 20
787.32648547551798
 11
418.42338547283157
 21
787.63312969428682
  0
LINE
  8
_0-0_
  6
CONTINUOUS
 62
    7
 10
418.42338547283157
 20
787.63312969428682
 11
419.21409886776246
 21
787.91510239531158
  0
LINE
  8
_0-0_
  6
CONTINUOUS
 62
    7
 10
419.21409886776246
 20
787.91510239531158
 11
420.03412062597084
 21
788.16785422071064
  0
LINE
  8
_0-0_
  6
CONTINUOUS
 62
    7
 10
420.03412062597084
 20
788.16785422071064
 11
420.86984641763695
 21
788.38692330025333
  0
LINE
  8
_0-0_
  6
CONTINUOUS
 62
    7
 10
420.86984641763695
 20
788.38692330025333
 11
421.72131998658637
 21
788.57230963393988
  0
LINE
  8
_0-0_
  6
CONTINUOUS
 62
    7
 10
421.72131998658637
 20
788.57230963393988
 11
422.58845384516769
 21
788.72401322177006
  0
LINE
  8
_0-0_
  6
CONTINUOUS
 62
    7
 10
422.58845384516769
 20
788.72401322177006
 11
423.47129173720657
 21
788.84194657609271
  0
LINE
  8
_0-0_
  6
CONTINUOUS
 62
    7
 10
423.47129173720657
 20
788.84194657609271
 11
424.36987740652899
 21
788.92619718455887
  0
LINE
  8
_0-0_
  6
CONTINUOUS
 62
    7
 10
424.36987740652899
 20
788.92619718455887
 11
425.2841233654832
 21
788.97676504716901
  0
LINE
  8
_0-0_
  6
CONTINUOUS
 62
    7
 10
425.2841233654832
 20
788.97676504716901
 11
426.21411710172083
 21
788.99365016392289
  0
LINE
  8
_0-0_
  6
CONTINUOUS
 62
    7
 10
426.21411710172083
 20
788.99365016392289
 11
427.14406709413265
 21
788.97676504716901
  0
LINE
  8
_0-0_
  6
CONTINUOUS
 62
    7
 10
427.14406709413265
 20
788.97676504716901
 11
428.05831305308686
 21
788.92619718455887
  0
LINE
  8
_0-0_
  6
CONTINUOUS
 62
    7
 10
428.05831305308686
 20
788.92619718455887
 11
428.95689872240922
 21
788.84194657609271
  0
LINE
  8
_0-0_
  6
CONTINUOUS
 62
    7
 10
428.95689872240922
 20
788.84194657609271
 11
429.83973661444821
 21
788.72401322177006
  0
LINE
  8
_0-0_
  6
CONTINUOUS
 62
    7
 10
429.83973661444821
 20
788.72401322177006
 11
430.70687047302954
 21
788.57230963393988
  0
LINE
  8
_0-0_
  6
CONTINUOUS
 62
    7
 10
430.70687047302954
 20
788.57230963393988
 11
431.55834404197896
 21
788.38692330025333
  0
LINE
  8
_0-0_
  6
CONTINUOUS
 62
    7
 10
431.55834404197896
 20
788.38692330025333
 11
432.39406983364506
 21
788.16785422071064
  0
LINE
  8
_0-0_
  6
CONTINUOUS
 62
    7
 10
432.39406983364506
 20
788.16785422071064
 11
433.21409159185345
 21
787.91510239531158
  0
LINE
  8
_0-0_
  6
CONTINUOUS
 62
    7
 10
433.21409159185345
 20
787.91510239531158
 11
433.87659183340185
 21
787.6768735200742
  0
LINE
  8
_0-0_
  6
CONTINUOUS
 62
    7
 10
433.87659183340185
 20
787.6768735200742
 11
434.52837483763233
 21
787.40539933723824
  0
LINE
  8
_0-0_
  6
CONTINUOUS
 62
    7
 10
434.52837483763233
 20
787.40539933723824
 11
435.16944060454489
 21
787.10076733445567
  0
LINE
  8
_0-0_
  6
CONTINUOUS
 62
    7
 10
435.16944060454489
 20
787.10076733445567
 11
435.7997891341397
 21
786.76306499937778
  0
LINE
  8
_0-0_
  6
CONTINUOUS
 62
    7
 10
435.7997891341397
 20
786.76306499937778
 11
436.41946417024235
 21
786.39220484435327
  0
LINE
  8
_0-0_
  6
CONTINUOUS
 62
    7
 10
436.41946417024235
 20
786.39220484435327
 11
437.02837822520132
 21
785.98809938173031
  0
LINE
  8
_0-0_
  6
CONTINUOUS
 62
    7
 10
437.02837822520132
 20
785.98809938173031
 11
437.62657504284243
 21
785.55092358681225
  0
LINE
  8
_0-0_
  6
CONTINUOUS
 62
    7
 10
437.62657504284243
 20
785.55092358681225
 11
438.21409836699138
 21
785.08058997194735
  0
LINE
  8
_0-0_
  6
CONTINUOUS
 62
    7
 10
440.21410982581176
 20
629.44036402757558
 11
440.21410982581176
 21
629.73475997512401
  0
LINE
  8
_0-0_
  6
CONTINUOUS
 62
    7
 10
440.21410982581176
 20
629.73475997512401
 11
440.21410982581176
 21
629.94499280185767
  0
LINE
  8
_0-0_
  6
CONTINUOUS
 62
    7
 10
440.21410982581176
 20
629.94499280185767
 11
440.21410982581176
 21
630.07114999542819
  0
LINE
  8
_0-0_
  6
CONTINUOUS
 62
    7
 10
440.21410982581176
 20
630.07114999542819
 11
440.21410982581176
 21
630.11318781200976
  0
LINE
  8
_0-0_
  6
CONTINUOUS
 62
    7
 10
440.21410982581176
 20
630.11318781200976
 11
440.21410982581176
 21
630.07114999542819
  0
LINE
  8
_0-0_
  6
CONTINUOUS
 62
    7
 10
440.21410982581176
 20
630.07114999542819
 11
440.21410982581176
 21
629.94499280185767
  0
LINE
  8
_0-0_
  6
CONTINUOUS
 62
    7
 10
440.21410982581176
 20
629.94499280185767
 11
440.21410982581176
 21
629.73471623129831
  0
LINE
  8
_0-0_
  6
CONTINUOUS
 62
    7
 10
440.21410982581176
 20
629.73471623129831
 11
440.21410982581176
 21
629.44036402757558
  0
LINE
  8
_0-0_
  6
CONTINUOUS
 62
    7
 10
440.21410982581176
 20
629.44036402757558
 11
440.18480146253432
 21
628.90559575732607
  0
LINE
  8
_0-0_
  6
CONTINUOUS
 62
    7
 10
440.18480146253432
 20
628.90559575732607
 11
440.09687637270184
 21
628.37992620284024
  0
LINE
  8
_0-0_
  6
CONTINUOUS
 62
    7
 10
440.09687637270184
 20
628.37992620284024
 11
439.95033455631443
 21
627.86322413264088
  0
LINE
  8
_0-0_
  6
CONTINUOUS
 62
    7
 10
439.95033455631443
 20
627.86322413264088
 11
439.74517601337209
 21
627.35562077820521
  0
LINE
  8
_0-0_
  6
CONTINUOUS
 62
    7
 10
439.74517601337209
 20
627.35562077820521
 11
439.48144448770057
 21
626.85698490805612
  0
LINE
  8
_0-0_
  6
CONTINUOUS
 62
    7
 10
439.48144448770057
 20
626.85698490805612
 11
439.15905249164831
 21
626.36740400984479
  0
LINE
  8
_0-0_
  6
CONTINUOUS
 62
    7
 10
439.15905249164831
 20
626.36740400984479
 11
438.77804376904112
 21
625.88687808357145
  0
LINE
  8
_0-0_
  6
CONTINUOUS
 62
    7
 10
438.77804376904112
 20
625.88687808357145
 11
438.3384620637047
 21
625.41536338541039
  0
LINE
  8
_0-0_
  6
CONTINUOUS
 62
    7
 10
438.3384620637047
 20
625.41536338541039
 11
437.84809377662924
 21
624.96069006017728
  0
LINE
  8
_0-0_
  6
CONTINUOUS
 62
    7
 10
437.84809377662924
 20
624.96069006017728
 11
437.31481279645641
 21
624.53068825268838
  0
LINE
  8
_0-0_
  6
CONTINUOUS
 62
    7
 10
437.31481279645641
 20
624.53068825268838
 11
436.73861912318637
 21
624.12535796294333
  0
LINE
  8
_0-0_
  6
CONTINUOUS
 62
    7
 10
436.73861912318637
 20
624.12535796294333
 11
436.11955650064476
 21
623.74469919094247
  0
LINE
  8
_0-0_
  6
CONTINUOUS
 62
    7
 10
436.11955650064476
 20
623.74469919094247
 11
435.45753744118002
 21
623.38875568051128
  0
LINE
  8
_0-0_
  6
CONTINUOUS
 62
    7
 10
435.45753744118002
 20
623.38875568051128
 11
434.75264943244372
 21
623.05743994399836
  0
LINE
  8
_0-0_
  6
CONTINUOUS
 62
    7
 10
434.75264943244372
 20
623.05743994399836
 11
434.00480498678434
 21
622.75079572522952
  0
LINE
  8
_0-0_
  6
CONTINUOUS
 62
    7
 10
434.00480498678434
 20
622.75079572522952
 11
433.21409159185345
 21
622.46882302420477
  0
LINE
  8
_0-0_
  6
CONTINUOUS
 62
    7
 10
433.21409159185345
 20
622.46882302420477
 11
432.39406983364506
 21
622.21607119880582
  0
LINE
  8
_0-0_
  6
CONTINUOUS
 62
    7
 10
432.39406983364506
 20
622.21607119880582
 11
431.55834404197896
 21
621.99700211926313
  0
LINE
  8
_0-0_
  6
CONTINUOUS
 62
    7
 10
431.55834404197896
 20
621.99700211926313
 11
430.70687047302954
 21
621.81161578557658
  0
LINE
  8
_0-0_
  6
CONTINUOUS
 62
    7
 10
430.70687047302954
 20
621.81161578557658
 11
429.83973661444821
 21
621.65995594157209
  0
LINE
  8
_0-0_
  6
CONTINUOUS
 62
    7
 10
429.83973661444821
 20
621.65995594157209
 11
428.95689872240922
 21
621.54202258724956
  0
LINE
  8
_0-0_
  6
CONTINUOUS
 62
    7
 10
428.95689872240922
 20
621.54202258724956
 11
428.05831305308686
 21
621.45777197878328
  0
LINE
  8
_0-0_
  6
CONTINUOUS
 62
    7
 10
428.05831305308686
 20
621.45777197878328
 11
427.14406709413265
 21
621.40720411617315
  0
LINE
  8
_0-0_
  6
CONTINUOUS
 62
    7
 10
427.14406709413265
 20
621.40720411617315
 11
426.21411710172083
 21
621.39036274324508
  0
LINE
  8
_0-0_
  6
CONTINUOUS
 62
    7
 10
426.21411710172083
 20
621.39036274324508
 11
425.2841233654832
 21
621.40720411617315
  0
LINE
  8
_0-0_
  6
CONTINUOUS
 62
    7
 10
425.2841233654832
 20
621.40720411617315
 11
424.36987740652899
 21
621.45777197878328
  0
LINE
  8
_0-0_
  6
CONTINUOUS
 62
    7
 10
424.36987740652899
 20
621.45777197878328
 11
423.47129173720657
 21
621.54202258724956
  0
LINE
  8
_0-0_
  6
CONTINUOUS
 62
    7
 10
423.47129173720657
 20
621.54202258724956
 11
422.58845384516769
 21
621.65995594157209
  0
LINE
  8
_0-0_
  6
CONTINUOUS
 62
    7
 10
422.58845384516769
 20
621.65995594157209
 11
421.72131998658637
 21
621.81161578557658
  0
LINE
  8
_0-0_
  6
CONTINUOUS
 62
    7
 10
421.72131998658637
 20
621.81161578557658
 11
420.86984641763695
 21
621.99700211926313
  0
LINE
  8
_0-0_
  6
CONTINUOUS
 62
    7
 10
420.86984641763695
 20
621.99700211926313
 11
420.03412062597084
 21
622.21607119880582
  0
LINE
  8
_0-0_
  6
CONTINUOUS
 62
    7
 10
420.03412062597084
 20
622.21607119880582
 11
419.21409886776246
 21
622.46882302420477
  0
LINE
  8
_0-0_
  6
CONTINUOUS
 62
    7
 10
419.21409886776246
 20
622.46882302420477
 11
418.43252793242107
 21
622.74169700946584
  0
LINE
  8
_0-0_
  6
CONTINUOUS
 62
    7
 10
418.43252793242107
 20
622.74169700946584
 11
417.71211086553029
 21
623.02100133711758
  0
LINE
  8
_0-0_
  6
CONTINUOUS
 62
    7
 10
417.71211086553029
 20
623.02100133711758
 11
417.05293515474176
 21
623.30677975098592
  0
LINE
  8
_0-0_
  6
CONTINUOUS
 62
    7
 10
417.05293515474176
 20
623.30677975098592
 11
416.45491331240385
 21
623.59903225107075
  0
LINE
  8
_0-0_
  6
CONTINUOUS
 62
    7
 10
416.45491331240385
 20
623.59903225107075
 11
415.91808908234225
 21
623.89775883737218
  0
LINE
  8
_0-0_
  6
CONTINUOUS
 62
    7
 10
415.91808908234225
 20
623.89775883737218
 11
415.44250620838295
 21
624.20291576606428
  0
LINE
  8
_0-0_
  6
CONTINUOUS
 62
    7
 10
415.44250620838295
 20
624.20291576606428
 11
415.02807720287421
 21
624.51454678097286
  0
LINE
  8
_0-0_
  6
CONTINUOUS
 62
    7
 10
415.02807720287421
 20
624.51454678097286
 11
414.67480206581615
 21
624.83265188209793
  0
LINE
  8
_0-0_
  6
CONTINUOUS
 62
    7
 10
414.67480206581615
 20
624.83265188209793
 11
414.35407233514377
 21
625.18579578767867
  0
LINE
  8
_0-0_
  6
CONTINUOUS
 62
    7
 10
414.35407233514377
 20
625.18579578767867
 11
414.03706082966335
 21
625.60263070360566
  0
LINE
  8
_0-0_
  6
CONTINUOUS
 62
    7
 10
414.03706082966335
 20
625.60263070360566
 11
413.72381129320058
 21
626.08311288605319
  0
LINE
  8
_0-0_
  6
CONTINUOUS
 62
    7
 10
413.72381129320058
 20
626.08311288605319
 11
413.41436746958141
 21
626.62724233502126
  0
LINE
  8
_0-0_
  6
CONTINUOUS
 62
    7
 10
413.41436746958141
 20
626.62724233502126
 11
413.10864187115408
 21
627.23501905050978
  0
LINE
  8
_0-0_
  6
CONTINUOUS
 62
    7
 10
413.10864187115408
 20
627.23501905050978
 11
412.80672198557022
 21
627.90648677634454
  0
LINE
  8
_0-0_
  6
CONTINUOUS
 62
    7
 10
412.80672198557022
 20
627.90648677634454
 11
412.50852032517832
 21
628.64155802487403
  0
LINE
  8
_0-0_
  6
CONTINUOUS
 62
    7
 10
412.50852032517832
 20
628.64155802487403
 11
412.21408063380409
 21
629.44036402757558
  0
LINE
  8
_0-0_
  6
CONTINUOUS
 62
    7
 10
412.21408063380409
 20
629.44036402757558
 11
412.21408063380409
 21
629.15231093476632
  0
LINE
  8
_0-0_
  6
CONTINUOUS
 62
    7
 10
412.21408063380409
 20
629.15231093476632
 11
412.21408063380409
 21
628.96106292842433
  0
LINE
  8
_0-0_
  6
CONTINUOUS
 62
    7
 10
412.21408063380409
 20
628.96106292842433
 11
412.21408063380409
 21
628.8666200085496
  0
LINE
  8
_0-0_
  6
CONTINUOUS
 62
    7
 10
412.21408063380409
 20
628.8666200085496
 11
412.21408063380409
 21
628.86893843131634
  0
LINE
  8
_0-0_
  6
CONTINUOUS
 62
    7
 10
412.21408063380409
 20
628.86893843131634
 11
412.21408063380409
 21
628.96801819672453
  0
LINE
  8
_0-0_
  6
CONTINUOUS
 62
    7
 10
412.21408063380409
 20
628.96801819672453
 11
412.21408063380409
 21
629.16390304859999
  0
LINE
  8
_0-0_
  6
CONTINUOUS
 62
    7
 10
412.21408063380409
 20
629.16390304859999
 11
412.21408063380409
 21
629.45654924311691
  0
LINE
  8
_0-0_
  6
CONTINUOUS
 62
    7
 10
412.21408063380409
 20
629.45654924311691
 11
412.21408063380409
 21
629.8460005241011
  0
LINE
  8
_0-0_
  6
CONTINUOUS
 62
    7
 10
412.21408063380409
 20
629.8460005241011
 11
412.24338899708158
 21
630.28566971708904
  0
LINE
  8
_0-0_
  6
CONTINUOUS
 62
    7
 10
412.24338899708158
 20
630.28566971708904
 11
412.33131408691406
 21
630.72896964761742
  0
LINE
  8
_0-0_
  6
CONTINUOUS
 62
    7
 10
412.33131408691406
 20
630.72896964761742
 11
412.47785590330147
 21
631.17590031568602
  0
LINE
  8
_0-0_
  6
CONTINUOUS
 62
    7
 10
412.47785590330147
 20
631.17590031568602
 11
412.68301444624376
 21
631.62650546512077
  0
LINE
  8
_0-0_
  6
CONTINUOUS
 62
    7
 10
412.68301444624376
 20
631.62650546512077
 11
412.94678971574109
 21
632.08074135209597
  0
LINE
  8
_0-0_
  6
CONTINUOUS
 62
    7
 10
412.94678971574109
 20
632.08074135209597
 11
413.26913796796759
 21
632.5386517204372
  0
LINE
  8
_0-0_
  6
CONTINUOUS
 62
    7
 10
413.26913796796759
 20
632.5386517204372
 11
413.65014669057479
 21
633.00014908249307
  0
LINE
  8
_0-0_
  6
CONTINUOUS
 62
    7
 10
413.65014669057479
 20
633.00014908249307
 11
414.08972839591121
 21
633.46536466974089
  0
LINE
  8
_0-0_
  6
CONTINUOUS
 62
    7
 10
414.08972839591121
 20
633.46536466974089
 11
414.58009668298666
 21
633.91999425114807
  0
LINE
  8
_0-0_
  6
CONTINUOUS
 62
    7
 10
414.58009668298666
 20
633.91999425114807
 11
415.11337766315944
 21
634.34999605863709
  0
LINE
  8
_0-0_
  6
CONTINUOUS
 62
    7
 10
415.11337766315944
 20
634.34999605863709
 11
415.68957133642954
 21
634.75532634838203
  0
LINE
  8
_0-0_
  6
CONTINUOUS
 62
    7
 10
415.68957133642954
 20
634.75532634838203
 11
416.30863395897114
 21
635.135985120383
  0
LINE
  8
_0-0_
  6
CONTINUOUS
 62
    7
 10
416.30863395897114
 20
635.135985120383
 11
416.97065301843588
 21
635.49197237463989
  0
LINE
  8
_0-0_
  6
CONTINUOUS
 62
    7
 10
416.97065301843588
 20
635.49197237463989
 11
417.67554102717219
 21
635.82324436732699
  0
LINE
  8
_0-0_
  6
CONTINUOUS
 62
    7
 10
417.67554102717219
 20
635.82324436732699
 11
418.42338547283157
 21
636.12988858609583
  0
LINE
  8
_0-0_
  6
CONTINUOUS
 62
    7
 10
418.42338547283157
 20
636.12988858609583
 11
419.21409886776246
 21
636.4118612871207
  0
LINE
  8
_0-0_
  6
CONTINUOUS
 62
    7
 10
419.21409886776246
 20
636.4118612871207
 11
420.03412062597084
 21
636.66461311251953
  0
LINE
  8
_0-0_
  6
CONTINUOUS
 62
    7
 10
420.03412062597084
 20
636.66461311251953
 11
420.86984641763695
 21
636.88368219206222
  0
LINE
  8
_0-0_
  6
CONTINUOUS
 62
    7
 10
420.86984641763695
 20
636.88368219206222
 11
421.72131998658637
 21
637.06906852574878
  0
LINE
  8
_0-0_
  6
CONTINUOUS
 62
    7
 10
421.72131998658637
 20
637.06906852574878
 11
422.58845384516769
 21
637.22072836975326
  0
LINE
  8
_0-0_
  6
CONTINUOUS
 62
    7
 10
422.58845384516769
 20
637.22072836975326
 11
423.47129173720657
 21
637.3387054679016
  0
LINE
  8
_0-0_
  6
CONTINUOUS
 62
    7
 10
423.47129173720657
 20
637.3387054679016
 11
424.36987740652899
 21
637.42295607636788
  0
LINE
  8
_0-0_
  6
CONTINUOUS
 62
    7
 10
424.36987740652899
 20
637.42295607636788
 11
425.2841233654832
 21
637.47348019515221
  0
LINE
  8
_0-0_
  6
CONTINUOUS
 62
    7
 10
425.2841233654832
 20
637.47348019515221
 11
426.21411710172083
 21
637.49036531190609
  0
LINE
  8
_0-0_
  6
CONTINUOUS
 62
    7
 10
426.21411710172083
 20
637.49036531190609
 11
427.14406709413265
 21
637.47348019515221
  0
LINE
  8
_0-0_
  6
CONTINUOUS
 62
    7
 10
427.14406709413265
 20
637.47348019515221
 11
428.05831305308686
 21
637.42295607636788
  0
LINE
  8
_0-0_
  6
CONTINUOUS
 62
    7
 10
428.05831305308686
 20
637.42295607636788
 11
428.95689872240922
 21
637.3387054679016
  0
LINE
  8
_0-0_
  6
CONTINUOUS
 62
    7
 10
428.95689872240922
 20
637.3387054679016
 11
429.83973661444821
 21
637.22072836975326
  0
LINE
  8
_0-0_
  6
CONTINUOUS
 62
    7
 10
429.83973661444821
 20
637.22072836975326
 11
430.70687047302954
 21
637.06906852574878
  0
LINE
  8
_0-0_
  6
CONTINUOUS
 62
    7
 10
430.70687047302954
 20
637.06906852574878
 11
431.55834404197896
 21
636.88368219206222
  0
LINE
  8
_0-0_
  6
CONTINUOUS
 62
    7
 10
431.55834404197896
 20
636.88368219206222
 11
432.39406983364506
 21
636.66461311251953
  0
LINE
  8
_0-0_
  6
CONTINUOUS
 62
    7
 10
432.39406983364506
 20
636.66461311251953
 11
433.21409159185345
 21
636.4118612871207
  0
LINE
  8
_0-0_
  6
CONTINUOUS
 62
    7
 10
433.21409159185345
 20
636.4118612871207
 11
434.00480498678434
 21
636.12988858609583
  0
LINE
  8
_0-0_
  6
CONTINUOUS
 62
    7
 10
434.00480498678434
 20
636.12988858609583
 11
434.75264943244372
 21
635.82324436732699
  0
LINE
  8
_0-0_
  6
CONTINUOUS
 62
    7
 10
434.75264943244372
 20
635.82324436732699
 11
435.45753744118002
 21
635.49197237463989
  0
LINE
  8
_0-0_
  6
CONTINUOUS
 62
    7
 10
435.45753744118002
 20
635.49197237463989
 11
436.11955650064476
 21
635.135985120383
  0
LINE
  8
_0-0_
  6
CONTINUOUS
 62
    7
 10
436.11955650064476
 20
635.135985120383
 11
436.73861912318637
 21
634.75532634838203
  0
LINE
  8
_0-0_
  6
CONTINUOUS
 62
    7
 10
436.73861912318637
 20
634.75532634838203
 11
437.31481279645641
 21
634.34999605863709
  0
LINE
  8
_0-0_
  6
CONTINUOUS
 62
    7
 10
437.31481279645641
 20
634.34999605863709
 11
437.84809377662924
 21
633.91999425114807
  0
LINE
  8
_0-0_
  6
CONTINUOUS
 62
    7
 10
437.84809377662924
 20
633.91999425114807
 11
438.3384620637047
 21
633.46536466974089
  0
LINE
  8
_0-0_
  6
CONTINUOUS
 62
    7
 10
438.3384620637047
 20
633.46536466974089
 11
438.52209864435963
 21
633.24874524444226
  0
LINE
  8
_0-0_
  6
CONTINUOUS
 62
    7
 10
438.52209864435963
 20
633.24874524444226
 11
438.72021443135026
 21
632.95032486492141
  0
LINE
  8
_0-0_
  6
CONTINUOUS
 62
    7
 10
438.72021443135026
 20
632.95032486492141
 11
438.93289691232803
 21
632.57001604352672
  0
LINE
  8
_0-0_
  6
CONTINUOUS
 62
    7
 10
438.93289691232803
 20
632.57001604352672
 11
439.1601023434672
 21
632.1078187802583
  0
LINE
  8
_0-0_
  6
CONTINUOUS
 62
    7
 10
439.1601023434672
 20
632.1078187802583
 11
439.40183072476771
 21
631.56373307511603
  0
LINE
  8
_0-0_
  6
CONTINUOUS
 62
    7
 10
439.40183072476771
 20
631.56373307511603
 11
439.65803831240379
 21
630.93784641575166
  0
LINE
  8
_0-0_
  6
CONTINUOUS
 62
    7
 10
439.65803831240379
 20
630.93784641575166
 11
439.92881259402708
 21
630.23002757068764
  0
LINE
  8
_0-0_
  6
CONTINUOUS
 62
    7
 10
439.92881259402708
 20
630.23002757068764
 11
440.21410982581176
 21
629.44036402757558
  0
LINE
  8
_0-1_
  6
CONTINUOUS
 62
    7
 10
207.49999683335943
 20
827.1317046765655
 11
186.11000966841644
 21
805.74176125544841
  0
LINE
  8
_0-1_
  6
CONTINUOUS
 62
    7
 10
186.11000966841644
 20
805.74176125544841
 11
176.5640789017254
 21
815.28762640640082
  0
LINE
  8
_0-1_
  6
CONTINUOUS
 62
    7
 10
176.5640789017254
 20
815.28762640640082
 11
197.9540660666683
 21
836.67765731516954
  0
LINE
  8
_0-1_
  6
CONTINUOUS
 62
    7
 10
197.9540660666683
 20
836.67765731516954
 11
176.5640789017254
 21
858.06760073628664
  0
LINE
  8
_0-1_
  6
CONTINUOUS
 62
    7
 10
176.5640789017254
 20
858.06760073628664
 11
186.11000966841644
 21
867.61355337489067
  0
LINE
  8
_0-1_
  6
CONTINUOUS
 62
    7
 10
186.11000966841644
 20
867.61355337489067
 11
207.49999683335943
 21
846.22360995377346
  0
LINE
  8
_0-1_
  6
CONTINUOUS
 62
    7
 10
207.49999683335943
 20
846.22360995377346
 11
228.88998399830228
 21
867.61355337489067
  0
LINE
  8
_0-1_
  6
CONTINUOUS
 62
    7
 10
228.88998399830228
 20
867.61355337489067
 11
238.43591476499341
 21
858.06760073628664
  0
LINE
  8
_0-1_
  6
CONTINUOUS
 62
    7
 10
238.43591476499341
 20
858.06760073628664
 11
217.04594947196341
 21
836.67765731516954
  0
LINE
  8
_0-1_
  6
CONTINUOUS
 62
    7
 10
217.04594947196341
 20
836.67765731516954
 11
238.43591476499341
 21
815.28762640640082
  0
LINE
  8
_0-1_
  6
CONTINUOUS
 62
    7
 10
238.43591476499341
 20
815.28762640640082
 11
228.88998399830228
 21
805.74176125544841
  0
LINE
  8
_0-1_
  6
CONTINUOUS
 62
    7
 10
228.88998399830228
 20
805.74176125544841
 11
207.49999683335943
 21
827.1317046765655
  0
LINE
  8
_0-1_
  6
CONTINUOUS
 62
    7
 10
197.9540660666683
 20
836.67765731516954
 11
217.04594947196341
 21
836.67765731516954
  0
LINE
  8
_0-1_
  6
CONTINUOUS
 62
    7
 10
207.49999683335943
 20
827.1317046765655
 11
207.49999683335943
 21
846.22360995377346
  0
LINE
  8
_0-1_
  6
CONTINUOUS
 62
    7
 10
387.50000014728556
 20
827.1317046765655
 11
366.11001298234265
 21
805.74176125544841
  0
LINE
  8
_0-1_
  6
CONTINUOUS
 62
    7
 10
366.11001298234265
 20
805.74176125544841
 11
356.56408221565158
 21
815.28762640640082
  0
LINE
  8
_0-1_
  6
CONTINUOUS
 62
    7
 10
356.56408221565158
 20
815.28762640640082
 11
377.95404750868158
 21
836.67765731516954
  0
LINE
  8
_0-1_
  6
CONTINUOUS
 62
    7
 10
377.95404750868158
 20
836.67765731516954
 11
356.56408221565158
 21
858.06760073628664
  0
LINE
  8
_0-1_
  6
CONTINUOUS
 62
    7
 10
356.56408221565158
 20
858.06760073628664
 11
366.11001298234265
 21
867.61355337489067
  0
LINE
  8
_0-1_
  6
CONTINUOUS
 62
    7
 10
366.11001298234265
 20
867.61355337489067
 11
387.50000014728556
 21
846.22360995377346
  0
LINE
  8
_0-1_
  6
CONTINUOUS
 62
    7
 10
387.50000014728556
 20
846.22360995377346
 11
408.88998731222847
 21
867.61355337489067
  0
LINE
  8
_0-1_
  6
CONTINUOUS
 62
    7
 10
408.88998731222847
 20
867.61355337489067
 11
418.43593995083256
 21
858.06760073628664
  0
LINE
  8
_0-1_
  6
CONTINUOUS
 62
    7
 10
418.43593995083256
 20
858.06760073628664
 11
397.0459527858896
 21
836.67765731516954
  0
LINE
  8
_0-1_
  6
CONTINUOUS
 62
    7
 10
397.0459527858896
 20
836.67765731516954
 11
418.43593995083256
 21
815.28762640640082
  0
LINE
  8
_0-1_
  6
CONTINUOUS
 62
    7
 10
418.43593995083256
 20
815.28762640640082
 11
408.88998731222847
 21
805.74176125544841
  0
LINE
  8
_0-1_
  6
CONTINUOUS
 62
    7
 10
408.88998731222847
 20
805.74176125544841
 11
387.50000014728556
 21
827.1317046765655
  0
LINE
  8
_0-1_
  6
CONTINUOUS
 62
    7
 10
377.95404750868158
 20
836.67765731516954
 11
397.0459527858896
 21
836.67765731516954
  0
LINE
  8
_0-1_
  6
CONTINUOUS
 62
    7
 10
387.50000014728556
 20
827.1317046765655
 11
387.50000014728556
 21
836.67765731516954
  0
LINE
  8
_0-1_
  6
CONTINUOUS
 62
    7
 10
362.50001001542137
 20
157.49034918413201
 11
412.49999027914981
 21
157.49034918413201
  0
LINE
  8
_0-1_
  6
CONTINUOUS
 62
    7
 10
412.49999027914981
 20
157.49034918413201
 11
412.49999027914981
 21
147.49034656981246
  0
LINE
  8
_0-1_
  6
CONTINUOUS
 62
    7
 10
412.49999027914981
 20
147.49034656981246
 11
362.50001001542137
 21
147.49034656981246
  0
LINE
  8
_0-1_
  6
CONTINUOUS
 62
    7
 10
362.50001001542137
 20
147.49034656981246
 11
362.50001001542137
 21
157.49034918413201
  0
LINE
  8
_0-1_
  6
CONTINUOUS
 62
    7
 10
368.50000064805664
 20
217.49034299813641
 11
406.49999964651448
 21
217.49034299813641
  0
LINE
  8
_0-1_
  6
CONTINUOUS
 62
    7
 10
406.49999964651448
 20
217.49034299813641
 11
406.49999964651448
 21
157.49034918413201
  0
LINE
  8
_0-1_
  6
CONTINUOUS
 62
    7
 10
406.49999964651448
 20
157.49034918413201
 11
368.50000064805664
 21
157.49034918413201
  0
LINE
  8
_0-1_
  6
CONTINUOUS
 62
    7
 10
368.50000064805664
 20
157.49034918413201
 11
368.50000064805664
 21
217.49034299813641
  0
LINE
  8
_0-1_
  6
CONTINUOUS
 62
    7
 10
182.49999576553876
 20
157.49034918413201
 11
232.50000883713653
 21
157.49034918413201
  0
LINE
  8
_0-1_
  6
CONTINUOUS
 62
    7
 10
232.50000883713653
 20
157.49034918413201
 11
232.50000883713653
 21
147.49034656981246
  0
LINE
  8
_0-1_
  6
CONTINUOUS
 62
    7
 10
232.50000883713653
 20
147.49034656981246
 11
182.49999576553876
 21
147.49034656981246
  0
LINE
  8
_0-1_
  6
CONTINUOUS
 62
    7
 10
182.49999576553876
 20
147.49034656981246
 11
182.49999576553876
 21
157.49034918413201
  0
LINE
  8
_0-1_
  6
CONTINUOUS
 62
    7
 10
188.49999733413043
 20
217.49034299813641
 11
226.4999963325883
 21
217.49034299813641
  0
LINE
  8
_0-1_
  6
CONTINUOUS
 62
    7
 10
226.4999963325883
 20
217.49034299813641
 11
226.4999963325883
 21
157.49034918413201
  0
LINE
  8
_0-1_
  6
CONTINUOUS
 62
    7
 10
226.4999963325883
 20
157.49034918413201
 11
188.49999733413043
 21
157.49034918413201
  0
LINE
  8
_0-1_
  6
CONTINUOUS
 62
    7
 10
188.49999733413043
 20
157.49034918413201
 11
188.49999733413043
 21
217.49034299813641
  0
LINE
  8
_0-0_
  6
CONTINUOUS
 62
    7
 10
830.5711067229164
 20
154.396654592978
 11
816.42890282119095
 21
140.25451630699123
  0
LINE
  8
_0-0_
  6
CONTINUOUS
 62
    7
 10
830.5711067229164
 20
140.25451630699123
 11
816.42890282119095
 21
154.396654592978
  0
LINE
  8
_0-0_
  6
CONTINUOUS
 62
    7
 10
304.57106763331581
 20
843.74867177838053
 11
290.42892934732919
 21
829.60655536430681
  0
LINE
  8
_0-0_
  6
CONTINUOUS
 62
    7
 10
304.57106763331581
 20
829.60655536430681
 11
290.42892934732919
 21
843.74867177838053
  0
LINE
  8
_0-0_
  6
CONTINUOUS
 62
    7
 10
310.50001009090522
 20
433.12314817804167
 11
310.50001009090522
 21
433.12314817804167
  0
LINE
  8
_0-0_
  6
CONTINUOUS
 62
    7
 10
310.50001009090522
 20
433.12314817804167
 11
310.30251086996674
 21
433.73084737167352
  0
LINE
  8
_0-0_
  6
CONTINUOUS
 62
    7
 10
310.30251086996674
 20
433.73084737167352
 11
309.71601412104013
 21
434.32008193281752
  0
LINE
  8
_0-0_
  6
CONTINUOUS
 62
    7
 10
309.71601412104013
 20
434.32008193281752
 11
308.75834025105985
 21
434.87294826750036
  0
LINE
  8
_0-0_
  6
CONTINUOUS
 62
    7
 10
308.75834025105985
 20
434.87294826750036
 11
307.4585876959589
 21
435.37264781190657
  0
LINE
  8
_0-0_
  6
CONTINUOUS
 62
    7
 10
307.4585876959589
 20
435.37264781190657
 11
305.85624877941746
 21
435.80399744823956
  0
LINE
  8
_0-0_
  6
CONTINUOUS
 62
    7
 10
305.85624877941746
 20
435.80399744823956
 11
304.00000975859206
 21
436.15389083607272
  0
LINE
  8
_0-0_
  6
CONTINUOUS
 62
    7
 10
304.00000975859206
 20
436.15389083607272
 11
301.94627151682818
 21
436.4116966418714
  0
LINE
  8
_0-0_
  6
CONTINUOUS
 62
    7
 10
301.94627151682818
 20
436.4116966418714
 11
299.75743585136013
 21
436.56958156668242
  0
LINE
  8
_0-0_
  6
CONTINUOUS
 62
    7
 10
299.75743585136013
 20
436.56958156668242
 11
297.50000942627889
 21
436.62274835695905
  0
LINE
  8
_0-0_
  6
CONTINUOUS
 62
    7
 10
297.50000942627889
 20
436.62274835695905
 11
295.24258300119766
 21
436.56958156668242
  0
LINE
  8
_0-0_
  6
CONTINUOUS
 62
    7
 10
295.24258300119766
 20
436.56958156668242
 11
293.05374733572961
 21
436.4116966418714
  0
LINE
  8
_0-0_
  6
CONTINUOUS
 62
    7
 10
293.05374733572961
 20
436.4116966418714
 11
291.00000909396573
 21
436.15389083607272
  0
LINE
  8
_0-0_
  6
CONTINUOUS
 62
    7
 10
291.00000909396573
 20
436.15389083607272
 11
289.14377007314033
 21
435.80399744823956
  0
LINE
  8
_0-0_
  6
CONTINUOUS
 62
    7
 10
289.14377007314033
 20
435.80399744823956
 11
287.54143115659889
 21
435.37264781190657
  0
LINE
  8
_0-0_
  6
CONTINUOUS
 62
    7
 10
287.54143115659889
 20
435.37264781190657
 11
286.24167860149794
 21
434.87294826750036
  0
LINE
  8
_0-0_
  6
CONTINUOUS
 62
    7
 10
286.24167860149794
 20
434.87294826750036
 11
285.28400473151765
 21
434.32008193281752
  0
LINE
  8
_0-0_
  6
CONTINUOUS
 62
    7
 10
285.28400473151765
 20
434.32008193281752
 11
284.69750798259105
 21
433.73084737167358
  0
LINE
  8
_0-0_
  6
CONTINUOUS
 62
    7
 10
284.69750798259105
 20
433.73084737167358
 11
284.50000876165257
 21
433.12314817804167
  0
LINE
  8
_0-0_
  6
CONTINUOUS
 62
    7
 10
284.50000876165257
 20
433.12314817804167
 11
284.69750798259105
 21
432.51544898440983
  0
LINE
  8
_0-0_
  6
CONTINUOUS
 62
    7
 10
284.69750798259105
 20
432.51544898440983
 11
285.28400473151765
 21
431.92621442326583
  0
LINE
  8
_0-0_
  6
CONTINUOUS
 62
    7
 10
285.28400473151765
 20
431.92621442326583
 11
286.24167860149794
 21
431.37334808858299
  0
LINE
  8
_0-0_
  6
CONTINUOUS
 62
    7
 10
286.24167860149794
 20
431.37334808858299
 11
287.54143115659889
 21
430.87364854417677
  0
LINE
  8
_0-0_
  6
CONTINUOUS
 62
    7
 10
287.54143115659889
 20
430.87364854417677
 11
289.14377007314033
 21
430.44229890784385
  0
LINE
  8
_0-0_
  6
CONTINUOUS
 62
    7
 10
289.14377007314033
 20
430.44229890784385
 11
291.00000909396573
 21
430.09240552001063
  0
LINE
  8
_0-0_
  6
CONTINUOUS
 62
    7
 10
291.00000909396573
 20
430.09240552001063
 11
293.05374733572961
 21
429.83459971421195
  0
LINE
  8
_0-0_
  6
CONTINUOUS
 62
    7
 10
293.05374733572961
 20
429.83459971421195
 11
295.2425830011976
 21
429.67671478940093
  0
LINE
  8
_0-0_
  6
CONTINUOUS
 62
    7
 10
295.2425830011976
 20
429.67671478940093
 11
297.50000942627884
 21
429.6235479991243
  0
LINE
  8
_0-0_
  6
CONTINUOUS
 62
    7
 10
297.50000942627884
 20
429.6235479991243
 11
299.75743585136007
 21
429.67671478940093
  0
LINE
  8
_0-0_
  6
CONTINUOUS
 62
    7
 10
299.75743585136007
 20
429.67671478940093
 11
301.94627151682812
 21
429.83459971421195
  0
LINE
  8
_0-0_
  6
CONTINUOUS
 62
    7
 10
301.94627151682812
 20
429.83459971421195
 11
304.000009758592
 21
430.09240552001063
  0
LINE
  8
_0-0_
  6
CONTINUOUS
 62
    7
 10
304.000009758592
 20
430.09240552001063
 11
305.8562487794174
 21
430.44229890784379
  0
LINE
  8
_0-0_
  6
CONTINUOUS
 62
    7
 10
305.8562487794174
 20
430.44229890784379
 11
307.45858769595884
 21
430.87364854417677
  0
LINE
  8
_0-0_
  6
CONTINUOUS
 62
    7
 10
307.45858769595884
 20
430.87364854417677
 11
308.75834025105985
 21
431.37334808858299
  0
LINE
  8
_0-0_
  6
CONTINUOUS
 62
    7
 10
308.75834025105985
 20
431.37334808858299
 11
309.71601412104013
 21
431.92621442326578
  0
LINE
  8
_0-0_
  6
CONTINUOUS
 62
    7
 10
309.71601412104013
 20
431.92621442326578
 11
310.30251086996674
 21
432.51544898440977
  0
LINE
  8
_0-0_
  6
CONTINUOUS
 62
    7
 10
310.30251086996674
 20
432.51544898440977
 11
310.50001009090522
 21
433.12314817804167
  0
LINE
  8
_0-0_
  6
CONTINUOUS
 62
    7
 10
310.50001009090522
 20
433.12314817804167
 11
310.50001009090522
 21
433.12314817804167
  0
ARC
  8
_0-0_
  6
CONTINUOUS
 62
    7
 10
297.50000942627889
 20
287.49035036241685
 40
13.999999559063706
 50
116.51477050781249
 51
64.627838134765625
  0
ARC
  8
_0-0_
  6
CONTINUOUS
 62
    7
 10
418.10768628212475
 20
229.99033806406854
 40
12.000000403194353
 50
330
 51
29.99998474121092
  0
ARC
  8
_0-0_
  6
CONTINUOUS
 62
    7
 10
416.89230782645086
 20
229.99033806406854
 40
12.000000403194353
 50
150
 51
209.99998474121094
  0
ARC
  8
_0-0_
  6
CONTINUOUS
 62
    7
 10
823.5296630859375
 20
231.59919223269898
 40
6.0000002015971763
 50
90.238723754882813
 51
269.76126098632812
  0
LINE
  8
_0-0_
  6
CONTINUOUS
 62
    7
 10
457.80394644810883
 20
364.54595249131836
 11
457.80394644810883
 21
364.54595249131836
  0
LINE
  8
_0-0_
  6
CONTINUOUS
 62
    7
 10
457.80394644810883
 20
364.54595249131836
 11
457.59125499697853
 21
366.69040322905789
  0
LINE
  8
_0-0_
  6
CONTINUOUS
 62
    7
 10
457.59125499697853
 20
366.69040322905789
 11
456.95964316570326
 21
368.76969591627568
  0
LINE
  8
_0-0_
  6
CONTINUOUS
 62
    7
 10
456.95964316570326
 20
368.76969591627568
 11
455.92830216016523
 21
370.72065229684341
  0
LINE
  8
_0-0_
  6
CONTINUOUS
 62
    7
 10
455.92830216016523
 20
370.72065229684341
 11
454.52856875493399
 21
372.48399354836914
  0
LINE
  8
_0-0_
  6
CONTINUOUS
 62
    7
 10
454.52856875493399
 20
372.48399354836914
 11
452.80297314122828
 21
374.00614143921894
  0
LINE
  8
_0-0_
  6
CONTINUOUS
 62
    7
 10
452.80297314122828
 20
374.00614143921894
 11
450.80394666857694
 21
375.24084627597341
  0
LINE
  8
_0-0_
  6
CONTINUOUS
 62
    7
 10
450.80394666857694
 20
375.24084627597341
 11
448.59222874479536
 21
376.15059217695853
  0
LINE
  8
_0-0_
  6
CONTINUOUS
 62
    7
 10
448.59222874479536
 20
376.15059217695853
 11
446.23502129981438
 21
376.70773697332646
  0
LINE
  8
_0-0_
  6
CONTINUOUS
 62
    7
 10
446.23502129981438
 20
376.70773697332646
 11
443.80394688904511
 21
376.89535210236846
  0
LINE
  8
_0-0_
  6
CONTINUOUS
 62
    7
 10
443.80394688904511
 20
376.89535210236846
 11
441.37287247827589
 21
376.70773697332646
  0
LINE
  8
_0-0_
  6
CONTINUOUS
 62
    7
 10
441.37287247827589
 20
376.70773697332646
 11
439.01566503329485
 21
376.15059217695853
  0
LINE
  8
_0-0_
  6
CONTINUOUS
 62
    7
 10
439.01566503329485
 20
376.15059217695853
 11
436.80394710951327
 21
375.24084627597341
  0
LINE
  8
_0-0_
  6
CONTINUOUS
 62
    7
 10
436.80394710951327
 20
375.24084627597341
 11
434.80492063686194
 21
374.00614143921894
  0
LINE
  8
_0-0_
  6
CONTINUOUS
 62
    7
 10
434.80492063686194
 20
374.00614143921894
 11
433.07932502315623
 21
372.48399354836914
  0
LINE
  8
_0-0_
  6
CONTINUOUS
 62
    7
 10
433.07932502315623
 20
372.48399354836914
 11
431.67959161792498
 21
370.72065229684341
  0
LINE
  8
_0-0_
  6
CONTINUOUS
 62
    7
 10
431.67959161792498
 20
370.72065229684341
 11
430.64825061238696
 21
368.76969591627568
  0
LINE
  8
_0-0_
  6
CONTINUOUS
 62
    7
 10
430.64825061238696
 20
368.76969591627568
 11
430.01663878111168
 21
366.69040322905795
  0
LINE
  8
_0-0_
  6
CONTINUOUS
 62
    7
 10
430.01663878111168
 20
366.69040322905795
 11
429.80394732998138
 21
364.54595249131836
  0
LINE
  8
_0-0_
  6
CONTINUOUS
 62
    7
 10
429.80394732998138
 20
364.54595249131836
 11
430.01663878111168
 21
362.40150175357883
  0
LINE
  8
_0-0_
  6
CONTINUOUS
 62
    7
 10
430.01663878111168
 20
362.40150175357883
 11
430.64825061238696
 21
360.3222090663611
  0
LINE
  8
_0-0_
  6
CONTINUOUS
 62
    7
 10
430.64825061238696
 20
360.3222090663611
 11
431.67959161792498
 21
358.37125268579331
  0
LINE
  8
_0-0_
  6
CONTINUOUS
 62
    7
 10
431.67959161792498
 20
358.37125268579331
 11
433.07932502315617
 21
356.60791143426763
  0
LINE
  8
_0-0_
  6
CONTINUOUS
 62
    7
 10
433.07932502315617
 20
356.60791143426763
 11
434.80492063686194
 21
355.08576354341778
  0
LINE
  8
_0-0_
  6
CONTINUOUS
 62
    7
 10
434.80492063686194
 20
355.08576354341778
 11
436.80394710951322
 21
353.85105870666331
  0
LINE
  8
_0-0_
  6
CONTINUOUS
 62
    7
 10
436.80394710951322
 20
353.85105870666331
 11
439.01566503329479
 21
352.94131280567825
  0
LINE
  8
_0-0_
  6
CONTINUOUS
 62
    7
 10
439.01566503329479
 20
352.94131280567825
 11
441.37287247827584
 21
352.38416800931026
  0
LINE
  8
_0-0_
  6
CONTINUOUS
 62
    7
 10
441.37287247827584
 20
352.38416800931026
 11
443.80394688904505
 21
352.19655288026826
  0
LINE
  8
_0-0_
  6
CONTINUOUS
 62
    7
 10
443.80394688904505
 20
352.19655288026826
 11
446.23502129981432
 21
352.38416800931026
  0
LINE
  8
_0-0_
  6
CONTINUOUS
 62
    7
 10
446.23502129981432
 20
352.38416800931026
 11
448.59222874479531
 21
352.94131280567819
  0
LINE
  8
_0-0_
  6
CONTINUOUS
 62
    7
 10
448.59222874479531
 20
352.94131280567819
 11
450.80394666857694
 21
353.85105870666331
  0
LINE
  8
_0-0_
  6
CONTINUOUS
 62
    7
 10
450.80394666857694
 20
353.85105870666331
 11
452.80297314122822
 21
355.08576354341773
  0
LINE
  8
_0-0_
  6
CONTINUOUS
 62
    7
 10
452.80297314122822
 20
355.08576354341773
 11
454.52856875493399
 21
356.60791143426758
  0
LINE
  8
_0-0_
  6
CONTINUOUS
 62
    7
 10
454.52856875493399
 20
356.60791143426758
 11
455.92830216016517
 21
358.37125268579325
  0
LINE
  8
_0-0_
  6
CONTINUOUS
 62
    7
 10
455.92830216016517
 20
358.37125268579325
 11
456.9596431657032
 21
360.32220906636098
  0
LINE
  8
_0-0_
  6
CONTINUOUS
 62
    7
 10
456.9596431657032
 20
360.32220906636098
 11
457.59125499697853
 21
362.40150175357877
  0
LINE
  8
_0-0_
  6
CONTINUOUS
 62
    7
 10
457.59125499697853
 20
362.40150175357877
 11
457.80394644810883
 21
364.5459524913183
  0
LINE
  8
_0-0_
  6
CONTINUOUS
 62
    7
 10
457.80394644810883
 20
364.5459524913183
 11
457.80394644810883
 21
364.54595249131836
  0
ARC
  8
_0-0_
  6
CONTINUOUS
 62
    7
 10
443.80394688904511
 20
231.74035355851456
 40
6.0000002015971763
 50
269.76126098632812
 51
90.238372802734403
  0
ARC
  8
_0-0_
  6
CONTINUOUS
 62
    7
 10
418.10768628212475
 20
229.99033806406854
 40
12.000000403194353
 50
330
 51
29.99998474121092
  0
CIRCLE
  8
_0-0_
  6
CONTINUOUS
 62
    7
 10
297.52500902271635
 20
225.75350794552836
 40
6.0000002015971763
  0
LINE
  8
_0-1_
  6
CONTINUOUS
 62
    7
 10
181.3140787765326
 20
356.99034324253842
 11
181.3140787765326
 21
356.99034324253842
  0
LINE
  8
_0-1_
  6
CONTINUOUS
 62
    7
 10
181.3140787765326
 20
356.99034324253842
 11
180.48925430874598
 21
356.88779557971321
  0
LINE
  8
_0-1_
  6
CONTINUOUS
 62
    7
 10
180.48925430874598
 20
356.88779557971321
 11
179.68949171503178
 21
356.58326845008077
  0
LINE
  8
_0-1_
  6
CONTINUOUS
 62
    7
 10
179.68949171503178
 20
356.58326845008077
 11
178.93909137710051
 21
356.08601475637687
  0
LINE
  8
_0-1_
  6
CONTINUOUS
 62
    7
 10
178.93909137710051
 20
356.08601475637687
 11
178.26085382949941
 21
355.41114330046213
  0
LINE
  8
_0-1_
  6
CONTINUOUS
 62
    7
 10
178.26085382949941
 20
355.41114330046213
 11
177.67538697690753
 21
354.57915971002319
  0
LINE
  8
_0-1_
  6
CONTINUOUS
 62
    7
 10
177.67538697690753
 20
354.57915971002319
 11
177.20047993338036
 21
353.61534338545152
  0
LINE
  8
_0-1_
  6
CONTINUOUS
 62
    7
 10
177.20047993338036
 20
353.61534338545152
 11
176.85056250912092
 21
352.54897939805454
  0
LINE
  8
_0-1_
  6
CONTINUOUS
 62
    7
 10
176.85056250912092
 20
352.54897939805454
 11
176.63626676799859
 21
351.41246867798316
  0
LINE
  8
_0-1_
  6
CONTINUOUS
 62
    7
 10
176.63626676799859
 20
351.41246867798316
 11
176.56410397766845
 21
350.24034352836458
  0
LINE
  8
_0-1_
  6
CONTINUOUS
 62
    7
 10
176.56410397766845
 20
350.24034352836458
 11
176.63626676799859
 21
349.068218378746
  0
LINE
  8
_0-1_
  6
CONTINUOUS
 62
    7
 10
176.63626676799859
 20
349.068218378746
 11
176.85056250912092
 21
347.93170765867461
  0
LINE
  8
_0-1_
  6
CONTINUOUS
 62
    7
 10
176.85056250912092
 20
347.93170765867461
 11
177.20047993338036
 21
346.86534367127763
  0
LINE
  8
_0-1_
  6
CONTINUOUS
 62
    7
 10
177.20047993338036
 20
346.86534367127763
 11
177.67538697690753
 21
345.90152734670596
  0
LINE
  8
_0-1_
  6
CONTINUOUS
 62
    7
 10
177.67538697690753
 20
345.90152734670596
 11
178.26085382949941
 21
345.06954375626702
  0
LINE
  8
_0-1_
  6
CONTINUOUS
 62
    7
 10
178.26085382949941
 20
345.06954375626702
 11
178.93909137710051
 21
344.39467230035234
  0
LINE
  8
_0-1_
  6
CONTINUOUS
 62
    7
 10
178.93909137710051
 20
344.39467230035234
 11
179.68949171503175
 21
343.89741860664839
  0
LINE
  8
_0-1_
  6
CONTINUOUS
 62
    7
 10
179.68949171503175
 20
343.89741860664839
 11
180.48925430874598
 21
343.59289147701594
  0
LINE
  8
_0-1_
  6
CONTINUOUS
 62
    7
 10
180.48925430874598
 20
343.59289147701594
 11
181.3140787765326
 21
343.49034381419074
  0
LINE
  8
_0-1_
  6
CONTINUOUS
 62
    7
 10
181.3140787765326
 20
343.49034381419074
 11
182.13890324431918
 21
343.59289147701594
  0
LINE
  8
_0-1_
  6
CONTINUOUS
 62
    7
 10
182.13890324431918
 20
343.59289147701594
 11
182.93866583803342
 21
343.89741860664839
  0
LINE
  8
_0-1_
  6
CONTINUOUS
 62
    7
 10
182.93866583803342
 20
343.89741860664839
 11
183.68906617596465
 21
344.39467230035228
  0
LINE
  8
_0-1_
  6
CONTINUOUS
 62
    7
 10
183.68906617596465
 20
344.39467230035228
 11
184.36730372356578
 21
345.06954375626697
  0
LINE
  8
_0-1_
  6
CONTINUOUS
 62
    7
 10
184.36730372356578
 20
345.06954375626697
 11
184.95277057615766
 21
345.9015273467059
  0
LINE
  8
_0-1_
  6
CONTINUOUS
 62
    7
 10
184.95277057615766
 20
345.9015273467059
 11
185.42767761968483
 21
346.86534367127763
  0
LINE
  8
_0-1_
  6
CONTINUOUS
 62
    7
 10
185.42767761968483
 20
346.86534367127763
 11
185.77759504394427
 21
347.93170765867461
  0
LINE
  8
_0-1_
  6
CONTINUOUS
 62
    7
 10
185.77759504394427
 20
347.93170765867461
 11
185.9918907850666
 21
349.06821837874594
  0
LINE
  8
_0-1_
  6
CONTINUOUS
 62
    7
 10
185.9918907850666
 20
349.06821837874594
 11
186.06405357539674
 21
350.24034352836458
  0
LINE
  8
_0-1_
  6
CONTINUOUS
 62
    7
 10
186.06405357539674
 20
350.24034352836458
 11
185.99189078506663
 21
351.41246867798316
  0
LINE
  8
_0-1_
  6
CONTINUOUS
 62
    7
 10
185.99189078506663
 20
351.41246867798316
 11
185.77759504394427
 21
352.54897939805454
  0
LINE
  8
_0-1_
  6
CONTINUOUS
 62
    7
 10
185.77759504394427
 20
352.54897939805454
 11
185.42767761968483
 21
353.61534338545147
  0
LINE
  8
_0-1_
  6
CONTINUOUS
 62
    7
 10
185.42767761968483
 20
353.61534338545147
 11
184.95277057615766
 21
354.57915971002319
  0
LINE
  8
_0-1_
  6
CONTINUOUS
 62
    7
 10
184.95277057615766
 20
354.57915971002319
 11
184.36730372356581
 21
355.41114330046213
  0
LINE
  8
_0-1_
  6
CONTINUOUS
 62
    7
 10
184.36730372356581
 20
355.41114330046213
 11
183.68906617596468
 21
356.08601475637681
  0
LINE
  8
_0-1_
  6
CONTINUOUS
 62
    7
 10
183.68906617596468
 20
356.08601475637681
 11
182.93866583803344
 21
356.58326845008077
  0
LINE
  8
_0-1_
  6
CONTINUOUS
 62
    7
 10
182.93866583803344
 20
356.58326845008077
 11
182.13890324431921
 21
356.88779557971316
  0
LINE
  8
_0-1_
  6
CONTINUOUS
 62
    7
 10
182.13890324431921
 20
356.88779557971316
 11
181.31407877653263
 21
356.99034324253842
  0
LINE
  8
_0-1_
  6
CONTINUOUS
 62
    7
 10
181.31407877653263
 20
356.99034324253842
 11
181.3140787765326
 21
356.99034324253842
  0
LINE
  8
_0-1_
  6
CONTINUOUS
 62
    7
 10
233.68592582614264
 20
356.99034324253842
 11
233.68592582614264
 21
356.99034324253842
  0
LINE
  8
_0-1_
  6
CONTINUOUS
 62
    7
 10
233.68592582614264
 20
356.99034324253842
 11
232.86110135835602
 21
356.88779557971321
  0
LINE
  8
_0-1_
  6
CONTINUOUS
 62
    7
 10
232.86110135835602
 20
356.88779557971321
 11
232.06133876464182
 21
356.58326845008077
  0
LINE
  8
_0-1_
  6
CONTINUOUS
 62
    7
 10
232.06133876464182
 20
356.58326845008077
 11
231.31093842671055
 21
356.08601475637687
  0
LINE
  8
_0-1_
  6
CONTINUOUS
 62
    7
 10
231.31093842671055
 20
356.08601475637687
 11
230.63270087910945
 21
355.41114330046213
  0
LINE
  8
_0-1_
  6
CONTINUOUS
 62
    7
 10
230.63270087910945
 20
355.41114330046213
 11
230.04723402651757
 21
354.57915971002319
  0
LINE
  8
_0-1_
  6
CONTINUOUS
 62
    7
 10
230.04723402651757
 20
354.57915971002319
 11
229.5723269829904
 21
353.61534338545152
  0
LINE
  8
_0-1_
  6
CONTINUOUS
 62
    7
 10
229.5723269829904
 20
353.61534338545152
 11
229.22240955873096
 21
352.54897939805454
  0
LINE
  8
_0-1_
  6
CONTINUOUS
 62
    7
 10
229.22240955873096
 20
352.54897939805454
 11
229.00811381760863
 21
351.41246867798316
  0
LINE
  8
_0-1_
  6
CONTINUOUS
 62
    7
 10
229.00811381760863
 20
351.41246867798316
 11
228.93595102727849
 21
350.24034352836458
  0
LINE
  8
_0-1_
  6
CONTINUOUS
 62
    7
 10
228.93595102727849
 20
350.24034352836458
 11
229.00811381760863
 21
349.068218378746
  0
LINE
  8
_0-1_
  6
CONTINUOUS
 62
    7
 10
229.00811381760863
 20
349.068218378746
 11
229.22240955873096
 21
347.93170765867461
  0
LINE
  8
_0-1_
  6
CONTINUOUS
 62
    7
 10
229.22240955873096
 20
347.93170765867461
 11
229.5723269829904
 21
346.86534367127763
  0
LINE
  8
_0-1_
  6
CONTINUOUS
 62
    7
 10
229.5723269829904
 20
346.86534367127763
 11
230.04723402651757
 21
345.90152734670596
  0
LINE
  8
_0-1_
  6
CONTINUOUS
 62
    7
 10
230.04723402651757
 20
345.90152734670596
 11
230.63270087910945
 21
345.06954375626702
  0
LINE
  8
_0-1_
  6
CONTINUOUS
 62
    7
 10
230.63270087910945
 20
345.06954375626702
 11
231.31093842671055
 21
344.39467230035234
  0
LINE
  8
_0-1_
  6
CONTINUOUS
 62
    7
 10
231.31093842671055
 20
344.39467230035234
 11
232.06133876464179
 21
343.89741860664839
  0
LINE
  8
_0-1_
  6
CONTINUOUS
 62
    7
 10
232.06133876464179
 20
343.89741860664839
 11
232.86110135835602
 21
343.59289147701594
  0
LINE
  8
_0-1_
  6
CONTINUOUS
 62
    7
 10
232.86110135835602
 20
343.59289147701594
 11
233.68592582614264
 21
343.49034381419074
  0
LINE
  8
_0-1_
  6
CONTINUOUS
 62
    7
 10
233.68592582614264
 20
343.49034381419074
 11
234.51075029392922
 21
343.59289147701594
  0
LINE
  8
_0-1_
  6
CONTINUOUS
 62
    7
 10
234.51075029392922
 20
343.59289147701594
 11
235.31051288764345
 21
343.89741860664839
  0
LINE
  8
_0-1_
  6
CONTINUOUS
 62
    7
 10
235.31051288764345
 20
343.89741860664839
 11
236.06091322557469
 21
344.39467230035228
  0
LINE
  8
_0-1_
  6
CONTINUOUS
 62
    7
 10
236.06091322557469
 20
344.39467230035228
 11
236.73915077317582
 21
345.06954375626697
  0
LINE
  8
_0-1_
  6
CONTINUOUS
 62
    7
 10
236.73915077317582
 20
345.06954375626697
 11
237.3246176257677
 21
345.9015273467059
  0
LINE
  8
_0-1_
  6
CONTINUOUS
 62
    7
 10
237.3246176257677
 20
345.9015273467059
 11
237.79952466929487
 21
346.86534367127763
  0
LINE
  8
_0-1_
  6
CONTINUOUS
 62
    7
 10
237.79952466929487
 20
346.86534367127763
 11
238.14944209355431
 21
347.93170765867461
  0
LINE
  8
_0-1_
  6
CONTINUOUS
 62
    7
 10
238.14944209355431
 20
347.93170765867461
 11
238.36373783467664
 21
349.06821837874594
  0
LINE
  8
_0-1_
  6
CONTINUOUS
 62
    7
 10
238.36373783467664
 20
349.06821837874594
 11
238.43590062500678
 21
350.24034352836458
  0
LINE
  8
_0-1_
  6
CONTINUOUS
 62
    7
 10
238.43590062500678
 20
350.24034352836458
 11
238.36373783467667
 21
351.41246867798316
  0
LINE
  8
_0-1_
  6
CONTINUOUS
 62
    7
 10
238.36373783467667
 20
351.41246867798316
 11
238.14944209355431
 21
352.54897939805454
  0
LINE
  8
_0-1_
  6
CONTINUOUS
 62
    7
 10
238.14944209355431
 20
352.54897939805454
 11
237.79952466929487
 21
353.61534338545147
  0
LINE
  8
_0-1_
  6
CONTINUOUS
 62
    7
 10
237.79952466929487
 20
353.61534338545147
 11
237.3246176257677
 21
354.57915971002319
  0
LINE
  8
_0-1_
  6
CONTINUOUS
 62
    7
 10
237.3246176257677
 20
354.57915971002319
 11
236.73915077317585
 21
355.41114330046213
  0
LINE
  8
_0-1_
  6
CONTINUOUS
 62
    7
 10
236.73915077317585
 20
355.41114330046213
 11
236.06091322557472
 21
356.08601475637681
  0
LINE
  8
_0-1_
  6
CONTINUOUS
 62
    7
 10
236.06091322557472
 20
356.08601475637681
 11
235.31051288764348
 21
356.58326845008077
  0
LINE
  8
_0-1_
  6
CONTINUOUS
 62
    7
 10
235.31051288764348
 20
356.58326845008077
 11
234.51075029392925
 21
356.88779557971316
  0
LINE
  8
_0-1_
  6
CONTINUOUS
 62
    7
 10
234.51075029392925
 20
356.88779557971316
 11
233.68592582614266
 21
356.99034324253842
  0
LINE
  8
_0-1_
  6
CONTINUOUS
 62
    7
 10
233.68592582614266
 20
356.99034324253842
 11
233.68592582614264
 21
356.99034324253842
  0
LINE
  8
_0-1_
  6
CONTINUOUS
 62
    7
 10
361.31407115450236
 20
356.99034324253842
 11
361.31407115450236
 21
356.99034324253842
  0
LINE
  8
_0-1_
  6
CONTINUOUS
 62
    7
 10
361.31407115450236
 20
356.99034324253842
 11
360.48924668671577
 21
356.88779557971321
  0
LINE
  8
_0-1_
  6
CONTINUOUS
 62
    7
 10
360.48924668671577
 20
356.88779557971321
 11
359.68948409300151
 21
356.58326845008077
  0
LINE
  8
_0-1_
  6
CONTINUOUS
 62
    7
 10
359.68948409300151
 20
356.58326845008077
 11
358.93908375507027
 21
356.08601475637687
  0
LINE
  8
_0-1_
  6
CONTINUOUS
 62
    7
 10
358.93908375507027
 20
356.08601475637687
 11
358.26084620746917
 21
355.41114330046213
  0
LINE
  8
_0-1_
  6
CONTINUOUS
 62
    7
 10
358.26084620746917
 20
355.41114330046213
 11
357.67537935487729
 21
354.57915971002319
  0
LINE
  8
_0-1_
  6
CONTINUOUS
 62
    7
 10
357.67537935487729
 20
354.57915971002319
 11
357.20047231135015
 21
353.61534338545152
  0
LINE
  8
_0-1_
  6
CONTINUOUS
 62
    7
 10
357.20047231135015
 20
353.61534338545152
 11
356.85055488709071
 21
352.54897939805454
  0
LINE
  8
_0-1_
  6
CONTINUOUS
 62
    7
 10
356.85055488709071
 20
352.54897939805454
 11
356.63625914596832
 21
351.41246867798316
  0
LINE
  8
_0-1_
  6
CONTINUOUS
 62
    7
 10
356.63625914596832
 20
351.41246867798316
 11
356.56409635563818
 21
350.24034352836458
  0
LINE
  8
_0-1_
  6
CONTINUOUS
 62
    7
 10
356.56409635563818
 20
350.24034352836458
 11
356.63625914596832
 21
349.068218378746
  0
LINE
  8
_0-1_
  6
CONTINUOUS
 62
    7
 10
356.63625914596832
 20
349.068218378746
 11
356.85055488709071
 21
347.93170765867461
  0
LINE
  8
_0-1_
  6
CONTINUOUS
 62
    7
 10
356.85055488709071
 20
347.93170765867461
 11
357.2004723113501
 21
346.86534367127763
  0
LINE
  8
_0-1_
  6
CONTINUOUS
 62
    7
 10
357.2004723113501
 20
346.86534367127763
 11
357.67537935487729
 21
345.90152734670596
  0
LINE
  8
_0-1_
  6
CONTINUOUS
 62
    7
 10
357.67537935487729
 20
345.90152734670596
 11
358.26084620746917
 21
345.06954375626702
  0
LINE
  8
_0-1_
  6
CONTINUOUS
 62
    7
 10
358.26084620746917
 20
345.06954375626702
 11
358.93908375507027
 21
344.39467230035234
  0
LINE
  8
_0-1_
  6
CONTINUOUS
 62
    7
 10
358.93908375507027
 20
344.39467230035234
 11
359.68948409300151
 21
343.89741860664839
  0
LINE
  8
_0-1_
  6
CONTINUOUS
 62
    7
 10
359.68948409300151
 20
343.89741860664839
 11
360.48924668671577
 21
343.59289147701594
  0
LINE
  8
_0-1_
  6
CONTINUOUS
 62
    7
 10
360.48924668671577
 20
343.59289147701594
 11
361.31407115450236
 21
343.49034381419074
  0
LINE
  8
_0-1_
  6
CONTINUOUS
 62
    7
 10
361.31407115450236
 20
343.49034381419074
 11
362.13889562228894
 21
343.59289147701594
  0
LINE
  8
_0-1_
  6
CONTINUOUS
 62
    7
 10
362.13889562228894
 20
343.59289147701594
 11
362.9386582160032
 21
343.89741860664839
  0
LINE
  8
_0-1_
  6
CONTINUOUS
 62
    7
 10
362.9386582160032
 20
343.89741860664839
 11
363.68905855393444
 21
344.39467230035228
  0
LINE
  8
_0-1_
  6
CONTINUOUS
 62
    7
 10
363.68905855393444
 20
344.39467230035228
 11
364.36729610153554
 21
345.06954375626697
  0
LINE
  8
_0-1_
  6
CONTINUOUS
 62
    7
 10
364.36729610153554
 20
345.06954375626697
 11
364.95276295412742
 21
345.9015273467059
  0
LINE
  8
_0-1_
  6
CONTINUOUS
 62
    7
 10
364.95276295412742
 20
345.9015273467059
 11
365.42766999765456
 21
346.86534367127763
  0
LINE
  8
_0-1_
  6
CONTINUOUS
 62
    7
 10
365.42766999765456
 20
346.86534367127763
 11
365.77758742191401
 21
347.93170765867461
  0
LINE
  8
_0-1_
  6
CONTINUOUS
 62
    7
 10
365.77758742191401
 20
347.93170765867461
 11
365.99188316303639
 21
349.06821837874594
  0
LINE
  8
_0-1_
  6
CONTINUOUS
 62
    7
 10
365.99188316303639
 20
349.06821837874594
 11
366.06404595336653
 21
350.24034352836458
  0
LINE
  8
_0-1_
  6
CONTINUOUS
 62
    7
 10
366.06404595336653
 20
350.24034352836458
 11
365.99188316303639
 21
351.41246867798316
  0
LINE
  8
_0-1_
  6
CONTINUOUS
 62
    7
 10
365.99188316303639
 20
351.41246867798316
 11
365.77758742191401
 21
352.54897939805454
  0
LINE
  8
_0-1_
  6
CONTINUOUS
 62
    7
 10
365.77758742191401
 20
352.54897939805454
 11
365.42766999765462
 21
353.61534338545147
  0
LINE
  8
_0-1_
  6
CONTINUOUS
 62
    7
 10
365.42766999765462
 20
353.61534338545147
 11
364.95276295412742
 21
354.57915971002319
  0
LINE
  8
_0-1_
  6
CONTINUOUS
 62
    7
 10
364.95276295412742
 20
354.57915971002319
 11
364.36729610153554
 21
355.41114330046213
  0
LINE
  8
_0-1_
  6
CONTINUOUS
 62
    7
 10
364.36729610153554
 20
355.41114330046213
 11
363.68905855393444
 21
356.08601475637681
  0
LINE
  8
_0-1_
  6
CONTINUOUS
 62
    7
 10
363.68905855393444
 20
356.08601475637681
 11
362.9386582160032
 21
356.58326845008077
  0
LINE
  8
_0-1_
  6
CONTINUOUS
 62
    7
 10
362.9386582160032
 20
356.58326845008077
 11
362.138895622289
 21
356.88779557971316
  0
LINE
  8
_0-1_
  6
CONTINUOUS
 62
    7
 10
362.138895622289
 20
356.88779557971316
 11
361.31407115450236
 21
356.99034324253842
  0
LINE
  8
_0-1_
  6
CONTINUOUS
 62
    7
 10
361.31407115450236
 20
356.99034324253842
 11
361.31407115450236
 21
356.99034324253842
  0
LINE
  8
_0-1_
  6
CONTINUOUS
 62
    7
 10
413.68592914006882
 20
356.99034324253842
 11
413.68592914006882
 21
356.99034324253842
  0
LINE
  8
_0-1_
  6
CONTINUOUS
 62
    7
 10
413.68592914006882
 20
356.99034324253842
 11
412.86110467228224
 21
356.88779557971321
  0
LINE
  8
_0-1_
  6
CONTINUOUS
 62
    7
 10
412.86110467228224
 20
356.88779557971321
 11
412.06134207856798
 21
356.58326845008077
  0
LINE
  8
_0-1_
  6
CONTINUOUS
 62
    7
 10
412.06134207856798
 20
356.58326845008077
 11
411.31094174063674
 21
356.08601475637687
  0
LINE
  8
_0-1_
  6
CONTINUOUS
 62
    7
 10
411.31094174063674
 20
356.08601475637687
 11
410.63270419303564
 21
355.41114330046213
  0
LINE
  8
_0-1_
  6
CONTINUOUS
 62
    7
 10
410.63270419303564
 20
355.41114330046213
 11
410.04723734044376
 21
354.57915971002319
  0
LINE
  8
_0-1_
  6
CONTINUOUS
 62
    7
 10
410.04723734044376
 20
354.57915971002319
 11
409.57233029691656
 21
353.61534338545152
  0
LINE
  8
_0-1_
  6
CONTINUOUS
 62
    7
 10
409.57233029691656
 20
353.61534338545152
 11
409.22241287265717
 21
352.54897939805454
  0
LINE
  8
_0-1_
  6
CONTINUOUS
 62
    7
 10
409.22241287265717
 20
352.54897939805454
 11
409.00811713153479
 21
351.41246867798316
  0
LINE
  8
_0-1_
  6
CONTINUOUS
 62
    7
 10
409.00811713153479
 20
351.41246867798316
 11
408.93595434120465
 21
350.24034352836458
  0
LINE
  8
_0-1_
  6
CONTINUOUS
 62
    7
 10
408.93595434120465
 20
350.24034352836458
 11
409.00811713153479
 21
349.068218378746
  0
LINE
  8
_0-1_
  6
CONTINUOUS
 62
    7
 10
409.00811713153479
 20
349.068218378746
 11
409.22241287265717
 21
347.93170765867461
  0
LINE
  8
_0-1_
  6
CONTINUOUS
 62
    7
 10
409.22241287265717
 20
347.93170765867461
 11
409.57233029691656
 21
346.86534367127763
  0
LINE
  8
_0-1_
  6
CONTINUOUS
 62
    7
 10
409.57233029691656
 20
346.86534367127763
 11
410.04723734044376
 21
345.90152734670596
  0
LINE
  8
_0-1_
  6
CONTINUOUS
 62
    7
 10
410.04723734044376
 20
345.90152734670596
 11
410.63270419303564
 21
345.06954375626702
  0
LINE
  8
_0-1_
  6
CONTINUOUS
 62
    7
 10
410.63270419303564
 20
345.06954375626702
 11
411.31094174063674
 21
344.39467230035234
  0
LINE
  8
_0-1_
  6
CONTINUOUS
 62
    7
 10
411.31094174063674
 20
344.39467230035234
 11
412.06134207856798
 21
343.89741860664839
  0
LINE
  8
_0-1_
  6
CONTINUOUS
 62
    7
 10
412.06134207856798
 20
343.89741860664839
 11
412.86110467228224
 21
343.59289147701594
  0
LINE
  8
_0-1_
  6
CONTINUOUS
 62
    7
 10
412.86110467228224
 20
343.59289147701594
 11
413.68592914006882
 21
343.49034381419074
  0
LINE
  8
_0-1_
  6
CONTINUOUS
 62
    7
 10
413.68592914006882
 20
343.49034381419074
 11
414.51075360785541
 21
343.59289147701594
  0
LINE
  8
_0-1_
  6
CONTINUOUS
 62
    7
 10
414.51075360785541
 20
343.59289147701594
 11
415.31051620156967
 21
343.89741860664839
  0
LINE
  8
_0-1_
  6
CONTINUOUS
 62
    7
 10
415.31051620156967
 20
343.89741860664839
 11
416.06091653950091
 21
344.39467230035228
  0
LINE
  8
_0-1_
  6
CONTINUOUS
 62
    7
 10
416.06091653950091
 20
344.39467230035228
 11
416.73915408710201
 21
345.06954375626697
  0
LINE
  8
_0-1_
  6
CONTINUOUS
 62
    7
 10
416.73915408710201
 20
345.06954375626697
 11
417.32462093969389
 21
345.9015273467059
  0
LINE
  8
_0-1_
  6
CONTINUOUS
 62
    7
 10
417.32462093969389
 20
345.9015273467059
 11
417.79952798322103
 21
346.86534367127763
  0
LINE
  8
_0-1_
  6
CONTINUOUS
 62
    7
 10
417.79952798322103
 20
346.86534367127763
 11
418.14944540748047
 21
347.93170765867461
  0
LINE
  8
_0-1_
  6
CONTINUOUS
 62
    7
 10
418.14944540748047
 20
347.93170765867461
 11
418.36374114860286
 21
349.06821837874594
  0
LINE
  8
_0-1_
  6
CONTINUOUS
 62
    7
 10
418.36374114860286
 20
349.06821837874594
 11
418.435903938933
 21
350.24034352836458
  0
LINE
  8
_0-1_
  6
CONTINUOUS
 62
    7
 10
418.435903938933
 20
350.24034352836458
 11
418.36374114860286
 21
351.41246867798316
  0
LINE
  8
_0-1_
  6
CONTINUOUS
 62
    7
 10
418.36374114860286
 20
351.41246867798316
 11
418.14944540748047
 21
352.54897939805454
  0
LINE
  8
_0-1_
  6
CONTINUOUS
 62
    7
 10
418.14944540748047
 20
352.54897939805454
 11
417.79952798322108
 21
353.61534338545147
  0
LINE
  8
_0-1_
  6
CONTINUOUS
 62
    7
 10
417.79952798322108
 20
353.61534338545147
 11
417.32462093969389
 21
354.57915971002319
  0
LINE
  8
_0-1_
  6
CONTINUOUS
 62
    7
 10
417.32462093969389
 20
354.57915971002319
 11
416.73915408710201
 21
355.41114330046213
  0
LINE
  8
_0-1_
  6
CONTINUOUS
 62
    7
 10
416.73915408710201
 20
355.41114330046213
 11
416.06091653950091
 21
356.08601475637681
  0
LINE
  8
_0-1_
  6
CONTINUOUS
 62
    7
 10
416.06091653950091
 20
356.08601475637681
 11
415.31051620156967
 21
356.58326845008077
  0
LINE
  8
_0-1_
  6
CONTINUOUS
 62
    7
 10
415.31051620156967
 20
356.58326845008077
 11
414.51075360785546
 21
356.88779557971316
  0
LINE
  8
_0-1_
  6
CONTINUOUS
 62
    7
 10
414.51075360785546
 20
356.88779557971316
 11
413.68592914006882
 21
356.99034324253842
  0
LINE
  8
_0-1_
  6
CONTINUOUS
 62
    7
 10
413.68592914006882
 20
356.99034324253842
 11
413.68592914006882
 21
356.99034324253842
  0
LINE
  8
_0-1_
  6
CONTINUOUS
 62
    7
 10
797.31407577927041
 20
356.82558212271061
 11
797.31407577927041
 21
356.82558212271061
  0
LINE
  8
_0-1_
  6
CONTINUOUS
 62
    7
 10
797.31407577927041
 20
356.82558212271061
 11
796.48925131148383
 21
356.72303445988541
  0
LINE
  8
_0-1_
  6
CONTINUOUS
 62
    7
 10
796.48925131148383
 20
356.72303445988541
 11
795.68948871776956
 21
356.41850733025296
  0
LINE
  8
_0-1_
  6
CONTINUOUS
 62
    7
 10
795.68948871776956
 20
356.41850733025296
 11
794.93908837983838
 21
355.92125363654907
  0
LINE
  8
_0-1_
  6
CONTINUOUS
 62
    7
 10
794.93908837983838
 20
355.92125363654907
 11
794.26085083223722
 21
355.24638218063433
  0
LINE
  8
_0-1_
  6
CONTINUOUS
 62
    7
 10
794.26085083223722
 20
355.24638218063433
 11
793.67538397964529
 21
354.41439859019545
  0
LINE
  8
_0-1_
  6
CONTINUOUS
 62
    7
 10
793.67538397964529
 20
354.41439859019545
 11
793.20047693611821
 21
353.45058226562372
  0
LINE
  8
_0-1_
  6
CONTINUOUS
 62
    7
 10
793.20047693611821
 20
353.45058226562372
 11
792.85055951185871
 21
352.38421827822674
  0
LINE
  8
_0-1_
  6
CONTINUOUS
 62
    7
 10
792.85055951185871
 20
352.38421827822674
 11
792.63626377073638
 21
351.24770755815535
  0
LINE
  8
_0-1_
  6
CONTINUOUS
 62
    7
 10
792.63626377073638
 20
351.24770755815535
 11
792.56410098040624
 21
350.07558240853677
  0
LINE
  8
_0-1_
  6
CONTINUOUS
 62
    7
 10
792.56410098040624
 20
350.07558240853677
 11
792.63626377073638
 21
348.90345725891819
  0
LINE
  8
_0-1_
  6
CONTINUOUS
 62
    7
 10
792.63626377073638
 20
348.90345725891819
 11
792.85055951185871
 21
347.76694653884681
  0
LINE
  8
_0-1_
  6
CONTINUOUS
 62
    7
 10
792.85055951185871
 20
347.76694653884681
 11
793.20047693611821
 21
346.70058255144983
  0
LINE
  8
_0-1_
  6
CONTINUOUS
 62
    7
 10
793.20047693611821
 20
346.70058255144983
 11
793.67538397964529
 21
345.73676622687816
  0
LINE
  8
_0-1_
  6
CONTINUOUS
 62
    7
 10
793.67538397964529
 20
345.73676622687816
 11
794.26085083223722
 21
344.90478263643922
  0
LINE
  8
_0-1_
  6
CONTINUOUS
 62
    7
 10
794.26085083223722
 20
344.90478263643922
 11
794.93908837983838
 21
344.22991118052448
  0
LINE
  8
_0-1_
  6
CONTINUOUS
 62
    7
 10
794.93908837983838
 20
344.22991118052448
 11
795.68948871776956
 21
343.73265748682059
  0
LINE
  8
_0-1_
  6
CONTINUOUS
 62
    7
 10
795.68948871776956
 20
343.73265748682059
 11
796.48925131148383
 21
343.42813035718814
  0
LINE
  8
_0-1_
  6
CONTINUOUS
 62
    7
 10
796.48925131148383
 20
343.42813035718814
 11
797.31407577927041
 21
343.32558269436294
  0
LINE
  8
_0-1_
  6
CONTINUOUS
 62
    7
 10
797.31407577927041
 20
343.32558269436294
 11
798.13890024705699
 21
343.42813035718814
  0
LINE
  8
_0-1_
  6
CONTINUOUS
 62
    7
 10
798.13890024705699
 20
343.42813035718814
 11
798.93866284077126
 21
343.73265748682059
  0
LINE
  8
_0-1_
  6
CONTINUOUS
 62
    7
 10
798.93866284077126
 20
343.73265748682059
 11
799.68906317870244
 21
344.22991118052448
  0
LINE
  8
_0-1_
  6
CONTINUOUS
 62
    7
 10
799.68906317870244
 20
344.22991118052448
 11
800.3673007263036
 21
344.90478263643917
  0
LINE
  8
_0-1_
  6
CONTINUOUS
 62
    7
 10
800.3673007263036
 20
344.90478263643917
 11
800.95276757889542
 21
345.7367662268781
  0
LINE
  8
_0-1_
  6
CONTINUOUS
 62
    7
 10
800.95276757889542
 20
345.7367662268781
 11
801.42767462242261
 21
346.70058255144983
  0
LINE
  8
_0-1_
  6
CONTINUOUS
 62
    7
 10
801.42767462242261
 20
346.70058255144983
 11
801.77759204668212
 21
347.76694653884681
  0
LINE
  8
_0-1_
  6
CONTINUOUS
 62
    7
 10
801.77759204668212
 20
347.76694653884681
 11
801.99188778780444
 21
348.90345725891814
  0
LINE
  8
_0-1_
  6
CONTINUOUS
 62
    7
 10
801.99188778780444
 20
348.90345725891814
 11
802.06405057813458
 21
350.07558240853677
  0
LINE
  8
_0-1_
  6
CONTINUOUS
 62
    7
 10
802.06405057813458
 20
350.07558240853677
 11
801.99188778780444
 21
351.24770755815535
  0
LINE
  8
_0-1_
  6
CONTINUOUS
 62
    7
 10
801.99188778780444
 20
351.24770755815535
 11
801.77759204668212
 21
352.38421827822674
  0
LINE
  8
_0-1_
  6
CONTINUOUS
 62
    7
 10
801.77759204668212
 20
352.38421827822674
 11
801.42767462242261
 21
353.45058226562367
  0
LINE
  8
_0-1_
  6
CONTINUOUS
 62
    7
 10
801.42767462242261
 20
353.45058226562367
 11
800.95276757889553
 21
354.41439859019539
  0
LINE
  8
_0-1_
  6
CONTINUOUS
 62
    7
 10
800.95276757889553
 20
354.41439859019539
 11
800.3673007263036
 21
355.24638218063433
  0
LINE
  8
_0-1_
  6
CONTINUOUS
 62
    7
 10
800.3673007263036
 20
355.24638218063433
 11
799.68906317870255
 21
355.92125363654901
  0
LINE
  8
_0-1_
  6
CONTINUOUS
 62
    7
 10
799.68906317870255
 20
355.92125363654901
 11
798.93866284077126
 21
356.41850733025296
  0
LINE
  8
_0-1_
  6
CONTINUOUS
 62
    7
 10
798.93866284077126
 20
356.41850733025296
 11
798.13890024705699
 21
356.72303445988535
  0
LINE
  8
_0-1_
  6
CONTINUOUS
 62
    7
 10
798.13890024705699
 20
356.72303445988535
 11
797.31407577927041
 21
356.82558212271061
  0
LINE
  8
_0-1_
  6
CONTINUOUS
 62
    7
 10
797.31407577927041
 20
356.82558212271061
 11
797.31407577927041
 21
356.82558212271061
  0
LINE
  8
_0-1_
  6
CONTINUOUS
 62
    7
 10
849.68593376483693
 20
356.82558212271061
 11
849.68593376483693
 21
356.82558212271061
  0
LINE
  8
_0-1_
  6
CONTINUOUS
 62
    7
 10
849.68593376483693
 20
356.82558212271061
 11
848.86110929705035
 21
356.72303445988541
  0
LINE
  8
_0-1_
  6
CONTINUOUS
 62
    7
 10
848.86110929705035
 20
356.72303445988541
 11
848.06134670333608
 21
356.41850733025296
  0
LINE
  8
_0-1_
  6
CONTINUOUS
 62
    7
 10
848.06134670333608
 20
356.41850733025296
 11
847.3109463654049
 21
355.92125363654907
  0
LINE
  8
_0-1_
  6
CONTINUOUS
 62
    7
 10
847.3109463654049
 20
355.92125363654907
 11
846.63270881780375
 21
355.24638218063433
  0
LINE
  8
_0-1_
  6
CONTINUOUS
 62
    7
 10
846.63270881780375
 20
355.24638218063433
 11
846.04724196521181
 21
354.41439859019545
  0
LINE
  8
_0-1_
  6
CONTINUOUS
 62
    7
 10
846.04724196521181
 20
354.41439859019545
 11
845.57233492168473
 21
353.45058226562372
  0
LINE
  8
_0-1_
  6
CONTINUOUS
 62
    7
 10
845.57233492168473
 20
353.45058226562372
 11
845.22241749742523
 21
352.38421827822674
  0
LINE
  8
_0-1_
  6
CONTINUOUS
 62
    7
 10
845.22241749742523
 20
352.38421827822674
 11
845.0081217563029
 21
351.24770755815535
  0
LINE
  8
_0-1_
  6
CONTINUOUS
 62
    7
 10
845.0081217563029
 20
351.24770755815535
 11
844.93595896597276
 21
350.07558240853677
  0
LINE
  8
_0-1_
  6
CONTINUOUS
 62
    7
 10
844.93595896597276
 20
350.07558240853677
 11
845.0081217563029
 21
348.90345725891819
  0
LINE
  8
_0-1_
  6
CONTINUOUS
 62
    7
 10
845.0081217563029
 20
348.90345725891819
 11
845.22241749742523
 21
347.76694653884681
  0
LINE
  8
_0-1_
  6
CONTINUOUS
 62
    7
 10
845.22241749742523
 20
347.76694653884681
 11
845.57233492168473
 21
346.70058255144983
  0
LINE
  8
_0-1_
  6
CONTINUOUS
 62
    7
 10
845.57233492168473
 20
346.70058255144983
 11
846.04724196521181
 21
345.73676622687816
  0
LINE
  8
_0-1_
  6
CONTINUOUS
 62
    7
 10
846.04724196521181
 20
345.73676622687816
 11
846.63270881780375
 21
344.90478263643922
  0
LINE
  8
_0-1_
  6
CONTINUOUS
 62
    7
 10
846.63270881780375
 20
344.90478263643922
 11
847.3109463654049
 21
344.22991118052448
  0
LINE
  8
_0-1_
  6
CONTINUOUS
 62
    7
 10
847.3109463654049
 20
344.22991118052448
 11
848.06134670333608
 21
343.73265748682059
  0
LINE
  8
_0-1_
  6
CONTINUOUS
 62
    7
 10
848.06134670333608
 20
343.73265748682059
 11
848.86110929705035
 21
343.42813035718814
  0
LINE
  8
_0-1_
  6
CONTINUOUS
 62
    7
 10
848.86110929705035
 20
343.42813035718814
 11
849.68593376483693
 21
343.32558269436294
  0
LINE
  8
_0-1_
  6
CONTINUOUS
 62
    7
 10
849.68593376483693
 20
343.32558269436294
 11
850.51075823262352
 21
343.42813035718814
  0
LINE
  8
_0-1_
  6
CONTINUOUS
 62
    7
 10
850.51075823262352
 20
343.42813035718814
 11
851.31052082633778
 21
343.73265748682059
  0
LINE
  8
_0-1_
  6
CONTINUOUS
 62
    7
 10
851.31052082633778
 20
343.73265748682059
 11
852.06092116426896
 21
344.22991118052448
  0
LINE
  8
_0-1_
  6
CONTINUOUS
 62
    7
 10
852.06092116426896
 20
344.22991118052448
 11
852.73915871187012
 21
344.90478263643917
  0
LINE
  8
_0-1_
  6
CONTINUOUS
 62
    7
 10
852.73915871187012
 20
344.90478263643917
 11
853.32462556446194
 21
345.7367662268781
  0
LINE
  8
_0-1_
  6
CONTINUOUS
 62
    7
 10
853.32462556446194
 20
345.7367662268781
 11
853.79953260798914
 21
346.70058255144983
  0
LINE
  8
_0-1_
  6
CONTINUOUS
 62
    7
 10
853.79953260798914
 20
346.70058255144983
 11
854.14945003224864
 21
347.76694653884681
  0
LINE
  8
_0-1_
  6
CONTINUOUS
 62
    7
 10
854.14945003224864
 20
347.76694653884681
 11
854.36374577337097
 21
348.90345725891814
  0
LINE
  8
_0-1_
  6
CONTINUOUS
 62
    7
 10
854.36374577337097
 20
348.90345725891814
 11
854.4359085637011
 21
350.07558240853677
  0
LINE
  8
_0-1_
  6
CONTINUOUS
 62
    7
 10
854.4359085637011
 20
350.07558240853677
 11
854.36374577337097
 21
351.24770755815535
  0
LINE
  8
_0-1_
  6
CONTINUOUS
 62
    7
 10
854.36374577337097
 20
351.24770755815535
 11
854.14945003224864
 21
352.38421827822674
  0
LINE
  8
_0-1_
  6
CONTINUOUS
 62
    7
 10
854.14945003224864
 20
352.38421827822674
 11
853.79953260798914
 21
353.45058226562367
  0
LINE
  8
_0-1_
  6
CONTINUOUS
 62
    7
 10
853.79953260798914
 20
353.45058226562367
 11
853.32462556446205
 21
354.41439859019539
  0
LINE
  8
_0-1_
  6
CONTINUOUS
 62
    7
 10
853.32462556446205
 20
354.41439859019539
 11
852.73915871187012
 21
355.24638218063433
  0
LINE
  8
_0-1_
  6
CONTINUOUS
 62
    7
 10
852.73915871187012
 20
355.24638218063433
 11
852.06092116426908
 21
355.92125363654901
  0
LINE
  8
_0-1_
  6
CONTINUOUS
 62
    7
 10
852.06092116426908
 20
355.92125363654901
 11
851.31052082633778
 21
356.41850733025296
  0
LINE
  8
_0-1_
  6
CONTINUOUS
 62
    7
 10
851.31052082633778
 20
356.41850733025296
 11
850.51075823262352
 21
356.72303445988535
  0
LINE
  8
_0-1_
  6
CONTINUOUS
 62
    7
 10
850.51075823262352
 20
356.72303445988535
 11
849.68593376483693
 21
356.82558212271061
  0
LINE
  8
_0-1_
  6
CONTINUOUS
 62
    7
 10
849.68593376483693
 20
356.82558212271061
 11
849.68593376483693
 21
356.82558212271061
  0
ARC
  8
_0-0_
  6
CONTINUOUS
 62
    7
 10
730.52429655804133
 20
436.89425965533752
 40
80.114788309487594
 50
2.933868408203125
 51
170.178955078125
  0
ARC
  8
_0-1_
  6
CONTINUOUS
 62
    7
 10
207.49999683335943
 20
836.67765731516954
 40
25.000001067820662
 50
330.66426086425781
 51
29.335723876953139
  0
ARC
  8
_0-1_
  6
CONTINUOUS
 62
    7
 10
207.49999683335943
 20
836.67765731516954
 40
25.000001067820662
 50
60.664260864257813
 51
119.33572387695314
  0
ARC
  8
_0-1_
  6
CONTINUOUS
 62
    7
 10
207.49999683335943
 20
836.67765731516954
 40
25.000001067820662
 50
150.66426086425781
 51
209.33572387695312
  0
ARC
  8
_0-1_
  6
CONTINUOUS
 62
    7
 10
207.49999683335943
 20
836.67765731516954
 40
25.000001067820662
 50
240.66426086425781
 51
299.33572387695312
  0
ARC
  8
_0-1_
  6
CONTINUOUS
 62
    7
 10
387.50000014728556
 20
836.67765731516954
 40
25.000001067820662
 50
330.66426086425781
 51
29.335723876953139
  0
ARC
  8
_0-1_
  6
CONTINUOUS
 62
    7
 10
387.50000014728556
 20
836.67765731516954
 40
25.000001067820662
 50
60.664260864257813
 51
119.33572387695314
  0
ARC
  8
_0-1_
  6
CONTINUOUS
 62
    7
 10
387.50000014728556
 20
836.67765731516954
 40
25.000001067820662
 50
150.66426086425781
 51
209.33572387695312
  0
ARC
  8
_0-1_
  6
CONTINUOUS
 62
    7
 10
387.50000014728556
 20
836.67765731516954
 40
25.000001067820662
 50
240.66426086425781
 51
299.33572387695312
  0
ARC
  8
_0-0_
  6
CONTINUOUS
 62
    7
 10
207.49999683335943
 20
836.67765731516954
 40
18.999999499228931
 50
335.80957031250006
 51
24.190414428710977
  0
ARC
  8
_0-0_
  6
CONTINUOUS
 62
    7
 10
207.49999683335943
 20
836.67765731516954
 40
18.999999499228931
 50
65.8095703125
 51
114.19041442871094
  0
ARC
  8
_0-0_
  6
CONTINUOUS
 62
    7
 10
207.49999683335943
 20
836.67765731516954
 40
18.999999499228931
 50
155.8095703125
 51
204.19041442871091
  0
ARC
  8
_0-0_
  6
CONTINUOUS
 62
    7
 10
207.49999683335943
 20
836.67765731516954
 40
18.999999499228931
 50
245.80957031250006
 51
294.19041442871099
  0
ARC
  8
_0-0_
  6
CONTINUOUS
 62
    7
 10
387.50000014728556
 20
836.67765731516954
 40
18.999999499228931
 50
335.80957031250006
 51
24.190414428710977
  0
ARC
  8
_0-0_
  6
CONTINUOUS
 62
    7
 10
387.50000014728556
 20
836.67765731516954
 40
18.999999499228931
 50
65.8095703125
 51
114.19041442871094
  0
ARC
  8
_0-0_
  6
CONTINUOUS
 62
    7
 10
387.50000014728556
 20
836.67765731516954
 40
18.999999499228931
 50
155.8095703125
 51
204.19041442871091
  0
ARC
  8
_0-0_
  6
CONTINUOUS
 62
    7
 10
387.50000014728556
 20
836.67765731516954
 40
18.999999499228931
 50
245.80957031250006
 51
294.19041442871099
  0
TEXT
  8
_0-0_
 62
    6
 10
958.97415956475106
 20
758.18119918057346
 40
45
 41
1
 50
0
  1
TX-7147
  0
ENDSEC
  0
EOF
