  0
SECTION
  2
HEADER
  9
$ACADVER
  1
AC1015
  9
$ACADMAINTVER
 70
               6
  9
$DWGCODEPAGE
  3
ANSI_932
  9
$INSBASE
 10
0.0
 20
0.0
 30
0.0
  9
$EXTMIN
 10
1031.4948589414355
 20
742.92893218813447
 30
-7.4083333333333323
  9
$EXTMAX
 10
1834.215819873855
 20
1412.5564093005312
 30
7.4083333333333323
  9
$LIMMIN
 10
0.0
 20
0.0
  9
$LIMMAX
 10
0.0
 20
0.0
  9
$ORTHOMODE
 70
               0
  9
$REGENMODE
 70
               1
  9
$FILLMODE
 70
               1
  9
$QTEXTMODE
 70
               0
  9
$MIRRTEXT
 70
               1
  9
$LTSCALE
 40
25.399999999999999
  9
$ATTMODE
 70
               1
  9
$TEXTSIZE
 40
0.2
  9
$TRACEWID
 40
1.0
  9
$TEXTSTYLE
  7
Standard
  9
$CLAYER
  8
一般
  9
$CELTYPE
  6
Continuous
  9
$CECOLOR
 62
             256
  9
$CELTSCALE
 40
1.0
  9
$DISPSILH
 70
               0
  9
$DIMSCALE
 40
1.0
  9
$DIMASZ
 40
0.18
  9
$DIMEXO
 40
0.0625
  9
$DIMDLI
 40
0.38
  9
$DIMRND
 40
0.0
  9
$DIMDLE
 40
0.0
  9
$DIMEXE
 40
0.18
  9
$DIMTP
 40
0.0
  9
$DIMTM
 40
0.0
  9
$DIMTXT
 40
0.18
  9
$DIMCEN
 40
0.09
  9
$DIMTSZ
 40
0.0
  9
$DIMTOL
 70
               0
  9
$DIMLIM
 70
               0
  9
$DIMTIH
 70
               1
  9
$DIMTOH
 70
               1
  9
$DIMSE1
 70
               0
  9
$DIMSE2
 70
               0
  9
$DIMTAD
 70
               0
  9
$DIMZIN
 70
               0
  9
$DIMBLK
  1

  9
$DIMASO
 70
               1
  9
$DIMSHO
 70
               1
  9
$DIMPOST
  1

  9
$DIMAPOST
  1

  9
$DIMALT
 70
               0
  9
$DIMALTD
 70
               2
  9
$DIMALTF
 40
25.399999999999999
  9
$DIMLFAC
 40
1.0
  9
$DIMTOFL
 70
               0
  9
$DIMTVP
 40
0.0
  9
$DIMTIX
 70
               0
  9
$DIMSOXD
 70
               0
  9
$DIMSAH
 70
               0
  9
$DIMBLK1
  1

  9
$DIMBLK2
  1

  9
$DIMSTYLE
  2
Standard
  9
$DIMCLRD
 70
               0
  9
$DIMCLRE
 70
               0
  9
$DIMCLRT
 70
               0
  9
$DIMTFAC
 40
1.0
  9
$DIMGAP
 40
0.09
  9
$DIMJUST
 70
               0
  9
$DIMSD1
 70
               0
  9
$DIMSD2
 70
               0
  9
$DIMTOLJ
 70
               1
  9
$DIMTZIN
 70
               0
  9
$DIMALTZ
 70
               0
  9
$DIMALTTZ
 70
               0
  9
$DIMUPT
 70
               0
  9
$DIMDEC
 70
               4
  9
$DIMTDEC
 70
               4
  9
$DIMALTU
 70
               2
  9
$DIMALTTD
 70
               2
  9
$DIMTXSTY
  7
Standard
  9
$DIMAUNIT
 70
               0
  9
$DIMADEC
 70
               0
  9
$DIMALTRND
 40
0.0
  9
$DIMAZIN
 70
               0
  9
$DIMDSEP
 70
               0
  9
$DIMATFIT
 70
               3
  9
$DIMFRAC
 70
               0
  9
$DIMLDRBLK
  1

  9
$DIMLUNIT
 70
               2
  9
$DIMLWD
 70
               0
  9
$DIMLWE
 70
               0
  9
$DIMTMOVE
 70
               0
  9
$LUNITS
 70
               2
  9
$LUPREC
 70
               4
  9
$SKETCHINC
 40
0.1
  9
$FILLETRAD
 40
0.0
  9
$AUNITS
 70
               0
  9
$AUPREC
 70
               0
  9
$MENU
  1
acad
  9
$ELEVATION
 40
0.0
  9
$PELEVATION
 40
0.0
  9
$THICKNESS
 40
0.0
  9
$LIMCHECK
 70
               0
  9
$CHAMFERA
 40
0.0
  9
$CHAMFERB
 40
0.0
  9
$CHAMFERC
 40
0.0
  9
$CHAMFERD
 40
0.0
  9
$SKPOLY
 70
               0
  9
$TDCREATE
 40
2455709.433854167
  9
$TDUCREATE
 40
0.000000000
  9
$TDUPDATE
 40
2455709.433854167
  9
$TDUUPDATE
 40
0.000000000
  9
$TDINDWG
 40
0.0000000000
  9
$TDUSRTIMER
 40
0.0000000000
  9
$USRTIMER
 70
               1
  9
$ANGBASE
 50
0.0
  9
$ANGDIR
 70
               0
  9
$PDMODE
 70
               1
  9
$PDSIZE
 40
-2.0
  9
$PLINEWID
 40
0.0
  9
$SPLFRAME
 70
               0
  9
$SPLINETYPE
 70
               6
  9
$SPLINESEGS
 70
               8
  9
$HANDSEED
  5
116
  9
$SURFTAB1
 70
               6
  9
$SURFTAB2
 70
               6
  9
$SURFTYPE
 70
               6
  9
$SURFU
 70
               6
  9
$SURFV
 70
               6
  9
$UCSBASE
  2

  9
$UCSNAME
  2

  9
$UCSORG
 10
0.0
 20
0.0
 30
0.0
  9
$UCSXDIR
 10
1.0
 20
0.0
 30
0.0
  9
$UCSYDIR
 10
0.0
 20
1.0
 30
0.0
  9
$UCSORTHOREF
  2

  9
$UCSORTHOVIEW
 70
               0
  9
$UCSORGTOP
 10
0.0
 20
0.0
 30
0.0
  9
$UCSORGBOTTOM
 10
0.0
 20
0.0
 30
0.0
  9
$UCSORGLEFT
 10
0.0
 20
0.0
 30
0.0
  9
$UCSORGRIGHT
 10
0.0
 20
0.0
 30
0.0
  9
$UCSORGFRONT
 10
0.0
 20
0.0
 30
0.0
  9
$UCSORGBACK
 10
0.0
 20
0.0
 30
0.0
  9
$PUCSBASE
  2

  9
$PUCSNAME
  2

  9
$PUCSORG
 10
0.0
 20
0.0
 30
0.0
  9
$PUCSXDIR
 10
1.0
 20
0.0
 30
0.0
  9
$PUCSYDIR
 10
0.0
 20
1.0
 30
0.0
  9
$PUCSORTHOREF
  2

  9
$PUCSORTHOVIEW
 70
               0
  9
$PUCSORGTOP
 10
0.0
 20
0.0
 30
0.0
  9
$PUCSORGBOTTOM
 10
0.0
 20
0.0
 30
0.0
  9
$PUCSORGLEFT
 10
0.0
 20
0.0
 30
0.0
  9
$PUCSORGRIGHT
 10
0.0
 20
0.0
 30
0.0
  9
$PUCSORGFRONT
 10
0.0
 20
0.0
 30
0.0
  9
$PUCSORGBACK
 10
0.0
 20
0.0
 30
0.0
  9
$USERI1
 70
               0
  9
$USERI2
 70
               0
  9
$USERI3
 70
               0
  9
$USERI4
 70
               0
  9
$USERI5
 70
               0
  9
$USERR1
 40
0.0
  9
$USERR2
 40
0.0
  9
$USERR3
 40
0.0
  9
$USERR4
 40
0.0
  9
$USERR5
 40
0.0
  9
$WORLDVIEW
 70
               1
  9
$SHADEDGE
 70
               3
  9
$SHADEDIF
 70
              70
  9
$TILEMODE
 70
               1
  9
$MAXACTVP
 70
              64
  9
$PINSBASE
 10
0.0
 20
0.0
 30
0.0
  9
$PLIMCHECK
 70
               0
  9
$PEXTMIN
 10
1.0000000000000000E+20
 20
1.0000000000000000E+20
 30
1.0000000000000000E+20
  9
$PEXTMAX
 10
-1.0000000000000000E+20
 20
-1.0000000000000000E+20
 30
-1.0000000000000000E+20
  9
$PLIMMIN
 10
0.0
 20
0.0
  9
$PLIMMAX
 10
12.0
 20
9.0
  9
$UNITMODE
 70
               0
  9
$VISRETAIN
 70
               0
  9
$PLINEGEN
 70
               1
  9
$PSLTSCALE
 70
               0
  9
$TREEDEPTH
 70
            3020
  9
$CMLSTYLE
  2
Standard
  9
$CMLJUST
 70
               0
  9
$CMLSCALE
 40
1.0
  9
$PROXYGRAPHICS
 70
               0
  9
$MEASUREMENT
 70
               1
  9
$CELWEIGHT
370
               0
  9
$ENDCAPS
280
               0
  9
$JOINSTYLE
280
               0
  9
$LWDISPLAY
290
               1
  9
$INSUNITS
 70
               4
  9
$HYPERLINKBASE
  1

  9
$STYLESHEET
  1

  9
$XEDIT
290
               1
  9
$CEPSNTYPE
380
               0
  9
$PSTYLEMODE
290
               1
  9
$FINGERPRINTGUID
  2

  9
$VERSIONGUID
  2

  9
$EXTNAMES
290
               1
  9
$PSVPSCALE
 40
0.0
  0
ENDSEC
  0
SECTION
  2
CLASSES
  0
CLASS
  1
LWPOLYLINE
  2
AcDbPolyline
  3
AutoCAD 2000
 90
        0
280
               0
281
               1
  0
CLASS
  1
IMAGE
  2
AcDbRasterImage
  3
ISM
 90
    32895
280
               0
281
               1
  0
CLASS
  1
OLE2FRAME
  2
AcDbOle2Frame
  3
AutoCAD 2000
 90
    32768
280
               0
281
               1
  0
CLASS
  1
HATCH
  2
AcDbHatch
  3
AutoCAD 2000
 90
    32768
280
               0
281
               1
  0
CLASS
  1
DICTIONARYVAR
  2
AcDbDictionaryVar
  3
AutoCAD 2000
 90
    32768
280
               0
281
               0
  0
CLASS
  1
RASTERVARIABLES
  2
AcDbRasterVariables
  3
ISM
 90
    32768
280
               0
281
               0
  0
CLASS
  1
IMAGEDEF
  2
AcDbRasterImageDef
  3
ISM
 90
    32768
280
               0
281
               0
  0
CLASS
  1
IMAGEDEF_REACTOR
  2
AcDbRasterImageDefReactor
  3
ISM
 90
    32769
280
               0
281
               0
  0
CLASS
  1
IDBUFFER
  2
AcDbIdBuffer
  3
AutoCAD 2000
 90
    32768
280
               0
281
               0
  0
CLASS
  1
SPATIAL_FILTER
  2
AcDbSpatialFilter
  3
AutoCAD 2000
 90
    32768
280
               0
281
               0
  0
CLASS
  1
XRECORD
  2
AcDbXrecord
  3
AutoCAD 2000
 90
    32768
280
               0
281
               0
  0
CLASS
  1
SORTENTSTABLE
  2
AcDbSortentsTable
  3
AutoCAD 2000
 90
    32768
280
               0
281
               0
  0
CLASS
  1
LAYER_INDEX
  2
AcDbLayerIndex
  3
AutoCAD 2000
 90
    32768
280
               0
281
               0
  0
CLASS
  1
SPATIAL_INDEX
  2
AcDbSpatialIndex
  3
AutoCAD 2000
 90
    32768
280
               0
281
               0
  0
CLASS
  1
OBJECT_PTR
  2
CAseDLPNTableRecord
  3
"ASE-LPNTableRecord"
 90
    32769
280
               0
281
               0
  0
CLASS
  1
LAYOUT
  2
AcDbLayout
  3
AutoCAD 2000
 90
        0
280
               0
281
               0
  0
CLASS
  1
PLOTSETTINGS
  2
AcDbPlotSettings
  3
AutoCAD 2000
 90
    32768
280
               0
281
               0
  0
CLASS
  1
ACDBDICTIONARYWDFLT
  2
AcDbDictionaryWithDefault
  3
AutoCAD 2000
 90
        0
280
               0
281
               0
  0
CLASS
  1
ACDBPLACEHOLDER
  2
AcDbPlaceHolder
  3
AutoCAD 2000
 90
        0
280
               0
281
               0
  0
CLASS
  1
VBA_PROJECT
  2
AcDbVbaProject
  3
acadvba
 90
    32768
280
               0
281
               0
  0
CLASS
  1
WIPEOUT
  2
AcDbWipeout
  3
WipeOut|AutoCAD Express Tool|expresstools@autodesk.com
 90
    32895
280
               0
281
               1
  0
CLASS
  1
WIPEOUTVARIABLES
  2
AcDbWipeoutVariables
  3
WipeOut|AutoCAD Express Tool|expresstools@autodesk.com
 90
        0
280
               0
281
               0
  0
CLASS
  1
RTEXT
  2
RText
  3
RText|AutoCAD Express Tool|expresstools@autodesk.com
 90
    32768
280
               0
281
               1
  0
CLASS
  1
ARCALIGNEDTEXT
  2
AcDbArcAlignedText
  3
ATEXT|AutoCAD Express Tool|expresstools@autodesk.com
 90
    32768
280
               0
281
               1
  0
ENDSEC
  0
SECTION
  2
TABLES
  0
TABLE
  2
VPORT
  5
7
100
AcDbSymbolTable
 70
               1
  0
VPORT
  5
15
100
AcDbSymbolTableRecord
100
AcDbViewportTableRecord
  2
*ACTIVE
 70
               0
 10
0.0
 20
0.0
 11
1.0
 21
1.0
 12
1432.8553394076453
 22
1077.7426707443328
 13
0.0
 23
0.0
 14
1.0
 24
1.0
 15
0.0
 25
0.0
 16
0.0
 26
0.0
 36
1.0
 17
0.0
 27
0.0
 37
0.0
 40
669.62747711239672
 41
0.688564
 42
50.0
 43
0.0
 44
0.0
 50
0.0
 51
0.0
 71
               0
 72
            2000
 73
               1
 74
               1
 75
               0
 76
               0
 77
               0
 78
               0
281
               0
 65
               0
110
0.0
120
0.0
130
0.0
111
1.0
121
0.0
131
0.0
112
0.0
122
1.0
132
0.0
345
0
346
0
 79
               0
146
0.0
  0
ENDTAB
  0
TABLE
  2
LTYPE
  5
4
100
AcDbSymbolTable
 70
              14
  0
LTYPE
  5
11
100
AcDbSymbolTableRecord
100
AcDbLinetypeTableRecord
  2
ByBlock
 70
              64
  3

 72
              65
 73
               0
 40
0.0
  0
LTYPE
  5
12
100
AcDbSymbolTableRecord
100
AcDbLinetypeTableRecord
  2
ByLayer
 70
              64
  3

 72
              65
 73
               0
 40
0.0
  0
LTYPE
  5
13
100
AcDbSymbolTableRecord
100
AcDbLinetypeTableRecord
  2
Continuous
 70
              64
  3
Solid line
 72
              65
 73
               0
 40
0.0
  0
LTYPE
  5
2B
100
AcDbSymbolTableRecord
100
AcDbLinetypeTableRecord
  2
STYLE_01
 70
               0
  3

 72
              65
 73
               2
 40
0.41664
 49
0.20828
 74
               0
 49
-0.20836
 74
               0
  0
LTYPE
  5
2C
100
AcDbSymbolTableRecord
100
AcDbLinetypeTableRecord
  2
STYLE_02
 70
               0
  3

 72
              65
 73
               2
 40
0.6944250000000001
 49
0.48607
 74
               0
 49
-0.2083550000000001
 74
               0
  0
LTYPE
  5
2D
100
AcDbSymbolTableRecord
100
AcDbLinetypeTableRecord
  2
STYLE_03
 70
               0
  3

 72
              65
 73
               2
 40
1.25
 49
1.0416400000000001
 74
               0
 49
-0.2083599999999999
 74
               0
  0
LTYPE
  5
2E
100
AcDbSymbolTableRecord
100
AcDbLinetypeTableRecord
  2
STYLE_04
 70
               0
  3

 72
              65
 73
               2
 40
1.5277099999999999
 49
1.3194249999999998
 74
               0
 49
-0.208285
 74
               0
  0
LTYPE
  5
2F
100
AcDbSymbolTableRecord
100
AcDbLinetypeTableRecord
  2
STYLE_05
 70
               0
  3

 72
              65
 73
               2
 40
0.20828
 49
0.069425
 74
               0
 49
-0.138855
 74
               0
  0
LTYPE
  5
30
100
AcDbSymbolTableRecord
100
AcDbLinetypeTableRecord
  2
STYLE_06
 70
               0
  3

 72
              65
 73
               4
 40
1.0416400000000001
 49
0.625
 74
               0
 49
-0.20828
 74
               0
 49
0.06943
 74
               0
 49
-0.13893
 74
               0
  0
LTYPE
  5
31
100
AcDbSymbolTableRecord
100
AcDbLinetypeTableRecord
  2
STYLE_07
 70
               0
  3

 72
              65
 73
               6
 40
1.875
 49
0.625
 74
               0
 49
-0.20828
 74
               0
 49
0.6250000000000001
 74
               0
 49
-0.2083599999999999
 74
               0
 49
0.06943
 74
               0
 49
-0.1389299999999999
 74
               0
  0
LTYPE
  5
32
100
AcDbSymbolTableRecord
100
AcDbLinetypeTableRecord
  2
STYLE_08
 70
               0
  3

 72
              65
 73
               6
 40
1.25
 49
0.625
 74
               0
 49
-0.20828
 74
               0
 49
0.06943
 74
               0
 49
-0.13893
 74
               0
 49
0.0694299999999999
 74
               0
 49
-0.13893
 74
               0
  0
LTYPE
  5
33
100
AcDbSymbolTableRecord
100
AcDbLinetypeTableRecord
  2
STYLE_09
 70
               0
  3

 72
              65
 73
               4
 40
5.0
 49
3.75
 74
               0
 49
-0.2777849999999998
 74
               0
 49
0.6944300000000003
 74
               0
 49
-0.2777849999999998
 74
               0
  0
LTYPE
  5
34
100
AcDbSymbolTableRecord
100
AcDbLinetypeTableRecord
  2
STYLE_10
 70
               0
  3

 72
              65
 73
               6
 40
5.9375
 49
3.75
 74
               0
 49
-0.2777849999999998
 74
               0
 49
0.6944300000000003
 74
               0
 49
-0.2777849999999998
 74
               0
 49
0.625
 74
               0
 49
-0.3125
 74
               0
  0
LTYPE
  5
35
100
AcDbSymbolTableRecord
100
AcDbLinetypeTableRecord
  2
STYLE_11
 70
               0
  3

 72
              65
 73
               4
 40
0.9646653543307084
 49
0.6029158464566929
 74
               0
 49
-0.1205831692913385
 74
               0
 49
0.1205831692913385
 74
               0
 49
-0.1205831692913385
 74
               0
  0
ENDTAB
  0
TABLE
  2
LAYER
  5
2
100
AcDbSymbolTable
 70
               7
  0
LAYER
  5
14
100
AcDbSymbolTableRecord
100
AcDbLayerTableRecord
  2
0
 70
               0
 62
               7
  6
Continuous
290
               1
370
              15
390
1D
  0
LAYER
  5
36
100
AcDbSymbolTableRecord
100
AcDbLayerTableRecord
  2
一般
 70
               0
 62
               7
  6
Continuous
290
               1
370
               5
390
1D
  0
LAYER
  5
37
100
AcDbSymbolTableRecord
100
AcDbLayerTableRecord
  2
寸法
 70
               0
 62
               7
  6
Continuous
290
               1
370
               5
390
1D
  0
LAYER
  5
38
100
AcDbSymbolTableRecord
100
AcDbLayerTableRecord
  2
dim
 70
               0
 62
               7
  6
Continuous
290
               1
370
              15
390
1D
  0
LAYER
  5
39
100
AcDbSymbolTableRecord
100
AcDbLayerTableRecord
  2
HATCH
 70
               0
 62
               7
  6
Continuous
290
               1
370
              15
390
1D
  0
LAYER
  5
3A
100
AcDbSymbolTableRecord
100
AcDbLayerTableRecord
  2
DEFAULT_1
 70
               0
 62
               7
  6
STYLE_11
290
               1
370
              15
390
1D
  0
LAYER
  5
3B
100
AcDbSymbolTableRecord
100
AcDbLayerTableRecord
  2
排水
 70
               0
 62
               7
  6
Continuous
290
               1
370
              15
390
1D
  0
ENDTAB
  0
TABLE
  2
STYLE
  5
3
100
AcDbSymbolTable
 70
               3
  0
STYLE
  5
17
100
AcDbSymbolTableRecord
100
AcDbTextStyleTableRecord
  2
Standard
 70
               0
 40
0.0
 41
1.0
 50
0.0
 71
               0
 42
0.0
  3
txt
  4
BIGFONT.SHX
  0
STYLE
  5
29
100
AcDbSymbolTableRecord
100
AcDbTextStyleTableRecord
  2
Arial
 70
               0
 40
0.0
 41
1.0
 50
0.0
 71
               0
 42
0.0
  3

  4
Arial
1001
ACAD
1000
Arial
1071
        0
  0
STYLE
  5
2A
100
AcDbSymbolTableRecord
100
AcDbTextStyleTableRecord
  2
ＭＳ ゴシック
 70
               0
 40
0.0
 41
1.0
 50
0.0
 71
               0
 42
0.0
  3

  4
ＭＳ ゴシック
1001
ACAD
1000
ＭＳ ゴシック
1071
        0
  0
ENDTAB
  0
TABLE
  2
VIEW
  5
5
100
AcDbSymbolTable
 70
               0
  0
ENDTAB
  0
TABLE
  2
UCS
  5
6
100
AcDbSymbolTable
 70
               0
  0
ENDTAB
  0
TABLE
  2
APPID
  5
8
100
AcDbSymbolTable
 70
               1
  0
APPID
  5
16
100
AcDbSymbolTableRecord
100
AcDbRegAppTableRecord
  2
ACAD
 70
               0
  0
ENDTAB
  0
TABLE
  2
DIMSTYLE
  5
9
100
AcDbSymbolTable
 70
               1
100
AcDbDimStyleTable
 71
               0
  0
DIMSTYLE
105
18
100
AcDbSymbolTableRecord
100
AcDbDimStyleTableRecord
  2
Standard
 70
               0
  3

  4

 40
1.0
 41
0.18
 42
0.0625
 43
0.38
 44
0.18
 45
0.0
 46
0.0
 47
0.0
 48
0.0
 71
               0
 72
               0
 73
               1
 74
               1
 75
               0
 76
               0
 77
               0
 78
               0
 79
               0
140
0.18
141
0.09
142
0.0
143
25.399999999999999
144
1.0
145
0.0
146
1.0
147
0.09
148
0.0
170
               0
171
               2
172
               0
173
               0
174
               0
175
               0
176
               0
177
               0
178
               0
179
               0
271
               4
272
               4
273
               2
274
               2
275
               0
276
               0
277
               2
278
              46
279
               0
280
               0
281
               0
282
               0
283
               1
284
               0
285
               0
286
               0
288
               0
340
17
341
0
342
0
343
0
344
0
371
              -2
372
              -2
  0
ENDTAB
  0
TABLE
  2
BLOCK_RECORD
  5
1
100
AcDbSymbolTable
 70
               5
  0
BLOCK_RECORD
  5
A
100
AcDbSymbolTableRecord
100
AcDbBlockTableRecord
  2
*MODEL_SPACE
340
20
  0
BLOCK_RECORD
  5
B
100
AcDbSymbolTableRecord
100
AcDbBlockTableRecord
  2
*PAPER_SPACE
340
21
  0
BLOCK_RECORD
  5
24
100
AcDbSymbolTableRecord
100
AcDbBlockTableRecord
  2
グループ
340
0
102
{BLKREFS
331
58
102
}
  0
BLOCK_RECORD
  5
25
100
AcDbSymbolTableRecord
100
AcDbBlockTableRecord
  2
グループ-1
340
0
102
{BLKREFS
331
4D
102
}
  0
BLOCK_RECORD
  5
26
100
AcDbSymbolTableRecord
100
AcDbBlockTableRecord
  2
スケール1：5
340
0
102
{BLKREFS
331
59
102
}
  0
BLOCK_RECORD
  5
27
100
AcDbSymbolTableRecord
100
AcDbBlockTableRecord
  2
グループ-2
340
0
102
{BLKREFS
331
114
102
}
  0
BLOCK_RECORD
  5
28
100
AcDbSymbolTableRecord
100
AcDbBlockTableRecord
  2
グループ-3
340
0
102
{BLKREFS
331
115
102
}
  0
ENDTAB
  0
ENDSEC
  0
SECTION
  2
BLOCKS
  0
BLOCK
  5
D
100
AcDbEntity
  8
0
100
AcDbBlockBegin
  2
*MODEL_SPACE
 70
               0
 10
0.0
 20
0.0
 30
0.0
  3
*MODEL_SPACE
  1

  0
ENDBLK
  5
E
100
AcDbEntity
  8
0
100
AcDbBlockEnd
  0
BLOCK
  5
F
100
AcDbEntity
 67
               1
  8
0
100
AcDbBlockBegin
  2
*PAPER_SPACE
 70
               0
 10
0.0
 20
0.0
 30
0.0
  3
*PAPER_SPACE
  1

  0
ENDBLK
  5
10
100
AcDbEntity
 67
               1
  8
0
100
AcDbBlockEnd
  0
BLOCK
  5
3C
100
AcDbEntity
  8
一般
100
AcDbBlockBegin
  2
グループ
 70
               0
 10
0.0
 20
0.0
 30
0.0
  3
グループ
  1

  0
LINE
  5
3D
100
AcDbEntity
  8
一般
370
               5
  6
Continuous
 62
               7
100
AcDbLine
 10
-290.49815156978758
 20
-262.92893218813452
 30
0.0
 11
-304.64028719351853
 21
-277.07106781186548
 31
0.0
  0
LINE
  5
3E
100
AcDbEntity
  8
一般
370
               5
  6
Continuous
 62
               7
100
AcDbLine
 10
-290.49815156978758
 20
-277.07106781186548
 30
0.0
 11
-304.64028719351853
 21
-262.92893218813452
 31
0.0
  0
ENDBLK
  5
3F
100
AcDbEntity
  8
一般
100
AcDbBlockEnd
  0
BLOCK
  5
40
100
AcDbEntity
  8
一般
100
AcDbBlockBegin
  2
グループ-1
 70
               0
 10
0.0
 20
0.0
 30
0.0
  3
グループ-1
  1

  0
MTEXT
  5
41
100
AcDbEntity
  8
一般
 62
               8
100
AcDbMText
 10
-61.590303983041849
 20
8.3342057291666851
 30
0.0
 40
8.1442057291666661
 41
7.3612159321675676
 71
               1
 72
               1
  1
0
  7
ＭＳ ゴシック
 73
               1
 44
0.7828267384257843
  0
MTEXT
  5
42
100
AcDbEntity
  8
一般
 62
               8
100
AcDbMText
 10
-12.909696016958151
 20
8.3342057291666851
 30
0.0
 40
8.1442057291666661
 41
12.75
 71
               1
 72
               1
  1
50
  7
ＭＳ ゴシック
 73
               1
 44
0.7828267384257843
  0
MTEXT
  5
43
100
AcDbEntity
  8
一般
 62
               8
100
AcDbMText
 10
33.590303983041849
 20
8.3342057291666851
 30
0.0
 40
8.1442057291666661
 41
27.999999999999972
 71
               1
 72
               1
  1
100mm
  7
ＭＳ ゴシック
 73
               1
 44
0.7828267384257843
  0
LINE
  5
44
100
AcDbEntity
  8
寸法
370
              15
 62
               8
100
AcDbLine
 10
-7.9096960169581507
 20
-1.2916666666666288
 30
0.0
 11
-7.9096960169581507
 21
-9.2916666666666288
 31
0.0
  0
POLYLINE
  5
45
100
AcDbEntity
  8
一般
370
              15
  6
Continuous
 62
               8
100
AcDb2dPolyline
 66
               1
 10
0.0
 20
0.0
 30
0.0
 75
               5
  0
VERTEX
  5
46
100
AcDbEntity
  8
一般
370
              15
  6
Continuous
 62
               8
100
AcDbVertex
100
AcDb2dVertex
 10
-57.909696016958151
 20
-1.2916666666666288
 30
0.0
  0
VERTEX
  5
47
100
AcDbEntity
  8
一般
370
              15
  6
Continuous
 62
               8
100
AcDbVertex
100
AcDb2dVertex
 10
-57.909696016958151
 20
-9.2916666666666288
 30
0.0
  0
VERTEX
  5
48
100
AcDbEntity
  8
一般
370
              15
  6
Continuous
 62
               8
100
AcDbVertex
100
AcDb2dVertex
 10
42.090303983041849
 20
-9.2916666666666288
 30
0.0
  0
VERTEX
  5
49
100
AcDbEntity
  8
一般
370
              15
  6
Continuous
 62
               8
100
AcDbVertex
100
AcDb2dVertex
 10
42.090303983041849
 20
-1.2916666666666288
 30
0.0
  0
SEQEND
  5
4A
100
AcDbEntity
  8
一般
370
              15
  6
Continuous
 62
               8
  0
ENDBLK
  5
4B
100
AcDbEntity
  8
一般
100
AcDbBlockEnd
  0
BLOCK
  5
4C
100
AcDbEntity
  8
一般
100
AcDbBlockBegin
  2
スケール1：5
 70
               0
 10
0.0
 20
0.0
 30
0.0
  3
スケール1：5
  1

  0
INSERT
  5
4D
100
AcDbEntity
  8
一般
 62
               7
100
AcDbBlockReference
  2
グループ-1
 10
0.0
 20
0.0
 30
0.0
  0
ENDBLK
  5
4E
100
AcDbEntity
  8
一般
100
AcDbBlockEnd
  0
BLOCK
  5
4F
100
AcDbEntity
  8
一般
100
AcDbBlockBegin
  2
グループ-2
 70
               0
 10
0.0
 20
0.0
 30
0.0
  3
グループ-2
  1

  0
LINE
  5
50
100
AcDbEntity
  8
一般
370
               5
  6
Continuous
 62
               7
100
AcDbLine
 10
110.25200304021604
 20
-262.75446633075063
 30
0.0
 11
96.109867416485088
 21
-276.89660195448158
 31
0.0
  0
LINE
  5
51
100
AcDbEntity
  8
一般
370
               5
  6
Continuous
 62
               7
100
AcDbLine
 10
110.25200304021604
 20
-276.89660195448158
 30
0.0
 11
96.109867416485088
 21
-262.75446633075063
 31
0.0
  0
ENDBLK
  5
52
100
AcDbEntity
  8
一般
100
AcDbBlockEnd
  0
BLOCK
  5
53
100
AcDbEntity
  8
一般
100
AcDbBlockBegin
  2
グループ-3
 70
               0
 10
0.0
 20
0.0
 30
0.0
  3
グループ-3
  1

  0
LINE
  5
54
100
AcDbEntity
  8
一般
370
               5
  6
Continuous
 62
               7
100
AcDbLine
 10
-290.49815156978758
 20
368.69155543547384
 30
0.0
 11
-304.64028719351853
 21
354.54941981174289
 31
0.0
  0
LINE
  5
55
100
AcDbEntity
  8
一般
370
               5
  6
Continuous
 62
               7
100
AcDbLine
 10
-290.49815156978758
 20
354.54941981174289
 30
0.0
 11
-304.64028719351853
 21
368.69155543547384
 31
0.0
  0
ENDBLK
  5
56
100
AcDbEntity
  8
一般
100
AcDbBlockEnd
  0
ENDSEC
  0
SECTION
  2
ENTITIES
  0
MTEXT
  5
57
100
AcDbEntity
  8
一般
 62
               7
100
AcDbMText
 10
1671.2324838490408
 20
1291.5910654350243
 30
0.0
 40
30.316840277777771
 41
0.0
 71
               1
 72
               1
  1
TX-7142
  7
Arial
 73
               1
 44
0.9673603504928806
  0
INSERT
  5
58
100
AcDbEntity
  8
一般
 62
               7
100
AcDbBlockReference
  2
グループ
 10
1450.0
 20
1020.0
 30
0.0
  0
INSERT
  5
59
100
AcDbEntity
  8
一般
 62
               7
100
AcDbBlockReference
  2
スケール1：5
 10
1467.9096960169582
 20
1219.2916666666665
 30
0.0
  0
LWPOLYLINE
  5
5A
100
AcDbEntity
  8
寸法
370
              15
  6
Continuous
 62
               7
100
AcDbPolyline
 90
       21
 70
             129
 10
1223.4307806183469
 20
820.0
 10
1223.4307806183469
 20
844.0
 42
0.414213562373095
 10
1221.4307806183469
 20
846.0
 10
1152.4307806183469
 20
846.0
 10
1083.4307806183469
 20
846.0
 42
0.414213562373095
 10
1081.4307806183469
 20
844.0
 10
1081.4307806183469
 20
820.0
 10
1043.4307806183469
 20
820.0
 10
1043.4307806183469
 20
905.0
 10
1081.4307806183469
 20
905.0
 10
1081.4307806183469
 20
886.0
 42
0.414213562373095
 10
1083.4307806183469
 20
884.0
 10
1139.4307806183469
 20
884.0
 10
1139.4307806183469
 20
900.0
 10
1165.4307806183469
 20
900.0
 10
1165.4307806183469
 20
884.0
 10
1221.4307806183469
 20
884.0
 42
0.414213562373095
 10
1223.4307806183469
 20
886.0
 10
1223.4307806183469
 20
905.0
 10
1261.4307806183469
 20
905.0
 10
1261.4307806183469
 20
820.0
  0
POLYLINE
  5
5B
100
AcDbEntity
  8
寸法
370
              15
  6
Continuous
 62
               7
100
AcDb2dPolyline
 66
               1
 10
0.0
 20
0.0
 30
0.0
 70
               1
 75
               5
  0
VERTEX
  5
5C
100
AcDbEntity
  8
寸法
370
              15
  6
Continuous
 62
               7
100
AcDbVertex
100
AcDb2dVertex
 10
1223.4307806183469
 20
820.0
 30
0.0
  0
VERTEX
  5
5D
100
AcDbEntity
  8
寸法
370
              15
  6
Continuous
 62
               7
100
AcDbVertex
100
AcDb2dVertex
 10
1261.4307806183469
 20
820.0
 30
0.0
  0
VERTEX
  5
5E
100
AcDbEntity
  8
寸法
370
              15
  6
Continuous
 62
               7
100
AcDbVertex
100
AcDb2dVertex
 10
1261.4307806183469
 20
760.0
 30
0.0
  0
VERTEX
  5
5F
100
AcDbEntity
  8
寸法
370
              15
  6
Continuous
 62
               7
100
AcDbVertex
100
AcDb2dVertex
 10
1223.4307806183469
 20
760.0
 30
0.0
  0
SEQEND
  5
60
100
AcDbEntity
  8
寸法
370
              15
  6
Continuous
 62
               7
  0
POLYLINE
  5
61
100
AcDbEntity
  8
寸法
370
              15
  6
Continuous
 62
               7
100
AcDb2dPolyline
 66
               1
 10
0.0
 20
0.0
 30
0.0
 70
               1
 75
               5
  0
VERTEX
  5
62
100
AcDbEntity
  8
寸法
370
              15
  6
Continuous
 62
               7
100
AcDbVertex
100
AcDb2dVertex
 10
1217.4307806183469
 20
760.0
 30
0.0
  0
VERTEX
  5
63
100
AcDbEntity
  8
寸法
370
              15
  6
Continuous
 62
               7
100
AcDbVertex
100
AcDb2dVertex
 10
1267.4307806183469
 20
760.0
 30
0.0
  0
VERTEX
  5
64
100
AcDbEntity
  8
寸法
370
              15
  6
Continuous
 62
               7
100
AcDbVertex
100
AcDb2dVertex
 10
1267.4307806183469
 20
750.0
 30
0.0
  0
VERTEX
  5
65
100
AcDbEntity
  8
寸法
370
              15
  6
Continuous
 62
               7
100
AcDbVertex
100
AcDb2dVertex
 10
1217.4307806183469
 20
750.0
 30
0.0
  0
SEQEND
  5
66
100
AcDbEntity
  8
寸法
370
              15
  6
Continuous
 62
               7
  0
POLYLINE
  5
67
100
AcDbEntity
  8
寸法
370
              15
  6
Continuous
 62
               7
100
AcDb2dPolyline
 66
               1
 10
0.0
 20
0.0
 30
0.0
 70
               1
 75
               5
  0
VERTEX
  5
68
100
AcDbEntity
  8
寸法
370
              15
  6
Continuous
 62
               7
100
AcDbVertex
100
AcDb2dVertex
 10
1043.4307806183469
 20
820.0
 30
0.0
  0
VERTEX
  5
69
100
AcDbEntity
  8
寸法
370
              15
  6
Continuous
 62
               7
100
AcDbVertex
100
AcDb2dVertex
 10
1081.4307806183469
 20
820.0
 30
0.0
  0
VERTEX
  5
6A
100
AcDbEntity
  8
寸法
370
              15
  6
Continuous
 62
               7
100
AcDbVertex
100
AcDb2dVertex
 10
1081.4307806183469
 20
760.0
 30
0.0
  0
VERTEX
  5
6B
100
AcDbEntity
  8
寸法
370
              15
  6
Continuous
 62
               7
100
AcDbVertex
100
AcDb2dVertex
 10
1043.4307806183469
 20
760.0
 30
0.0
  0
SEQEND
  5
6C
100
AcDbEntity
  8
寸法
370
              15
  6
Continuous
 62
               7
  0
POLYLINE
  5
6D
100
AcDbEntity
  8
寸法
370
              15
  6
Continuous
 62
               7
100
AcDb2dPolyline
 66
               1
 10
0.0
 20
0.0
 30
0.0
 70
               1
 75
               5
  0
VERTEX
  5
6E
100
AcDbEntity
  8
寸法
370
              15
  6
Continuous
 62
               7
100
AcDbVertex
100
AcDb2dVertex
 10
1037.4307806183469
 20
760.0
 30
0.0
  0
VERTEX
  5
6F
100
AcDbEntity
  8
寸法
370
              15
  6
Continuous
 62
               7
100
AcDbVertex
100
AcDb2dVertex
 10
1087.4307806183469
 20
760.0
 30
0.0
  0
VERTEX
  5
70
100
AcDbEntity
  8
寸法
370
              15
  6
Continuous
 62
               7
100
AcDbVertex
100
AcDb2dVertex
 10
1087.4307806183469
 20
750.0
 30
0.0
  0
VERTEX
  5
71
100
AcDbEntity
  8
寸法
370
              15
  6
Continuous
 62
               7
100
AcDbVertex
100
AcDb2dVertex
 10
1037.4307806183469
 20
750.0
 30
0.0
  0
SEQEND
  5
72
100
AcDbEntity
  8
寸法
370
              15
  6
Continuous
 62
               7
  0
SPLINE
  5
73
100
AcDbEntity
  8
寸法
370
               5
  6
Continuous
 62
               7
100
AcDbSpline
210
0.0
220
0.0
230
1.0
 70
               8
 71
               2
 72
               6
 73
               3
 74
               0
 42
0.000001
 43
0.000001
 40
0.0
 40
0.0
 40
0.0
 40
1.0
 40
1.0
 40
1.0
 10
1139.4307806183469
 20
884.0
 30
0.0
 10
1153.2307806183471
 20
876.70000000000005
 30
0.0
 10
1165.54177334216
 20
883.80775496308513
 30
0.0
  0
LWPOLYLINE
  5
74
100
AcDbEntity
  8
寸法
370
              15
  6
Continuous
 62
               7
100
AcDbPolyline
 90
        5
 70
             129
 10
1139.4307806183469
 20
1107.0
 42
-0.414213562373095
 10
1152.4307806183469
 20
1120.0
 42
-0.414213562373095
 10
1165.4307806183469
 20
1107.0
 10
1165.4307806183469
 20
900.0
 10
1139.4307806183469
 20
900.0
  0
SPLINE
  5
75
100
AcDbEntity
  8
寸法
370
              15
  6
Continuous
 62
               7
100
AcDbSpline
210
0.0
220
0.0
230
1.0
 70
               9
 71
               2
 72
              17
 73
              14
 74
               0
 42
0.000001
 43
0.000001
 40
0.0
 40
0.0
 40
0.0
 40
1.0
 40
2.0
 40
3.0
 40
4.0
 40
5.0
 40
6.0
 40
7.0
 40
8.0
 40
9.0
 40
10.0
 40
11.0
 40
12.0
 40
12.0
 40
12.0
 10
1145.9307806183469
 20
1013.6639050856722
 30
0.0
 10
1148.9474411167423
 20
1014.1328161724267
 30
0.0
 10
1155.9141201199516
 20
1014.1328161724267
 30
0.0
 10
1161.9474411167423
 20
1013.1949939989178
 30
0.0
 10
1165.4307806183469
 20
1011.5706383459357
 30
0.0
 10
1165.4307806183469
 20
1009.6949939989178
 30
0.0
 10
1161.9474411167423
 20
1008.0706383459357
 30
0.0
 10
1155.9141201199516
 20
1007.1328161724267
 30
0.0
 10
1148.9474411167423
 20
1007.1328161724267
 30
0.0
 10
1142.9141201199516
 20
1008.0706383459357
 30
0.0
 10
1139.4307806183469
 20
1009.6949939989178
 30
0.0
 10
1139.4307806183469
 20
1011.5706383459357
 30
0.0
 10
1142.9141201199516
 20
1013.1949939989178
 30
0.0
 10
1145.9307806183469
 20
1013.6639050856722
 30
0.0
  0
SPLINE
  5
76
100
AcDbEntity
  8
寸法
370
              15
  6
Continuous
 62
               7
100
AcDbSpline
210
0.0
220
0.0
230
1.0
 70
               8
 71
               2
 72
              16
 73
              13
 74
               0
 42
0.000001
 43
0.000001
 40
0.0
 40
0.0
 40
0.0
 40
1.0
 40
1.0
 40
2.0
 40
3.0
 40
4.0
 40
5.0
 40
6.0
 40
7.0
 40
8.0
 40
9.0
 40
10.0
 40
10.0
 40
10.0
 10
1157.7786968730006
 20
1013.7817376617054
 30
0.0
 10
1159.2755216135315
 20
1013.48304897964
 30
0.0
 10
1160.2250092524068
 20
1013.0353629754574
 30
0.0
 10
1161.4307806183469
 20
1012.4668384969136
 30
0.0
 10
1161.4307806183469
 20
1011.1538874540012
 30
0.0
 10
1159.0192378864667
 20
1010.0168384969136
 30
0.0
 10
1154.8423233502272
 20
1009.3603629754574
 30
0.0
 10
1150.0192378864667
 20
1009.3603629754574
 30
0.0
 10
1145.8423233502272
 20
1010.0168384969136
 30
0.0
 10
1143.4307806183469
 20
1011.1538874540012
 30
0.0
 10
1143.4307806183469
 20
1012.4668384969136
 30
0.0
 10
1145.5527881995552
 20
1013.4673708429706
 30
0.0
 10
1147.130780618347
 20
1013.790487285683
 30
0.0
  0
SPLINE
  5
77
100
AcDbEntity
  8
寸法
370
              15
  6
Continuous
 62
               7
100
AcDbSpline
210
0.0
220
0.0
230
1.0
 70
               8
 71
               2
 72
              12
 73
               9
 74
               0
 42
0.000001
 43
0.000001
 40
0.0
 40
0.0
 40
0.0
 40
1.0
 40
2.0
 40
3.0
 40
4.0
 40
5.0
 40
6.0
 40
7.0
 40
7.0
 40
7.0
 10
1139.4307806183469
 20
1031.7956084186935
 30
0.0
 10
1139.4307806183469
 20
1031.4916594632673
 30
0.0
 10
1139.4307806183469
 20
1032.7334305922025
 30
0.0
 10
1142.9141201199516
 20
1034.3577862451846
 30
0.0
 10
1148.9474411167423
 20
1035.2956084186935
 30
0.0
 10
1155.9141201199516
 20
1035.2956084186935
 30
0.0
 10
1161.9474411167423
 20
1034.3577862451846
 30
0.0
 10
1164.8663039868409
 20
1032.9966581090555
 30
0.0
 10
1165.4307806183469
 20
1031.7956084186935
 30
0.0
  0
LWPOLYLINE
  5
78
100
AcDbEntity
  8
寸法
370
              15
  6
Continuous
 62
               7
100
AcDbPolyline
 90
        5
 70
             128
 10
1355.8470789550395
 20
1035.5513063304033
 10
1349.8614275938855
 20
1014.381233638447
 10
1374.8806044116523
 20
1007.3072820298106
 10
1380.8662557728062
 20
1028.4773547217669
 10
1355.8470789550395
 20
1035.5513063304033
  0
POLYLINE
  5
79
100
AcDbEntity
  8
寸法
370
              15
  6
Continuous
 62
               7
100
AcDb2dPolyline
 66
               1
 10
0.0
 20
0.0
 30
0.0
 75
               5
  0
VERTEX
  5
7A
100
AcDbEntity
  8
寸法
370
              15
  6
Continuous
 62
               7
100
AcDbVertex
100
AcDb2dVertex
 10
1355.8470789550395
 20
1035.5513063304033
 30
0.0
  0
VERTEX
  5
7B
100
AcDbEntity
  8
寸法
370
              15
  6
Continuous
 62
               7
100
AcDbVertex
100
AcDb2dVertex
 10
1355.8470789550395
 20
1035.5513063304033
 30
0.0
  0
VERTEX
  5
7C
100
AcDbEntity
  8
寸法
370
              15
  6
Continuous
 62
               7
100
AcDbVertex
100
AcDb2dVertex
 10
1356.391229078781
 20
1037.4758583933085
 30
0.0
  0
SEQEND
  5
7D
100
AcDbEntity
  8
寸法
370
              15
  6
Continuous
 62
               7
  0
POLYLINE
  5
7E
100
AcDbEntity
  8
寸法
370
              15
  6
Continuous
 62
               7
100
AcDb2dPolyline
 66
               1
 10
0.0
 20
0.0
 30
0.0
 75
               5
  0
VERTEX
  5
7F
100
AcDbEntity
  8
寸法
370
              15
  6
Continuous
 62
               7
100
AcDbVertex
100
AcDb2dVertex
 10
1381.4104058965474
 20
1030.4019067846721
 30
0.0
  0
VERTEX
  5
80
100
AcDbEntity
  8
寸法
370
              15
  6
Continuous
 62
               7
100
AcDbVertex
100
AcDb2dVertex
 10
1380.8662557728062
 20
1028.4773547217669
 30
0.0
  0
VERTEX
  5
81
100
AcDbEntity
  8
寸法
370
              15
  6
Continuous
 62
               7
100
AcDbVertex
100
AcDb2dVertex
 10
1355.8470789550395
 20
1035.5513063304033
 30
0.0
  0
SEQEND
  5
82
100
AcDbEntity
  8
寸法
370
              15
  6
Continuous
 62
               7
  0
ARC
  5
83
100
AcDbEntity
  8
寸法
370
              15
  6
Continuous
 62
               7
100
AcDbCircle
 10
1460.2052345365562
 20
1014.7431390410666
 30
0.0
 40
80.114789016905888
100
AcDbArc
 50
2.9338807659057746
 51
170.17896795497921
  0
LINE
  5
84
100
AcDbEntity
  8
寸法
370
              15
  6
Continuous
 62
               7
100
AcDbLine
 10
1540.1809352283506
 20
905.17446585738389
 30
0.0
 11
1540.1809352283506
 21
921.18936793845455
 31
0.0
  0
LINE
  5
85
100
AcDbEntity
  8
寸法
370
              15
  6
Continuous
 62
               7
100
AcDbLine
 10
1540.1809352283506
 20
934.68936793845455
 30
0.0
 11
1540.1809352283506
 21
1018.8436947317705
 31
0.0
  0
LWPOLYLINE
  5
86
100
AcDbEntity
  8
寸法
370
              15
  6
Continuous
 62
               7
100
AcDbPolyline
 90
        5
 70
             128
 10
1566.1809352283506
 20
934.68936793845455
 10
1566.1809352283506
 20
1020.1744658573839
 10
1566.1809352283506
 20
1020.1744658573839
 42
0.3756931330081843
 10
1468.905106742073
 20
1120.5006951385394
 42
0.3613661032410954
 10
1357.8173669409157
 20
1042.6191684807052
 42
0.3613661032410954
  0
LINE
  5
87
100
AcDbEntity
  8
寸法
370
              15
  6
Continuous
 62
               7
100
AcDbLine
 10
1566.1809352283506
 20
921.18936793845455
 30
0.0
 11
1566.1809352283506
 21
905.17446585738389
 31
0.0
  0
POLYLINE
  5
88
100
AcDbEntity
  8
寸法
370
              15
  6
Continuous
 62
               7
100
AcDb2dPolyline
 66
               1
 10
0.0
 20
0.0
 30
0.0
 70
               1
 75
               5
  0
VERTEX
  5
89
100
AcDbEntity
  8
寸法
370
              15
  6
Continuous
 62
               7
100
AcDbVertex
100
AcDb2dVertex
 10
1528.1809352283506
 20
760.17446585738389
 30
0.0
  0
VERTEX
  5
8A
100
AcDbEntity
  8
寸法
370
              15
  6
Continuous
 62
               7
100
AcDbVertex
100
AcDb2dVertex
 10
1578.1809352283506
 20
760.17446585738389
 30
0.0
  0
VERTEX
  5
8B
100
AcDbEntity
  8
寸法
370
              15
  6
Continuous
 62
               7
100
AcDbVertex
100
AcDb2dVertex
 10
1578.1809352283506
 20
750.17446585738389
 30
0.0
  0
VERTEX
  5
8C
100
AcDbEntity
  8
寸法
370
              15
  6
Continuous
 62
               7
100
AcDbVertex
100
AcDb2dVertex
 10
1528.1809352283506
 20
750.17446585738389
 30
0.0
  0
SEQEND
  5
8D
100
AcDbEntity
  8
寸法
370
              15
  6
Continuous
 62
               7
  0
POLYLINE
  5
8E
100
AcDbEntity
  8
寸法
370
              15
  6
Continuous
 62
               7
100
AcDb2dPolyline
 66
               1
 10
0.0
 20
0.0
 30
0.0
 70
               1
 75
               5
  0
VERTEX
  5
8F
100
AcDbEntity
  8
寸法
370
              15
  6
Continuous
 62
               7
100
AcDbVertex
100
AcDb2dVertex
 10
1534.1809352283506
 20
905.17446585738389
 30
0.0
  0
VERTEX
  5
90
100
AcDbEntity
  8
寸法
370
              15
  6
Continuous
 62
               7
100
AcDbVertex
100
AcDb2dVertex
 10
1572.1809352283506
 20
905.17446585738389
 30
0.0
  0
VERTEX
  5
91
100
AcDbEntity
  8
寸法
370
              15
  6
Continuous
 62
               7
100
AcDbVertex
100
AcDb2dVertex
 10
1572.1809352283506
 20
820.17446585738389
 30
0.0
  0
VERTEX
  5
92
100
AcDbEntity
  8
寸法
370
              15
  6
Continuous
 62
               7
100
AcDbVertex
100
AcDb2dVertex
 10
1534.1809352283506
 20
820.17446585738389
 30
0.0
  0
SEQEND
  5
93
100
AcDbEntity
  8
寸法
370
              15
  6
Continuous
 62
               7
  0
POLYLINE
  5
94
100
AcDbEntity
  8
寸法
370
              15
  6
Continuous
 62
               7
100
AcDb2dPolyline
 66
               1
 10
0.0
 20
0.0
 30
0.0
 70
               1
 75
               5
  0
VERTEX
  5
95
100
AcDbEntity
  8
寸法
370
              15
  6
Continuous
 62
               7
100
AcDbVertex
100
AcDb2dVertex
 10
1534.1809352283506
 20
820.17446585738389
 30
0.0
  0
VERTEX
  5
96
100
AcDbEntity
  8
寸法
370
              15
  6
Continuous
 62
               7
100
AcDbVertex
100
AcDb2dVertex
 10
1572.1809352283506
 20
820.17446585738389
 30
0.0
  0
VERTEX
  5
97
100
AcDbEntity
  8
寸法
370
              15
  6
Continuous
 62
               7
100
AcDbVertex
100
AcDb2dVertex
 10
1572.1809352283506
 20
760.17446585738389
 30
0.0
  0
VERTEX
  5
98
100
AcDbEntity
  8
寸法
370
              15
  6
Continuous
 62
               7
100
AcDbVertex
100
AcDb2dVertex
 10
1534.1809352283506
 20
760.17446585738389
 30
0.0
  0
SEQEND
  5
99
100
AcDbEntity
  8
寸法
370
              15
  6
Continuous
 62
               7
  0
ARC
  5
9A
100
AcDbEntity
  8
寸法
370
              15
  6
Continuous
 62
               7
100
AcDbCircle
 10
1062.4307806183469
 20
1381.6204876236197
 30
0.0
 40
25.000000000000004
100
AcDbArc
 50
150.66426685137134
 51
209.33573314862639
  0
ARC
  5
9B
100
AcDbEntity
  8
寸法
370
              15
  6
Continuous
 62
               7
100
AcDbCircle
 10
1062.4307806183469
 20
1381.6204876236197
 30
0.0
 40
24.999999999999972
100
AcDbArc
 50
240.66426685137174
 51
299.33573314862855
  0
ARC
  5
9C
100
AcDbEntity
  8
寸法
370
              15
  6
Continuous
 62
               7
100
AcDbCircle
 10
1062.4307806183469
 20
1381.6204876236197
 30
0.0
 40
24.999999999999982
100
AcDbArc
 50
60.664266851373569
 51
119.33573314862643
  0
ARC
  5
9D
100
AcDbEntity
  8
寸法
370
              15
  6
Continuous
 62
               7
100
AcDbCircle
 10
1242.4307806183469
 20
1381.6204876236084
 30
0.0
 40
25.000000000000046
100
AcDbArc
 50
240.37408557424899
 51
299.33573314862741
  0
ARC
  5
9E
100
AcDbEntity
  8
寸法
370
              15
  6
Continuous
 62
               7
100
AcDbCircle
 10
1242.4307806183469
 20
1381.6204876236084
 30
0.0
 40
25.000000000000028
100
AcDbArc
 50
330.66426685137259
 51
29.335733148627472
  0
ARC
  5
9F
100
AcDbEntity
  8
寸法
370
              15
  6
Continuous
 62
               7
100
AcDbCircle
 10
1242.4307806183469
 20
1381.6204876236084
 30
0.0
 40
25.000000000000011
100
AcDbArc
 50
60.664266851373455
 51
119.33573314862656
  0
LINE
  5
A0
100
AcDbEntity
  8
寸法
370
              15
  6
Continuous
 62
               7
100
AcDbLine
 10
1090.9767221643767
 20
1362.6204876236084
 30
0.0
 11
1139.4307806183469
 21
1362.6204876236084
 31
0.0
  0
LINE
  5
A1
100
AcDbEntity
  8
寸法
370
              15
  6
Continuous
 62
               7
100
AcDbLine
 10
1165.4307806183469
 20
1362.6204876236084
 30
0.0
 11
1213.8848390723285
 21
1362.6204876236084
 31
0.0
  0
POLYLINE
  5
A2
100
AcDbEntity
  8
寸法
370
              15
  6
Continuous
 62
               7
100
AcDb2dPolyline
 66
               1
 10
0.0
 20
0.0
 30
0.0
 75
               5
  0
VERTEX
  5
A3
100
AcDbEntity
  8
寸法
370
              15
  6
Continuous
 62
               7
100
AcDbVertex
100
AcDb2dVertex
 10
1242.4307806183469
 20
1362.7847368538139
 30
0.0
  0
VERTEX
  5
A4
100
AcDbEntity
  8
寸法
370
              15
  6
Continuous
 62
               7
100
AcDbVertex
100
AcDb2dVertex
 10
1242.4307806183469
 20
1362.6204876236084
 30
0.0
  0
VERTEX
  5
A5
100
AcDbEntity
  8
寸法
370
              15
  6
Continuous
 62
               7
100
AcDbVertex
100
AcDb2dVertex
 10
1232.9767221643654
 20
1362.6204876236084
 30
0.0
  0
SEQEND
  5
A6
100
AcDbEntity
  8
寸法
370
              15
  6
Continuous
 62
               7
  0
POLYLINE
  5
A7
100
AcDbEntity
  8
寸法
370
              15
  6
Continuous
 62
               7
100
AcDb2dPolyline
 66
               1
 10
0.0
 20
0.0
 30
0.0
 75
               5
  0
VERTEX
  5
A8
100
AcDbEntity
  8
寸法
370
              15
  6
Continuous
 62
               7
100
AcDbVertex
100
AcDb2dVertex
 10
1232.9767221643654
 20
1400.6204876236084
 30
0.0
  0
VERTEX
  5
A9
100
AcDbEntity
  8
寸法
370
              15
  6
Continuous
 62
               7
100
AcDbVertex
100
AcDb2dVertex
 10
1241.0307806183471
 20
1400.6204876236084
 30
0.0
  0
SEQEND
  5
AA
100
AcDbEntity
  8
寸法
370
              15
  6
Continuous
 62
               7
  0
LINE
  5
AB
100
AcDbEntity
  8
寸法
370
              15
  6
Continuous
 62
               7
100
AcDbLine
 10
1213.8848390723285
 20
1400.6204876236084
 30
0.0
 11
1090.976722164354
 21
1400.6204876236084
 31
0.0
  0
POLYLINE
  5
AC
100
AcDbEntity
  8
寸法
370
              15
  6
Continuous
 62
               7
100
AcDb2dPolyline
 66
               1
 10
0.0
 20
0.0
 30
0.0
 75
               5
  0
VERTEX
  5
AD
100
AcDbEntity
  8
寸法
370
              15
  6
Continuous
 62
               7
100
AcDbVertex
100
AcDb2dVertex
 10
1071.8848390723399
 20
1362.6204876236084
 30
0.0
  0
VERTEX
  5
AE
100
AcDbEntity
  8
寸法
370
              15
  6
Continuous
 62
               7
100
AcDbVertex
100
AcDb2dVertex
 10
1062.4307806183469
 20
1362.6204876236084
 30
0.0
  0
VERTEX
  5
AF
100
AcDbEntity
  8
寸法
370
              15
  6
Continuous
 62
               7
100
AcDbVertex
100
AcDb2dVertex
 10
1062.4307806183469
 20
1362.6204876236197
 30
0.0
  0
SEQEND
  5
B0
100
AcDbEntity
  8
寸法
370
              15
  6
Continuous
 62
               7
  0
LINE
  5
B1
100
AcDbEntity
  8
寸法
370
              15
  6
Continuous
 62
               7
100
AcDbLine
 10
1071.8848390723172
 20
1400.6204876236084
 30
0.0
 11
1062.4308008619055
 21
1400.6204876236084
 31
0.0
  0
ARC
  5
B2
100
AcDbEntity
  8
寸法
370
              15
  6
Continuous
 62
               7
100
AcDbCircle
 10
1242.4307806183469
 20
1381.6204876236084
 30
0.0
 40
19.000000000000032
100
AcDbArc
 50
155.80957357767636
 51
204.19042642232705
  0
ARC
  5
B3
100
AcDbEntity
  8
寸法
370
              15
  6
Continuous
 62
               7
100
AcDbCircle
 10
1242.4307806183469
 20
1381.6204876236084
 30
0.0
 40
19.000000000000032
100
AcDbArc
 50
275.58449860747385
 51
294.19042642232699
  0
ARC
  5
B4
100
AcDbEntity
  8
寸法
370
              15
  6
Continuous
 62
               7
100
AcDbCircle
 10
1242.4307806183469
 20
1381.6204876236084
 30
0.0
 40
19.000000000000036
100
AcDbArc
 50
259.82732667650072
 51
275.5844986074739
  0
ARC
  5
B5
100
AcDbEntity
  8
寸法
370
              15
  6
Continuous
 62
               7
100
AcDbCircle
 10
1242.4307806183469
 20
1381.6204876236084
 30
0.0
 40
19.000000000000007
100
AcDbArc
 50
245.80957357767824
 51
259.82732667650072
  0
ARC
  5
B6
100
AcDbEntity
  8
寸法
370
              15
  6
Continuous
 62
               7
100
AcDbCircle
 10
1242.4307806183469
 20
1381.6204876236084
 30
0.0
 40
19.000000000000057
100
AcDbArc
 50
335.80957357767829
 51
24.190426422323643
  0
ARC
  5
B7
100
AcDbEntity
  8
寸法
370
              15
  6
Continuous
 62
               7
100
AcDbCircle
 10
1242.4307806183469
 20
1381.6204876236084
 30
0.0
 40
19.000000000000028
100
AcDbArc
 50
65.80957357767808
 51
114.19042642232533
  0
ARC
  5
B8
100
AcDbEntity
  8
寸法
370
              15
  6
Continuous
 62
               7
100
AcDbCircle
 10
1062.4307806183469
 20
1381.6204876236197
 30
0.0
 40
19.000000000000028
100
AcDbArc
 50
155.80957357767977
 51
204.19042642232364
  0
ARC
  5
B9
100
AcDbEntity
  8
寸法
370
              15
  6
Continuous
 62
               7
100
AcDbCircle
 10
1062.4307806183469
 20
1381.6204876236197
 30
0.0
 40
19.000000000000032
100
AcDbArc
 50
245.80957357768011
 51
294.19042642231989
  0
ARC
  5
BA
100
AcDbEntity
  8
寸法
370
              15
  6
Continuous
 62
               7
100
AcDbCircle
 10
1062.4307806183469
 20
1381.6204876236197
 30
0.0
 40
19.000000000000032
100
AcDbArc
 50
65.80957357768014
 51
114.19042642232363
  0
ARC
  5
BB
100
AcDbEntity
  8
寸法
370
              15
  6
Continuous
 62
               7
100
AcDbCircle
 10
1062.4307806183469
 20
1381.6204876236197
 30
0.0
 40
19.000000000000032
100
AcDbArc
 50
335.80957357767636
 51
24.190426422320115
  0
SPLINE
  5
BC
100
AcDbEntity
  8
寸法
370
              15
  6
Continuous
 62
               7
100
AcDbSpline
210
0.0
220
0.0
230
1.0
 70
              13
 71
               2
 72
              19
 73
              16
 74
               0
 42
0.000001
 43
0.000001
 40
0.0
 40
0.0
 40
0.0
 40
1.0
 40
2.0
 40
3.0
 40
4.0
 40
5.0
 40
6.0
 40
6.0
 40
7.0
 40
7.0
 40
8.0
 40
8.0
 40
9.0
 40
9.0
 40
10.0
 40
10.0
 40
10.0
 10
1165.4307806183469
 20
1190.8009799891433
 30
0.0
 41
1.0
 10
1165.4307806183469
 20
1187.4516150837544
 30
0.0
 41
1.0
 10
1161.9474411167425
 20
1181.6503448945323
 30
0.0
 41
1.0
 10
1155.9141201199513
 20
1178.3009799891433
 30
0.0
 41
1.0
 10
1148.9474411167425
 20
1178.3009799891433
 30
0.0
 41
1.0
 10
1142.9141201199513
 20
1181.6503448945323
 30
0.0
 41
1.0
 10
1139.4307806183469
 20
1187.4516150837544
 30
0.0
 41
1.0
 10
1139.4307806183469
 20
1190.8009799891433
 30
0.0
 41
1.0
 10
1139.4307806183469
 20
1286.2107338063759
 30
0.0
 41
1.0
 10
1139.4307806183469
 20
1381.6204876236084
 30
0.0
 41
1.0
 10
1139.4307806183469
 20
1394.6204876236084
 30
0.0
 41
0.7071067811865476
 10
1152.4307806183469
 20
1394.6204876236084
 30
0.0
 41
1.0
 10
1165.4307806183469
 20
1394.6204876236084
 30
0.0
 41
0.7071067811865476
 10
1165.4307806183469
 20
1381.6204876236084
 30
0.0
 41
1.0
 10
1165.4307806183469
 20
1286.2107338063759
 30
0.0
 41
1.0
 10
1165.4307806183469
 20
1190.8009799891433
 30
0.0
 41
1.0
  0
SPLINE
  5
BD
100
AcDbEntity
  8
寸法
370
              15
  6
Continuous
 62
               7
100
AcDbSpline
210
0.0
220
0.0
230
1.0
 70
               8
 71
               2
 72
              13
 73
              10
 74
               0
 42
0.000001
 43
0.000001
 40
0.0
 40
0.0
 40
0.0
 40
1.0
 40
2.0
 40
3.0
 40
4.0
 40
5.0
 40
6.0
 40
6.0
 40
7.0
 40
7.0
 40
7.0
 10
1165.4307806183469
 20
1197.4840867052117
 30
0.0
 10
1165.4307806183469
 20
1199.0471477443884
 30
0.0
 10
1165.4307806183469
 20
1194.1347217998227
 30
0.0
 10
1161.9474411167425
 20
1188.3334516106008
 30
0.0
 10
1155.9141201199513
 20
1184.9840867052117
 30
0.0
 10
1148.9474411167425
 20
1184.9840867052117
 30
0.0
 10
1142.9141201199513
 20
1188.3334516106008
 30
0.0
 10
1141.1724503691494
 20
1191.2340867052117
 30
0.0
 10
1140.2435723587223
 20
1192.7810712322243
 30
0.0
 10
1139.4307806183469
 20
1197.4840867052117
 30
0.0
  0
SPLINE
  5
BE
100
AcDbEntity
  8
寸法
370
               5
  6
Continuous
 62
               7
100
AcDbSpline
210
0.0
220
0.0
230
1.0
 70
               8
 71
               2
 72
               6
 73
               3
 74
               0
 42
0.000001
 43
0.000001
 40
0.0
 40
0.0
 40
0.0
 40
1.0
 40
1.0
 40
1.0
 10
1082.3888218737779
 20
884.0
 30
0.0
 10
1072.9321059940735
 20
867.62048762360837
 30
0.0
 10
1081.6454631499901
 20
845.85672232924298
 30
0.0
  0
SPLINE
  5
BF
100
AcDbEntity
  8
寸法
370
               5
  6
Continuous
 62
               7
100
AcDbSpline
210
0.0
220
0.0
230
1.0
 70
               8
 71
               2
 72
               6
 73
               3
 74
               0
 42
0.000001
 43
0.000001
 40
0.0
 40
0.0
 40
0.0
 40
1.0
 40
1.0
 40
1.0
 10
1224.6290270223772
 20
884.0
 30
0.0
 10
1234.0857429020816
 20
867.62048762360837
 30
0.0
 10
1225.372385746165
 20
845.85672232924298
 30
0.0
  0
POLYLINE
  5
C0
100
AcDbEntity
  8
寸法
370
              15
  6
Continuous
 62
               7
100
AcDb2dPolyline
 66
               1
 10
0.0
 20
0.0
 30
0.0
 70
               1
 75
               5
  0
VERTEX
  5
C1
100
AcDbEntity
  8
寸法
370
              15
  6
Continuous
 62
               7
100
AcDbVertex
100
AcDb2dVertex
 10
1232.8848390723285
 20
1381.6204876236084
 30
0.0
  0
VERTEX
  5
C2
100
AcDbEntity
  8
寸法
370
              15
  6
Continuous
 62
               7
100
AcDbVertex
100
AcDb2dVertex
 10
1211.4948589414355
 20
1403.0104677545014
 30
0.0
  0
VERTEX
  5
C3
100
AcDbEntity
  8
寸法
370
              15
  6
Continuous
 62
               7
100
AcDbVertex
100
AcDb2dVertex
 10
1221.0408004874539
 20
1412.5564093005198
 30
0.0
  0
VERTEX
  5
C4
100
AcDbEntity
  8
寸法
370
              15
  6
Continuous
 62
               7
100
AcDbVertex
100
AcDb2dVertex
 10
1242.4307806183469
 20
1391.1664291696268
 30
0.0
  0
VERTEX
  5
C5
100
AcDbEntity
  8
寸法
370
              15
  6
Continuous
 62
               7
100
AcDbVertex
100
AcDb2dVertex
 10
1263.82076074924
 20
1412.5564093005198
 30
0.0
  0
VERTEX
  5
C6
100
AcDbEntity
  8
寸法
370
              15
  6
Continuous
 62
               7
100
AcDbVertex
100
AcDb2dVertex
 10
1273.3667022952584
 20
1403.0104677545014
 30
0.0
  0
VERTEX
  5
C7
100
AcDbEntity
  8
寸法
370
              15
  6
Continuous
 62
               7
100
AcDbVertex
100
AcDb2dVertex
 10
1251.9767221643654
 20
1381.6204876236084
 30
0.0
  0
VERTEX
  5
C8
100
AcDbEntity
  8
寸法
370
              15
  6
Continuous
 62
               7
100
AcDbVertex
100
AcDb2dVertex
 10
1273.3667022952584
 20
1360.2305074927153
 30
0.0
  0
VERTEX
  5
C9
100
AcDbEntity
  8
寸法
370
              15
  6
Continuous
 62
               7
100
AcDbVertex
100
AcDb2dVertex
 10
1263.82076074924
 20
1350.6845659466969
 30
0.0
  0
VERTEX
  5
CA
100
AcDbEntity
  8
寸法
370
              15
  6
Continuous
 62
               7
100
AcDbVertex
100
AcDb2dVertex
 10
1242.4307806183469
 20
1372.07454607759
 30
0.0
  0
VERTEX
  5
CB
100
AcDbEntity
  8
寸法
370
              15
  6
Continuous
 62
               7
100
AcDbVertex
100
AcDb2dVertex
 10
1221.0408004874539
 20
1350.6845659466969
 30
0.0
  0
VERTEX
  5
CC
100
AcDbEntity
  8
寸法
370
              15
  6
Continuous
 62
               7
100
AcDbVertex
100
AcDb2dVertex
 10
1211.4948589414355
 20
1360.2305074927153
 30
0.0
  0
SEQEND
  5
CD
100
AcDbEntity
  8
寸法
370
              15
  6
Continuous
 62
               7
  0
LINE
  5
CE
100
AcDbEntity
  8
寸法
370
               5
  6
Continuous
 62
               7
100
AcDbLine
 10
1242.4307806183469
 20
1391.1664291696268
 30
0.0
 11
1242.4307806183469
 21
1372.07454607759
 31
0.0
  0
LINE
  5
CF
100
AcDbEntity
  8
寸法
370
               5
  6
Continuous
 62
               7
100
AcDbLine
 10
1232.8848390723285
 20
1381.6204876236084
 30
0.0
 11
1251.9767221643654
 21
1381.6204876236084
 31
0.0
  0
POLYLINE
  5
D0
100
AcDbEntity
  8
寸法
370
              15
  6
Continuous
 62
               7
100
AcDb2dPolyline
 66
               1
 10
0.0
 20
0.0
 30
0.0
 70
               1
 75
               5
  0
VERTEX
  5
D1
100
AcDbEntity
  8
寸法
370
              15
  6
Continuous
 62
               7
100
AcDbVertex
100
AcDb2dVertex
 10
1052.8848390723285
 20
1381.6204876236197
 30
0.0
  0
VERTEX
  5
D2
100
AcDbEntity
  8
寸法
370
              15
  6
Continuous
 62
               7
100
AcDbVertex
100
AcDb2dVertex
 10
1031.4948589414355
 20
1403.0104677545128
 30
0.0
  0
VERTEX
  5
D3
100
AcDbEntity
  8
寸法
370
              15
  6
Continuous
 62
               7
100
AcDbVertex
100
AcDb2dVertex
 10
1041.0408004874539
 20
1412.5564093005312
 30
0.0
  0
VERTEX
  5
D4
100
AcDbEntity
  8
寸法
370
              15
  6
Continuous
 62
               7
100
AcDbVertex
100
AcDb2dVertex
 10
1062.4307806183469
 20
1391.1664291696381
 30
0.0
  0
VERTEX
  5
D5
100
AcDbEntity
  8
寸法
370
              15
  6
Continuous
 62
               7
100
AcDbVertex
100
AcDb2dVertex
 10
1083.82076074924
 20
1412.5564093005312
 30
0.0
  0
VERTEX
  5
D6
100
AcDbEntity
  8
寸法
370
              15
  6
Continuous
 62
               7
100
AcDbVertex
100
AcDb2dVertex
 10
1093.3667022952584
 20
1403.0104677545128
 30
0.0
  0
VERTEX
  5
D7
100
AcDbEntity
  8
寸法
370
              15
  6
Continuous
 62
               7
100
AcDbVertex
100
AcDb2dVertex
 10
1071.9767221643654
 20
1381.6204876236197
 30
0.0
  0
VERTEX
  5
D8
100
AcDbEntity
  8
寸法
370
              15
  6
Continuous
 62
               7
100
AcDbVertex
100
AcDb2dVertex
 10
1093.3667022952584
 20
1360.2305074927267
 30
0.0
  0
VERTEX
  5
D9
100
AcDbEntity
  8
寸法
370
              15
  6
Continuous
 62
               7
100
AcDbVertex
100
AcDb2dVertex
 10
1083.82076074924
 20
1350.6845659467083
 30
0.0
  0
VERTEX
  5
DA
100
AcDbEntity
  8
寸法
370
              15
  6
Continuous
 62
               7
100
AcDbVertex
100
AcDb2dVertex
 10
1062.4307806183469
 20
1372.0745460776013
 30
0.0
  0
VERTEX
  5
DB
100
AcDbEntity
  8
寸法
370
              15
  6
Continuous
 62
               7
100
AcDbVertex
100
AcDb2dVertex
 10
1041.0408004874539
 20
1350.6845659467083
 30
0.0
  0
VERTEX
  5
DC
100
AcDbEntity
  8
寸法
370
              15
  6
Continuous
 62
               7
100
AcDbVertex
100
AcDb2dVertex
 10
1031.4948589414355
 20
1360.2305074927267
 30
0.0
  0
SEQEND
  5
DD
100
AcDbEntity
  8
寸法
370
              15
  6
Continuous
 62
               7
  0
LINE
  5
DE
100
AcDbEntity
  8
寸法
370
               5
  6
Continuous
 62
               7
100
AcDbLine
 10
1052.8848390723285
 20
1381.6204876236197
 30
0.0
 11
1071.9767221643654
 21
1381.6204876236197
 31
0.0
  0
POLYLINE
  5
DF
100
AcDbEntity
  8
寸法
370
              15
  6
Continuous
 62
               7
100
AcDb2dPolyline
 66
               1
 10
0.0
 20
0.0
 30
0.0
 70
               1
 75
               5
  0
VERTEX
  5
E0
100
AcDbEntity
  8
寸法
370
              15
  6
Continuous
 62
               7
100
AcDbVertex
100
AcDb2dVertex
 10
1055.6807806183469
 20
921.0
 30
0.0
  0
VERTEX
  5
E1
100
AcDbEntity
  8
寸法
370
              15
  6
Continuous
 62
               7
100
AcDbVertex
100
AcDb2dVertex
 10
1069.1807806183469
 20
921.0
 30
0.0
  0
VERTEX
  5
E2
100
AcDbEntity
  8
寸法
370
              15
  6
Continuous
 62
               7
100
AcDbVertex
100
AcDb2dVertex
 10
1069.1807806183469
 20
905.0
 30
0.0
  0
VERTEX
  5
E3
100
AcDbEntity
  8
寸法
370
              15
  6
Continuous
 62
               7
100
AcDbVertex
100
AcDb2dVertex
 10
1055.6807806183469
 20
905.0
 30
0.0
  0
SEQEND
  5
E4
100
AcDbEntity
  8
寸法
370
              15
  6
Continuous
 62
               7
  0
POLYLINE
  5
E5
100
AcDbEntity
  8
寸法
370
              15
  6
Continuous
 62
               7
100
AcDb2dPolyline
 66
               1
 10
0.0
 20
0.0
 30
0.0
 70
               1
 75
               5
  0
VERTEX
  5
E6
100
AcDbEntity
  8
寸法
370
              15
  6
Continuous
 62
               7
100
AcDbVertex
100
AcDb2dVertex
 10
1036.2448589414355
 20
934.5
 30
0.0
  0
VERTEX
  5
E7
100
AcDbEntity
  8
寸法
370
              15
  6
Continuous
 62
               7
100
AcDbVertex
100
AcDb2dVertex
 10
1088.6167022952584
 20
934.5
 30
0.0
  0
VERTEX
  5
E8
100
AcDbEntity
  8
寸法
370
              15
  6
Continuous
 62
               7
100
AcDbVertex
100
AcDb2dVertex
 10
1088.6167022952584
 20
921.0
 30
0.0
  0
VERTEX
  5
E9
100
AcDbEntity
  8
寸法
370
              15
  6
Continuous
 62
               7
100
AcDbVertex
100
AcDb2dVertex
 10
1036.2448589414355
 20
921.0
 30
0.0
  0
SEQEND
  5
EA
100
AcDbEntity
  8
寸法
370
              15
  6
Continuous
 62
               7
  0
SPLINE
  5
EB
100
AcDbEntity
  8
寸法
370
              15
  6
Continuous
 62
               7
100
AcDbSpline
210
0.0
220
0.0
230
1.0
 70
               9
 71
               2
 72
              17
 73
              14
 74
               0
 42
0.000001
 43
0.000001
 40
0.0
 40
0.0
 40
0.0
 40
1.0
 40
2.0
 40
3.0
 40
4.0
 40
5.0
 40
6.0
 40
7.0
 40
8.0
 40
9.0
 40
10.0
 40
11.0
 40
12.0
 40
12.0
 40
12.0
 10
1033.8698589414355
 20
933.59567147554492
 30
0.0
 10
1034.9721002773877
 20
934.5
 30
0.0
 10
1037.5176176054833
 20
934.5
 30
0.0
 10
1039.7221002773877
 20
932.69134295108995
 30
0.0
 10
1040.9948589414355
 20
929.55865704891005
 30
0.0
 10
1040.9948589414355
 20
925.94134295108995
 30
0.0
 10
1039.7221002773877
 20
922.80865704891005
 30
0.0
 10
1037.5176176054833
 20
921.0
 30
0.0
 10
1034.9721002773877
 20
921.0
 30
0.0
 10
1032.7676176054833
 20
922.80865704891005
 30
0.0
 10
1031.4948589414355
 20
925.94134295108995
 30
0.0
 10
1031.4948589414355
 20
929.55865704891005
 30
0.0
 10
1032.7676176054833
 20
932.69134295108995
 30
0.0
 10
1033.8698589414355
 20
933.59567147554492
 30
0.0
  0
SPLINE
  5
EC
100
AcDbEntity
  8
寸法
370
              15
  6
Continuous
 62
               7
100
AcDbSpline
210
0.0
220
0.0
230
1.0
 70
               9
 71
               2
 72
              17
 73
              14
 74
               0
 42
0.000001
 43
0.000001
 40
0.0
 40
0.0
 40
0.0
 40
1.0
 40
2.0
 40
3.0
 40
4.0
 40
5.0
 40
6.0
 40
7.0
 40
8.0
 40
9.0
 40
10.0
 40
11.0
 40
12.0
 40
12.0
 40
12.0
 10
1086.2417022952584
 20
933.59567147554492
 30
0.0
 10
1087.3439436312105
 20
934.5
 30
0.0
 10
1089.8894609593062
 20
934.5
 30
0.0
 10
1092.0939436312105
 20
932.69134295108995
 30
0.0
 10
1093.3667022952584
 20
929.55865704891005
 30
0.0
 10
1093.3667022952584
 20
925.94134295108995
 30
0.0
 10
1092.0939436312105
 20
922.80865704891005
 30
0.0
 10
1089.8894609593062
 20
921.0
 30
0.0
 10
1087.3439436312105
 20
921.0
 30
0.0
 10
1085.1394609593062
 20
922.80865704891005
 30
0.0
 10
1083.8667022952584
 20
925.94134295108995
 30
0.0
 10
1083.8667022952584
 20
929.55865704891005
 30
0.0
 10
1085.1394609593062
 20
932.69134295108995
 30
0.0
 10
1086.2417022952584
 20
933.59567147554492
 30
0.0
  0
LINE
  5
ED
100
AcDbEntity
  8
寸法
370
               5
  6
Continuous
 62
               7
100
AcDbLine
 10
1062.4307806183469
 20
934.5
 30
0.0
 11
1062.4307806183469
 21
921.0
 31
0.0
  0
POLYLINE
  5
EE
100
AcDbEntity
  8
寸法
370
              15
  6
Continuous
 62
               7
100
AcDb2dPolyline
 66
               1
 10
0.0
 20
0.0
 30
0.0
 70
               1
 75
               5
  0
VERTEX
  5
EF
100
AcDbEntity
  8
寸法
370
              15
  6
Continuous
 62
               7
100
AcDbVertex
100
AcDb2dVertex
 10
1235.9319912508927
 20
921.0
 30
0.0
  0
VERTEX
  5
F0
100
AcDbEntity
  8
寸法
370
              15
  6
Continuous
 62
               7
100
AcDbVertex
100
AcDb2dVertex
 10
1249.4319912508927
 20
921.0
 30
0.0
  0
VERTEX
  5
F1
100
AcDbEntity
  8
寸法
370
              15
  6
Continuous
 62
               7
100
AcDbVertex
100
AcDb2dVertex
 10
1249.4319912508927
 20
905.0
 30
0.0
  0
VERTEX
  5
F2
100
AcDbEntity
  8
寸法
370
              15
  6
Continuous
 62
               7
100
AcDbVertex
100
AcDb2dVertex
 10
1235.9319912508927
 20
905.0
 30
0.0
  0
SEQEND
  5
F3
100
AcDbEntity
  8
寸法
370
              15
  6
Continuous
 62
               7
  0
POLYLINE
  5
F4
100
AcDbEntity
  8
寸法
370
              15
  6
Continuous
 62
               7
100
AcDb2dPolyline
 66
               1
 10
0.0
 20
0.0
 30
0.0
 70
               1
 75
               5
  0
VERTEX
  5
F5
100
AcDbEntity
  8
寸法
370
              15
  6
Continuous
 62
               7
100
AcDbVertex
100
AcDb2dVertex
 10
1216.4960695739815
 20
934.5
 30
0.0
  0
VERTEX
  5
F6
100
AcDbEntity
  8
寸法
370
              15
  6
Continuous
 62
               7
100
AcDbVertex
100
AcDb2dVertex
 10
1268.8679129278044
 20
934.5
 30
0.0
  0
VERTEX
  5
F7
100
AcDbEntity
  8
寸法
370
              15
  6
Continuous
 62
               7
100
AcDbVertex
100
AcDb2dVertex
 10
1268.8679129278044
 20
921.0
 30
0.0
  0
VERTEX
  5
F8
100
AcDbEntity
  8
寸法
370
              15
  6
Continuous
 62
               7
100
AcDbVertex
100
AcDb2dVertex
 10
1216.4960695739815
 20
921.0
 30
0.0
  0
SEQEND
  5
F9
100
AcDbEntity
  8
寸法
370
              15
  6
Continuous
 62
               7
  0
SPLINE
  5
FA
100
AcDbEntity
  8
寸法
370
              15
  6
Continuous
 62
               7
100
AcDbSpline
210
0.0
220
0.0
230
1.0
 70
               9
 71
               2
 72
              17
 73
              14
 74
               0
 42
0.000001
 43
0.000001
 40
0.0
 40
0.0
 40
0.0
 40
1.0
 40
2.0
 40
3.0
 40
4.0
 40
5.0
 40
6.0
 40
7.0
 40
8.0
 40
9.0
 40
10.0
 40
11.0
 40
12.0
 40
12.0
 40
12.0
 10
1214.1210695739815
 20
933.59567147554492
 30
0.0
 10
1215.2233109099334
 20
934.5
 30
0.0
 10
1217.7688282380291
 20
934.5
 30
0.0
 10
1219.9733109099334
 20
932.69134295108995
 30
0.0
 10
1221.2460695739815
 20
929.55865704891005
 30
0.0
 10
1221.2460695739815
 20
925.94134295108995
 30
0.0
 10
1219.9733109099334
 20
922.80865704891005
 30
0.0
 10
1217.7688282380291
 20
921.0
 30
0.0
 10
1215.2233109099334
 20
921.0
 30
0.0
 10
1213.0188282380291
 20
922.80865704891005
 30
0.0
 10
1211.7460695739815
 20
925.94134295108995
 30
0.0
 10
1211.7460695739815
 20
929.55865704891005
 30
0.0
 10
1213.0188282380291
 20
932.69134295108995
 30
0.0
 10
1214.1210695739815
 20
933.59567147554492
 30
0.0
  0
SPLINE
  5
FB
100
AcDbEntity
  8
寸法
370
              15
  6
Continuous
 62
               7
100
AcDbSpline
210
0.0
220
0.0
230
1.0
 70
               9
 71
               2
 72
              17
 73
              14
 74
               0
 42
0.000001
 43
0.000001
 40
0.0
 40
0.0
 40
0.0
 40
1.0
 40
2.0
 40
3.0
 40
4.0
 40
5.0
 40
6.0
 40
7.0
 40
8.0
 40
9.0
 40
10.0
 40
11.0
 40
12.0
 40
12.0
 40
12.0
 10
1266.4929129278044
 20
933.59567147554492
 30
0.0
 10
1267.5951542637563
 20
934.5
 30
0.0
 10
1270.140671591852
 20
934.5
 30
0.0
 10
1272.3451542637563
 20
932.69134295108995
 30
0.0
 10
1273.6179129278044
 20
929.55865704891005
 30
0.0
 10
1273.6179129278044
 20
925.94134295108995
 30
0.0
 10
1272.3451542637563
 20
922.80865704891005
 30
0.0
 10
1270.140671591852
 20
921.0
 30
0.0
 10
1267.5951542637563
 20
921.0
 30
0.0
 10
1265.390671591852
 20
922.80865704891005
 30
0.0
 10
1264.1179129278044
 20
925.94134295108995
 30
0.0
 10
1264.1179129278044
 20
929.55865704891005
 30
0.0
 10
1265.390671591852
 20
932.69134295108995
 30
0.0
 10
1266.4929129278044
 20
933.59567147554492
 30
0.0
  0
LINE
  5
FC
100
AcDbEntity
  8
寸法
370
               5
  6
Continuous
 62
               7
100
AcDbLine
 10
1242.6819912508927
 20
934.5
 30
0.0
 11
1242.6819912508927
 21
921.0
 31
0.0
  0
POLYLINE
  5
FD
100
AcDbEntity
  8
寸法
370
              15
  6
Continuous
 62
               7
100
AcDb2dPolyline
 66
               1
 10
0.0
 20
0.0
 30
0.0
 70
               1
 75
               5
  0
VERTEX
  5
FE
100
AcDbEntity
  8
寸法
370
              15
  6
Continuous
 62
               7
100
AcDbVertex
100
AcDb2dVertex
 10
1546.4309352283506
 20
921.18936793845455
 30
0.0
  0
VERTEX
  5
FF
100
AcDbEntity
  8
寸法
370
              15
  6
Continuous
 62
               7
100
AcDbVertex
100
AcDb2dVertex
 10
1559.9309352283506
 20
921.18936793845455
 30
0.0
  0
VERTEX
  5
100
100
AcDbEntity
  8
寸法
370
              15
  6
Continuous
 62
               7
100
AcDbVertex
100
AcDb2dVertex
 10
1559.9309352283506
 20
905.18936793845455
 30
0.0
  0
VERTEX
  5
101
100
AcDbEntity
  8
寸法
370
              15
  6
Continuous
 62
               7
100
AcDbVertex
100
AcDb2dVertex
 10
1546.4309352283506
 20
905.18936793845455
 30
0.0
  0
SEQEND
  5
102
100
AcDbEntity
  8
寸法
370
              15
  6
Continuous
 62
               7
  0
POLYLINE
  5
103
100
AcDbEntity
  8
寸法
370
              15
  6
Continuous
 62
               7
100
AcDb2dPolyline
 66
               1
 10
0.0
 20
0.0
 30
0.0
 75
               5
  0
VERTEX
  5
104
100
AcDbEntity
  8
寸法
370
              15
  6
Continuous
 62
               7
100
AcDbVertex
100
AcDb2dVertex
 10
1579.366856905262
 20
934.68658213095
 30
0.0
  0
VERTEX
  5
105
100
AcDbEntity
  8
寸法
370
              15
  6
Continuous
 62
               7
100
AcDbVertex
100
AcDb2dVertex
 10
1579.366856905262
 20
934.68936793845455
 30
0.0
  0
VERTEX
  5
106
100
AcDbEntity
  8
寸法
370
              15
  6
Continuous
 62
               7
100
AcDbVertex
100
AcDb2dVertex
 10
1526.9950135514391
 20
934.68936793845455
 30
0.0
  0
VERTEX
  5
107
100
AcDbEntity
  8
寸法
370
              15
  6
Continuous
 62
               7
100
AcDbVertex
100
AcDb2dVertex
 10
1526.9950135514391
 20
934.68565651571294
 30
0.0
  0
SEQEND
  5
108
100
AcDbEntity
  8
寸法
370
              15
  6
Continuous
 62
               7
  0
POLYLINE
  5
109
100
AcDbEntity
  8
寸法
370
              15
  6
Continuous
 62
               7
100
AcDb2dPolyline
 66
               1
 10
0.0
 20
0.0
 30
0.0
 75
               5
  0
VERTEX
  5
10A
100
AcDbEntity
  8
寸法
370
              15
  6
Continuous
 62
               7
100
AcDbVertex
100
AcDb2dVertex
 10
1579.366856905262
 20
921.193173927825
 30
0.0
  0
VERTEX
  5
10B
100
AcDbEntity
  8
寸法
370
              15
  6
Continuous
 62
               7
100
AcDbVertex
100
AcDb2dVertex
 10
1579.366856905262
 20
921.18936793845455
 30
0.0
  0
VERTEX
  5
10C
100
AcDbEntity
  8
寸法
370
              15
  6
Continuous
 62
               7
100
AcDbVertex
100
AcDb2dVertex
 10
1526.9950135514391
 20
921.18936793845455
 30
0.0
  0
VERTEX
  5
10D
100
AcDbEntity
  8
寸法
370
              15
  6
Continuous
 62
               7
100
AcDbVertex
100
AcDb2dVertex
 10
1526.9950135514391
 20
921.19224831258794
 30
0.0
  0
SEQEND
  5
10E
100
AcDbEntity
  8
寸法
370
              15
  6
Continuous
 62
               7
  0
SPLINE
  5
10F
100
AcDbEntity
  8
寸法
370
              15
  6
Continuous
 62
               7
100
AcDbSpline
210
0.0
220
0.0
230
1.0
 70
               9
 71
               2
 72
              17
 73
              14
 74
               0
 42
0.000001
 43
0.000001
 40
0.0
 40
0.0
 40
0.0
 40
1.0
 40
2.0
 40
3.0
 40
4.0
 40
5.0
 40
6.0
 40
7.0
 40
8.0
 40
9.0
 40
10.0
 40
11.0
 40
12.0
 40
12.0
 40
12.0
 10
1524.6200135514391
 20
933.78503941399947
 30
0.0
 10
1525.7222548873913
 20
934.68936793845455
 30
0.0
 10
1528.267772215487
 20
934.68936793845455
 30
0.0
 10
1530.4722548873913
 20
932.8807108895445
 30
0.0
 10
1531.7450135514391
 20
929.7480249873646
 30
0.0
 10
1531.7450135514391
 20
926.1307108895445
 30
0.0
 10
1530.4722548873913
 20
922.9980249873646
 30
0.0
 10
1528.267772215487
 20
921.18936793845455
 30
0.0
 10
1525.7222548873913
 20
921.18936793845455
 30
0.0
 10
1523.517772215487
 20
922.9980249873646
 30
0.0
 10
1522.2450135514391
 20
926.1307108895445
 30
0.0
 10
1522.2450135514391
 20
929.7480249873646
 30
0.0
 10
1523.517772215487
 20
932.8807108895445
 30
0.0
 10
1524.6200135514391
 20
933.78503941399947
 30
0.0
  0
SPLINE
  5
110
100
AcDbEntity
  8
寸法
370
              15
  6
Continuous
 62
               7
100
AcDbSpline
210
0.0
220
0.0
230
1.0
 70
               9
 71
               2
 72
              17
 73
              14
 74
               0
 42
0.000001
 43
0.000001
 40
0.0
 40
0.0
 40
0.0
 40
1.0
 40
2.0
 40
3.0
 40
4.0
 40
5.0
 40
6.0
 40
7.0
 40
8.0
 40
9.0
 40
10.0
 40
11.0
 40
12.0
 40
12.0
 40
12.0
 10
1576.991856905262
 20
933.78503941399947
 30
0.0
 10
1578.0940982412142
 20
934.68936793845455
 30
0.0
 10
1580.6396155693099
 20
934.68936793845455
 30
0.0
 10
1582.8440982412142
 20
932.8807108895445
 30
0.0
 10
1584.116856905262
 20
929.7480249873646
 30
0.0
 10
1584.116856905262
 20
926.1307108895445
 30
0.0
 10
1582.8440982412142
 20
922.9980249873646
 30
0.0
 10
1580.6396155693099
 20
921.18936793845455
 30
0.0
 10
1578.0940982412142
 20
921.18936793845455
 30
0.0
 10
1575.8896155693099
 20
922.9980249873646
 30
0.0
 10
1574.616856905262
 20
926.1307108895445
 30
0.0
 10
1574.616856905262
 20
929.7480249873646
 30
0.0
 10
1575.8896155693099
 20
932.8807108895445
 30
0.0
 10
1576.991856905262
 20
933.78503941399947
 30
0.0
  0
LINE
  5
111
100
AcDbEntity
  8
寸法
370
               5
  6
Continuous
 62
               7
100
AcDbLine
 10
1553.1809352283506
 20
934.68936793845455
 30
0.0
 11
1553.1809352283506
 21
921.18936793845455
 31
0.0
  0
LINE
  5
112
100
AcDbEntity
  8
寸法
370
               5
  6
Continuous
 62
               7
100
AcDbLine
 10
1062.4307806183469
 20
1391.1664291696381
 30
0.0
 11
1062.4307806183469
 21
1372.0745460776013
 31
0.0
  0
LINE
  5
113
100
AcDbEntity
  8
一般
370
              15
  6
Continuous
 62
               7
100
AcDbLine
 10
1356.391229078781
 20
1037.4758583933085
 30
0.0
 11
1357.8173669409157
 21
1042.6191684807052
 31
0.0
  0
INSERT
  5
114
100
AcDbEntity
  8
一般
 62
               7
100
AcDbBlockReference
  2
グループ-2
 10
1450.0
 20
1020.0
 30
0.0
  0
INSERT
  5
115
100
AcDbEntity
  8
一般
 62
               7
100
AcDbBlockReference
  2
グループ-3
 10
1450.0
 20
1020.0
 30
0.0
  0
ENDSEC
  0
SECTION
  2
OBJECTS
  0
DICTIONARY
  5
19
100
AcDbDictionary
280
               0
281
               1
  3
ACAD_GROUP
350
1A
  3
ACAD_MLINESTYLE
350
1B
  3
ACAD_LAYOUT
350
1E
  3
ACAD_PLOTSETTINGS
350
22
  3
ACAD_PLOTSTYLENAME
350
1F
  3
ACAD_WIPEOUT_VARS
350
23
  0
DICTIONARY
  5
1A
102
{ACAD_REACTORS
330
19
102
}
100
AcDbDictionary
280
               0
281
               1
  0
DICTIONARY
  5
1B
102
{ACAD_REACTORS
330
19
102
}
100
AcDbDictionary
280
               0
281
               1
  3
Standard
350
1C
  0
MLINESTYLE
  5
1C
102
{ACAD_REACTORS
330
1B
102
}
100
AcDbMlineStyle
  2
Standard
 70
               0
  3

 62
               0
 51
90.0
 52
90.0
 71
               2
 49
0.5
 62
             256
  6
ByLayer
 49
-0.5
 62
             256
  6
ByLayer
  0
ACDBDICTIONARYWDFLT
  5
1F
102
{ACAD_REACTORS
330
19
102
}
100
AcDbDictionary
281
               1
  3
Normal
350
1D
100
AcDbDictionaryWithDefault
340
1D
  0
ACDBPLACEHOLDER
  5
1D
102
{ACAD_REACTORS
330
1F
102
}
  0
LAYOUT
  5
20
102
{ACAD_REACTORS
330
1E
102
}
100
AcDbPlotSettings
  1

  2

  4

  6

 40
0.0
 41
0.0
 42
0.0
 43
0.0
 44
0.0
 45
0.0
 46
0.0
 47
0.0
 48
0.0
 49
0.0
140
0.0
141
0.0
142
1.0
143
1.0
 70
            1024
 72
               0
 73
               0
 74
               0
  7

 75
               0
147
1.0
148
0.0
149
0.0
100
AcDbLayout
  1
Model
 70
               0
 71
               0
 10
0.0
 20
0.0
 11
0.0
 21
0.0
 12
0.0
 22
0.0
 32
0.0
 14
0.0
 24
0.0
 34
0.0
 15
0.0
 25
0.0
 35
0.0
146
0.0
 13
0.0
 23
0.0
 33
0.0
 16
0.0
 26
0.0
 36
0.0
 17
0.0
 27
0.0
 37
0.0
 76
               0
330
A
331
0
345
0
346
0
  0
LAYOUT
  5
21
102
{ACAD_REACTORS
330
1E
102
}
100
AcDbPlotSettings
  1

  2

  4

  6

 40
0.0
 41
0.0
 42
0.0
 43
0.0
 44
0.0
 45
0.0
 46
0.0
 47
0.0
 48
0.0
 49
0.0
140
0.0
141
0.0
142
1.0
143
1.0
 70
               0
 72
               0
 73
               0
 74
               0
  7

 75
               0
147
1.0
148
0.0
149
0.0
100
AcDbLayout
  1
Layout1
 70
               0
 71
               0
 10
0.0
 20
0.0
 11
0.0
 21
0.0
 12
0.0
 22
0.0
 32
0.0
 14
0.0
 24
0.0
 34
0.0
 15
0.0
 25
0.0
 35
0.0
146
0.0
 13
0.0
 23
0.0
 33
0.0
 16
0.0
 26
0.0
 36
0.0
 17
0.0
 27
0.0
 37
0.0
 76
               0
330
B
331
0
345
0
346
0
  0
DICTIONARY
  5
1E
102
{ACAD_REACTORS
330
19
102
}
100
AcDbDictionary
280
               0
281
               1
  3
Layout1
350
21
  3
Model
350
20
  0
DICTIONARY
  5
22
102
{ACAD_REACTORS
330
19
102
}
100
AcDbDictionary
280
               0
281
               1
  0
WIPEOUTVARIABLES
  5
23
100
AcDbWipeoutVariables
 70
               0
  0
ENDSEC
  0
EOF
