  0
SECTION
  2
HEADER
  9
$ACADVER
  1
AC1015
  9
$ACADMAINTVER
 70
               6
  9
$DWGCODEPAGE
  3
ANSI_932
  9
$INSBASE
 10
0.0
 20
0.0
 30
0.0
  9
$EXTMIN
 10
640.75946586617556
 20
-337.74750390242184
 30
-14.834305555555554
  9
$EXTMAX
 10
2332.7324838490408
 20
2329.3742251572467
 30
14.834305555555554
  9
$LIMMIN
 10
0.0
 20
0.0
  9
$LIMMAX
 10
0.0
 20
0.0
  9
$ORTHOMODE
 70
               0
  9
$REGENMODE
 70
               1
  9
$FILLMODE
 70
               1
  9
$QTEXTMODE
 70
               0
  9
$MIRRTEXT
 70
               1
  9
$LTSCALE
 40
50.799999999999997
  9
$ATTMODE
 70
               1
  9
$TEXTSIZE
 40
0.2
  9
$TRACEWID
 40
1.0
  9
$TEXTSTYLE
  7
Standard
  9
$CLAYER
  8
一般
  9
$CELTYPE
  6
Continuous
  9
$CECOLOR
 62
             256
  9
$CELTSCALE
 40
1.0
  9
$DISPSILH
 70
               0
  9
$DIMSCALE
 40
1.0
  9
$DIMASZ
 40
0.18
  9
$DIMEXO
 40
0.0625
  9
$DIMDLI
 40
0.38
  9
$DIMRND
 40
0.0
  9
$DIMDLE
 40
0.0
  9
$DIMEXE
 40
0.18
  9
$DIMTP
 40
0.0
  9
$DIMTM
 40
0.0
  9
$DIMTXT
 40
0.18
  9
$DIMCEN
 40
0.09
  9
$DIMTSZ
 40
0.0
  9
$DIMTOL
 70
               0
  9
$DIMLIM
 70
               0
  9
$DIMTIH
 70
               1
  9
$DIMTOH
 70
               1
  9
$DIMSE1
 70
               0
  9
$DIMSE2
 70
               0
  9
$DIMTAD
 70
               0
  9
$DIMZIN
 70
               0
  9
$DIMBLK
  1

  9
$DIMASO
 70
               1
  9
$DIMSHO
 70
               1
  9
$DIMPOST
  1

  9
$DIMAPOST
  1

  9
$DIMALT
 70
               0
  9
$DIMALTD
 70
               2
  9
$DIMALTF
 40
25.399999999999999
  9
$DIMLFAC
 40
1.0
  9
$DIMTOFL
 70
               0
  9
$DIMTVP
 40
0.0
  9
$DIMTIX
 70
               0
  9
$DIMSOXD
 70
               0
  9
$DIMSAH
 70
               0
  9
$DIMBLK1
  1

  9
$DIMBLK2
  1

  9
$DIMSTYLE
  2
Standard
  9
$DIMCLRD
 70
               0
  9
$DIMCLRE
 70
               0
  9
$DIMCLRT
 70
               0
  9
$DIMTFAC
 40
1.0
  9
$DIMGAP
 40
0.09
  9
$DIMJUST
 70
               0
  9
$DIMSD1
 70
               0
  9
$DIMSD2
 70
               0
  9
$DIMTOLJ
 70
               1
  9
$DIMTZIN
 70
               0
  9
$DIMALTZ
 70
               0
  9
$DIMALTTZ
 70
               0
  9
$DIMUPT
 70
               0
  9
$DIMDEC
 70
               4
  9
$DIMTDEC
 70
               4
  9
$DIMALTU
 70
               2
  9
$DIMALTTD
 70
               2
  9
$DIMTXSTY
  7
Standard
  9
$DIMAUNIT
 70
               0
  9
$DIMADEC
 70
               0
  9
$DIMALTRND
 40
0.0
  9
$DIMAZIN
 70
               0
  9
$DIMDSEP
 70
               0
  9
$DIMATFIT
 70
               3
  9
$DIMFRAC
 70
               0
  9
$DIMLDRBLK
  1

  9
$DIMLUNIT
 70
               2
  9
$DIMLWD
 70
               0
  9
$DIMLWE
 70
               0
  9
$DIMTMOVE
 70
               0
  9
$LUNITS
 70
               2
  9
$LUPREC
 70
               4
  9
$SKETCHINC
 40
0.1
  9
$FILLETRAD
 40
0.0
  9
$AUNITS
 70
               0
  9
$AUPREC
 70
               0
  9
$MENU
  1
acad
  9
$ELEVATION
 40
0.0
  9
$PELEVATION
 40
0.0
  9
$THICKNESS
 40
0.0
  9
$LIMCHECK
 70
               0
  9
$CHAMFERA
 40
0.0
  9
$CHAMFERB
 40
0.0
  9
$CHAMFERC
 40
0.0
  9
$CHAMFERD
 40
0.0
  9
$SKPOLY
 70
               0
  9
$TDCREATE
 40
2455119.822650463
  9
$TDUCREATE
 40
0.000000000
  9
$TDUPDATE
 40
2455119.822650463
  9
$TDUUPDATE
 40
0.000000000
  9
$TDINDWG
 40
0.0000000000
  9
$TDUSRTIMER
 40
0.0000000000
  9
$USRTIMER
 70
               1
  9
$ANGBASE
 50
0.0
  9
$ANGDIR
 70
               0
  9
$PDMODE
 70
               1
  9
$PDSIZE
 40
-2.0
  9
$PLINEWID
 40
0.0
  9
$SPLFRAME
 70
               0
  9
$SPLINETYPE
 70
               6
  9
$SPLINESEGS
 70
               8
  9
$HANDSEED
  5
328
  9
$SURFTAB1
 70
               6
  9
$SURFTAB2
 70
               6
  9
$SURFTYPE
 70
               6
  9
$SURFU
 70
               6
  9
$SURFV
 70
               6
  9
$UCSBASE
  2

  9
$UCSNAME
  2

  9
$UCSORG
 10
0.0
 20
0.0
 30
0.0
  9
$UCSXDIR
 10
1.0
 20
0.0
 30
0.0
  9
$UCSYDIR
 10
0.0
 20
1.0
 30
0.0
  9
$UCSORTHOREF
  2

  9
$UCSORTHOVIEW
 70
               0
  9
$UCSORGTOP
 10
0.0
 20
0.0
 30
0.0
  9
$UCSORGBOTTOM
 10
0.0
 20
0.0
 30
0.0
  9
$UCSORGLEFT
 10
0.0
 20
0.0
 30
0.0
  9
$UCSORGRIGHT
 10
0.0
 20
0.0
 30
0.0
  9
$UCSORGFRONT
 10
0.0
 20
0.0
 30
0.0
  9
$UCSORGBACK
 10
0.0
 20
0.0
 30
0.0
  9
$PUCSBASE
  2

  9
$PUCSNAME
  2

  9
$PUCSORG
 10
0.0
 20
0.0
 30
0.0
  9
$PUCSXDIR
 10
1.0
 20
0.0
 30
0.0
  9
$PUCSYDIR
 10
0.0
 20
1.0
 30
0.0
  9
$PUCSORTHOREF
  2

  9
$PUCSORTHOVIEW
 70
               0
  9
$PUCSORGTOP
 10
0.0
 20
0.0
 30
0.0
  9
$PUCSORGBOTTOM
 10
0.0
 20
0.0
 30
0.0
  9
$PUCSORGLEFT
 10
0.0
 20
0.0
 30
0.0
  9
$PUCSORGRIGHT
 10
0.0
 20
0.0
 30
0.0
  9
$PUCSORGFRONT
 10
0.0
 20
0.0
 30
0.0
  9
$PUCSORGBACK
 10
0.0
 20
0.0
 30
0.0
  9
$USERI1
 70
               0
  9
$USERI2
 70
               0
  9
$USERI3
 70
               0
  9
$USERI4
 70
               0
  9
$USERI5
 70
               0
  9
$USERR1
 40
0.0
  9
$USERR2
 40
0.0
  9
$USERR3
 40
0.0
  9
$USERR4
 40
0.0
  9
$USERR5
 40
0.0
  9
$WORLDVIEW
 70
               1
  9
$SHADEDGE
 70
               3
  9
$SHADEDIF
 70
              70
  9
$TILEMODE
 70
               1
  9
$MAXACTVP
 70
              64
  9
$PINSBASE
 10
0.0
 20
0.0
 30
0.0
  9
$PLIMCHECK
 70
               0
  9
$PEXTMIN
 10
1.0000000000000000E+20
 20
1.0000000000000000E+20
 30
1.0000000000000000E+20
  9
$PEXTMAX
 10
-1.0000000000000000E+20
 20
-1.0000000000000000E+20
 30
-1.0000000000000000E+20
  9
$PLIMMIN
 10
0.0
 20
0.0
  9
$PLIMMAX
 10
12.0
 20
9.0
  9
$UNITMODE
 70
               0
  9
$VISRETAIN
 70
               0
  9
$PLINEGEN
 70
               1
  9
$PSLTSCALE
 70
               0
  9
$TREEDEPTH
 70
            3020
  9
$CMLSTYLE
  2
Standard
  9
$CMLJUST
 70
               0
  9
$CMLSCALE
 40
1.0
  9
$PROXYGRAPHICS
 70
               0
  9
$MEASUREMENT
 70
               1
  9
$CELWEIGHT
370
               0
  9
$ENDCAPS
280
               0
  9
$JOINSTYLE
280
               0
  9
$LWDISPLAY
290
               1
  9
$INSUNITS
 70
               4
  9
$HYPERLINKBASE
  1

  9
$STYLESHEET
  1

  9
$XEDIT
290
               1
  9
$CEPSNTYPE
380
               0
  9
$PSTYLEMODE
290
               1
  9
$FINGERPRINTGUID
  2

  9
$VERSIONGUID
  2

  9
$EXTNAMES
290
               1
  9
$PSVPSCALE
 40
0.0
  0
ENDSEC
  0
SECTION
  2
CLASSES
  0
CLASS
  1
LWPOLYLINE
  2
AcDbPolyline
  3
AutoCAD 2000
 90
        0
280
               0
281
               1
  0
CLASS
  1
IMAGE
  2
AcDbRasterImage
  3
ISM
 90
    32895
280
               0
281
               1
  0
CLASS
  1
OLE2FRAME
  2
AcDbOle2Frame
  3
AutoCAD 2000
 90
    32768
280
               0
281
               1
  0
CLASS
  1
HATCH
  2
AcDbHatch
  3
AutoCAD 2000
 90
    32768
280
               0
281
               1
  0
CLASS
  1
DICTIONARYVAR
  2
AcDbDictionaryVar
  3
AutoCAD 2000
 90
    32768
280
               0
281
               0
  0
CLASS
  1
RASTERVARIABLES
  2
AcDbRasterVariables
  3
ISM
 90
    32768
280
               0
281
               0
  0
CLASS
  1
IMAGEDEF
  2
AcDbRasterImageDef
  3
ISM
 90
    32768
280
               0
281
               0
  0
CLASS
  1
IMAGEDEF_REACTOR
  2
AcDbRasterImageDefReactor
  3
ISM
 90
    32769
280
               0
281
               0
  0
CLASS
  1
IDBUFFER
  2
AcDbIdBuffer
  3
AutoCAD 2000
 90
    32768
280
               0
281
               0
  0
CLASS
  1
SPATIAL_FILTER
  2
AcDbSpatialFilter
  3
AutoCAD 2000
 90
    32768
280
               0
281
               0
  0
CLASS
  1
XRECORD
  2
AcDbXrecord
  3
AutoCAD 2000
 90
    32768
280
               0
281
               0
  0
CLASS
  1
SORTENTSTABLE
  2
AcDbSortentsTable
  3
AutoCAD 2000
 90
    32768
280
               0
281
               0
  0
CLASS
  1
LAYER_INDEX
  2
AcDbLayerIndex
  3
AutoCAD 2000
 90
    32768
280
               0
281
               0
  0
CLASS
  1
SPATIAL_INDEX
  2
AcDbSpatialIndex
  3
AutoCAD 2000
 90
    32768
280
               0
281
               0
  0
CLASS
  1
OBJECT_PTR
  2
CAseDLPNTableRecord
  3
"ASE-LPNTableRecord"
 90
    32769
280
               0
281
               0
  0
CLASS
  1
LAYOUT
  2
AcDbLayout
  3
AutoCAD 2000
 90
        0
280
               0
281
               0
  0
CLASS
  1
PLOTSETTINGS
  2
AcDbPlotSettings
  3
AutoCAD 2000
 90
    32768
280
               0
281
               0
  0
CLASS
  1
ACDBDICTIONARYWDFLT
  2
AcDbDictionaryWithDefault
  3
AutoCAD 2000
 90
        0
280
               0
281
               0
  0
CLASS
  1
ACDBPLACEHOLDER
  2
AcDbPlaceHolder
  3
AutoCAD 2000
 90
        0
280
               0
281
               0
  0
CLASS
  1
VBA_PROJECT
  2
AcDbVbaProject
  3
acadvba
 90
    32768
280
               0
281
               0
  0
CLASS
  1
WIPEOUT
  2
AcDbWipeout
  3
WipeOut|AutoCAD Express Tool|expresstools@autodesk.com
 90
    32895
280
               0
281
               1
  0
CLASS
  1
WIPEOUTVARIABLES
  2
AcDbWipeoutVariables
  3
WipeOut|AutoCAD Express Tool|expresstools@autodesk.com
 90
        0
280
               0
281
               0
  0
CLASS
  1
RTEXT
  2
RText
  3
RText|AutoCAD Express Tool|expresstools@autodesk.com
 90
    32768
280
               0
281
               1
  0
CLASS
  1
ARCALIGNEDTEXT
  2
AcDbArcAlignedText
  3
ATEXT|AutoCAD Express Tool|expresstools@autodesk.com
 90
    32768
280
               0
281
               1
  0
ENDSEC
  0
SECTION
  2
TABLES
  0
TABLE
  2
VPORT
  5
7
100
AcDbSymbolTable
 70
               1
  0
VPORT
  5
15
100
AcDbSymbolTableRecord
100
AcDbViewportTableRecord
  2
*ACTIVE
 70
               0
 10
0.0
 20
0.0
 11
1.0
 21
1.0
 12
1486.7459748576082
 22
995.81336062741252
 13
0.0
 23
0.0
 14
1.0
 24
1.0
 15
0.0
 25
0.0
 16
0.0
 26
0.0
 36
1.0
 17
0.0
 27
0.0
 37
0.0
 40
2667.1217290596687
 41
0.688564
 42
50.0
 43
0.0
 44
0.0
 50
0.0
 51
0.0
 71
               0
 72
            2000
 73
               1
 74
               1
 75
               0
 76
               0
 77
               0
 78
               0
281
               0
 65
               0
110
0.0
120
0.0
130
0.0
111
1.0
121
0.0
131
0.0
112
0.0
122
1.0
132
0.0
345
0
346
0
 79
               0
146
0.0
  0
ENDTAB
  0
TABLE
  2
LTYPE
  5
4
100
AcDbSymbolTable
 70
              17
  0
LTYPE
  5
11
100
AcDbSymbolTableRecord
100
AcDbLinetypeTableRecord
  2
ByBlock
 70
              64
  3

 72
              65
 73
               0
 40
0.0
  0
LTYPE
  5
12
100
AcDbSymbolTableRecord
100
AcDbLinetypeTableRecord
  2
ByLayer
 70
              64
  3

 72
              65
 73
               0
 40
0.0
  0
LTYPE
  5
13
100
AcDbSymbolTableRecord
100
AcDbLinetypeTableRecord
  2
Continuous
 70
              64
  3
Solid line
 72
              65
 73
               0
 40
0.0
  0
LTYPE
  5
2A
100
AcDbSymbolTableRecord
100
AcDbLinetypeTableRecord
  2
STYLE_01
 70
               0
  3

 72
              65
 73
               2
 40
0.41664
 49
0.20828
 74
               0
 49
-0.20836
 74
               0
  0
LTYPE
  5
2B
100
AcDbSymbolTableRecord
100
AcDbLinetypeTableRecord
  2
STYLE_02
 70
               0
  3

 72
              65
 73
               2
 40
0.6944250000000001
 49
0.48607
 74
               0
 49
-0.2083550000000001
 74
               0
  0
LTYPE
  5
2C
100
AcDbSymbolTableRecord
100
AcDbLinetypeTableRecord
  2
STYLE_03
 70
               0
  3

 72
              65
 73
               2
 40
1.25
 49
1.0416400000000001
 74
               0
 49
-0.2083599999999999
 74
               0
  0
LTYPE
  5
2D
100
AcDbSymbolTableRecord
100
AcDbLinetypeTableRecord
  2
STYLE_04
 70
               0
  3

 72
              65
 73
               2
 40
1.5277099999999999
 49
1.3194249999999998
 74
               0
 49
-0.208285
 74
               0
  0
LTYPE
  5
2E
100
AcDbSymbolTableRecord
100
AcDbLinetypeTableRecord
  2
STYLE_05
 70
               0
  3

 72
              65
 73
               2
 40
0.20828
 49
0.069425
 74
               0
 49
-0.138855
 74
               0
  0
LTYPE
  5
2F
100
AcDbSymbolTableRecord
100
AcDbLinetypeTableRecord
  2
STYLE_06
 70
               0
  3

 72
              65
 73
               4
 40
1.0416400000000001
 49
0.625
 74
               0
 49
-0.20828
 74
               0
 49
0.06943
 74
               0
 49
-0.13893
 74
               0
  0
LTYPE
  5
30
100
AcDbSymbolTableRecord
100
AcDbLinetypeTableRecord
  2
STYLE_07
 70
               0
  3

 72
              65
 73
               6
 40
1.875
 49
0.625
 74
               0
 49
-0.20828
 74
               0
 49
0.6250000000000001
 74
               0
 49
-0.2083599999999999
 74
               0
 49
0.06943
 74
               0
 49
-0.1389299999999999
 74
               0
  0
LTYPE
  5
31
100
AcDbSymbolTableRecord
100
AcDbLinetypeTableRecord
  2
STYLE_08
 70
               0
  3

 72
              65
 73
               6
 40
1.25
 49
0.625
 74
               0
 49
-0.20828
 74
               0
 49
0.06943
 74
               0
 49
-0.13893
 74
               0
 49
0.0694299999999999
 74
               0
 49
-0.13893
 74
               0
  0
LTYPE
  5
32
100
AcDbSymbolTableRecord
100
AcDbLinetypeTableRecord
  2
STYLE_09
 70
               0
  3

 72
              65
 73
               4
 40
5.0
 49
3.75
 74
               0
 49
-0.2777849999999998
 74
               0
 49
0.6944300000000003
 74
               0
 49
-0.2777849999999998
 74
               0
  0
LTYPE
  5
33
100
AcDbSymbolTableRecord
100
AcDbLinetypeTableRecord
  2
STYLE_10
 70
               0
  3

 72
              65
 73
               6
 40
5.9375
 49
3.75
 74
               0
 49
-0.2777849999999998
 74
               0
 49
0.6944300000000003
 74
               0
 49
-0.2777849999999998
 74
               0
 49
0.625
 74
               0
 49
-0.3125
 74
               0
  0
LTYPE
  5
34
100
AcDbSymbolTableRecord
100
AcDbLinetypeTableRecord
  2
STYLE_11
 70
               0
  3

 72
              65
 73
               4
 40
0.9646653543307084
 49
0.6029158464566929
 74
               0
 49
-0.1205831692913385
 74
               0
 49
0.1205831692913385
 74
               0
 49
-0.1205831692913385
 74
               0
  0
LTYPE
  5
35
100
AcDbSymbolTableRecord
100
AcDbLinetypeTableRecord
  2
STYLE_12
 70
               0
  3

 72
              65
 73
               4
 40
3.6300000000000003
 49
2.2687500000000007
 74
               0
 49
-0.45375
 74
               0
 49
0.45375
 74
               0
 49
-0.45375
 74
               0
  0
LTYPE
  5
36
100
AcDbSymbolTableRecord
100
AcDbLinetypeTableRecord
  2
STYLE_13
 70
               0
  3

 72
              65
 73
               4
 40
0.2362204724409449
 49
0.1476377952755905
 74
               0
 49
-0.0295275590551181
 74
               0
 49
0.0295275590551181
 74
               0
 49
-0.0295275590551181
 74
               0
  0
LTYPE
  5
37
100
AcDbSymbolTableRecord
100
AcDbLinetypeTableRecord
  2
STYLE_14
 70
               0
  3

 72
              65
 73
               4
 40
0.5456692913385829
 49
0.3410433070866142
 74
               0
 49
-0.0682086614173229
 74
               0
 49
0.0682086614173229
 74
               0
 49
-0.0682086614173229
 74
               0
  0
ENDTAB
  0
TABLE
  2
LAYER
  5
2
100
AcDbSymbolTable
 70
              11
  0
LAYER
  5
14
100
AcDbSymbolTableRecord
100
AcDbLayerTableRecord
  2
0
 70
               0
 62
               7
  6
Continuous
290
               1
370
              15
390
1D
  0
LAYER
  5
38
100
AcDbSymbolTableRecord
100
AcDbLayerTableRecord
  2
一般
 70
               0
 62
               7
  6
Continuous
290
               1
370
               5
390
1D
  0
LAYER
  5
39
100
AcDbSymbolTableRecord
100
AcDbLayerTableRecord
  2
寸法
 70
               0
 62
               7
  6
Continuous
290
               1
370
               5
390
1D
  0
LAYER
  5
3A
100
AcDbSymbolTableRecord
100
AcDbLayerTableRecord
  2
dim
 70
               0
 62
               7
  6
Continuous
290
               1
370
              15
390
1D
  0
LAYER
  5
3B
100
AcDbSymbolTableRecord
100
AcDbLayerTableRecord
  2
HATCH
 70
               0
 62
               7
  6
Continuous
290
               1
370
              15
390
1D
  0
LAYER
  5
3C
100
AcDbSymbolTableRecord
100
AcDbLayerTableRecord
  2
DEFAULT_1
 70
               0
 62
               7
  6
STYLE_11
290
               1
370
              15
390
1D
  0
LAYER
  5
3D
100
AcDbSymbolTableRecord
100
AcDbLayerTableRecord
  2
LAYER1
 70
               0
 62
               7
  6
Continuous
290
               1
370
              15
390
1D
  0
LAYER
  5
3E
100
AcDbSymbolTableRecord
100
AcDbLayerTableRecord
  2
DEFAULT
 70
               0
 62
               7
  6
Continuous
290
               1
370
              15
390
1D
  0
LAYER
  5
3F
100
AcDbSymbolTableRecord
100
AcDbLayerTableRecord
  2
center
 70
               0
 62
               1
  6
STYLE_13
290
               1
370
              15
390
1D
  0
LAYER
  5
40
100
AcDbSymbolTableRecord
100
AcDbLayerTableRecord
  2
1
 70
               0
 62
               7
  6
Continuous
290
               1
370
              15
390
1D
  0
LAYER
  5
41
100
AcDbSymbolTableRecord
100
AcDbLayerTableRecord
  2
排水
 70
               0
 62
               7
  6
Continuous
290
               1
370
              15
390
1D
  0
ENDTAB
  0
TABLE
  2
STYLE
  5
3
100
AcDbSymbolTable
 70
               2
  0
STYLE
  5
17
100
AcDbSymbolTableRecord
100
AcDbTextStyleTableRecord
  2
Standard
 70
               0
 40
0.0
 41
1.0
 50
0.0
 71
               0
 42
0.0
  3
txt
  4
BIGFONT.SHX
  0
STYLE
  5
29
100
AcDbSymbolTableRecord
100
AcDbTextStyleTableRecord
  2
ＭＳ ゴシック
 70
               0
 40
0.0
 41
1.0
 50
0.0
 71
               0
 42
0.0
  3

  4
ＭＳ ゴシック
1001
ACAD
1000
ＭＳ ゴシック
1071
        0
  0
ENDTAB
  0
TABLE
  2
VIEW
  5
5
100
AcDbSymbolTable
 70
               0
  0
ENDTAB
  0
TABLE
  2
UCS
  5
6
100
AcDbSymbolTable
 70
               0
  0
ENDTAB
  0
TABLE
  2
APPID
  5
8
100
AcDbSymbolTable
 70
               1
  0
APPID
  5
16
100
AcDbSymbolTableRecord
100
AcDbRegAppTableRecord
  2
ACAD
 70
               0
  0
ENDTAB
  0
TABLE
  2
DIMSTYLE
  5
9
100
AcDbSymbolTable
 70
               1
100
AcDbDimStyleTable
 71
               0
  0
DIMSTYLE
105
18
100
AcDbSymbolTableRecord
100
AcDbDimStyleTableRecord
  2
Standard
 70
               0
  3

  4

 40
1.0
 41
0.18
 42
0.0625
 43
0.38
 44
0.18
 45
0.0
 46
0.0
 47
0.0
 48
0.0
 71
               0
 72
               0
 73
               1
 74
               1
 75
               0
 76
               0
 77
               0
 78
               0
 79
               0
140
0.18
141
0.09
142
0.0
143
25.399999999999999
144
1.0
145
0.0
146
1.0
147
0.09
148
0.0
170
               0
171
               2
172
               0
173
               0
174
               0
175
               0
176
               0
177
               0
178
               0
179
               0
271
               4
272
               4
273
               2
274
               2
275
               0
276
               0
277
               2
278
              46
279
               0
280
               0
281
               0
282
               0
283
               1
284
               0
285
               0
286
               0
288
               0
340
17
341
0
342
0
343
0
344
0
371
              -2
372
              -2
  0
ENDTAB
  0
TABLE
  2
BLOCK_RECORD
  5
1
100
AcDbSymbolTable
 70
               5
  0
BLOCK_RECORD
  5
A
100
AcDbSymbolTableRecord
100
AcDbBlockTableRecord
  2
*MODEL_SPACE
340
20
  0
BLOCK_RECORD
  5
B
100
AcDbSymbolTableRecord
100
AcDbBlockTableRecord
  2
*PAPER_SPACE
340
21
  0
BLOCK_RECORD
  5
24
100
AcDbSymbolTableRecord
100
AcDbBlockTableRecord
  2
グループ
340
0
102
{BLKREFS
331
57
102
}
  0
BLOCK_RECORD
  5
25
100
AcDbSymbolTableRecord
100
AcDbBlockTableRecord
  2
1_10
340
0
102
{BLKREFS
331
66
102
}
  0
BLOCK_RECORD
  5
26
100
AcDbSymbolTableRecord
100
AcDbBlockTableRecord
  2
グループ-1
340
0
102
{BLKREFS
331
67
102
}
  0
BLOCK_RECORD
  5
27
100
AcDbSymbolTableRecord
100
AcDbBlockTableRecord
  2
グループ-2
340
0
102
{BLKREFS
331
68
102
}
  0
BLOCK_RECORD
  5
28
100
AcDbSymbolTableRecord
100
AcDbBlockTableRecord
  2
グループ-3
340
0
102
{BLKREFS
331
327
102
}
  0
ENDTAB
  0
ENDSEC
  0
SECTION
  2
BLOCKS
  0
BLOCK
  5
D
100
AcDbEntity
  8
0
100
AcDbBlockBegin
  2
*MODEL_SPACE
 70
               0
 10
0.0
 20
0.0
 30
0.0
  3
*MODEL_SPACE
  1

  0
ENDBLK
  5
E
100
AcDbEntity
  8
0
100
AcDbBlockEnd
  0
BLOCK
  5
F
100
AcDbEntity
 67
               1
  8
0
100
AcDbBlockBegin
  2
*PAPER_SPACE
 70
               0
 10
0.0
 20
0.0
 30
0.0
  3
*PAPER_SPACE
  1

  0
ENDBLK
  5
10
100
AcDbEntity
 67
               1
  8
0
100
AcDbBlockEnd
  0
BLOCK
  5
42
100
AcDbEntity
  8
一般
100
AcDbBlockBegin
  2
グループ
 70
               0
 10
0.0
 20
0.0
 30
0.0
  3
グループ
  1

  0
LINE
  5
43
100
AcDbEntity
  8
一般
370
              15
  6
Continuous
 62
               9
100
AcDbLine
 10
-33.119899627550922
 20
-0.8608946790423033
 30
0.0
 11
-33.119899627550922
 21
-20.860894679042303
 31
0.0
  0
POLYLINE
  5
44
100
AcDbEntity
  8
一般
370
              15
  6
Continuous
 62
               9
100
AcDb2dPolyline
 66
               1
 10
0.0
 20
0.0
 30
0.0
 75
               5
  0
VERTEX
  5
45
100
AcDbEntity
  8
一般
370
              15
  6
Continuous
 62
               9
100
AcDbVertex
100
AcDb2dVertex
 10
-133.11989962755092
 20
-0.8608946790423033
 30
0.0
  0
VERTEX
  5
46
100
AcDbEntity
  8
一般
370
              15
  6
Continuous
 62
               9
100
AcDbVertex
100
AcDb2dVertex
 10
-133.11989962755092
 20
-20.860894679042303
 30
0.0
  0
VERTEX
  5
47
100
AcDbEntity
  8
一般
370
              15
  6
Continuous
 62
               9
100
AcDbVertex
100
AcDb2dVertex
 10
66.880100372449078
 20
-20.860894679042303
 30
0.0
  0
VERTEX
  5
48
100
AcDbEntity
  8
一般
370
              15
  6
Continuous
 62
               9
100
AcDbVertex
100
AcDb2dVertex
 10
66.880100372449078
 20
-0.8608946790423033
 30
0.0
  0
SEQEND
  5
49
100
AcDbEntity
  8
一般
370
              15
  6
Continuous
 62
               9
  0
LINE
  5
4A
100
AcDbEntity
  8
一般
370
               5
  6
Continuous
 62
               9
100
AcDbLine
 10
-113.11989962755092
 20
-5.8608946790423033
 30
0.0
 11
-113.11989962755092
 21
-20.860894679042303
 31
0.0
  0
LINE
  5
4B
100
AcDbEntity
  8
一般
370
               5
  6
Continuous
 62
               9
100
AcDbLine
 10
-93.119899627550922
 20
-5.8608946790423033
 30
0.0
 11
-93.119899627550922
 21
-20.860894679042303
 31
0.0
  0
LINE
  5
4C
100
AcDbEntity
  8
一般
370
               5
  6
Continuous
 62
               9
100
AcDbLine
 10
-73.119899627550922
 20
-5.8608946790423033
 30
0.0
 11
-73.119899627550922
 21
-20.860894679042303
 31
0.0
  0
LINE
  5
4D
100
AcDbEntity
  8
一般
370
               5
  6
Continuous
 62
               9
100
AcDbLine
 10
-53.119899627550922
 20
-5.8608946790423033
 30
0.0
 11
-53.119899627550922
 21
-20.860894679042303
 31
0.0
  0
LINE
  5
4E
100
AcDbEntity
  8
一般
370
               5
  6
Continuous
 62
               9
100
AcDbLine
 10
-13.119899627550922
 20
-5.8608946790423033
 30
0.0
 11
-13.119899627550922
 21
-20.860894679042303
 31
0.0
  0
LINE
  5
4F
100
AcDbEntity
  8
一般
370
               5
  6
Continuous
 62
               9
100
AcDbLine
 10
6.8801003724490783
 20
-5.8608946790423033
 30
0.0
 11
6.8801003724490783
 21
-20.860894679042303
 31
0.0
  0
LINE
  5
50
100
AcDbEntity
  8
一般
370
               5
  6
Continuous
 62
               9
100
AcDbLine
 10
26.880100372449078
 20
-5.8608946790423033
 30
0.0
 11
26.880100372449078
 21
-20.860894679042303
 31
0.0
  0
LINE
  5
51
100
AcDbEntity
  8
一般
370
               5
  6
Continuous
 62
               9
100
AcDbLine
 10
46.880100372449078
 20
-5.8608946790423033
 30
0.0
 11
46.880100372449078
 21
-20.860894679042303
 31
0.0
  0
MTEXT
  5
52
100
AcDbEntity
  8
一般
 62
               9
100
AcDbMText
 10
-136.88010037244908
 20
18.945972804042416
 30
0.0
 40
16.288411458333332
 41
30.0
 71
               1
 72
               1
  1
0
  7
ＭＳ ゴシック
 73
               1
 44
0.7828267384257843
  0
MTEXT
  5
53
100
AcDbEntity
  8
一般
 62
               9
100
AcDbMText
 10
-48.228066425365569
 20
17.639448705947533
 30
0.0
 40
16.288411458333332
 41
40.0
 71
               1
 72
               1
  1
100
  7
ＭＳ ゴシック
 73
               1
 44
0.7828267384257843
  0
MTEXT
  5
54
100
AcDbEntity
  8
一般
 62
               9
100
AcDbMText
 10
46.584574016184888
 20
15.866118883654512
 30
0.0
 40
16.288411458333332
 41
90.29552635626419
 71
               1
 72
               1
  1
200mm
  7
ＭＳ ゴシック
 73
               1
 44
0.7828267384257843
  0
ENDBLK
  5
55
100
AcDbEntity
  8
一般
100
AcDbBlockEnd
  0
BLOCK
  5
56
100
AcDbEntity
  8
一般
100
AcDbBlockBegin
  2
1_10
 70
               0
 10
0.0
 20
0.0
 30
0.0
  3
1_10
  1

  0
INSERT
  5
57
100
AcDbEntity
  8
一般
 62
               9
100
AcDbBlockReference
  2
グループ
 10
0.0
 20
0.0
 30
0.0
  0
ENDBLK
  5
58
100
AcDbEntity
  8
一般
100
AcDbBlockEnd
  0
BLOCK
  5
59
100
AcDbEntity
  8
一般
100
AcDbBlockBegin
  2
グループ-1
 70
               0
 10
0.0
 20
0.0
 30
0.0
  3
グループ-1
  1

  0
LINE
  5
5A
100
AcDbEntity
  8
一般
370
               5
  6
Continuous
 62
               7
100
AcDbLine
 10
41.118109161033317
 20
-1343.6053682786912
 30
0.0
 11
26.975973537301797
 21
-1357.7475039024218
 31
0.0
  0
LINE
  5
5B
100
AcDbEntity
  8
一般
370
               5
  6
Continuous
 62
               7
100
AcDbLine
 10
41.118109161033317
 20
-1357.7475039024218
 30
0.0
 11
26.975973537301797
 21
-1343.6053682786912
 31
0.0
  0
ENDBLK
  5
5C
100
AcDbEntity
  8
一般
100
AcDbBlockEnd
  0
BLOCK
  5
5D
100
AcDbEntity
  8
一般
100
AcDbBlockBegin
  2
グループ-2
 70
               0
 10
0.0
 20
0.0
 30
0.0
  3
グループ-2
  1

  0
LINE
  5
5E
100
AcDbEntity
  8
一般
370
               5
  6
Continuous
 62
               7
100
AcDbLine
 10
-697.16946632195891
 20
1057.0710678118653
 30
0.0
 11
-711.31160194568997
 21
1042.9289321881347
 31
0.0
  0
LINE
  5
5F
100
AcDbEntity
  8
一般
370
               5
  6
Continuous
 62
               7
100
AcDbLine
 10
-697.16946632195891
 20
1042.9289321881347
 30
0.0
 11
-711.31160194568997
 21
1057.0710678118653
 31
0.0
  0
ENDBLK
  5
60
100
AcDbEntity
  8
一般
100
AcDbBlockEnd
  0
BLOCK
  5
61
100
AcDbEntity
  8
一般
100
AcDbBlockBegin
  2
グループ-3
 70
               0
 10
0.0
 20
0.0
 30
0.0
  3
グループ-3
  1

  0
LINE
  5
62
100
AcDbEntity
  8
一般
370
               5
  6
Continuous
 62
               7
100
AcDbLine
 10
-697.16946632195868
 20
-1343.6053682786912
 30
0.0
 11
-711.3116019456902
 21
-1357.7475039024218
 31
0.0
  0
LINE
  5
63
100
AcDbEntity
  8
一般
370
               5
  6
Continuous
 62
               7
100
AcDbLine
 10
-697.16946632195868
 20
-1357.7475039024218
 30
0.0
 11
-711.3116019456902
 21
-1343.6053682786912
 31
0.0
  0
ENDBLK
  5
64
100
AcDbEntity
  8
一般
100
AcDbBlockEnd
  0
ENDSEC
  0
SECTION
  2
ENTITIES
  0
MTEXT
  5
65
100
AcDbEntity
  8
一般
 62
               7
100
AcDbMText
 10
1761.2324838490408
 20
2317.8846939072464
 30
0.0
 40
97.730468750000014
 41
0.0
 71
               1
 72
               1
  1
SX-5432KR
  7
ＭＳ ゴシック
 73
               1
 44
0.7828267384257843
  0
INSERT
  5
66
100
AcDbEntity
  8
一般
 62
               7
100
AcDbBlockReference
  2
1_10
 10
842.8286114407897
 20
2190.9131259477463
 30
0.0
  0
INSERT
  5
67
100
AcDbEntity
  8
一般
 62
               7
100
AcDbBlockReference
  2
グループ-1
 10
1450.0
 20
1020.0
 30
0.0
  0
INSERT
  5
68
100
AcDbEntity
  8
一般
 62
               7
100
AcDbBlockReference
  2
グループ-2
 10
1450.0
 20
1020.0
 30
0.0
  0
POLYLINE
  5
69
100
AcDbEntity
  8
一般
370
              15
  6
Continuous
 62
               7
100
AcDb2dPolyline
 66
               1
 10
0.0
 20
0.0
 30
0.0
 70
               1
 75
               5
  0
VERTEX
  5
6A
100
AcDbEntity
  8
一般
370
              15
  6
Continuous
 62
               7
100
AcDbVertex
100
AcDb2dVertex
 10
1309.4307381193112
 20
1605.4159974549748
 30
0.0
  0
VERTEX
  5
6B
100
AcDbEntity
  8
一般
370
              15
  6
Continuous
 62
               7
100
AcDbVertex
100
AcDb2dVertex
 10
1308.9977254174187
 20
1605.1659974549748
 30
0.0
  0
VERTEX
  5
6C
100
AcDbEntity
  8
一般
370
              15
  6
Continuous
 62
               7
100
AcDbVertex
100
AcDb2dVertex
 10
1310.7477254174187
 20
1602.1349085417291
 30
0.0
  0
VERTEX
  5
6D
100
AcDbEntity
  8
一般
370
              15
  6
Continuous
 62
               7
100
AcDbVertex
100
AcDb2dVertex
 10
1311.1807381193112
 20
1602.3849085417291
 30
0.0
  0
SEQEND
  5
6E
100
AcDbEntity
  8
一般
370
              15
  6
Continuous
 62
               7
  0
POLYLINE
  5
6F
100
AcDbEntity
  8
一般
370
              15
  6
Continuous
 62
               7
100
AcDb2dPolyline
 66
               1
 10
0.0
 20
0.0
 30
0.0
 70
               1
 75
               5
  0
VERTEX
  5
70
100
AcDbEntity
  8
一般
370
              15
  6
Continuous
 62
               7
100
AcDbVertex
100
AcDb2dVertex
 10
1312.6807381193112
 20
1599.786832330376
 30
0.0
  0
VERTEX
  5
71
100
AcDbEntity
  8
一般
370
              15
  6
Continuous
 62
               7
100
AcDbVertex
100
AcDb2dVertex
 10
1312.2477254174187
 20
1599.536832330376
 30
0.0
  0
VERTEX
  5
72
100
AcDbEntity
  8
一般
370
              15
  6
Continuous
 62
               7
100
AcDbVertex
100
AcDb2dVertex
 10
1313.9977254174191
 20
1596.5057434171304
 30
0.0
  0
VERTEX
  5
73
100
AcDbEntity
  8
一般
370
              15
  6
Continuous
 62
               7
100
AcDbVertex
100
AcDb2dVertex
 10
1314.4307381193112
 20
1596.7557434171304
 30
0.0
  0
SEQEND
  5
74
100
AcDbEntity
  8
一般
370
              15
  6
Continuous
 62
               7
  0
POLYLINE
  5
75
100
AcDbEntity
  8
一般
370
              15
  6
Continuous
 62
               7
100
AcDb2dPolyline
 66
               1
 10
0.0
 20
0.0
 30
0.0
 70
               1
 75
               5
  0
VERTEX
  5
76
100
AcDbEntity
  8
一般
370
              15
  6
Continuous
 62
               7
100
AcDbVertex
100
AcDb2dVertex
 10
1315.9307381193112
 20
1594.1576672057772
 30
0.0
  0
VERTEX
  5
77
100
AcDbEntity
  8
一般
370
              15
  6
Continuous
 62
               7
100
AcDbVertex
100
AcDb2dVertex
 10
1315.4977254174191
 20
1593.9076672057772
 30
0.0
  0
VERTEX
  5
78
100
AcDbEntity
  8
一般
370
              15
  6
Continuous
 62
               7
100
AcDbVertex
100
AcDb2dVertex
 10
1317.2477254174191
 20
1590.8765782925316
 30
0.0
  0
VERTEX
  5
79
100
AcDbEntity
  8
一般
370
              15
  6
Continuous
 62
               7
100
AcDbVertex
100
AcDb2dVertex
 10
1317.6807381193112
 20
1591.1265782925316
 30
0.0
  0
SEQEND
  5
7A
100
AcDbEntity
  8
一般
370
              15
  6
Continuous
 62
               7
  0
POLYLINE
  5
7B
100
AcDbEntity
  8
一般
370
              15
  6
Continuous
 62
               7
100
AcDb2dPolyline
 66
               1
 10
0.0
 20
0.0
 30
0.0
 70
               1
 75
               5
  0
VERTEX
  5
7C
100
AcDbEntity
  8
一般
370
              15
  6
Continuous
 62
               7
100
AcDbVertex
100
AcDb2dVertex
 10
1319.1807381193112
 20
1588.5285020811784
 30
0.0
  0
VERTEX
  5
7D
100
AcDbEntity
  8
一般
370
              15
  6
Continuous
 62
               7
100
AcDbVertex
100
AcDb2dVertex
 10
1318.7477254174191
 20
1588.2785020811784
 30
0.0
  0
VERTEX
  5
7E
100
AcDbEntity
  8
一般
370
              15
  6
Continuous
 62
               7
100
AcDbVertex
100
AcDb2dVertex
 10
1320.4977254174191
 20
1585.2474131679328
 30
0.0
  0
VERTEX
  5
7F
100
AcDbEntity
  8
一般
370
              15
  6
Continuous
 62
               7
100
AcDbVertex
100
AcDb2dVertex
 10
1320.9307381193112
 20
1585.4974131679328
 30
0.0
  0
SEQEND
  5
80
100
AcDbEntity
  8
一般
370
              15
  6
Continuous
 62
               7
  0
POLYLINE
  5
81
100
AcDbEntity
  8
一般
370
              15
  6
Continuous
 62
               7
100
AcDb2dPolyline
 66
               1
 10
0.0
 20
0.0
 30
0.0
 70
               1
 75
               5
  0
VERTEX
  5
82
100
AcDbEntity
  8
一般
370
              15
  6
Continuous
 62
               7
100
AcDbVertex
100
AcDb2dVertex
 10
1322.4307381193112
 20
1582.8993369565796
 30
0.0
  0
VERTEX
  5
83
100
AcDbEntity
  8
一般
370
              15
  6
Continuous
 62
               7
100
AcDbVertex
100
AcDb2dVertex
 10
1321.9977254174191
 20
1582.6493369565796
 30
0.0
  0
VERTEX
  5
84
100
AcDbEntity
  8
一般
370
              15
  6
Continuous
 62
               7
100
AcDbVertex
100
AcDb2dVertex
 10
1323.7477254174191
 20
1579.618248043334
 30
0.0
  0
VERTEX
  5
85
100
AcDbEntity
  8
一般
370
              15
  6
Continuous
 62
               7
100
AcDbVertex
100
AcDb2dVertex
 10
1324.1807381193112
 20
1579.868248043334
 30
0.0
  0
SEQEND
  5
86
100
AcDbEntity
  8
一般
370
              15
  6
Continuous
 62
               7
  0
POLYLINE
  5
87
100
AcDbEntity
  8
一般
370
              15
  6
Continuous
 62
               7
100
AcDb2dPolyline
 66
               1
 10
0.0
 20
0.0
 30
0.0
 70
               1
 75
               5
  0
VERTEX
  5
88
100
AcDbEntity
  8
一般
370
              15
  6
Continuous
 62
               7
100
AcDbVertex
100
AcDb2dVertex
 10
1325.6807381193112
 20
1577.2701718319809
 30
0.0
  0
VERTEX
  5
89
100
AcDbEntity
  8
一般
370
              15
  6
Continuous
 62
               7
100
AcDbVertex
100
AcDb2dVertex
 10
1325.2477254174191
 20
1577.0201718319809
 30
0.0
  0
VERTEX
  5
8A
100
AcDbEntity
  8
一般
370
              15
  6
Continuous
 62
               7
100
AcDbVertex
100
AcDb2dVertex
 10
1326.9977254174191
 20
1573.9890829187352
 30
0.0
  0
VERTEX
  5
8B
100
AcDbEntity
  8
一般
370
              15
  6
Continuous
 62
               7
100
AcDbVertex
100
AcDb2dVertex
 10
1327.4307381193112
 20
1574.2390829187352
 30
0.0
  0
SEQEND
  5
8C
100
AcDbEntity
  8
一般
370
              15
  6
Continuous
 62
               7
  0
POLYLINE
  5
8D
100
AcDbEntity
  8
一般
370
              15
  6
Continuous
 62
               7
100
AcDb2dPolyline
 66
               1
 10
0.0
 20
0.0
 30
0.0
 70
               1
 75
               5
  0
VERTEX
  5
8E
100
AcDbEntity
  8
一般
370
              15
  6
Continuous
 62
               7
100
AcDbVertex
100
AcDb2dVertex
 10
1328.9307381193112
 20
1571.6410067073821
 30
0.0
  0
VERTEX
  5
8F
100
AcDbEntity
  8
一般
370
              15
  6
Continuous
 62
               7
100
AcDbVertex
100
AcDb2dVertex
 10
1328.4977254174191
 20
1571.3910067073821
 30
0.0
  0
VERTEX
  5
90
100
AcDbEntity
  8
一般
370
              15
  6
Continuous
 62
               7
100
AcDbVertex
100
AcDb2dVertex
 10
1330.2477254174191
 20
1568.3599177941364
 30
0.0
  0
VERTEX
  5
91
100
AcDbEntity
  8
一般
370
              15
  6
Continuous
 62
               7
100
AcDbVertex
100
AcDb2dVertex
 10
1330.6807381193112
 20
1568.6099177941364
 30
0.0
  0
SEQEND
  5
92
100
AcDbEntity
  8
一般
370
              15
  6
Continuous
 62
               7
  0
POLYLINE
  5
93
100
AcDbEntity
  8
一般
370
              15
  6
Continuous
 62
               7
100
AcDb2dPolyline
 66
               1
 10
0.0
 20
0.0
 30
0.0
 70
               1
 75
               5
  0
VERTEX
  5
94
100
AcDbEntity
  8
一般
370
              15
  6
Continuous
 62
               7
100
AcDbVertex
100
AcDb2dVertex
 10
1332.1807381193112
 20
1566.0118415827833
 30
0.0
  0
VERTEX
  5
95
100
AcDbEntity
  8
一般
370
              15
  6
Continuous
 62
               7
100
AcDbVertex
100
AcDb2dVertex
 10
1331.7477254174191
 20
1565.7618415827833
 30
0.0
  0
VERTEX
  5
96
100
AcDbEntity
  8
一般
370
              15
  6
Continuous
 62
               7
100
AcDbVertex
100
AcDb2dVertex
 10
1333.4977254174191
 20
1562.7307526695377
 30
0.0
  0
VERTEX
  5
97
100
AcDbEntity
  8
一般
370
              15
  6
Continuous
 62
               7
100
AcDbVertex
100
AcDb2dVertex
 10
1333.9307381193112
 20
1562.9807526695377
 30
0.0
  0
SEQEND
  5
98
100
AcDbEntity
  8
一般
370
              15
  6
Continuous
 62
               7
  0
LWPOLYLINE
  5
99
100
AcDbEntity
  8
一般
370
              15
  6
Continuous
 62
               7
100
AcDbPolyline
 90
        8
 70
             128
 10
1410.0
 20
1472.0577932685765
 10
1408.2512461950014
 20
1474.2538566381122
 10
1318.7512461949996
 20
1629.2724039155264
 42
0.414213562372775
 10
1317.385220791215
 20
1629.6384293193109
 10
1301.7967635230957
 20
1620.6384293193105
 42
0.4142135623728274
 10
1301.4307381193112
 20
1619.272403915526
 10
1390.930738119313
 20
1464.2538566381122
 10
1392.5973506202313
 20
1460.0162428868482
  0
LINE
  5
9A
100
AcDbEntity
  8
一般
370
              15
  6
Continuous
 62
               7
100
AcDbLine
 10
1319.2512461949991
 20
1628.4063785117417
 30
0.0
 11
1301.9307381193112
 21
1618.4063785117414
 31
0.0
  0
SPLINE
  5
9B
100
AcDbEntity
  8
一般
370
              15
  6
Continuous
 62
               7
100
AcDbSpline
210
0.0
220
0.0
230
1.0
 70
               8
 71
               2
 72
              18
 73
              15
 74
               0
 42
0.000001
 43
0.000001
 40
0.0
 40
0.0
 40
0.0
 40
1.0
 40
1.0
 40
2.0
 40
3.0
 40
4.0
 40
5.0
 40
6.0
 40
7.0
 40
8.0
 40
9.0
 40
10.0
 40
10.0
 40
11.0
 40
11.0
 40
11.0
 10
1346.8356780626527
 20
658.4404411058631
 30
0.0
 10
1348.139792179325
 20
653.83896457103629
 30
0.0
 10
1350.334882133071
 20
651.13703042997031
 30
0.0
 10
1352.6205825876241
 20
648.32356390944346
 30
0.0
 10
1357.8991816785174
 20
648.32356390944346
 30
0.0
 10
1362.470582587624
 20
653.95049695049704
 30
0.0
 10
1365.1098821330706
 20
663.69663086838989
 30
0.0
 10
1365.1098821330706
 20
674.95049695049704
 30
0.0
 10
1362.470582587624
 20
684.69663086838989
 30
0.0
 10
1357.8991816785174
 20
690.32356390944346
 30
0.0
 10
1352.6205825876241
 20
690.32356390944346
 30
0.0
 10
1348.0491816785175
 20
684.69663086838989
 30
0.0
 10
1346.7295319057939
 20
679.82356390944346
 30
0.0
 10
1346.1550847513099
 20
677.70230453742079
 30
0.0
 10
1345.8306960139271
 20
675.43819623449849
 30
0.0
  0
ARC
  5
9C
100
AcDbEntity
  8
一般
370
              15
  6
Continuous
 62
               7
100
AcDbCircle
 10
1563.7048606342059
 20
669.72919501217166
 30
0.0
 40
231.91082357468559
100
AcDbArc
 50
174.40897688016079
 51
199.73489894319113
  0
ARC
  5
9D
100
AcDbEntity
  8
一般
370
              15
  6
Continuous
 62
               7
100
AcDbCircle
 10
1573.0942918899236
 20
669.72919501217166
 30
0.0
 40
231.91082357468559
100
AcDbArc
 50
174.40897688016079
 51
199.73489894319113
  0
LINE
  5
9E
100
AcDbEntity
  8
一般
370
              15
  6
Continuous
 62
               7
100
AcDbLine
 10
1342.2867430852475
 20
692.32356390944346
 30
0.0
 11
1345.7802970548955
 21
691.92950004386307
 31
0.0
  0
LINE
  5
9F
100
AcDbEntity
  8
一般
370
              15
  6
Continuous
 62
               7
100
AcDbLine
 10
1354.804740110183
 20
591.42018100427504
 30
0.0
 11
1357.8121402096867
 21
592.89763343168261
 31
0.0
  0
LINE
  5
A0
100
AcDbEntity
  8
一般
370
              15
  6
Continuous
 62
               7
100
AcDbLine
 10
1345.4153088544654
 20
591.42018100427504
 30
0.0
 11
1354.804740110183
 21
591.42018100427504
 31
0.0
  0
LINE
  5
A1
100
AcDbEntity
  8
一般
370
              15
  6
Continuous
 62
               7
100
AcDbLine
 10
1332.8973118295298
 20
692.32356390944346
 30
0.0
 11
1342.2867430852475
 21
692.32356390944346
 31
0.0
  0
SPLINE
  5
A2
100
AcDbEntity
  8
一般
370
              15
  6
Continuous
 62
               7
100
AcDbSpline
210
0.0
220
0.0
230
1.0
 70
               8
 71
               2
 72
              17
 73
              14
 74
               0
 42
0.000001
 43
0.000001
 40
0.0
 40
0.0
 40
0.0
 40
1.0
 40
1.0
 40
2.0
 40
3.0
 40
4.0
 40
5.0
 40
6.0
 40
7.0
 40
8.0
 40
9.0
 40
9.0
 40
10.0
 40
10.0
 40
10.0
 10
1351.025971907442
 20
680.0622486421853
 30
0.0
 10
1351.4138597306846
 20
680.7821379303598
 30
0.0
 10
1351.9533774355641
 20
681.44791956242557
 30
0.0
 10
1353.4733102251403
 20
683.32356390944346
 30
0.0
 10
1356.9834446459881
 20
683.32356390944346
 30
0.0
 10
1360.0233102251404
 20
679.57227521540767
 30
0.0
 10
1361.7783774355639
 20
673.07485260347926
 30
0.0
 10
1361.7783774355639
 20
665.57227521540767
 30
0.0
 10
1360.0233102251404
 20
659.07485260347926
 30
0.0
 10
1356.9834446459881
 20
655.32356390944346
 30
0.0
 10
1353.4733102251403
 20
655.32356390944346
 30
0.0
 10
1351.9533774355641
 20
657.19920825646136
 30
0.0
 10
1351.4601507268035
 20
657.80786535921584
 30
0.0
 10
1351.0345711494101
 20
658.56111175038882
 30
0.0
  0
ARC
  5
A3
100
AcDbEntity
  8
一般
370
              15
  6
Continuous
 62
               7
100
AcDbCircle
 10
1366.8199706670521
 20
669.32356390944346
 30
0.0
 40
19.09894621720747
100
AcDbArc
 50
133.87838400072812
 51
161.32125873372195
  0
ARC
  5
A4
100
AcDbEntity
  8
一般
370
              15
  6
Continuous
 62
               7
100
AcDbCircle
 10
1366.8199706670521
 20
669.32356390944346
 30
0.0
 40
19.098946217207477
100
AcDbArc
 50
214.7390653259171
 51
222.61243933669272
  0
SPLINE
  5
A5
100
AcDbEntity
  8
一般
370
              15
  6
Continuous
 62
               7
100
AcDbSpline
210
0.0
220
0.0
230
1.0
 70
               8
 71
               2
 72
              10
 73
               7
 74
               0
 42
0.000001
 43
0.000001
 40
0.0
 40
0.0
 40
0.0
 40
1.0
 40
1.0
 40
2.0
 40
2.0
 40
3.0
 40
3.0
 40
3.0
 10
1344.7855891029058
 20
675.44022146406451
 30
0.0
 10
1350.3027646938272
 20
675.44022146406451
 30
0.0
 10
1355.8199402847486
 20
675.44022146406451
 30
0.0
 10
1351.8184783314155
 20
666.94022146406451
 30
0.0
 10
1355.8199402847486
 20
658.44022146406451
 30
0.0
 10
1350.3781674409879
 20
658.44022146406451
 30
0.0
 10
1344.9363945972273
 20
658.44022146406451
 30
0.0
  0
ARC
  5
A6
100
AcDbEntity
  8
一般
370
              15
  6
Continuous
 62
               7
100
AcDbCircle
 10
1576.6260822613594
 20
669.72919501217166
 30
0.0
 40
231.91082357468574
100
AcDbArc
 50
174.50679136219458
 51
199.34756977591258
  0
POLYLINE
  5
A7
100
AcDbEntity
  8
一般
370
              15
  6
Continuous
 62
               7
100
AcDb2dPolyline
 66
               1
 10
0.0
 20
0.0
 30
0.0
 75
               5
  0
VERTEX
  5
A8
100
AcDbEntity
  8
一般
370
              15
  6
Continuous
 62
               7
100
AcDbVertex
100
AcDb2dVertex
 10
1344.4531333704908
 20
692.07920068002818
 30
0.0
  0
VERTEX
  5
A9
100
AcDbEntity
  8
一般
370
              15
  6
Continuous
 62
               7
100
AcDbVertex
100
AcDb2dVertex
 10
1344.4531333704908
 20
692.32356390944346
 30
0.0
  0
VERTEX
  5
AA
100
AcDbEntity
  8
一般
370
              15
  6
Continuous
 62
               7
100
AcDbVertex
100
AcDb2dVertex
 10
1366.048825258642
 20
692.32356390944346
 30
0.0
  0
VERTEX
  5
AB
100
AcDbEntity
  8
一般
370
              15
  6
Continuous
 62
               7
100
AcDbVertex
100
AcDb2dVertex
 10
1366.048825258642
 20
646.32356390944346
 30
0.0
  0
VERTEX
  5
AC
100
AcDbEntity
  8
一般
370
              15
  6
Continuous
 62
               7
100
AcDbVertex
100
AcDb2dVertex
 10
1345.8993899958741
 20
646.32356390944346
 30
0.0
  0
SEQEND
  5
AD
100
AcDbEntity
  8
一般
370
              15
  6
Continuous
 62
               7
  0
POLYLINE
  5
AE
100
AcDbEntity
  8
一般
370
              15
  6
Continuous
 62
               7
100
AcDb2dPolyline
 66
               1
 10
0.0
 20
0.0
 30
0.0
 75
               5
  0
VERTEX
  5
AF
100
AcDbEntity
  8
一般
370
              15
  6
Continuous
 62
               7
100
AcDbVertex
100
AcDb2dVertex
 10
1396.5470413491676
 20
692.32356390944346
 30
0.0
  0
VERTEX
  5
B0
100
AcDbEntity
  8
一般
370
              15
  6
Continuous
 62
               7
100
AcDbVertex
100
AcDb2dVertex
 10
1366.048825258642
 20
692.32356390944346
 30
0.0
  0
VERTEX
  5
B1
100
AcDbEntity
  8
一般
370
              15
  6
Continuous
 62
               7
100
AcDbVertex
100
AcDb2dVertex
 10
1366.048825258642
 20
646.32356390944346
 30
0.0
  0
VERTEX
  5
B2
100
AcDbEntity
  8
一般
370
              15
  6
Continuous
 62
               7
100
AcDbVertex
100
AcDb2dVertex
 10
1396.5470413491676
 20
646.32356390944346
 30
0.0
  0
SEQEND
  5
B3
100
AcDbEntity
  8
一般
370
              15
  6
Continuous
 62
               7
  0
POLYLINE
  5
B4
100
AcDbEntity
  8
一般
370
              15
  6
Continuous
 62
               7
100
AcDb2dPolyline
 66
               1
 10
0.0
 20
0.0
 30
0.0
 75
               5
  0
VERTEX
  5
B5
100
AcDbEntity
  8
一般
370
              15
  6
Continuous
 62
               7
100
AcDbVertex
100
AcDb2dVertex
 10
1396.5470413491676
 20
692.32356390944346
 30
0.0
  0
VERTEX
  5
B6
100
AcDbEntity
  8
一般
370
              15
  6
Continuous
 62
               7
100
AcDbVertex
100
AcDb2dVertex
 10
1442.5470413491676
 20
692.32356390944346
 30
0.0
  0
VERTEX
  5
B7
100
AcDbEntity
  8
一般
370
              15
  6
Continuous
 62
               7
100
AcDbVertex
100
AcDb2dVertex
 10
1442.5470413491676
 20
646.32356390944346
 30
0.0
  0
VERTEX
  5
B8
100
AcDbEntity
  8
一般
370
              15
  6
Continuous
 62
               7
100
AcDbVertex
100
AcDb2dVertex
 10
1396.5470413491676
 20
646.32356390944346
 30
0.0
  0
SEQEND
  5
B9
100
AcDbEntity
  8
一般
370
              15
  6
Continuous
 62
               7
  0
LINE
  5
BA
100
AcDbEntity
  8
一般
370
              15
  6
Continuous
 62
               7
100
AcDbLine
 10
1396.5470413491676
 20
692.32356390944346
 30
0.0
 11
1396.5470413491676
 21
646.32356390944346
 31
0.0
  0
POLYLINE
  5
BB
100
AcDbEntity
  8
一般
370
              15
  6
Continuous
 62
               7
100
AcDb2dPolyline
 66
               1
 10
0.0
 20
0.0
 30
0.0
 70
               1
 75
               5
  0
VERTEX
  5
BC
100
AcDbEntity
  8
一般
370
              15
  6
Continuous
 62
               7
100
AcDbVertex
100
AcDb2dVertex
 10
1403.0470413491676
 20
646.32356390944346
 30
0.0
  0
VERTEX
  5
BD
100
AcDbEntity
  8
一般
370
              15
  6
Continuous
 62
               7
100
AcDbVertex
100
AcDb2dVertex
 10
1426.0470413491676
 20
646.32356390944346
 30
0.0
  0
VERTEX
  5
BE
100
AcDbEntity
  8
一般
370
              15
  6
Continuous
 62
               7
100
AcDbVertex
100
AcDb2dVertex
 10
1426.0470413491676
 20
645.32356390944346
 30
0.0
  0
VERTEX
  5
BF
100
AcDbEntity
  8
一般
370
              15
  6
Continuous
 62
               7
100
AcDbVertex
100
AcDb2dVertex
 10
1403.0470413491676
 20
645.32356390944346
 30
0.0
  0
SEQEND
  5
C0
100
AcDbEntity
  8
一般
370
              15
  6
Continuous
 62
               7
  0
POLYLINE
  5
C1
100
AcDbEntity
  8
一般
370
              15
  6
Continuous
 62
               7
100
AcDb2dPolyline
 66
               1
 10
0.0
 20
0.0
 30
0.0
 70
               1
 75
               5
  0
VERTEX
  5
C2
100
AcDbEntity
  8
一般
370
              15
  6
Continuous
 62
               7
100
AcDbVertex
100
AcDb2dVertex
 10
1404.0470413491676
 20
645.32356390944346
 30
0.0
  0
VERTEX
  5
C3
100
AcDbEntity
  8
一般
370
              15
  6
Continuous
 62
               7
100
AcDbVertex
100
AcDb2dVertex
 10
1425.0470413491676
 20
645.32356390944346
 30
0.0
  0
VERTEX
  5
C4
100
AcDbEntity
  8
一般
370
              15
  6
Continuous
 62
               7
100
AcDbVertex
100
AcDb2dVertex
 10
1425.0470413491676
 20
643.32356390944346
 30
0.0
  0
VERTEX
  5
C5
100
AcDbEntity
  8
一般
370
              15
  6
Continuous
 62
               7
100
AcDbVertex
100
AcDb2dVertex
 10
1404.0470413491676
 20
643.32356390944346
 30
0.0
  0
SEQEND
  5
C6
100
AcDbEntity
  8
一般
370
              15
  6
Continuous
 62
               7
  0
POLYLINE
  5
C7
100
AcDbEntity
  8
一般
370
              15
  6
Continuous
 62
               7
100
AcDb2dPolyline
 66
               1
 10
0.0
 20
0.0
 30
0.0
 70
               1
 75
               5
  0
VERTEX
  5
C8
100
AcDbEntity
  8
一般
370
              15
  6
Continuous
 62
               7
100
AcDbVertex
100
AcDb2dVertex
 10
1405.0470413491676
 20
643.32356390944346
 30
0.0
  0
VERTEX
  5
C9
100
AcDbEntity
  8
一般
370
              15
  6
Continuous
 62
               7
100
AcDbVertex
100
AcDb2dVertex
 10
1424.0470413491676
 20
643.32356390944346
 30
0.0
  0
VERTEX
  5
CA
100
AcDbEntity
  8
一般
370
              15
  6
Continuous
 62
               7
100
AcDbVertex
100
AcDb2dVertex
 10
1424.0470413491676
 20
636.32356390944346
 30
0.0
  0
VERTEX
  5
CB
100
AcDbEntity
  8
一般
370
              15
  6
Continuous
 62
               7
100
AcDbVertex
100
AcDb2dVertex
 10
1405.0470413491676
 20
636.32356390944346
 30
0.0
  0
SEQEND
  5
CC
100
AcDbEntity
  8
一般
370
              15
  6
Continuous
 62
               7
  0
POLYLINE
  5
CD
100
AcDbEntity
  8
一般
370
              15
  6
Continuous
 62
               7
100
AcDb2dPolyline
 66
               1
 10
0.0
 20
0.0
 30
0.0
 70
               1
 75
               5
  0
VERTEX
  5
CE
100
AcDbEntity
  8
一般
370
              15
  6
Continuous
 62
               7
100
AcDbVertex
100
AcDb2dVertex
 10
1404.0422204739498
 20
642.57356390944346
 30
0.0
  0
VERTEX
  5
CF
100
AcDbEntity
  8
一般
370
              15
  6
Continuous
 62
               7
100
AcDbVertex
100
AcDb2dVertex
 10
1404.5356786215616
 20
642.88420688225256
 30
0.0
  0
VERTEX
  5
D0
100
AcDbEntity
  8
一般
370
              15
  6
Continuous
 62
               7
100
AcDbVertex
100
AcDb2dVertex
 10
1424.5310883655939
 20
643.31267994819609
 30
0.0
  0
VERTEX
  5
D1
100
AcDbEntity
  8
一般
370
              15
  6
Continuous
 62
               7
100
AcDbVertex
100
AcDb2dVertex
 10
1425.0374007051842
 20
643.02346062868423
 30
0.0
  0
VERTEX
  5
D2
100
AcDbEntity
  8
一般
370
              15
  6
Continuous
 62
               7
100
AcDbVertex
100
AcDb2dVertex
 10
1425.0566819931519
 20
642.1236671902027
 30
0.0
  0
VERTEX
  5
D3
100
AcDbEntity
  8
一般
370
              15
  6
Continuous
 62
               7
100
AcDbVertex
100
AcDb2dVertex
 10
1424.5632238455401
 20
641.8130242173936
 30
0.0
  0
VERTEX
  5
D4
100
AcDbEntity
  8
一般
370
              15
  6
Continuous
 62
               7
100
AcDbVertex
100
AcDb2dVertex
 10
1404.5678141015069
 20
641.38455115145007
 30
0.0
  0
VERTEX
  5
D5
100
AcDbEntity
  8
一般
370
              15
  6
Continuous
 62
               7
100
AcDbVertex
100
AcDb2dVertex
 10
1404.0615017619175
 20
641.67377047096193
 30
0.0
  0
SEQEND
  5
D6
100
AcDbEntity
  8
一般
370
              15
  6
Continuous
 62
               7
  0
POLYLINE
  5
D7
100
AcDbEntity
  8
一般
370
              15
  6
Continuous
 62
               7
100
AcDb2dPolyline
 66
               1
 10
0.0
 20
0.0
 30
0.0
 70
               1
 75
               5
  0
VERTEX
  5
D8
100
AcDbEntity
  8
一般
370
              15
  6
Continuous
 62
               7
100
AcDbVertex
100
AcDb2dVertex
 10
1404.0422204739498
 20
640.57356390944346
 30
0.0
  0
VERTEX
  5
D9
100
AcDbEntity
  8
一般
370
              15
  6
Continuous
 62
               7
100
AcDbVertex
100
AcDb2dVertex
 10
1404.5356786215616
 20
640.88420688225256
 30
0.0
  0
VERTEX
  5
DA
100
AcDbEntity
  8
一般
370
              15
  6
Continuous
 62
               7
100
AcDbVertex
100
AcDb2dVertex
 10
1424.5310883655939
 20
641.31267994819609
 30
0.0
  0
VERTEX
  5
DB
100
AcDbEntity
  8
一般
370
              15
  6
Continuous
 62
               7
100
AcDbVertex
100
AcDb2dVertex
 10
1425.0374007051842
 20
641.02346062868423
 30
0.0
  0
VERTEX
  5
DC
100
AcDbEntity
  8
一般
370
              15
  6
Continuous
 62
               7
100
AcDbVertex
100
AcDb2dVertex
 10
1425.0566819931519
 20
640.1236671902027
 30
0.0
  0
VERTEX
  5
DD
100
AcDbEntity
  8
一般
370
              15
  6
Continuous
 62
               7
100
AcDbVertex
100
AcDb2dVertex
 10
1424.5632238455401
 20
639.8130242173936
 30
0.0
  0
VERTEX
  5
DE
100
AcDbEntity
  8
一般
370
              15
  6
Continuous
 62
               7
100
AcDbVertex
100
AcDb2dVertex
 10
1404.5678141015069
 20
639.38455115145007
 30
0.0
  0
VERTEX
  5
DF
100
AcDbEntity
  8
一般
370
              15
  6
Continuous
 62
               7
100
AcDbVertex
100
AcDb2dVertex
 10
1404.0615017619175
 20
639.67377047096193
 30
0.0
  0
SEQEND
  5
E0
100
AcDbEntity
  8
一般
370
              15
  6
Continuous
 62
               7
  0
POLYLINE
  5
E1
100
AcDbEntity
  8
一般
370
              15
  6
Continuous
 62
               7
100
AcDb2dPolyline
 66
               1
 10
0.0
 20
0.0
 30
0.0
 70
               1
 75
               5
  0
VERTEX
  5
E2
100
AcDbEntity
  8
一般
370
              15
  6
Continuous
 62
               7
100
AcDbVertex
100
AcDb2dVertex
 10
1404.0422204739498
 20
638.57356390944346
 30
0.0
  0
VERTEX
  5
E3
100
AcDbEntity
  8
一般
370
              15
  6
Continuous
 62
               7
100
AcDbVertex
100
AcDb2dVertex
 10
1404.5356786215616
 20
638.88420688225256
 30
0.0
  0
VERTEX
  5
E4
100
AcDbEntity
  8
一般
370
              15
  6
Continuous
 62
               7
100
AcDbVertex
100
AcDb2dVertex
 10
1424.5310883655939
 20
639.31267994819609
 30
0.0
  0
VERTEX
  5
E5
100
AcDbEntity
  8
一般
370
              15
  6
Continuous
 62
               7
100
AcDbVertex
100
AcDb2dVertex
 10
1425.0374007051842
 20
639.02346062868423
 30
0.0
  0
VERTEX
  5
E6
100
AcDbEntity
  8
一般
370
              15
  6
Continuous
 62
               7
100
AcDbVertex
100
AcDb2dVertex
 10
1425.0566819931519
 20
638.1236671902027
 30
0.0
  0
VERTEX
  5
E7
100
AcDbEntity
  8
一般
370
              15
  6
Continuous
 62
               7
100
AcDbVertex
100
AcDb2dVertex
 10
1424.5632238455401
 20
637.8130242173936
 30
0.0
  0
VERTEX
  5
E8
100
AcDbEntity
  8
一般
370
              15
  6
Continuous
 62
               7
100
AcDbVertex
100
AcDb2dVertex
 10
1404.5678141015069
 20
637.38455115145007
 30
0.0
  0
VERTEX
  5
E9
100
AcDbEntity
  8
一般
370
              15
  6
Continuous
 62
               7
100
AcDbVertex
100
AcDb2dVertex
 10
1404.0615017619175
 20
637.67377047096193
 30
0.0
  0
SEQEND
  5
EA
100
AcDbEntity
  8
一般
370
              15
  6
Continuous
 62
               7
  0
POLYLINE
  5
EB
100
AcDbEntity
  8
一般
370
              15
  6
Continuous
 62
               7
100
AcDb2dPolyline
 66
               1
 10
0.0
 20
0.0
 30
0.0
 70
               1
 75
               5
  0
VERTEX
  5
EC
100
AcDbEntity
  8
一般
370
              15
  6
Continuous
 62
               7
100
AcDbVertex
100
AcDb2dVertex
 10
1404.0422204739498
 20
636.57356390944346
 30
0.0
  0
VERTEX
  5
ED
100
AcDbEntity
  8
一般
370
              15
  6
Continuous
 62
               7
100
AcDbVertex
100
AcDb2dVertex
 10
1404.5356786215616
 20
636.88420688225256
 30
0.0
  0
VERTEX
  5
EE
100
AcDbEntity
  8
一般
370
              15
  6
Continuous
 62
               7
100
AcDbVertex
100
AcDb2dVertex
 10
1424.5310883655939
 20
637.31267994819609
 30
0.0
  0
VERTEX
  5
EF
100
AcDbEntity
  8
一般
370
              15
  6
Continuous
 62
               7
100
AcDbVertex
100
AcDb2dVertex
 10
1425.0374007051842
 20
637.02346062868423
 30
0.0
  0
VERTEX
  5
F0
100
AcDbEntity
  8
一般
370
              15
  6
Continuous
 62
               7
100
AcDbVertex
100
AcDb2dVertex
 10
1425.0566819931519
 20
636.1236671902027
 30
0.0
  0
VERTEX
  5
F1
100
AcDbEntity
  8
一般
370
              15
  6
Continuous
 62
               7
100
AcDbVertex
100
AcDb2dVertex
 10
1424.5632238455401
 20
635.8130242173936
 30
0.0
  0
VERTEX
  5
F2
100
AcDbEntity
  8
一般
370
              15
  6
Continuous
 62
               7
100
AcDbVertex
100
AcDb2dVertex
 10
1404.5678141015069
 20
635.38455115145007
 30
0.0
  0
VERTEX
  5
F3
100
AcDbEntity
  8
一般
370
              15
  6
Continuous
 62
               7
100
AcDbVertex
100
AcDb2dVertex
 10
1404.0615017619175
 20
635.67377047096193
 30
0.0
  0
SEQEND
  5
F4
100
AcDbEntity
  8
一般
370
              15
  6
Continuous
 62
               7
  0
LWPOLYLINE
  5
F5
100
AcDbEntity
  8
一般
370
              15
  6
Continuous
 62
               7
100
AcDbPolyline
 90
        4
 70
             128
 10
1450.0470413491676
 20
653.32356390944346
 10
1442.5470413491676
 20
653.32356390944346
 10
1442.5470413491676
 20
685.32356390944346
 10
1450.0470413491676
 20
685.32356390944346
  0
LINE
  5
F6
100
AcDbEntity
  8
一般
370
              15
  6
Continuous
 62
               7
100
AcDbLine
 10
1450.0470413491676
 20
661.32356390944346
 30
0.0
 11
1442.5470413491676
 21
661.32356390944346
 31
0.0
  0
LINE
  5
F7
100
AcDbEntity
  8
一般
370
              15
  6
Continuous
 62
               7
100
AcDbLine
 10
1450.0470413491676
 20
677.32356390944346
 30
0.0
 11
1442.5470413491676
 21
677.32356390944346
 31
0.0
  0
LWPOLYLINE
  5
F8
100
AcDbEntity
  8
一般
370
              15
  6
Continuous
 62
               7
100
AcDbPolyline
 90
        5
 70
             128
 10
1450.0470413491676
 20
686.82356390944346
 10
1450.0470413491676
 20
651.82356390944346
 10
1468.0470413491676
 20
651.82356390944346
 10
1468.0470413491676
 20
686.82356390944346
 10
1450.0470413491676
 20
686.82356390944346
  0
POLYLINE
  5
F9
100
AcDbEntity
  8
一般
370
              15
  6
Continuous
 62
               7
100
AcDb2dPolyline
 66
               1
 10
0.0
 20
0.0
 30
0.0
 70
               1
 75
               5
  0
VERTEX
  5
FA
100
AcDbEntity
  8
一般
370
              15
  6
Continuous
 62
               7
100
AcDbVertex
100
AcDb2dVertex
 10
1468.0470413491676
 20
699.32356390944346
 30
0.0
  0
VERTEX
  5
FB
100
AcDbEntity
  8
一般
370
              15
  6
Continuous
 62
               7
100
AcDbVertex
100
AcDb2dVertex
 10
1484.0470413491676
 20
699.32356390944346
 30
0.0
  0
VERTEX
  5
FC
100
AcDbEntity
  8
一般
370
              15
  6
Continuous
 62
               7
100
AcDbVertex
100
AcDb2dVertex
 10
1484.0470413491676
 20
639.32356390944346
 30
0.0
  0
VERTEX
  5
FD
100
AcDbEntity
  8
一般
370
              15
  6
Continuous
 62
               7
100
AcDbVertex
100
AcDb2dVertex
 10
1468.0470413491676
 20
639.32356390944346
 30
0.0
  0
SEQEND
  5
FE
100
AcDbEntity
  8
一般
370
              15
  6
Continuous
 62
               7
  0
LWPOLYLINE
  5
FF
100
AcDbEntity
  8
一般
370
              15
  6
Continuous
 62
               7
100
AcDbPolyline
 90
        5
 70
             128
 10
876.20141007112579
 20
1444.0162428868482
 10
940.42441542676352
 20
620.33155431419777
 42
-0.4371925050647508
 10
850.38642961822961
 20
523.0
 10
848.21998016433736
 20
523.0
 42
-0.414213562373095
 10
752.75946586617556
 20
618.4605142981618
 42
-0.414213562373095
  0
LINE
  5
100
100
AcDbEntity
  8
一般
370
              15
  6
Continuous
 62
               7
100
AcDbLine
 10
874.13384954846242
 20
1470.5334999940915
 30
0.0
 11
874.13371188952715
 21
1470.5352655227618
 31
0.0
  0
POLYLINE
  5
101
100
AcDbEntity
  8
一般
370
              15
  6
Continuous
 62
               7
100
AcDb2dPolyline
 66
               1
 10
0.0
 20
0.0
 30
0.0
 75
               5
  0
VERTEX
  5
102
100
AcDbEntity
  8
一般
370
              15
  6
Continuous
 62
               7
100
AcDbVertex
100
AcDb2dVertex
 10
888.23783107846702
 20
1444.0162428868482
 30
0.0
  0
VERTEX
  5
103
100
AcDbEntity
  8
一般
370
              15
  6
Continuous
 62
               7
100
AcDbVertex
100
AcDb2dVertex
 10
952.43620483753875
 20
620.6474639922717
 30
0.0
  0
VERTEX
  5
104
100
AcDbEntity
  8
一般
370
              15
  6
Continuous
 62
               7
100
AcDbVertex
100
AcDb2dVertex
 10
951.92071554410541
 20
600.21625546689165
 30
0.0
  0
VERTEX
  5
105
100
AcDbEntity
  8
一般
370
              15
  6
Continuous
 62
               7
100
AcDbVertex
100
AcDb2dVertex
 10
947.09287852645411
 20
579.7173147575113
 30
0.0
  0
VERTEX
  5
106
100
AcDbEntity
  8
一般
370
              15
  6
Continuous
 62
               7
100
AcDbVertex
100
AcDb2dVertex
 10
938.17268511061957
 20
560.63997925436024
 30
0.0
  0
VERTEX
  5
107
100
AcDbEntity
  8
一般
370
              15
  6
Continuous
 62
               7
100
AcDbVertex
100
AcDb2dVertex
 10
925.53761385165762
 20
543.79155040308069
 30
0.0
  0
VERTEX
  5
108
100
AcDbEntity
  8
一般
370
              15
  6
Continuous
 62
               7
100
AcDbVertex
100
AcDb2dVertex
 10
909.7223469273531
 20
529.88500832430827
 30
0.0
  0
VERTEX
  5
109
100
AcDbEntity
  8
一般
370
              15
  6
Continuous
 62
               7
100
AcDbVertex
100
AcDb2dVertex
 10
891.39614382884793
 20
519.50884041568042
 30
0.0
  0
VERTEX
  5
10A
100
AcDbEntity
  8
一般
370
              15
  6
Continuous
 62
               7
100
AcDbVertex
100
AcDb2dVertex
 10
871.33452010191559
 20
513.10213815050429
 30
0.0
  0
VERTEX
  5
10B
100
AcDbEntity
  8
一般
370
              15
  6
Continuous
 62
               7
100
AcDbVertex
100
AcDb2dVertex
 10
851.00520564678936
 20
511.0
 30
0.0
  0
VERTEX
  5
10C
100
AcDbEntity
  8
一般
370
              15
  6
Continuous
 62
               7
100
AcDbVertex
100
AcDb2dVertex
 10
847.63045796710412
 20
511.0
 30
0.0
  0
VERTEX
  5
10D
100
AcDbEntity
  8
一般
370
              15
  6
Continuous
 62
               7
100
AcDbVertex
100
AcDb2dVertex
 10
827.24414632217486
 20
513.00787644318552
 30
0.0
  0
VERTEX
  5
10E
100
AcDbEntity
  8
一般
370
              15
  6
Continuous
 62
               7
100
AcDbVertex
100
AcDb2dVertex
 10
807.07440201118243
 20
519.12630148913286
 30
0.0
  0
VERTEX
  5
10F
100
AcDbEntity
  8
一般
370
              15
  6
Continuous
 62
               7
100
AcDbVertex
100
AcDb2dVertex
 10
788.48585919391098
 20
529.06208462606355
 30
0.0
  0
VERTEX
  5
110
100
AcDbEntity
  8
一般
370
              15
  6
Continuous
 62
               7
100
AcDbVertex
100
AcDb2dVertex
 10
772.19286514625128
 20
542.43339928007526
 30
0.0
  0
VERTEX
  5
111
100
AcDbEntity
  8
一般
370
              15
  6
Continuous
 62
               7
100
AcDbVertex
100
AcDb2dVertex
 10
758.82155049223911
 20
558.72639332773451
 30
0.0
  0
VERTEX
  5
112
100
AcDbEntity
  8
一般
370
              15
  6
Continuous
 62
               7
100
AcDbVertex
100
AcDb2dVertex
 10
748.88576735530933
 20
577.31493614500687
 30
0.0
  0
VERTEX
  5
113
100
AcDbEntity
  8
一般
370
              15
  6
Continuous
 62
               7
100
AcDbVertex
100
AcDb2dVertex
 10
742.76734230936108
 20
597.48468045599884
 30
0.0
  0
VERTEX
  5
114
100
AcDbEntity
  8
一般
370
              15
  6
Continuous
 62
               7
100
AcDbVertex
100
AcDb2dVertex
 10
740.81724914610913
 20
617.28430861420748
 30
0.0
  0
SEQEND
  5
115
100
AcDbEntity
  8
一般
370
              15
  6
Continuous
 62
               7
  0
LINE
  5
116
100
AcDbEntity
  8
一般
370
              15
  6
Continuous
 62
               7
100
AcDbLine
 10
885.98571579099143
 20
1472.9004856737065
 30
0.0
 11
885.98569159314093
 21
1472.9007960204244
 31
0.0
  0
ARC
  5
117
100
AcDbEntity
  8
一般
370
              15
  6
Continuous
 62
               7
100
AcDbCircle
 10
820.95663089946538
 20
669.32356390944346
 30
0.0
 40
29.999999999999936
100
AcDbArc
 50
230.05549481018559
 51
309.94450518977015
  0
ARC
  5
118
100
AcDbEntity
  8
一般
370
              15
  6
Continuous
 62
               7
100
AcDbCircle
 10
820.95663089946538
 20
669.32356390944346
 30
0.0
 40
30.000000000000064
100
AcDbArc
 50
18.447275755529947
 51
18.448008131119224
  0
ARC
  5
119
100
AcDbEntity
  8
一般
370
              15
  6
Continuous
 62
               7
100
AcDbCircle
 10
820.95663089946538
 20
669.32356390944346
 30
0.0
 40
29.999999999999893
100
AcDbArc
 50
50.055494810185529
 51
129.94450518981446
  0
ARC
  5
11A
100
AcDbEntity
  8
一般
370
              15
  6
Continuous
 62
               7
100
AcDbCircle
 10
670.95663089946629
 20
669.32356390944346
 30
0.0
 40
30.0
100
AcDbArc
 50
146.44269023807931
 51
213.55730976192072
  0
ARC
  5
11B
100
AcDbEntity
  8
一般
370
              15
  6
Continuous
 62
               7
100
AcDbCircle
 10
670.95663089946629
 20
669.32356390944346
 30
0.0
 40
29.999999999999954
100
AcDbArc
 50
230.05549481009277
 51
309.94450518986082
  0
ARC
  5
11C
100
AcDbEntity
  8
一般
370
              15
  6
Continuous
 62
               7
100
AcDbCircle
 10
670.95663089946629
 20
669.32356390944346
 30
0.0
 40
30.000000000000185
100
AcDbArc
 50
50.05549481013955
 51
129.94450518986059
  0
POLYLINE
  5
11D
100
AcDbEntity
  8
一般
370
              15
  6
Continuous
 62
               7
100
AcDb2dPolyline
 66
               1
 10
0.0
 20
0.0
 30
0.0
 70
               1
 75
               5
  0
VERTEX
  5
11E
100
AcDbEntity
  8
一般
370
              15
  6
Continuous
 62
               7
100
AcDbVertex
100
AcDb2dVertex
 10
817.95663089946538
 20
692.32356390944346
 30
0.0
  0
VERTEX
  5
11F
100
AcDbEntity
  8
一般
370
              15
  6
Continuous
 62
               7
100
AcDbVertex
100
AcDb2dVertex
 10
645.95663089946629
 20
692.32356390944346
 30
0.0
  0
VERTEX
  5
120
100
AcDbEntity
  8
一般
370
              15
  6
Continuous
 62
               7
100
AcDbVertex
100
AcDb2dVertex
 10
645.95663089946629
 20
646.32356390944346
 30
0.0
  0
VERTEX
  5
121
100
AcDbEntity
  8
一般
370
              15
  6
Continuous
 62
               7
100
AcDbVertex
100
AcDb2dVertex
 10
817.95663089946538
 20
646.32356390944346
 30
0.0
  0
SEQEND
  5
122
100
AcDbEntity
  8
一般
370
              15
  6
Continuous
 62
               7
  0
POLYLINE
  5
123
100
AcDbEntity
  8
一般
370
              15
  6
Continuous
 62
               7
100
AcDb2dPolyline
 66
               1
 10
0.0
 20
0.0
 30
0.0
 70
               1
 75
               5
  0
VERTEX
  5
124
100
AcDbEntity
  8
一般
370
              15
  6
Continuous
 62
               7
100
AcDbVertex
100
AcDb2dVertex
 10
817.95663089946538
 20
692.32356390944346
 30
0.0
  0
VERTEX
  5
125
100
AcDbEntity
  8
一般
370
              15
  6
Continuous
 62
               7
100
AcDbVertex
100
AcDb2dVertex
 10
845.65545310383277
 20
692.32356390944346
 30
0.0
  0
VERTEX
  5
126
100
AcDbEntity
  8
一般
370
              15
  6
Continuous
 62
               7
100
AcDbVertex
100
AcDb2dVertex
 10
845.65545310383277
 20
646.32356390944346
 30
0.0
  0
VERTEX
  5
127
100
AcDbEntity
  8
一般
370
              15
  6
Continuous
 62
               7
100
AcDbVertex
100
AcDb2dVertex
 10
817.95663089946538
 20
646.32356390944346
 30
0.0
  0
SEQEND
  5
128
100
AcDbEntity
  8
一般
370
              15
  6
Continuous
 62
               7
  0
POLYLINE
  5
129
100
AcDbEntity
  8
一般
370
              15
  6
Continuous
 62
               7
100
AcDb2dPolyline
 66
               1
 10
0.0
 20
0.0
 30
0.0
 75
               5
  0
VERTEX
  5
12A
100
AcDbEntity
  8
一般
370
              15
  6
Continuous
 62
               7
100
AcDbVertex
100
AcDb2dVertex
 10
866.44836615853092
 20
646.32356390944346
 30
0.0
  0
VERTEX
  5
12B
100
AcDbEntity
  8
一般
370
              15
  6
Continuous
 62
               7
100
AcDbVertex
100
AcDb2dVertex
 10
845.65545310383277
 20
646.32356390944346
 30
0.0
  0
VERTEX
  5
12C
100
AcDbEntity
  8
一般
370
              15
  6
Continuous
 62
               7
100
AcDbVertex
100
AcDb2dVertex
 10
845.65545310383277
 20
692.32356390944346
 30
0.0
  0
VERTEX
  5
12D
100
AcDbEntity
  8
一般
370
              15
  6
Continuous
 62
               7
100
AcDbVertex
100
AcDb2dVertex
 10
886.27104237534331
 20
692.32356390944346
 30
0.0
  0
VERTEX
  5
12E
100
AcDbEntity
  8
一般
370
              15
  6
Continuous
 62
               7
100
AcDbVertex
100
AcDb2dVertex
 10
886.27104237534331
 20
646.32356390944346
 30
0.0
  0
VERTEX
  5
12F
100
AcDbEntity
  8
一般
370
              15
  6
Continuous
 62
               7
100
AcDbVertex
100
AcDb2dVertex
 10
884.12788860979344
 20
646.32356390944346
 30
0.0
  0
SEQEND
  5
130
100
AcDbEntity
  8
一般
370
              15
  6
Continuous
 62
               7
  0
SPLINE
  5
131
100
AcDbEntity
  8
一般
370
              15
  6
Continuous
 62
               7
100
AcDbSpline
210
0.0
220
0.0
230
1.0
 70
               8
 71
               2
 72
              14
 73
              11
 74
               0
 42
0.000001
 43
0.000001
 40
0.0
 40
0.0
 40
0.0
 40
1.0
 40
1.0
 40
2.0
 40
3.0
 40
4.0
 40
5.0
 40
6.0
 40
7.0
 40
8.0
 40
8.0
 40
8.0
 10
866.53837397201551
 20
648.33306286311904
 30
0.0
 10
866.26731944875519
 20
648.32356390944346
 30
0.0
 10
865.96324773958804
 20
648.32356390944346
 30
0.0
 10
860.99279021999064
 20
648.32356390944346
 30
0.0
 10
852.38370525918526
 20
653.95049695049715
 30
0.0
 10
847.41324773958786
 20
663.69663086838978
 30
0.0
 10
847.41324773958786
 20
674.95049695049715
 30
0.0
 10
852.38370525918526
 20
684.69663086838978
 30
0.0
 10
860.99279021999064
 20
690.32356390944346
 30
0.0
 10
866.17473803003577
 20
690.32356390944346
 30
0.0
 10
866.62650203414341
 20
690.3101362449454
 30
0.0
  0
SPLINE
  5
132
100
AcDbEntity
  8
一般
370
              15
  6
Continuous
 62
               7
100
AcDbSpline
210
0.0
220
0.0
230
1.0
 70
               8
 71
               2
 72
              14
 73
              11
 74
               0
 42
0.000001
 43
0.000001
 40
0.0
 40
0.0
 40
0.0
 40
1.0
 40
1.0
 40
2.0
 40
3.0
 40
4.0
 40
5.0
 40
6.0
 40
7.0
 40
8.0
 40
8.0
 40
8.0
 10
866.85116550639941
 20
655.35794594572485
 30
0.0
 10
866.41665568531698
 20
655.32356390944346
 30
0.0
 10
865.96324773958804
 20
655.32356390944346
 30
0.0
 10
862.65407521306406
 20
655.32356390944346
 30
0.0
 10
856.92242026611257
 20
659.07485260347926
 30
0.0
 10
853.61324773958768
 20
665.57227521540767
 30
0.0
 10
853.61324773958768
 20
673.07485260347926
 30
0.0
 10
856.92242026611257
 20
679.57227521540767
 30
0.0
 10
862.65407521306406
 20
683.32356390944346
 30
0.0
 10
866.42101716599882
 20
683.32356390944346
 30
0.0
 10
866.88905554571556
 20
683.28417107463542
 30
0.0
  0
SPLINE
  5
133
100
AcDbEntity
  8
一般
370
              15
  6
Continuous
 62
               7
100
AcDbSpline
210
0.0
220
0.0
230
1.0
 70
               8
 71
               2
 72
              10
 73
               7
 74
               0
 42
0.000001
 43
0.000001
 40
0.0
 40
0.0
 40
0.0
 40
1.0
 40
1.0
 40
2.0
 40
2.0
 40
3.0
 40
3.0
 40
3.0
 10
867.05120787429132
 20
675.44022146406428
 30
0.0
 10
863.98099759353545
 20
675.44022146406428
 30
0.0
 10
860.91078731277958
 20
675.44022146406428
 30
0.0
 10
863.13752985970677
 20
666.94022146406451
 30
0.0
 10
860.91078731277867
 20
658.44022146406451
 30
0.0
 10
863.93903730321699
 20
658.44022146406451
 30
0.0
 10
866.96728729365532
 20
658.44022146406451
 30
0.0
  0
ARC
  5
134
100
AcDbEntity
  8
一般
370
              15
  6
Continuous
 62
               7
100
AcDbCircle
 10
457.05070450676158
 20
669.82741993193963
 30
0.0
 40
427.72345321399035
100
AcDbArc
 50
349.43721165877014
 51
3.0148664678409318
  0
ARC
  5
135
100
AcDbEntity
  8
一般
370
              15
  6
Continuous
 62
               7
100
AcDbCircle
 10
439.97818563118926
 20
669.82741993193963
 30
0.0
 40
427.72345321399075
100
AcDbArc
 50
2.6625582875815099
 51
3.0148664678409451
  0
ARC
  5
136
100
AcDbEntity
  8
一般
370
              15
  6
Continuous
 62
               7
100
AcDbCircle
 10
439.97818563118926
 20
669.82741993193963
 30
0.0
 40
427.72345321399121
100
AcDbArc
 50
349.4372116587702
 51
2.6625582875814757
  0
ARC
  5
137
100
AcDbEntity
  8
一般
370
              15
  6
Continuous
 62
               7
100
AcDbCircle
 10
439.37118205549905
 20
669.82741993193963
 30
0.0
 40
427.72345321399081
100
AcDbArc
 50
2.7479973924891938
 51
2.9620120186501402
  0
ARC
  5
138
100
AcDbEntity
  8
一般
370
              15
  6
Continuous
 62
               7
100
AcDbCircle
 10
439.37118205549905
 20
669.82741993193963
 30
0.0
 40
427.72345321399104
100
AcDbArc
 50
1.80424987671013
 51
2.7479973924891938
  0
ARC
  5
139
100
AcDbEntity
  8
一般
370
              15
  6
Continuous
 62
               7
100
AcDbCircle
 10
439.37118205549905
 20
669.82741993193963
 30
0.0
 40
427.72345321399024
100
AcDbArc
 50
358.06151858059536
 51
1.8042498767101733
  0
ARC
  5
13A
100
AcDbEntity
  8
一般
370
              15
  6
Continuous
 62
               7
100
AcDbCircle
 10
439.37118205549905
 20
669.82741993193963
 30
0.0
 40
427.72345321399104
100
AcDbArc
 50
357.11612097597344
 51
358.06151858059536
  0
ARC
  5
13B
100
AcDbEntity
  8
一般
370
              15
  6
Continuous
 62
               7
100
AcDbCircle
 10
439.37118205549905
 20
669.82741993193963
 30
0.0
 40
427.72345321399092
100
AcDbArc
 50
349.63847010329118
 51
357.11612097597344
  0
LINE
  5
13C
100
AcDbEntity
  8
一般
370
              15
  6
Continuous
 62
               7
100
AcDbLine
 10
867.10963604832341
 20
692.32356390944346
 30
0.0
 11
866.52320306671663
 21
691.92953239507301
 31
0.0
  0
LINE
  5
13D
100
AcDbEntity
  8
一般
370
              15
  6
Continuous
 62
               7
100
AcDbLine
 10
867.10963604832341
 20
692.32356390944346
 30
0.0
 11
884.18215492389481
 21
692.32356390944346
 31
0.0
  0
LINE
  5
13E
100
AcDbEntity
  8
一般
370
              15
  6
Continuous
 62
               7
100
AcDbLine
 10
860.4536989646549
 20
591.42018100427504
 30
0.0
 11
877.52621784022631
 21
591.42018100427504
 31
0.0
  0
POLYLINE
  5
13F
100
AcDbEntity
  8
一般
370
              15
  6
Continuous
 62
               7
100
AcDb2dPolyline
 66
               1
 10
0.0
 20
0.0
 30
0.0
 70
               1
 75
               5
  0
VERTEX
  5
140
100
AcDbEntity
  8
一般
370
              15
  6
Continuous
 62
               7
100
AcDbVertex
100
AcDb2dVertex
 10
734.45663089946629
 20
646.32356390944346
 30
0.0
  0
VERTEX
  5
141
100
AcDbEntity
  8
一般
370
              15
  6
Continuous
 62
               7
100
AcDbVertex
100
AcDb2dVertex
 10
757.45663089946629
 20
646.32356390944346
 30
0.0
  0
VERTEX
  5
142
100
AcDbEntity
  8
一般
370
              15
  6
Continuous
 62
               7
100
AcDbVertex
100
AcDb2dVertex
 10
757.45663089946629
 20
645.32356390944346
 30
0.0
  0
VERTEX
  5
143
100
AcDbEntity
  8
一般
370
              15
  6
Continuous
 62
               7
100
AcDbVertex
100
AcDb2dVertex
 10
734.45663089946629
 20
645.32356390944346
 30
0.0
  0
SEQEND
  5
144
100
AcDbEntity
  8
一般
370
              15
  6
Continuous
 62
               7
  0
POLYLINE
  5
145
100
AcDbEntity
  8
一般
370
              15
  6
Continuous
 62
               7
100
AcDb2dPolyline
 66
               1
 10
0.0
 20
0.0
 30
0.0
 75
               5
  0
VERTEX
  5
146
100
AcDbEntity
  8
一般
370
              15
  6
Continuous
 62
               7
100
AcDbVertex
100
AcDb2dVertex
 10
756.45663089946629
 20
644.9605142981618
 30
0.0
  0
VERTEX
  5
147
100
AcDbEntity
  8
一般
370
              15
  6
Continuous
 62
               7
100
AcDbVertex
100
AcDb2dVertex
 10
756.45663089946629
 20
645.32356390944346
 30
0.0
  0
VERTEX
  5
148
100
AcDbEntity
  8
一般
370
              15
  6
Continuous
 62
               7
100
AcDbVertex
100
AcDb2dVertex
 10
735.45663089946629
 20
645.32356390944346
 30
0.0
  0
VERTEX
  5
149
100
AcDbEntity
  8
一般
370
              15
  6
Continuous
 62
               7
100
AcDbVertex
100
AcDb2dVertex
 10
735.45663089946629
 20
644.9605142981618
 30
0.0
  0
SEQEND
  5
14A
100
AcDbEntity
  8
一般
370
              15
  6
Continuous
 62
               7
  0
POLYLINE
  5
14B
100
AcDbEntity
  8
一般
370
              15
  6
Continuous
 62
               7
100
AcDb2dPolyline
 66
               1
 10
0.0
 20
0.0
 30
0.0
 70
               1
 75
               5
  0
VERTEX
  5
14C
100
AcDbEntity
  8
一般
370
              15
  6
Continuous
 62
               7
100
AcDbVertex
100
AcDb2dVertex
 10
733.75946586617556
 20
644.9605142981618
 30
0.0
  0
VERTEX
  5
14D
100
AcDbEntity
  8
一般
370
              15
  6
Continuous
 62
               7
100
AcDbVertex
100
AcDb2dVertex
 10
757.75946586617647
 20
644.9605142981618
 30
0.0
  0
VERTEX
  5
14E
100
AcDbEntity
  8
一般
370
              15
  6
Continuous
 62
               7
100
AcDbVertex
100
AcDb2dVertex
 10
757.75946586617647
 20
633.4605142981618
 30
0.0
  0
VERTEX
  5
14F
100
AcDbEntity
  8
一般
370
              15
  6
Continuous
 62
               7
100
AcDbVertex
100
AcDb2dVertex
 10
733.75946586617556
 20
633.4605142981618
 30
0.0
  0
SEQEND
  5
150
100
AcDbEntity
  8
一般
370
              15
  6
Continuous
 62
               7
  0
CIRCLE
  5
151
100
AcDbEntity
  8
一般
370
              15
  6
Continuous
 62
               7
100
AcDbCircle
 10
745.75946586617556
 20
639.2105142981618
 30
0.0
 40
5.75
  0
SPLINE
  5
152
100
AcDbEntity
  8
一般
370
              15
  6
Continuous
 62
               7
100
AcDbSpline
210
0.0
220
0.0
230
1.0
 70
               9
 71
               2
 72
              17
 73
              14
 74
               0
 42
0.000001
 43
0.000001
 40
0.0
 40
0.0
 40
0.0
 40
1.0
 40
2.0
 40
3.0
 40
4.0
 40
5.0
 40
6.0
 40
7.0
 40
8.0
 40
9.0
 40
10.0
 40
11.0
 40
12.0
 40
12.0
 40
12.0
 10
735.25946586617556
 20
644.1901603699223
 30
0.0
 10
735.95561828888219
 20
644.9605142981618
 30
0.0
 10
737.56331344346893
 20
644.9605142981618
 30
0.0
 10
738.95561828888219
 20
643.41980644168279
 30
0.0
 10
739.75946586617556
 20
640.7512221546408
 30
0.0
 10
739.75946586617556
 20
637.66980644168279
 30
0.0
 10
738.95561828888219
 20
635.0012221546408
 30
0.0
 10
737.56331344346893
 20
633.4605142981618
 30
0.0
 10
735.95561828888219
 20
633.4605142981618
 30
0.0
 10
734.56331344346893
 20
635.0012221546408
 30
0.0
 10
733.75946586617556
 20
637.66980644168279
 30
0.0
 10
733.75946586617556
 20
640.7512221546408
 30
0.0
 10
734.56331344346893
 20
643.41980644168279
 30
0.0
 10
735.25946586617556
 20
644.1901603699223
 30
0.0
  0
SPLINE
  5
153
100
AcDbEntity
  8
一般
370
              15
  6
Continuous
 62
               7
100
AcDbSpline
210
0.0
220
0.0
230
1.0
 70
               9
 71
               2
 72
              17
 73
              14
 74
               0
 42
0.000001
 43
0.000001
 40
0.0
 40
0.0
 40
0.0
 40
1.0
 40
2.0
 40
3.0
 40
4.0
 40
5.0
 40
6.0
 40
7.0
 40
8.0
 40
9.0
 40
10.0
 40
11.0
 40
12.0
 40
12.0
 40
12.0
 10
753.25946586617579
 20
644.1901603699223
 30
0.0
 10
753.95561828888253
 20
644.9605142981618
 30
0.0
 10
755.5633134434695
 20
644.9605142981618
 30
0.0
 10
756.95561828888299
 20
643.41980644168279
 30
0.0
 10
757.75946586617647
 20
640.7512221546408
 30
0.0
 10
757.75946586617647
 20
637.66980644168279
 30
0.0
 10
756.95561828888299
 20
635.0012221546408
 30
0.0
 10
755.5633134434695
 20
633.4605142981618
 30
0.0
 10
753.95561828888253
 20
633.4605142981618
 30
0.0
 10
752.56331344346904
 20
635.0012221546408
 30
0.0
 10
751.75946586617556
 20
637.66980644168279
 30
0.0
 10
751.75946586617556
 20
640.7512221546408
 30
0.0
 10
752.56331344346904
 20
643.41980644168279
 30
0.0
 10
753.25946586617579
 20
644.1901603699223
 30
0.0
  0
POLYLINE
  5
154
100
AcDbEntity
  8
一般
370
              15
  6
Continuous
 62
               7
100
AcDb2dPolyline
 66
               1
 10
0.0
 20
0.0
 30
0.0
 70
               1
 75
               5
  0
VERTEX
  5
155
100
AcDbEntity
  8
一般
370
              15
  6
Continuous
 62
               7
100
AcDbVertex
100
AcDb2dVertex
 10
738.75946586617556
 20
633.4605142981618
 30
0.0
  0
VERTEX
  5
156
100
AcDbEntity
  8
一般
370
              15
  6
Continuous
 62
               7
100
AcDbVertex
100
AcDb2dVertex
 10
752.75946586617556
 20
633.4605142981618
 30
0.0
  0
VERTEX
  5
157
100
AcDbEntity
  8
一般
370
              15
  6
Continuous
 62
               7
100
AcDbVertex
100
AcDb2dVertex
 10
752.75946586617556
 20
618.4605142981618
 30
0.0
  0
VERTEX
  5
158
100
AcDbEntity
  8
一般
370
              15
  6
Continuous
 62
               7
100
AcDbVertex
100
AcDb2dVertex
 10
738.75946586617556
 20
618.4605142981618
 30
0.0
  0
SEQEND
  5
159
100
AcDbEntity
  8
一般
370
              15
  6
Continuous
 62
               7
  0
LINE
  5
15A
100
AcDbEntity
  8
一般
370
              15
  6
Continuous
 62
               7
100
AcDbLine
 10
739.00946586617556
 20
618.4605142981618
 30
0.0
 11
752.50946586617556
 21
618.4605142981618
 31
0.0
  0
LWPOLYLINE
  5
15B
100
AcDbEntity
  8
一般
370
              15
100
AcDbPolyline
 90
        3
 70
             128
 10
850.16299534827544
 20
2019.9815639643991
 10
845.75946586617556
 20
2028.5
 10
840.74580801058528
 20
2028.5
  0
LWPOLYLINE
  5
15C
100
AcDbEntity
  8
一般
370
              15
100
AcDbPolyline
 90
        4
 70
             128
 10
810.74580801058528
 20
2028.5
 10
645.75946586617556
 20
2028.5
 10
645.75946586617556
 20
1982.5
 10
764.24580801058528
 20
1982.5
  0
LWPOLYLINE
  5
15D
100
AcDbEntity
  8
一般
370
              15
100
AcDbPolyline
 90
        4
 70
             128
 10
873.85531154934415
 20
1974.9815639643991
 10
886.07387734205395
 20
1952.0017839094749
 10
845.45828807054295
 20
1930.4060920213237
 10
821.75708921764817
 20
1974.9815639643991
  0
LINE
  5
15E
100
AcDbEntity
  8
一般
370
              15
  6
Continuous
 62
               7
100
AcDbLine
 10
853.40481640627331
 20
1934.6313360863969
 30
0.0
 11
878.12734900632358
 21
1947.7765398444017
 31
0.0
  0
ARC
  5
15F
100
AcDbEntity
  8
一般
370
              15
  6
Continuous
 62
               7
100
AcDbCircle
 10
859.50646186915355
 20
1952.9765725368516
 30
0.0
 40
19.333333333333311
100
AcDbArc
 50
251.6028189727021
 51
344.39718102729626
  0
SPLINE
  5
160
100
AcDbEntity
  8
一般
370
              15
  6
Continuous
 62
               7
100
AcDbSpline
210
0.0
220
0.0
230
1.0
 70
               8
 71
               2
 72
              10
 73
               7
 74
               0
 42
0.000001
 43
0.000001
 40
0.0
 40
0.0
 40
0.0
 40
1.0
 40
1.0
 40
2.0
 40
2.0
 40
3.0
 40
3.0
 40
3.0
 10
880.46151544672921
 20
1929.5412572021753
 30
0.0
 10
877.2096758095513
 20
1935.657078068878
 30
0.0
 10
873.95783617237339
 20
1941.772898935581
 30
0.0
 10
868.38112152935992
 20
1936.2857652429602
 30
0.0
 10
860.71362227948975
 20
1934.7308254937927
 30
0.0
 10
863.96314339733976
 20
1928.6193651277504
 30
0.0
 10
867.21266451518977
 20
1922.5079047617078
 30
0.0
  0
LINE
  5
161
100
AcDbEntity
  8
一般
370
              15
  6
Continuous
 62
               7
100
AcDbLine
 10
866.32971692233059
 20
1922.0384331989219
 30
0.0
 11
881.34446303958839
 21
1930.0107287649612
 31
0.0
  0
POLYLINE
  5
162
100
AcDbEntity
  8
一般
370
              15
  6
Continuous
 62
               7
100
AcDb2dPolyline
 66
               1
 10
0.0
 20
0.0
 30
0.0
 70
               1
 75
               5
  0
VERTEX
  5
163
100
AcDbEntity
  8
一般
370
              15
  6
Continuous
 62
               7
100
AcDbVertex
100
AcDb2dVertex
 10
864.44815178228328
 20
1922.3820608517976
 30
0.0
  0
VERTEX
  5
164
100
AcDbEntity
  8
一般
370
              15
  6
Continuous
 62
               7
100
AcDbVertex
100
AcDb2dVertex
 10
882.10710363946191
 20
1931.7714921075153
 30
0.0
  0
VERTEX
  5
165
100
AcDbEntity
  8
一般
370
              15
  6
Continuous
 62
               7
100
AcDbVertex
100
AcDb2dVertex
 10
883.98498989060545
 20
1928.2397017360797
 30
0.0
  0
VERTEX
  5
166
100
AcDbEntity
  8
一般
370
              15
  6
Continuous
 62
               7
100
AcDbVertex
100
AcDb2dVertex
 10
866.32603803342727
 20
1918.8502704803618
 30
0.0
  0
SEQEND
  5
167
100
AcDbEntity
  8
一般
370
              15
  6
Continuous
 62
               7
  0
LINE
  5
168
100
AcDbEntity
  8
一般
370
              15
  6
Continuous
 62
               7
100
AcDbLine
 10
864.44815178228328
 20
1922.3820608517976
 30
0.0
 11
858.44497111422561
 21
1933.6724016104695
 31
0.0
  0
LINE
  5
169
100
AcDbEntity
  8
一般
370
              15
  6
Continuous
 62
               7
100
AcDbLine
 10
882.10710363946191
 20
1931.7714921075153
 30
0.0
 11
876.10392297140424
 21
1943.0618328661872
 31
0.0
  0
LINE
  5
16A
100
AcDbEntity
  8
一般
370
              15
  6
Continuous
 62
               7
100
AcDbLine
 10
883.98498989060545
 20
1928.2397017360797
 30
0.0
 11
884.57669591746162
 21
1927.125151746608
 31
0.0
  0
LINE
  5
16B
100
AcDbEntity
  8
一般
370
              15
  6
Continuous
 62
               7
100
AcDbLine
 10
866.32603803342727
 20
1918.8502704803618
 30
0.0
 11
866.91247101503359
 21
1917.7473504517025
 31
0.0
  0
LINE
  5
16C
100
AcDbEntity
  8
一般
370
              15
  6
Continuous
 62
               7
100
AcDbLine
 10
866.91247101503359
 20
1917.7473504517025
 30
0.0
 11
884.57669591746162
 21
1927.1251517466083
 31
0.0
  0
LINE
  5
16D
100
AcDbEntity
  8
一般
370
              15
  6
Continuous
 62
               7
100
AcDbLine
 10
670.75946586617556
 20
2028.5
 30
0.0
 11
810.74580801058528
 21
2028.5
 31
0.0
  0
LWPOLYLINE
  5
16E
100
AcDbEntity
  8
一般
370
              15
  6
Continuous
 62
               7
100
AcDbPolyline
 90
        4
 70
             128
 10
686.75946586617556
 20
2036.0
 10
686.75946586617556
 20
2028.5
 10
654.75946586617556
 20
2028.5
 10
654.75946586617556
 20
2036.0
  0
LINE
  5
16F
100
AcDbEntity
  8
一般
370
              15
  6
Continuous
 62
               7
100
AcDbLine
 10
678.75946586617556
 20
2036.0
 30
0.0
 11
678.75946586617556
 21
2028.5
 31
0.0
  0
LINE
  5
170
100
AcDbEntity
  8
一般
370
              15
  6
Continuous
 62
               7
100
AcDbLine
 10
662.75946586617556
 20
2036.0
 30
0.0
 11
662.75946586617556
 21
2028.5
 31
0.0
  0
LWPOLYLINE
  5
171
100
AcDbEntity
  8
一般
370
              15
  6
Continuous
 62
               7
100
AcDbPolyline
 90
        6
 70
             128
 10
653.25946586617556
 20
2036.0
 10
688.25946586617556
 20
2036.0
 10
653.25946586617556
 20
2036.0
 10
653.25946586617556
 20
2054.0
 10
688.25946586617556
 20
2054.0
 10
688.25946586617556
 20
2036.0
  0
POLYLINE
  5
172
100
AcDbEntity
  8
一般
370
              15
  6
Continuous
 62
               7
100
AcDb2dPolyline
 66
               1
 10
0.0
 20
0.0
 30
0.0
 70
               1
 75
               5
  0
VERTEX
  5
173
100
AcDbEntity
  8
一般
370
              15
  6
Continuous
 62
               7
100
AcDbVertex
100
AcDb2dVertex
 10
640.75946586617556
 20
2070.0
 30
0.0
  0
VERTEX
  5
174
100
AcDbEntity
  8
一般
370
              15
  6
Continuous
 62
               7
100
AcDbVertex
100
AcDb2dVertex
 10
700.75946586617556
 20
2070.0
 30
0.0
  0
VERTEX
  5
175
100
AcDbEntity
  8
一般
370
              15
  6
Continuous
 62
               7
100
AcDbVertex
100
AcDb2dVertex
 10
700.75946586617556
 20
2054.0
 30
0.0
  0
VERTEX
  5
176
100
AcDbEntity
  8
一般
370
              15
  6
Continuous
 62
               7
100
AcDbVertex
100
AcDb2dVertex
 10
640.75946586617556
 20
2054.0
 30
0.0
  0
SEQEND
  5
177
100
AcDbEntity
  8
一般
370
              15
  6
Continuous
 62
               7
  0
POLYLINE
  5
178
100
AcDbEntity
  8
一般
370
              15
  6
Continuous
 62
               7
100
AcDb2dPolyline
 66
               1
 10
0.0
 20
0.0
 30
0.0
 75
               5
  0
VERTEX
  5
179
100
AcDbEntity
  8
一般
370
              15
  6
Continuous
 62
               7
100
AcDbVertex
100
AcDb2dVertex
 10
804.75946586617556
 20
2036.0
 30
0.0
  0
VERTEX
  5
17A
100
AcDbEntity
  8
一般
370
              15
  6
Continuous
 62
               7
100
AcDbVertex
100
AcDb2dVertex
 10
804.75946586617556
 20
2028.5
 30
0.0
  0
VERTEX
  5
17B
100
AcDbEntity
  8
一般
370
              15
  6
Continuous
 62
               7
100
AcDbVertex
100
AcDb2dVertex
 10
810.74580801058528
 20
2028.5
 30
0.0
  0
SEQEND
  5
17C
100
AcDbEntity
  8
一般
370
              15
  6
Continuous
 62
               7
  0
LWPOLYLINE
  5
17D
100
AcDbEntity
  8
一般
370
              15
  6
Continuous
 62
               7
100
AcDbPolyline
 90
        4
 70
             128
 10
810.74580801058528
 20
2036.0
 10
803.25946586617556
 20
2036.0
 10
803.25946586617556
 20
2054.0
 10
810.74580801058528
 20
2054.0
  0
LWPOLYLINE
  5
17E
100
AcDbEntity
  8
一般
370
              15
  6
Continuous
 62
               7
100
AcDbPolyline
 90
        6
 70
             128
 10
810.74580801058528
 20
2054.0
 10
790.75946586617556
 20
2054.0
 10
790.75946586617556
 20
2070.0
 10
850.75946586617556
 20
2070.0
 10
850.75946586617556
 20
2054.0
 10
840.74580801058528
 20
2054.0
  0
POLYLINE
  5
17F
100
AcDbEntity
  8
一般
370
              15
  6
Continuous
 62
               7
100
AcDb2dPolyline
 66
               1
 10
0.0
 20
0.0
 30
0.0
 75
               5
  0
VERTEX
  5
180
100
AcDbEntity
  8
一般
370
              15
  6
Continuous
 62
               7
100
AcDbVertex
100
AcDb2dVertex
 10
1415.0
 20
1460.0162428868482
 30
0.0
  0
VERTEX
  5
181
100
AcDbEntity
  8
一般
370
              15
  6
Continuous
 62
               7
100
AcDbVertex
100
AcDb2dVertex
 10
1415.0
 20
1690.0
 30
0.0
  0
VERTEX
  5
182
100
AcDbEntity
  8
一般
370
              15
  6
Continuous
 62
               7
100
AcDbVertex
100
AcDb2dVertex
 10
1410.0
 20
1690.0
 30
0.0
  0
VERTEX
  5
183
100
AcDbEntity
  8
一般
370
              15
  6
Continuous
 62
               7
100
AcDbVertex
100
AcDb2dVertex
 10
1410.0
 20
1460.0162428868482
 30
0.0
  0
SEQEND
  5
184
100
AcDbEntity
  8
一般
370
              15
  6
Continuous
 62
               7
  0
POLYLINE
  5
185
100
AcDbEntity
  8
一般
370
              15
  6
Continuous
 62
               7
100
AcDb2dPolyline
 66
               1
 10
0.0
 20
0.0
 30
0.0
 75
               5
  0
VERTEX
  5
186
100
AcDbEntity
  8
一般
370
              15
  6
Continuous
 62
               7
100
AcDbVertex
100
AcDb2dVertex
 10
1415.0
 20
1444.0162428868482
 30
0.0
  0
VERTEX
  5
187
100
AcDbEntity
  8
一般
370
              15
  6
Continuous
 62
               7
100
AcDbVertex
100
AcDb2dVertex
 10
1415.0
 20
1090.0
 30
0.0
  0
VERTEX
  5
188
100
AcDbEntity
  8
一般
370
              15
  6
Continuous
 62
               7
100
AcDbVertex
100
AcDb2dVertex
 10
1410.0
 20
1090.0
 30
0.0
  0
VERTEX
  5
189
100
AcDbEntity
  8
一般
370
              15
  6
Continuous
 62
               7
100
AcDbVertex
100
AcDb2dVertex
 10
1410.0
 20
1444.0162428868482
 30
0.0
  0
SEQEND
  5
18A
100
AcDbEntity
  8
一般
370
              15
  6
Continuous
 62
               7
  0
POLYLINE
  5
18B
100
AcDbEntity
  8
一般
370
              15
  6
Continuous
 62
               7
100
AcDb2dPolyline
 66
               1
 10
0.0
 20
0.0
 30
0.0
 70
               1
 75
               5
  0
VERTEX
  5
18C
100
AcDbEntity
  8
一般
370
              15
  6
Continuous
 62
               7
100
AcDbVertex
100
AcDb2dVertex
 10
1415.0
 20
1690.0
 30
0.0
  0
VERTEX
  5
18D
100
AcDbEntity
  8
一般
370
              15
  6
Continuous
 62
               7
100
AcDbVertex
100
AcDb2dVertex
 10
1485.0
 20
1690.0
 30
0.0
  0
VERTEX
  5
18E
100
AcDbEntity
  8
一般
370
              15
  6
Continuous
 62
               7
100
AcDbVertex
100
AcDb2dVertex
 10
1485.0
 20
1678.0
 30
0.0
  0
VERTEX
  5
18F
100
AcDbEntity
  8
一般
370
              15
  6
Continuous
 62
               7
100
AcDbVertex
100
AcDb2dVertex
 10
1415.0
 20
1678.0
 30
0.0
  0
SEQEND
  5
190
100
AcDbEntity
  8
一般
370
              15
  6
Continuous
 62
               7
  0
POLYLINE
  5
191
100
AcDbEntity
  8
一般
370
              15
  6
Continuous
 62
               7
100
AcDb2dPolyline
 66
               1
 10
0.0
 20
0.0
 30
0.0
 70
               1
 75
               5
  0
VERTEX
  5
192
100
AcDbEntity
  8
一般
370
              15
  6
Continuous
 62
               7
100
AcDbVertex
100
AcDb2dVertex
 10
1415.0
 20
1102.0
 30
0.0
  0
VERTEX
  5
193
100
AcDbEntity
  8
一般
370
              15
  6
Continuous
 62
               7
100
AcDbVertex
100
AcDb2dVertex
 10
1485.0
 20
1102.0
 30
0.0
  0
VERTEX
  5
194
100
AcDbEntity
  8
一般
370
              15
  6
Continuous
 62
               7
100
AcDbVertex
100
AcDb2dVertex
 10
1485.0
 20
1090.0
 30
0.0
  0
VERTEX
  5
195
100
AcDbEntity
  8
一般
370
              15
  6
Continuous
 62
               7
100
AcDbVertex
100
AcDb2dVertex
 10
1415.0
 20
1090.0
 30
0.0
  0
SEQEND
  5
196
100
AcDbEntity
  8
一般
370
              15
  6
Continuous
 62
               7
  0
LWPOLYLINE
  5
197
100
AcDbEntity
  8
一般
370
              15
  6
Continuous
 62
               7
100
AcDbPolyline
 90
        5
 70
             128
 10
1390.0
 20
1460.0162428868482
 10
1390.0
 20
1444.0162428868482
 10
1435.0
 20
1444.0162428868482
 10
1435.0
 20
1460.0162428868482
 10
1390.0
 20
1460.0162428868482
  0
LWPOLYLINE
  5
198
100
AcDbEntity
  8
一般
370
              15
  6
Continuous
 62
               7
100
AcDbPolyline
 90
        6
 70
             129
 10
860.53806883561629
 20
1654.9296697186453
 42
-0.414213562373095
 10
861.53806883561629
 20
1655.9296697186453
 10
899.53806883561629
 20
1655.9296697186453
 42
-0.414213562373095
 10
900.53806883561629
 20
1654.9296697186453
 10
900.53806883561629
 20
1460.9296697186464
 10
860.53806883561629
 20
1460.9296697186464
  0
POLYLINE
  5
199
100
AcDbEntity
  8
一般
370
              15
  6
Continuous
 62
               7
100
AcDb2dPolyline
 66
               1
 10
0.0
 20
0.0
 30
0.0
 70
               1
 75
               5
  0
VERTEX
  5
19A
100
AcDbEntity
  8
一般
370
              15
  6
Continuous
 62
               7
100
AcDbVertex
100
AcDb2dVertex
 10
860.28806883561629
 20
1462.9296697186464
 30
0.0
  0
VERTEX
  5
19B
100
AcDbEntity
  8
一般
370
              15
  6
Continuous
 62
               7
100
AcDbVertex
100
AcDb2dVertex
 10
900.78806883561629
 20
1462.9296697186464
 30
0.0
  0
VERTEX
  5
19C
100
AcDbEntity
  8
一般
370
              15
  6
Continuous
 62
               7
100
AcDbVertex
100
AcDb2dVertex
 10
900.78806883561629
 20
1460.9296697186464
 30
0.0
  0
VERTEX
  5
19D
100
AcDbEntity
  8
一般
370
              15
  6
Continuous
 62
               7
100
AcDbVertex
100
AcDb2dVertex
 10
860.28806883561629
 20
1460.9296697186464
 30
0.0
  0
SEQEND
  5
19E
100
AcDbEntity
  8
一般
370
              15
  6
Continuous
 62
               7
  0
SPLINE
  5
19F
100
AcDbEntity
  8
一般
370
              15
  6
Continuous
 62
               7
100
AcDbSpline
210
0.0
220
0.0
230
1.0
 70
               8
 71
               2
 72
               6
 73
               3
 74
               0
 42
0.000001
 43
0.000001
 40
0.0
 40
0.0
 40
0.0
 40
1.0
 40
1.0
 40
1.0
 10
872.53806883561629
 20
1460.9296697186464
 30
0.0
 10
872.53806883561629
 20
1469.8119312436806
 30
0.0
 10
876.53806883561629
 20
1474.6428798564402
 30
0.0
  0
SPLINE
  5
1A0
100
AcDbEntity
  8
一般
370
              15
  6
Continuous
 62
               7
100
AcDbSpline
210
0.0
220
0.0
230
1.0
 70
               8
 71
               2
 72
               6
 73
               3
 74
               0
 42
0.000001
 43
0.000001
 40
0.0
 40
0.0
 40
0.0
 40
1.0
 40
1.0
 40
1.0
 10
888.53806883561629
 20
1460.9296697186464
 30
0.0
 10
888.53806883561629
 20
1470.2562777777489
 30
0.0
 10
884.53806883561629
 20
1474.9921697186464
 30
0.0
  0
POLYLINE
  5
1A1
100
AcDbEntity
  8
一般
370
              15
  6
Continuous
 62
               7
100
AcDb2dPolyline
 66
               1
 10
0.0
 20
0.0
 30
0.0
 70
               1
 75
               5
  0
VERTEX
  5
1A2
100
AcDbEntity
  8
一般
370
              15
  6
Continuous
 62
               7
100
AcDbVertex
100
AcDb2dVertex
 10
865.78806883561629
 20
1593.4296697186458
 30
0.0
  0
VERTEX
  5
1A3
100
AcDbEntity
  8
一般
370
              15
  6
Continuous
 62
               7
100
AcDbVertex
100
AcDb2dVertex
 10
869.28806883561629
 20
1593.4296697186458
 30
0.0
  0
VERTEX
  5
1A4
100
AcDbEntity
  8
一般
370
              15
  6
Continuous
 62
               7
100
AcDbVertex
100
AcDb2dVertex
 10
869.28806883561629
 20
1589.9296697186458
 30
0.0
  0
VERTEX
  5
1A5
100
AcDbEntity
  8
一般
370
              15
  6
Continuous
 62
               7
100
AcDbVertex
100
AcDb2dVertex
 10
865.78806883561629
 20
1589.9296697186458
 30
0.0
  0
SEQEND
  5
1A6
100
AcDbEntity
  8
一般
370
              15
  6
Continuous
 62
               7
  0
CIRCLE
  5
1A7
100
AcDbEntity
  8
一般
370
              15
  6
Continuous
 62
               7
100
AcDbCircle
 10
867.53806883561629
 20
1591.6796697186458
 30
0.0
 40
0.6000000000003638
  0
LWPOLYLINE
  5
1A8
100
AcDbEntity
  8
一般
370
              15
  6
Continuous
 62
               7
100
AcDbPolyline
 90
        8
 70
             129
 10
866.03806883561629
 20
1592.8796697186458
 42
-0.414213562373095
 10
866.33806883561624
 20
1593.1796697186458
 10
868.73806883561633
 20
1593.1796697186458
 42
-0.414213562373095
 10
869.03806883561629
 20
1592.8796697186458
 10
869.03806883561629
 20
1590.4796697186457
 42
-0.414213562373095
 10
868.73806883561633
 20
1590.1796697186458
 10
866.33806883561624
 20
1590.1796697186458
 42
-0.414213562373095
 10
866.03806883561629
 20
1590.4796697186457
  0
POLYLINE
  5
1A9
100
AcDbEntity
  8
一般
370
              15
  6
Continuous
 62
               7
100
AcDb2dPolyline
 66
               1
 10
0.0
 20
0.0
 30
0.0
 70
               1
 75
               5
  0
VERTEX
  5
1AA
100
AcDbEntity
  8
一般
370
              15
  6
Continuous
 62
               7
100
AcDbVertex
100
AcDb2dVertex
 10
872.28806883561629
 20
1593.4296697186458
 30
0.0
  0
VERTEX
  5
1AB
100
AcDbEntity
  8
一般
370
              15
  6
Continuous
 62
               7
100
AcDbVertex
100
AcDb2dVertex
 10
875.78806883561629
 20
1593.4296697186458
 30
0.0
  0
VERTEX
  5
1AC
100
AcDbEntity
  8
一般
370
              15
  6
Continuous
 62
               7
100
AcDbVertex
100
AcDb2dVertex
 10
875.78806883561629
 20
1589.9296697186458
 30
0.0
  0
VERTEX
  5
1AD
100
AcDbEntity
  8
一般
370
              15
  6
Continuous
 62
               7
100
AcDbVertex
100
AcDb2dVertex
 10
872.28806883561629
 20
1589.9296697186458
 30
0.0
  0
SEQEND
  5
1AE
100
AcDbEntity
  8
一般
370
              15
  6
Continuous
 62
               7
  0
CIRCLE
  5
1AF
100
AcDbEntity
  8
一般
370
              15
  6
Continuous
 62
               7
100
AcDbCircle
 10
874.03806883561629
 20
1591.6796697186458
 30
0.0
 40
0.5999999999994543
  0
LWPOLYLINE
  5
1B0
100
AcDbEntity
  8
一般
370
              15
  6
Continuous
 62
               7
100
AcDbPolyline
 90
        8
 70
             129
 10
872.53806883561629
 20
1592.8796697186458
 42
-0.414213562373095
 10
872.83806883561624
 20
1593.1796697186458
 10
875.23806883561633
 20
1593.1796697186458
 42
-0.414213562373095
 10
875.53806883561629
 20
1592.8796697186458
 10
875.53806883561629
 20
1590.4796697186457
 42
-0.414213562373095
 10
875.23806883561633
 20
1590.1796697186458
 10
872.83806883561624
 20
1590.1796697186458
 42
-0.414213562373095
 10
872.53806883561629
 20
1590.4796697186457
  0
POLYLINE
  5
1B1
100
AcDbEntity
  8
一般
370
              15
  6
Continuous
 62
               7
100
AcDb2dPolyline
 66
               1
 10
0.0
 20
0.0
 30
0.0
 70
               1
 75
               5
  0
VERTEX
  5
1B2
100
AcDbEntity
  8
一般
370
              15
  6
Continuous
 62
               7
100
AcDbVertex
100
AcDb2dVertex
 10
878.78806883561629
 20
1593.4296697186458
 30
0.0
  0
VERTEX
  5
1B3
100
AcDbEntity
  8
一般
370
              15
  6
Continuous
 62
               7
100
AcDbVertex
100
AcDb2dVertex
 10
882.28806883561629
 20
1593.4296697186458
 30
0.0
  0
VERTEX
  5
1B4
100
AcDbEntity
  8
一般
370
              15
  6
Continuous
 62
               7
100
AcDbVertex
100
AcDb2dVertex
 10
882.28806883561629
 20
1589.9296697186458
 30
0.0
  0
VERTEX
  5
1B5
100
AcDbEntity
  8
一般
370
              15
  6
Continuous
 62
               7
100
AcDbVertex
100
AcDb2dVertex
 10
878.78806883561629
 20
1589.9296697186458
 30
0.0
  0
SEQEND
  5
1B6
100
AcDbEntity
  8
一般
370
              15
  6
Continuous
 62
               7
  0
CIRCLE
  5
1B7
100
AcDbEntity
  8
一般
370
              15
  6
Continuous
 62
               7
100
AcDbCircle
 10
880.53806883561629
 20
1591.6796697186458
 30
0.0
 40
0.5999999999994543
  0
LWPOLYLINE
  5
1B8
100
AcDbEntity
  8
一般
370
              15
  6
Continuous
 62
               7
100
AcDbPolyline
 90
        8
 70
             129
 10
879.03806883561629
 20
1592.8796697186458
 42
-0.414213562373095
 10
879.33806883561624
 20
1593.1796697186458
 10
881.73806883561633
 20
1593.1796697186458
 42
-0.414213562373095
 10
882.03806883561629
 20
1592.8796697186458
 10
882.03806883561629
 20
1590.4796697186457
 42
-0.414213562373095
 10
881.73806883561633
 20
1590.1796697186458
 10
879.33806883561624
 20
1590.1796697186458
 42
-0.414213562373095
 10
879.03806883561629
 20
1590.4796697186457
  0
POLYLINE
  5
1B9
100
AcDbEntity
  8
一般
370
              15
  6
Continuous
 62
               7
100
AcDb2dPolyline
 66
               1
 10
0.0
 20
0.0
 30
0.0
 70
               1
 75
               5
  0
VERTEX
  5
1BA
100
AcDbEntity
  8
一般
370
              15
  6
Continuous
 62
               7
100
AcDbVertex
100
AcDb2dVertex
 10
885.28806883561629
 20
1593.4296697186458
 30
0.0
  0
VERTEX
  5
1BB
100
AcDbEntity
  8
一般
370
              15
  6
Continuous
 62
               7
100
AcDbVertex
100
AcDb2dVertex
 10
888.78806883561629
 20
1593.4296697186458
 30
0.0
  0
VERTEX
  5
1BC
100
AcDbEntity
  8
一般
370
              15
  6
Continuous
 62
               7
100
AcDbVertex
100
AcDb2dVertex
 10
888.78806883561629
 20
1589.9296697186458
 30
0.0
  0
VERTEX
  5
1BD
100
AcDbEntity
  8
一般
370
              15
  6
Continuous
 62
               7
100
AcDbVertex
100
AcDb2dVertex
 10
885.28806883561629
 20
1589.9296697186458
 30
0.0
  0
SEQEND
  5
1BE
100
AcDbEntity
  8
一般
370
              15
  6
Continuous
 62
               7
  0
CIRCLE
  5
1BF
100
AcDbEntity
  8
一般
370
              15
  6
Continuous
 62
               7
100
AcDbCircle
 10
887.03806883561629
 20
1591.6796697186458
 30
0.0
 40
0.5999999999994543
  0
LWPOLYLINE
  5
1C0
100
AcDbEntity
  8
一般
370
              15
  6
Continuous
 62
               7
100
AcDbPolyline
 90
        8
 70
             129
 10
885.53806883561629
 20
1592.8796697186458
 42
-0.414213562373095
 10
885.83806883561624
 20
1593.1796697186458
 10
888.23806883561633
 20
1593.1796697186458
 42
-0.414213562373095
 10
888.53806883561629
 20
1592.8796697186458
 10
888.53806883561629
 20
1590.4796697186457
 42
-0.414213562373095
 10
888.23806883561633
 20
1590.1796697186458
 10
885.83806883561624
 20
1590.1796697186458
 42
-0.414213562373095
 10
885.53806883561629
 20
1590.4796697186457
  0
POLYLINE
  5
1C1
100
AcDbEntity
  8
一般
370
              15
  6
Continuous
 62
               7
100
AcDb2dPolyline
 66
               1
 10
0.0
 20
0.0
 30
0.0
 70
               1
 75
               5
  0
VERTEX
  5
1C2
100
AcDbEntity
  8
一般
370
              15
  6
Continuous
 62
               7
100
AcDbVertex
100
AcDb2dVertex
 10
891.78806883561629
 20
1593.4296697186458
 30
0.0
  0
VERTEX
  5
1C3
100
AcDbEntity
  8
一般
370
              15
  6
Continuous
 62
               7
100
AcDbVertex
100
AcDb2dVertex
 10
895.28806883561629
 20
1593.4296697186458
 30
0.0
  0
VERTEX
  5
1C4
100
AcDbEntity
  8
一般
370
              15
  6
Continuous
 62
               7
100
AcDbVertex
100
AcDb2dVertex
 10
895.28806883561629
 20
1589.9296697186458
 30
0.0
  0
VERTEX
  5
1C5
100
AcDbEntity
  8
一般
370
              15
  6
Continuous
 62
               7
100
AcDbVertex
100
AcDb2dVertex
 10
891.78806883561629
 20
1589.9296697186458
 30
0.0
  0
SEQEND
  5
1C6
100
AcDbEntity
  8
一般
370
              15
  6
Continuous
 62
               7
  0
CIRCLE
  5
1C7
100
AcDbEntity
  8
一般
370
              15
  6
Continuous
 62
               7
100
AcDbCircle
 10
893.53806883561629
 20
1591.6796697186458
 30
0.0
 40
0.5999999999994543
  0
LWPOLYLINE
  5
1C8
100
AcDbEntity
  8
一般
370
              15
  6
Continuous
 62
               7
100
AcDbPolyline
 90
        8
 70
             129
 10
892.03806883561629
 20
1592.8796697186458
 42
-0.414213562373095
 10
892.33806883561624
 20
1593.1796697186458
 10
894.73806883561633
 20
1593.1796697186458
 42
-0.414213562373095
 10
895.03806883561629
 20
1592.8796697186458
 10
895.03806883561629
 20
1590.4796697186457
 42
-0.414213562373095
 10
894.73806883561633
 20
1590.1796697186458
 10
892.33806883561624
 20
1590.1796697186458
 42
-0.414213562373095
 10
892.03806883561629
 20
1590.4796697186457
  0
POLYLINE
  5
1C9
100
AcDbEntity
  8
一般
370
              15
  6
Continuous
 62
               7
100
AcDb2dPolyline
 66
               1
 10
0.0
 20
0.0
 30
0.0
 70
               1
 75
               5
  0
VERTEX
  5
1CA
100
AcDbEntity
  8
一般
370
              15
  6
Continuous
 62
               7
100
AcDbVertex
100
AcDb2dVertex
 10
865.78806883561629
 20
1599.9296697186455
 30
0.0
  0
VERTEX
  5
1CB
100
AcDbEntity
  8
一般
370
              15
  6
Continuous
 62
               7
100
AcDbVertex
100
AcDb2dVertex
 10
869.28806883561629
 20
1599.9296697186455
 30
0.0
  0
VERTEX
  5
1CC
100
AcDbEntity
  8
一般
370
              15
  6
Continuous
 62
               7
100
AcDbVertex
100
AcDb2dVertex
 10
869.28806883561629
 20
1596.4296697186455
 30
0.0
  0
VERTEX
  5
1CD
100
AcDbEntity
  8
一般
370
              15
  6
Continuous
 62
               7
100
AcDbVertex
100
AcDb2dVertex
 10
865.78806883561629
 20
1596.4296697186455
 30
0.0
  0
SEQEND
  5
1CE
100
AcDbEntity
  8
一般
370
              15
  6
Continuous
 62
               7
  0
CIRCLE
  5
1CF
100
AcDbEntity
  8
一般
370
              15
  6
Continuous
 62
               7
100
AcDbCircle
 10
867.53806883561629
 20
1598.1796697186455
 30
0.0
 40
0.6000000000003638
  0
LWPOLYLINE
  5
1D0
100
AcDbEntity
  8
一般
370
              15
  6
Continuous
 62
               7
100
AcDbPolyline
 90
        8
 70
             129
 10
866.03806883561629
 20
1599.3796697186456
 42
-0.414213562373095
 10
866.33806883561624
 20
1599.6796697186455
 10
868.73806883561633
 20
1599.6796697186455
 42
-0.414213562373095
 10
869.03806883561629
 20
1599.3796697186456
 10
869.03806883561629
 20
1596.9796697186457
 42
-0.414213562373095
 10
868.73806883561633
 20
1596.6796697186455
 10
866.33806883561624
 20
1596.6796697186455
 42
-0.4142135623729841
 10
866.03806883561629
 20
1596.9796697186457
  0
POLYLINE
  5
1D1
100
AcDbEntity
  8
一般
370
              15
  6
Continuous
 62
               7
100
AcDb2dPolyline
 66
               1
 10
0.0
 20
0.0
 30
0.0
 70
               1
 75
               5
  0
VERTEX
  5
1D2
100
AcDbEntity
  8
一般
370
              15
  6
Continuous
 62
               7
100
AcDbVertex
100
AcDb2dVertex
 10
872.28806883561629
 20
1599.9296697186455
 30
0.0
  0
VERTEX
  5
1D3
100
AcDbEntity
  8
一般
370
              15
  6
Continuous
 62
               7
100
AcDbVertex
100
AcDb2dVertex
 10
875.78806883561629
 20
1599.9296697186455
 30
0.0
  0
VERTEX
  5
1D4
100
AcDbEntity
  8
一般
370
              15
  6
Continuous
 62
               7
100
AcDbVertex
100
AcDb2dVertex
 10
875.78806883561629
 20
1596.4296697186455
 30
0.0
  0
VERTEX
  5
1D5
100
AcDbEntity
  8
一般
370
              15
  6
Continuous
 62
               7
100
AcDbVertex
100
AcDb2dVertex
 10
872.28806883561629
 20
1596.4296697186455
 30
0.0
  0
SEQEND
  5
1D6
100
AcDbEntity
  8
一般
370
              15
  6
Continuous
 62
               7
  0
CIRCLE
  5
1D7
100
AcDbEntity
  8
一般
370
              15
  6
Continuous
 62
               7
100
AcDbCircle
 10
874.03806883561629
 20
1598.1796697186455
 30
0.0
 40
0.5999999999994543
  0
LWPOLYLINE
  5
1D8
100
AcDbEntity
  8
一般
370
              15
  6
Continuous
 62
               7
100
AcDbPolyline
 90
        8
 70
             129
 10
872.53806883561629
 20
1599.3796697186456
 42
-0.414213562373095
 10
872.83806883561624
 20
1599.6796697186455
 10
875.23806883561633
 20
1599.6796697186455
 42
-0.414213562373095
 10
875.53806883561629
 20
1599.3796697186456
 10
875.53806883561629
 20
1596.9796697186457
 42
-0.414213562373095
 10
875.23806883561633
 20
1596.6796697186455
 10
872.83806883561624
 20
1596.6796697186455
 42
-0.4142135623729841
 10
872.53806883561629
 20
1596.9796697186457
  0
POLYLINE
  5
1D9
100
AcDbEntity
  8
一般
370
              15
  6
Continuous
 62
               7
100
AcDb2dPolyline
 66
               1
 10
0.0
 20
0.0
 30
0.0
 70
               1
 75
               5
  0
VERTEX
  5
1DA
100
AcDbEntity
  8
一般
370
              15
  6
Continuous
 62
               7
100
AcDbVertex
100
AcDb2dVertex
 10
878.78806883561629
 20
1599.9296697186455
 30
0.0
  0
VERTEX
  5
1DB
100
AcDbEntity
  8
一般
370
              15
  6
Continuous
 62
               7
100
AcDbVertex
100
AcDb2dVertex
 10
882.28806883561629
 20
1599.9296697186455
 30
0.0
  0
VERTEX
  5
1DC
100
AcDbEntity
  8
一般
370
              15
  6
Continuous
 62
               7
100
AcDbVertex
100
AcDb2dVertex
 10
882.28806883561629
 20
1596.4296697186455
 30
0.0
  0
VERTEX
  5
1DD
100
AcDbEntity
  8
一般
370
              15
  6
Continuous
 62
               7
100
AcDbVertex
100
AcDb2dVertex
 10
878.78806883561629
 20
1596.4296697186455
 30
0.0
  0
SEQEND
  5
1DE
100
AcDbEntity
  8
一般
370
              15
  6
Continuous
 62
               7
  0
CIRCLE
  5
1DF
100
AcDbEntity
  8
一般
370
              15
  6
Continuous
 62
               7
100
AcDbCircle
 10
880.53806883561629
 20
1598.1796697186455
 30
0.0
 40
0.5999999999994543
  0
LWPOLYLINE
  5
1E0
100
AcDbEntity
  8
一般
370
              15
  6
Continuous
 62
               7
100
AcDbPolyline
 90
        8
 70
             129
 10
879.03806883561629
 20
1599.3796697186456
 42
-0.414213562373095
 10
879.33806883561624
 20
1599.6796697186455
 10
881.73806883561633
 20
1599.6796697186455
 42
-0.414213562373095
 10
882.03806883561629
 20
1599.3796697186456
 10
882.03806883561629
 20
1596.9796697186457
 42
-0.414213562373095
 10
881.73806883561633
 20
1596.6796697186455
 10
879.33806883561624
 20
1596.6796697186455
 42
-0.4142135623729841
 10
879.03806883561629
 20
1596.9796697186457
  0
POLYLINE
  5
1E1
100
AcDbEntity
  8
一般
370
              15
  6
Continuous
 62
               7
100
AcDb2dPolyline
 66
               1
 10
0.0
 20
0.0
 30
0.0
 70
               1
 75
               5
  0
VERTEX
  5
1E2
100
AcDbEntity
  8
一般
370
              15
  6
Continuous
 62
               7
100
AcDbVertex
100
AcDb2dVertex
 10
885.28806883561629
 20
1599.9296697186455
 30
0.0
  0
VERTEX
  5
1E3
100
AcDbEntity
  8
一般
370
              15
  6
Continuous
 62
               7
100
AcDbVertex
100
AcDb2dVertex
 10
888.78806883561629
 20
1599.9296697186455
 30
0.0
  0
VERTEX
  5
1E4
100
AcDbEntity
  8
一般
370
              15
  6
Continuous
 62
               7
100
AcDbVertex
100
AcDb2dVertex
 10
888.78806883561629
 20
1596.4296697186455
 30
0.0
  0
VERTEX
  5
1E5
100
AcDbEntity
  8
一般
370
              15
  6
Continuous
 62
               7
100
AcDbVertex
100
AcDb2dVertex
 10
885.28806883561629
 20
1596.4296697186455
 30
0.0
  0
SEQEND
  5
1E6
100
AcDbEntity
  8
一般
370
              15
  6
Continuous
 62
               7
  0
CIRCLE
  5
1E7
100
AcDbEntity
  8
一般
370
              15
  6
Continuous
 62
               7
100
AcDbCircle
 10
887.03806883561629
 20
1598.1796697186455
 30
0.0
 40
0.5999999999994543
  0
LWPOLYLINE
  5
1E8
100
AcDbEntity
  8
一般
370
              15
  6
Continuous
 62
               7
100
AcDbPolyline
 90
        8
 70
             129
 10
885.53806883561629
 20
1599.3796697186456
 42
-0.414213562373095
 10
885.83806883561624
 20
1599.6796697186455
 10
888.23806883561633
 20
1599.6796697186455
 42
-0.414213562373095
 10
888.53806883561629
 20
1599.3796697186456
 10
888.53806883561629
 20
1596.9796697186457
 42
-0.414213562373095
 10
888.23806883561633
 20
1596.6796697186455
 10
885.83806883561624
 20
1596.6796697186455
 42
-0.4142135623729841
 10
885.53806883561629
 20
1596.9796697186457
  0
POLYLINE
  5
1E9
100
AcDbEntity
  8
一般
370
              15
  6
Continuous
 62
               7
100
AcDb2dPolyline
 66
               1
 10
0.0
 20
0.0
 30
0.0
 70
               1
 75
               5
  0
VERTEX
  5
1EA
100
AcDbEntity
  8
一般
370
              15
  6
Continuous
 62
               7
100
AcDbVertex
100
AcDb2dVertex
 10
891.78806883561629
 20
1599.9296697186455
 30
0.0
  0
VERTEX
  5
1EB
100
AcDbEntity
  8
一般
370
              15
  6
Continuous
 62
               7
100
AcDbVertex
100
AcDb2dVertex
 10
895.28806883561629
 20
1599.9296697186455
 30
0.0
  0
VERTEX
  5
1EC
100
AcDbEntity
  8
一般
370
              15
  6
Continuous
 62
               7
100
AcDbVertex
100
AcDb2dVertex
 10
895.28806883561629
 20
1596.4296697186455
 30
0.0
  0
VERTEX
  5
1ED
100
AcDbEntity
  8
一般
370
              15
  6
Continuous
 62
               7
100
AcDbVertex
100
AcDb2dVertex
 10
891.78806883561629
 20
1596.4296697186455
 30
0.0
  0
SEQEND
  5
1EE
100
AcDbEntity
  8
一般
370
              15
  6
Continuous
 62
               7
  0
CIRCLE
  5
1EF
100
AcDbEntity
  8
一般
370
              15
  6
Continuous
 62
               7
100
AcDbCircle
 10
893.53806883561629
 20
1598.1796697186455
 30
0.0
 40
0.5999999999994543
  0
LWPOLYLINE
  5
1F0
100
AcDbEntity
  8
一般
370
              15
  6
Continuous
 62
               7
100
AcDbPolyline
 90
        8
 70
             129
 10
892.03806883561629
 20
1599.3796697186456
 42
-0.414213562373095
 10
892.33806883561624
 20
1599.6796697186455
 10
894.73806883561633
 20
1599.6796697186455
 42
-0.414213562373095
 10
895.03806883561629
 20
1599.3796697186456
 10
895.03806883561629
 20
1596.9796697186457
 42
-0.414213562373095
 10
894.73806883561633
 20
1596.6796697186455
 10
892.33806883561624
 20
1596.6796697186455
 42
-0.4142135623729841
 10
892.03806883561629
 20
1596.9796697186457
  0
POLYLINE
  5
1F1
100
AcDbEntity
  8
一般
370
              15
  6
Continuous
 62
               7
100
AcDb2dPolyline
 66
               1
 10
0.0
 20
0.0
 30
0.0
 70
               1
 75
               5
  0
VERTEX
  5
1F2
100
AcDbEntity
  8
一般
370
              15
  6
Continuous
 62
               7
100
AcDbVertex
100
AcDb2dVertex
 10
865.78806883561629
 20
1606.4296697186453
 30
0.0
  0
VERTEX
  5
1F3
100
AcDbEntity
  8
一般
370
              15
  6
Continuous
 62
               7
100
AcDbVertex
100
AcDb2dVertex
 10
869.28806883561629
 20
1606.4296697186453
 30
0.0
  0
VERTEX
  5
1F4
100
AcDbEntity
  8
一般
370
              15
  6
Continuous
 62
               7
100
AcDbVertex
100
AcDb2dVertex
 10
869.28806883561629
 20
1602.9296697186455
 30
0.0
  0
VERTEX
  5
1F5
100
AcDbEntity
  8
一般
370
              15
  6
Continuous
 62
               7
100
AcDbVertex
100
AcDb2dVertex
 10
865.78806883561629
 20
1602.9296697186455
 30
0.0
  0
SEQEND
  5
1F6
100
AcDbEntity
  8
一般
370
              15
  6
Continuous
 62
               7
  0
CIRCLE
  5
1F7
100
AcDbEntity
  8
一般
370
              15
  6
Continuous
 62
               7
100
AcDbCircle
 10
867.53806883561629
 20
1604.6796697186455
 30
0.0
 40
0.6000000000003638
  0
LWPOLYLINE
  5
1F8
100
AcDbEntity
  8
一般
370
              15
  6
Continuous
 62
               7
100
AcDbPolyline
 90
        8
 70
             129
 10
866.03806883561629
 20
1605.8796697186453
 42
-0.414213562373095
 10
866.33806883561624
 20
1606.1796697186453
 10
868.73806883561633
 20
1606.1796697186453
 42
-0.414213562373095
 10
869.03806883561629
 20
1605.8796697186453
 10
869.03806883561629
 20
1603.4796697186455
 42
-0.414213562373095
 10
868.73806883561633
 20
1603.1796697186455
 10
866.33806883561624
 20
1603.1796697186455
 42
-0.414213562373095
 10
866.03806883561629
 20
1603.4796697186455
  0
POLYLINE
  5
1F9
100
AcDbEntity
  8
一般
370
              15
  6
Continuous
 62
               7
100
AcDb2dPolyline
 66
               1
 10
0.0
 20
0.0
 30
0.0
 70
               1
 75
               5
  0
VERTEX
  5
1FA
100
AcDbEntity
  8
一般
370
              15
  6
Continuous
 62
               7
100
AcDbVertex
100
AcDb2dVertex
 10
872.28806883561629
 20
1606.4296697186453
 30
0.0
  0
VERTEX
  5
1FB
100
AcDbEntity
  8
一般
370
              15
  6
Continuous
 62
               7
100
AcDbVertex
100
AcDb2dVertex
 10
875.78806883561629
 20
1606.4296697186453
 30
0.0
  0
VERTEX
  5
1FC
100
AcDbEntity
  8
一般
370
              15
  6
Continuous
 62
               7
100
AcDbVertex
100
AcDb2dVertex
 10
875.78806883561629
 20
1602.9296697186455
 30
0.0
  0
VERTEX
  5
1FD
100
AcDbEntity
  8
一般
370
              15
  6
Continuous
 62
               7
100
AcDbVertex
100
AcDb2dVertex
 10
872.28806883561629
 20
1602.9296697186455
 30
0.0
  0
SEQEND
  5
1FE
100
AcDbEntity
  8
一般
370
              15
  6
Continuous
 62
               7
  0
CIRCLE
  5
1FF
100
AcDbEntity
  8
一般
370
              15
  6
Continuous
 62
               7
100
AcDbCircle
 10
874.03806883561629
 20
1604.6796697186455
 30
0.0
 40
0.5999999999994543
  0
LWPOLYLINE
  5
200
100
AcDbEntity
  8
一般
370
              15
  6
Continuous
 62
               7
100
AcDbPolyline
 90
        8
 70
             129
 10
872.53806883561629
 20
1605.8796697186453
 42
-0.414213562373095
 10
872.83806883561624
 20
1606.1796697186453
 10
875.23806883561633
 20
1606.1796697186453
 42
-0.414213562373095
 10
875.53806883561629
 20
1605.8796697186453
 10
875.53806883561629
 20
1603.4796697186455
 42
-0.414213562373095
 10
875.23806883561633
 20
1603.1796697186455
 10
872.83806883561624
 20
1603.1796697186455
 42
-0.414213562373095
 10
872.53806883561629
 20
1603.4796697186455
  0
POLYLINE
  5
201
100
AcDbEntity
  8
一般
370
              15
  6
Continuous
 62
               7
100
AcDb2dPolyline
 66
               1
 10
0.0
 20
0.0
 30
0.0
 70
               1
 75
               5
  0
VERTEX
  5
202
100
AcDbEntity
  8
一般
370
              15
  6
Continuous
 62
               7
100
AcDbVertex
100
AcDb2dVertex
 10
878.78806883561629
 20
1606.4296697186453
 30
0.0
  0
VERTEX
  5
203
100
AcDbEntity
  8
一般
370
              15
  6
Continuous
 62
               7
100
AcDbVertex
100
AcDb2dVertex
 10
882.28806883561629
 20
1606.4296697186453
 30
0.0
  0
VERTEX
  5
204
100
AcDbEntity
  8
一般
370
              15
  6
Continuous
 62
               7
100
AcDbVertex
100
AcDb2dVertex
 10
882.28806883561629
 20
1602.9296697186455
 30
0.0
  0
VERTEX
  5
205
100
AcDbEntity
  8
一般
370
              15
  6
Continuous
 62
               7
100
AcDbVertex
100
AcDb2dVertex
 10
878.78806883561629
 20
1602.9296697186455
 30
0.0
  0
SEQEND
  5
206
100
AcDbEntity
  8
一般
370
              15
  6
Continuous
 62
               7
  0
CIRCLE
  5
207
100
AcDbEntity
  8
一般
370
              15
  6
Continuous
 62
               7
100
AcDbCircle
 10
880.53806883561629
 20
1604.6796697186455
 30
0.0
 40
0.5999999999994543
  0
LWPOLYLINE
  5
208
100
AcDbEntity
  8
一般
370
              15
  6
Continuous
 62
               7
100
AcDbPolyline
 90
        8
 70
             129
 10
879.03806883561629
 20
1605.8796697186453
 42
-0.414213562373095
 10
879.33806883561624
 20
1606.1796697186453
 10
881.73806883561633
 20
1606.1796697186453
 42
-0.414213562373095
 10
882.03806883561629
 20
1605.8796697186453
 10
882.03806883561629
 20
1603.4796697186455
 42
-0.414213562373095
 10
881.73806883561633
 20
1603.1796697186455
 10
879.33806883561624
 20
1603.1796697186455
 42
-0.414213562373095
 10
879.03806883561629
 20
1603.4796697186455
  0
POLYLINE
  5
209
100
AcDbEntity
  8
一般
370
              15
  6
Continuous
 62
               7
100
AcDb2dPolyline
 66
               1
 10
0.0
 20
0.0
 30
0.0
 70
               1
 75
               5
  0
VERTEX
  5
20A
100
AcDbEntity
  8
一般
370
              15
  6
Continuous
 62
               7
100
AcDbVertex
100
AcDb2dVertex
 10
885.28806883561629
 20
1606.4296697186453
 30
0.0
  0
VERTEX
  5
20B
100
AcDbEntity
  8
一般
370
              15
  6
Continuous
 62
               7
100
AcDbVertex
100
AcDb2dVertex
 10
888.78806883561629
 20
1606.4296697186453
 30
0.0
  0
VERTEX
  5
20C
100
AcDbEntity
  8
一般
370
              15
  6
Continuous
 62
               7
100
AcDbVertex
100
AcDb2dVertex
 10
888.78806883561629
 20
1602.9296697186455
 30
0.0
  0
VERTEX
  5
20D
100
AcDbEntity
  8
一般
370
              15
  6
Continuous
 62
               7
100
AcDbVertex
100
AcDb2dVertex
 10
885.28806883561629
 20
1602.9296697186455
 30
0.0
  0
SEQEND
  5
20E
100
AcDbEntity
  8
一般
370
              15
  6
Continuous
 62
               7
  0
CIRCLE
  5
20F
100
AcDbEntity
  8
一般
370
              15
  6
Continuous
 62
               7
100
AcDbCircle
 10
887.03806883561629
 20
1604.6796697186455
 30
0.0
 40
0.5999999999994543
  0
LWPOLYLINE
  5
210
100
AcDbEntity
  8
一般
370
              15
  6
Continuous
 62
               7
100
AcDbPolyline
 90
        8
 70
             129
 10
885.53806883561629
 20
1605.8796697186453
 42
-0.414213562373095
 10
885.83806883561624
 20
1606.1796697186453
 10
888.23806883561633
 20
1606.1796697186453
 42
-0.414213562373095
 10
888.53806883561629
 20
1605.8796697186453
 10
888.53806883561629
 20
1603.4796697186455
 42
-0.414213562373095
 10
888.23806883561633
 20
1603.1796697186455
 10
885.83806883561624
 20
1603.1796697186455
 42
-0.414213562373095
 10
885.53806883561629
 20
1603.4796697186455
  0
POLYLINE
  5
211
100
AcDbEntity
  8
一般
370
              15
  6
Continuous
 62
               7
100
AcDb2dPolyline
 66
               1
 10
0.0
 20
0.0
 30
0.0
 70
               1
 75
               5
  0
VERTEX
  5
212
100
AcDbEntity
  8
一般
370
              15
  6
Continuous
 62
               7
100
AcDbVertex
100
AcDb2dVertex
 10
891.78806883561629
 20
1606.4296697186453
 30
0.0
  0
VERTEX
  5
213
100
AcDbEntity
  8
一般
370
              15
  6
Continuous
 62
               7
100
AcDbVertex
100
AcDb2dVertex
 10
895.28806883561629
 20
1606.4296697186453
 30
0.0
  0
VERTEX
  5
214
100
AcDbEntity
  8
一般
370
              15
  6
Continuous
 62
               7
100
AcDbVertex
100
AcDb2dVertex
 10
895.28806883561629
 20
1602.9296697186455
 30
0.0
  0
VERTEX
  5
215
100
AcDbEntity
  8
一般
370
              15
  6
Continuous
 62
               7
100
AcDbVertex
100
AcDb2dVertex
 10
891.78806883561629
 20
1602.9296697186455
 30
0.0
  0
SEQEND
  5
216
100
AcDbEntity
  8
一般
370
              15
  6
Continuous
 62
               7
  0
CIRCLE
  5
217
100
AcDbEntity
  8
一般
370
              15
  6
Continuous
 62
               7
100
AcDbCircle
 10
893.53806883561629
 20
1604.6796697186455
 30
0.0
 40
0.5999999999994543
  0
LWPOLYLINE
  5
218
100
AcDbEntity
  8
一般
370
              15
  6
Continuous
 62
               7
100
AcDbPolyline
 90
        8
 70
             129
 10
892.03806883561629
 20
1605.8796697186453
 42
-0.414213562373095
 10
892.33806883561624
 20
1606.1796697186453
 10
894.73806883561633
 20
1606.1796697186453
 42
-0.414213562373095
 10
895.03806883561629
 20
1605.8796697186453
 10
895.03806883561629
 20
1603.4796697186455
 42
-0.414213562373095
 10
894.73806883561633
 20
1603.1796697186455
 10
892.33806883561624
 20
1603.1796697186455
 42
-0.414213562373095
 10
892.03806883561629
 20
1603.4796697186455
  0
POLYLINE
  5
219
100
AcDbEntity
  8
一般
370
              15
  6
Continuous
 62
               7
100
AcDb2dPolyline
 66
               1
 10
0.0
 20
0.0
 30
0.0
 70
               1
 75
               5
  0
VERTEX
  5
21A
100
AcDbEntity
  8
一般
370
              15
  6
Continuous
 62
               7
100
AcDbVertex
100
AcDb2dVertex
 10
865.78806883561629
 20
1612.9296697186453
 30
0.0
  0
VERTEX
  5
21B
100
AcDbEntity
  8
一般
370
              15
  6
Continuous
 62
               7
100
AcDbVertex
100
AcDb2dVertex
 10
869.28806883561629
 20
1612.9296697186453
 30
0.0
  0
VERTEX
  5
21C
100
AcDbEntity
  8
一般
370
              15
  6
Continuous
 62
               7
100
AcDbVertex
100
AcDb2dVertex
 10
869.28806883561629
 20
1609.4296697186453
 30
0.0
  0
VERTEX
  5
21D
100
AcDbEntity
  8
一般
370
              15
  6
Continuous
 62
               7
100
AcDbVertex
100
AcDb2dVertex
 10
865.78806883561629
 20
1609.4296697186453
 30
0.0
  0
SEQEND
  5
21E
100
AcDbEntity
  8
一般
370
              15
  6
Continuous
 62
               7
  0
CIRCLE
  5
21F
100
AcDbEntity
  8
一般
370
              15
  6
Continuous
 62
               7
100
AcDbCircle
 10
867.53806883561629
 20
1611.1796697186453
 30
0.0
 40
0.6000000000003638
  0
LWPOLYLINE
  5
220
100
AcDbEntity
  8
一般
370
              15
  6
Continuous
 62
               7
100
AcDbPolyline
 90
        8
 70
             129
 10
866.03806883561629
 20
1612.3796697186453
 42
-0.414213562373095
 10
866.33806883561624
 20
1612.6796697186453
 10
868.73806883561633
 20
1612.6796697186453
 42
-0.414213562373095
 10
869.03806883561629
 20
1612.3796697186453
 10
869.03806883561629
 20
1609.9796697186453
 42
-0.414213562373095
 10
868.73806883561633
 20
1609.6796697186453
 10
866.33806883561624
 20
1609.6796697186453
 42
-0.414213562373095
 10
866.03806883561629
 20
1609.9796697186453
  0
POLYLINE
  5
221
100
AcDbEntity
  8
一般
370
              15
  6
Continuous
 62
               7
100
AcDb2dPolyline
 66
               1
 10
0.0
 20
0.0
 30
0.0
 70
               1
 75
               5
  0
VERTEX
  5
222
100
AcDbEntity
  8
一般
370
              15
  6
Continuous
 62
               7
100
AcDbVertex
100
AcDb2dVertex
 10
872.28806883561629
 20
1612.9296697186453
 30
0.0
  0
VERTEX
  5
223
100
AcDbEntity
  8
一般
370
              15
  6
Continuous
 62
               7
100
AcDbVertex
100
AcDb2dVertex
 10
875.78806883561629
 20
1612.9296697186453
 30
0.0
  0
VERTEX
  5
224
100
AcDbEntity
  8
一般
370
              15
  6
Continuous
 62
               7
100
AcDbVertex
100
AcDb2dVertex
 10
875.78806883561629
 20
1609.4296697186453
 30
0.0
  0
VERTEX
  5
225
100
AcDbEntity
  8
一般
370
              15
  6
Continuous
 62
               7
100
AcDbVertex
100
AcDb2dVertex
 10
872.28806883561629
 20
1609.4296697186453
 30
0.0
  0
SEQEND
  5
226
100
AcDbEntity
  8
一般
370
              15
  6
Continuous
 62
               7
  0
CIRCLE
  5
227
100
AcDbEntity
  8
一般
370
              15
  6
Continuous
 62
               7
100
AcDbCircle
 10
874.03806883561629
 20
1611.1796697186453
 30
0.0
 40
0.5999999999994543
  0
LWPOLYLINE
  5
228
100
AcDbEntity
  8
一般
370
              15
  6
Continuous
 62
               7
100
AcDbPolyline
 90
        8
 70
             129
 10
872.53806883561629
 20
1612.3796697186453
 42
-0.414213562373095
 10
872.83806883561624
 20
1612.6796697186453
 10
875.23806883561633
 20
1612.6796697186453
 42
-0.414213562373095
 10
875.53806883561629
 20
1612.3796697186453
 10
875.53806883561629
 20
1609.9796697186453
 42
-0.414213562373095
 10
875.23806883561633
 20
1609.6796697186453
 10
872.83806883561624
 20
1609.6796697186453
 42
-0.414213562373095
 10
872.53806883561629
 20
1609.9796697186453
  0
POLYLINE
  5
229
100
AcDbEntity
  8
一般
370
              15
  6
Continuous
 62
               7
100
AcDb2dPolyline
 66
               1
 10
0.0
 20
0.0
 30
0.0
 70
               1
 75
               5
  0
VERTEX
  5
22A
100
AcDbEntity
  8
一般
370
              15
  6
Continuous
 62
               7
100
AcDbVertex
100
AcDb2dVertex
 10
878.78806883561629
 20
1612.9296697186453
 30
0.0
  0
VERTEX
  5
22B
100
AcDbEntity
  8
一般
370
              15
  6
Continuous
 62
               7
100
AcDbVertex
100
AcDb2dVertex
 10
882.28806883561629
 20
1612.9296697186453
 30
0.0
  0
VERTEX
  5
22C
100
AcDbEntity
  8
一般
370
              15
  6
Continuous
 62
               7
100
AcDbVertex
100
AcDb2dVertex
 10
882.28806883561629
 20
1609.4296697186453
 30
0.0
  0
VERTEX
  5
22D
100
AcDbEntity
  8
一般
370
              15
  6
Continuous
 62
               7
100
AcDbVertex
100
AcDb2dVertex
 10
878.78806883561629
 20
1609.4296697186453
 30
0.0
  0
SEQEND
  5
22E
100
AcDbEntity
  8
一般
370
              15
  6
Continuous
 62
               7
  0
CIRCLE
  5
22F
100
AcDbEntity
  8
一般
370
              15
  6
Continuous
 62
               7
100
AcDbCircle
 10
880.53806883561629
 20
1611.1796697186453
 30
0.0
 40
0.5999999999994543
  0
LWPOLYLINE
  5
230
100
AcDbEntity
  8
一般
370
              15
  6
Continuous
 62
               7
100
AcDbPolyline
 90
        8
 70
             129
 10
879.03806883561629
 20
1612.3796697186453
 42
-0.414213562373095
 10
879.33806883561624
 20
1612.6796697186453
 10
881.73806883561633
 20
1612.6796697186453
 42
-0.414213562373095
 10
882.03806883561629
 20
1612.3796697186453
 10
882.03806883561629
 20
1609.9796697186453
 42
-0.414213562373095
 10
881.73806883561633
 20
1609.6796697186453
 10
879.33806883561624
 20
1609.6796697186453
 42
-0.414213562373095
 10
879.03806883561629
 20
1609.9796697186453
  0
POLYLINE
  5
231
100
AcDbEntity
  8
一般
370
              15
  6
Continuous
 62
               7
100
AcDb2dPolyline
 66
               1
 10
0.0
 20
0.0
 30
0.0
 70
               1
 75
               5
  0
VERTEX
  5
232
100
AcDbEntity
  8
一般
370
              15
  6
Continuous
 62
               7
100
AcDbVertex
100
AcDb2dVertex
 10
885.28806883561629
 20
1612.9296697186453
 30
0.0
  0
VERTEX
  5
233
100
AcDbEntity
  8
一般
370
              15
  6
Continuous
 62
               7
100
AcDbVertex
100
AcDb2dVertex
 10
888.78806883561629
 20
1612.9296697186453
 30
0.0
  0
VERTEX
  5
234
100
AcDbEntity
  8
一般
370
              15
  6
Continuous
 62
               7
100
AcDbVertex
100
AcDb2dVertex
 10
888.78806883561629
 20
1609.4296697186453
 30
0.0
  0
VERTEX
  5
235
100
AcDbEntity
  8
一般
370
              15
  6
Continuous
 62
               7
100
AcDbVertex
100
AcDb2dVertex
 10
885.28806883561629
 20
1609.4296697186453
 30
0.0
  0
SEQEND
  5
236
100
AcDbEntity
  8
一般
370
              15
  6
Continuous
 62
               7
  0
CIRCLE
  5
237
100
AcDbEntity
  8
一般
370
              15
  6
Continuous
 62
               7
100
AcDbCircle
 10
887.03806883561629
 20
1611.1796697186453
 30
0.0
 40
0.5999999999994543
  0
LWPOLYLINE
  5
238
100
AcDbEntity
  8
一般
370
              15
  6
Continuous
 62
               7
100
AcDbPolyline
 90
        8
 70
             129
 10
885.53806883561629
 20
1612.3796697186453
 42
-0.414213562373095
 10
885.83806883561624
 20
1612.6796697186453
 10
888.23806883561633
 20
1612.6796697186453
 42
-0.414213562373095
 10
888.53806883561629
 20
1612.3796697186453
 10
888.53806883561629
 20
1609.9796697186453
 42
-0.414213562373095
 10
888.23806883561633
 20
1609.6796697186453
 10
885.83806883561624
 20
1609.6796697186453
 42
-0.414213562373095
 10
885.53806883561629
 20
1609.9796697186453
  0
POLYLINE
  5
239
100
AcDbEntity
  8
一般
370
              15
  6
Continuous
 62
               7
100
AcDb2dPolyline
 66
               1
 10
0.0
 20
0.0
 30
0.0
 70
               1
 75
               5
  0
VERTEX
  5
23A
100
AcDbEntity
  8
一般
370
              15
  6
Continuous
 62
               7
100
AcDbVertex
100
AcDb2dVertex
 10
891.78806883561629
 20
1612.9296697186453
 30
0.0
  0
VERTEX
  5
23B
100
AcDbEntity
  8
一般
370
              15
  6
Continuous
 62
               7
100
AcDbVertex
100
AcDb2dVertex
 10
895.28806883561629
 20
1612.9296697186453
 30
0.0
  0
VERTEX
  5
23C
100
AcDbEntity
  8
一般
370
              15
  6
Continuous
 62
               7
100
AcDbVertex
100
AcDb2dVertex
 10
895.28806883561629
 20
1609.4296697186453
 30
0.0
  0
VERTEX
  5
23D
100
AcDbEntity
  8
一般
370
              15
  6
Continuous
 62
               7
100
AcDbVertex
100
AcDb2dVertex
 10
891.78806883561629
 20
1609.4296697186453
 30
0.0
  0
SEQEND
  5
23E
100
AcDbEntity
  8
一般
370
              15
  6
Continuous
 62
               7
  0
CIRCLE
  5
23F
100
AcDbEntity
  8
一般
370
              15
  6
Continuous
 62
               7
100
AcDbCircle
 10
893.53806883561629
 20
1611.1796697186453
 30
0.0
 40
0.5999999999994543
  0
LWPOLYLINE
  5
240
100
AcDbEntity
  8
一般
370
              15
  6
Continuous
 62
               7
100
AcDbPolyline
 90
        8
 70
             129
 10
892.03806883561629
 20
1612.3796697186453
 42
-0.414213562373095
 10
892.33806883561624
 20
1612.6796697186453
 10
894.73806883561633
 20
1612.6796697186453
 42
-0.414213562373095
 10
895.03806883561629
 20
1612.3796697186453
 10
895.03806883561629
 20
1609.9796697186453
 42
-0.414213562373095
 10
894.73806883561633
 20
1609.6796697186453
 10
892.33806883561624
 20
1609.6796697186453
 42
-0.414213562373095
 10
892.03806883561629
 20
1609.9796697186453
  0
POLYLINE
  5
241
100
AcDbEntity
  8
一般
370
              15
  6
Continuous
 62
               7
100
AcDb2dPolyline
 66
               1
 10
0.0
 20
0.0
 30
0.0
 70
               1
 75
               5
  0
VERTEX
  5
242
100
AcDbEntity
  8
一般
370
              15
  6
Continuous
 62
               7
100
AcDbVertex
100
AcDb2dVertex
 10
865.78806883561629
 20
1619.4296697186453
 30
0.0
  0
VERTEX
  5
243
100
AcDbEntity
  8
一般
370
              15
  6
Continuous
 62
               7
100
AcDbVertex
100
AcDb2dVertex
 10
869.28806883561629
 20
1619.4296697186453
 30
0.0
  0
VERTEX
  5
244
100
AcDbEntity
  8
一般
370
              15
  6
Continuous
 62
               7
100
AcDbVertex
100
AcDb2dVertex
 10
869.28806883561629
 20
1615.9296697186453
 30
0.0
  0
VERTEX
  5
245
100
AcDbEntity
  8
一般
370
              15
  6
Continuous
 62
               7
100
AcDbVertex
100
AcDb2dVertex
 10
865.78806883561629
 20
1615.9296697186453
 30
0.0
  0
SEQEND
  5
246
100
AcDbEntity
  8
一般
370
              15
  6
Continuous
 62
               7
  0
CIRCLE
  5
247
100
AcDbEntity
  8
一般
370
              15
  6
Continuous
 62
               7
100
AcDbCircle
 10
867.53806883561629
 20
1617.6796697186453
 30
0.0
 40
0.6000000000003638
  0
LWPOLYLINE
  5
248
100
AcDbEntity
  8
一般
370
              15
  6
Continuous
 62
               7
100
AcDbPolyline
 90
        8
 70
             129
 10
866.03806883561629
 20
1618.8796697186453
 42
-0.414213562373095
 10
866.33806883561624
 20
1619.1796697186453
 10
868.73806883561633
 20
1619.1796697186453
 42
-0.414213562373095
 10
869.03806883561629
 20
1618.8796697186453
 10
869.03806883561629
 20
1616.4796697186453
 42
-0.414213562373095
 10
868.73806883561633
 20
1616.1796697186453
 10
866.33806883561624
 20
1616.1796697186453
 42
-0.414213562373095
 10
866.03806883561629
 20
1616.4796697186453
  0
POLYLINE
  5
249
100
AcDbEntity
  8
一般
370
              15
  6
Continuous
 62
               7
100
AcDb2dPolyline
 66
               1
 10
0.0
 20
0.0
 30
0.0
 70
               1
 75
               5
  0
VERTEX
  5
24A
100
AcDbEntity
  8
一般
370
              15
  6
Continuous
 62
               7
100
AcDbVertex
100
AcDb2dVertex
 10
872.28806883561629
 20
1619.4296697186453
 30
0.0
  0
VERTEX
  5
24B
100
AcDbEntity
  8
一般
370
              15
  6
Continuous
 62
               7
100
AcDbVertex
100
AcDb2dVertex
 10
875.78806883561629
 20
1619.4296697186453
 30
0.0
  0
VERTEX
  5
24C
100
AcDbEntity
  8
一般
370
              15
  6
Continuous
 62
               7
100
AcDbVertex
100
AcDb2dVertex
 10
875.78806883561629
 20
1615.9296697186453
 30
0.0
  0
VERTEX
  5
24D
100
AcDbEntity
  8
一般
370
              15
  6
Continuous
 62
               7
100
AcDbVertex
100
AcDb2dVertex
 10
872.28806883561629
 20
1615.9296697186453
 30
0.0
  0
SEQEND
  5
24E
100
AcDbEntity
  8
一般
370
              15
  6
Continuous
 62
               7
  0
CIRCLE
  5
24F
100
AcDbEntity
  8
一般
370
              15
  6
Continuous
 62
               7
100
AcDbCircle
 10
874.03806883561629
 20
1617.6796697186453
 30
0.0
 40
0.5999999999994543
  0
LWPOLYLINE
  5
250
100
AcDbEntity
  8
一般
370
              15
  6
Continuous
 62
               7
100
AcDbPolyline
 90
        8
 70
             129
 10
872.53806883561629
 20
1618.8796697186453
 42
-0.414213562373095
 10
872.83806883561624
 20
1619.1796697186453
 10
875.23806883561633
 20
1619.1796697186453
 42
-0.414213562373095
 10
875.53806883561629
 20
1618.8796697186453
 10
875.53806883561629
 20
1616.4796697186453
 42
-0.414213562373095
 10
875.23806883561633
 20
1616.1796697186453
 10
872.83806883561624
 20
1616.1796697186453
 42
-0.414213562373095
 10
872.53806883561629
 20
1616.4796697186453
  0
POLYLINE
  5
251
100
AcDbEntity
  8
一般
370
              15
  6
Continuous
 62
               7
100
AcDb2dPolyline
 66
               1
 10
0.0
 20
0.0
 30
0.0
 70
               1
 75
               5
  0
VERTEX
  5
252
100
AcDbEntity
  8
一般
370
              15
  6
Continuous
 62
               7
100
AcDbVertex
100
AcDb2dVertex
 10
878.78806883561629
 20
1619.4296697186453
 30
0.0
  0
VERTEX
  5
253
100
AcDbEntity
  8
一般
370
              15
  6
Continuous
 62
               7
100
AcDbVertex
100
AcDb2dVertex
 10
882.28806883561629
 20
1619.4296697186453
 30
0.0
  0
VERTEX
  5
254
100
AcDbEntity
  8
一般
370
              15
  6
Continuous
 62
               7
100
AcDbVertex
100
AcDb2dVertex
 10
882.28806883561629
 20
1615.9296697186453
 30
0.0
  0
VERTEX
  5
255
100
AcDbEntity
  8
一般
370
              15
  6
Continuous
 62
               7
100
AcDbVertex
100
AcDb2dVertex
 10
878.78806883561629
 20
1615.9296697186453
 30
0.0
  0
SEQEND
  5
256
100
AcDbEntity
  8
一般
370
              15
  6
Continuous
 62
               7
  0
CIRCLE
  5
257
100
AcDbEntity
  8
一般
370
              15
  6
Continuous
 62
               7
100
AcDbCircle
 10
880.53806883561629
 20
1617.6796697186453
 30
0.0
 40
0.5999999999994543
  0
LWPOLYLINE
  5
258
100
AcDbEntity
  8
一般
370
              15
  6
Continuous
 62
               7
100
AcDbPolyline
 90
        8
 70
             129
 10
879.03806883561629
 20
1618.8796697186453
 42
-0.414213562373095
 10
879.33806883561624
 20
1619.1796697186453
 10
881.73806883561633
 20
1619.1796697186453
 42
-0.414213562373095
 10
882.03806883561629
 20
1618.8796697186453
 10
882.03806883561629
 20
1616.4796697186453
 42
-0.414213562373095
 10
881.73806883561633
 20
1616.1796697186453
 10
879.33806883561624
 20
1616.1796697186453
 42
-0.414213562373095
 10
879.03806883561629
 20
1616.4796697186453
  0
POLYLINE
  5
259
100
AcDbEntity
  8
一般
370
              15
  6
Continuous
 62
               7
100
AcDb2dPolyline
 66
               1
 10
0.0
 20
0.0
 30
0.0
 70
               1
 75
               5
  0
VERTEX
  5
25A
100
AcDbEntity
  8
一般
370
              15
  6
Continuous
 62
               7
100
AcDbVertex
100
AcDb2dVertex
 10
885.28806883561629
 20
1619.4296697186453
 30
0.0
  0
VERTEX
  5
25B
100
AcDbEntity
  8
一般
370
              15
  6
Continuous
 62
               7
100
AcDbVertex
100
AcDb2dVertex
 10
888.78806883561629
 20
1619.4296697186453
 30
0.0
  0
VERTEX
  5
25C
100
AcDbEntity
  8
一般
370
              15
  6
Continuous
 62
               7
100
AcDbVertex
100
AcDb2dVertex
 10
888.78806883561629
 20
1615.9296697186453
 30
0.0
  0
VERTEX
  5
25D
100
AcDbEntity
  8
一般
370
              15
  6
Continuous
 62
               7
100
AcDbVertex
100
AcDb2dVertex
 10
885.28806883561629
 20
1615.9296697186453
 30
0.0
  0
SEQEND
  5
25E
100
AcDbEntity
  8
一般
370
              15
  6
Continuous
 62
               7
  0
CIRCLE
  5
25F
100
AcDbEntity
  8
一般
370
              15
  6
Continuous
 62
               7
100
AcDbCircle
 10
887.03806883561629
 20
1617.6796697186453
 30
0.0
 40
0.5999999999994543
  0
LWPOLYLINE
  5
260
100
AcDbEntity
  8
一般
370
              15
  6
Continuous
 62
               7
100
AcDbPolyline
 90
        8
 70
             129
 10
885.53806883561629
 20
1618.8796697186453
 42
-0.414213562373095
 10
885.83806883561624
 20
1619.1796697186453
 10
888.23806883561633
 20
1619.1796697186453
 42
-0.414213562373095
 10
888.53806883561629
 20
1618.8796697186453
 10
888.53806883561629
 20
1616.4796697186453
 42
-0.414213562373095
 10
888.23806883561633
 20
1616.1796697186453
 10
885.83806883561624
 20
1616.1796697186453
 42
-0.414213562373095
 10
885.53806883561629
 20
1616.4796697186453
  0
POLYLINE
  5
261
100
AcDbEntity
  8
一般
370
              15
  6
Continuous
 62
               7
100
AcDb2dPolyline
 66
               1
 10
0.0
 20
0.0
 30
0.0
 70
               1
 75
               5
  0
VERTEX
  5
262
100
AcDbEntity
  8
一般
370
              15
  6
Continuous
 62
               7
100
AcDbVertex
100
AcDb2dVertex
 10
891.78806883561629
 20
1619.4296697186453
 30
0.0
  0
VERTEX
  5
263
100
AcDbEntity
  8
一般
370
              15
  6
Continuous
 62
               7
100
AcDbVertex
100
AcDb2dVertex
 10
895.28806883561629
 20
1619.4296697186453
 30
0.0
  0
VERTEX
  5
264
100
AcDbEntity
  8
一般
370
              15
  6
Continuous
 62
               7
100
AcDbVertex
100
AcDb2dVertex
 10
895.28806883561629
 20
1615.9296697186453
 30
0.0
  0
VERTEX
  5
265
100
AcDbEntity
  8
一般
370
              15
  6
Continuous
 62
               7
100
AcDbVertex
100
AcDb2dVertex
 10
891.78806883561629
 20
1615.9296697186453
 30
0.0
  0
SEQEND
  5
266
100
AcDbEntity
  8
一般
370
              15
  6
Continuous
 62
               7
  0
CIRCLE
  5
267
100
AcDbEntity
  8
一般
370
              15
  6
Continuous
 62
               7
100
AcDbCircle
 10
893.53806883561629
 20
1617.6796697186453
 30
0.0
 40
0.5999999999994543
  0
LWPOLYLINE
  5
268
100
AcDbEntity
  8
一般
370
              15
  6
Continuous
 62
               7
100
AcDbPolyline
 90
        8
 70
             129
 10
892.03806883561629
 20
1618.8796697186453
 42
-0.414213562373095
 10
892.33806883561624
 20
1619.1796697186453
 10
894.73806883561633
 20
1619.1796697186453
 42
-0.414213562373095
 10
895.03806883561629
 20
1618.8796697186453
 10
895.03806883561629
 20
1616.4796697186453
 42
-0.414213562373095
 10
894.73806883561633
 20
1616.1796697186453
 10
892.33806883561624
 20
1616.1796697186453
 42
-0.414213562373095
 10
892.03806883561629
 20
1616.4796697186453
  0
POLYLINE
  5
269
100
AcDbEntity
  8
一般
370
              15
  6
Continuous
 62
               7
100
AcDb2dPolyline
 66
               1
 10
0.0
 20
0.0
 30
0.0
 70
               1
 75
               5
  0
VERTEX
  5
26A
100
AcDbEntity
  8
一般
370
              15
  6
Continuous
 62
               7
100
AcDbVertex
100
AcDb2dVertex
 10
865.78806883561629
 20
1625.9296697186453
 30
0.0
  0
VERTEX
  5
26B
100
AcDbEntity
  8
一般
370
              15
  6
Continuous
 62
               7
100
AcDbVertex
100
AcDb2dVertex
 10
869.28806883561629
 20
1625.9296697186453
 30
0.0
  0
VERTEX
  5
26C
100
AcDbEntity
  8
一般
370
              15
  6
Continuous
 62
               7
100
AcDbVertex
100
AcDb2dVertex
 10
869.28806883561629
 20
1622.4296697186453
 30
0.0
  0
VERTEX
  5
26D
100
AcDbEntity
  8
一般
370
              15
  6
Continuous
 62
               7
100
AcDbVertex
100
AcDb2dVertex
 10
865.78806883561629
 20
1622.4296697186453
 30
0.0
  0
SEQEND
  5
26E
100
AcDbEntity
  8
一般
370
              15
  6
Continuous
 62
               7
  0
CIRCLE
  5
26F
100
AcDbEntity
  8
一般
370
              15
  6
Continuous
 62
               7
100
AcDbCircle
 10
867.53806883561629
 20
1624.1796697186453
 30
0.0
 40
0.6000000000003638
  0
LWPOLYLINE
  5
270
100
AcDbEntity
  8
一般
370
              15
  6
Continuous
 62
               7
100
AcDbPolyline
 90
        8
 70
             129
 10
866.03806883561629
 20
1625.3796697186453
 42
-0.414213562373095
 10
866.33806883561624
 20
1625.6796697186453
 10
868.73806883561633
 20
1625.6796697186453
 42
-0.414213562373095
 10
869.03806883561629
 20
1625.3796697186453
 10
869.03806883561629
 20
1622.9796697186453
 42
-0.414213562373095
 10
868.73806883561633
 20
1622.6796697186453
 10
866.33806883561624
 20
1622.6796697186453
 42
-0.414213562373095
 10
866.03806883561629
 20
1622.9796697186453
  0
POLYLINE
  5
271
100
AcDbEntity
  8
一般
370
              15
  6
Continuous
 62
               7
100
AcDb2dPolyline
 66
               1
 10
0.0
 20
0.0
 30
0.0
 70
               1
 75
               5
  0
VERTEX
  5
272
100
AcDbEntity
  8
一般
370
              15
  6
Continuous
 62
               7
100
AcDbVertex
100
AcDb2dVertex
 10
872.28806883561629
 20
1625.9296697186453
 30
0.0
  0
VERTEX
  5
273
100
AcDbEntity
  8
一般
370
              15
  6
Continuous
 62
               7
100
AcDbVertex
100
AcDb2dVertex
 10
875.78806883561629
 20
1625.9296697186453
 30
0.0
  0
VERTEX
  5
274
100
AcDbEntity
  8
一般
370
              15
  6
Continuous
 62
               7
100
AcDbVertex
100
AcDb2dVertex
 10
875.78806883561629
 20
1622.4296697186453
 30
0.0
  0
VERTEX
  5
275
100
AcDbEntity
  8
一般
370
              15
  6
Continuous
 62
               7
100
AcDbVertex
100
AcDb2dVertex
 10
872.28806883561629
 20
1622.4296697186453
 30
0.0
  0
SEQEND
  5
276
100
AcDbEntity
  8
一般
370
              15
  6
Continuous
 62
               7
  0
CIRCLE
  5
277
100
AcDbEntity
  8
一般
370
              15
  6
Continuous
 62
               7
100
AcDbCircle
 10
874.03806883561629
 20
1624.1796697186453
 30
0.0
 40
0.5999999999994543
  0
LWPOLYLINE
  5
278
100
AcDbEntity
  8
一般
370
              15
  6
Continuous
 62
               7
100
AcDbPolyline
 90
        8
 70
             129
 10
872.53806883561629
 20
1625.3796697186453
 42
-0.414213562373095
 10
872.83806883561624
 20
1625.6796697186453
 10
875.23806883561633
 20
1625.6796697186453
 42
-0.414213562373095
 10
875.53806883561629
 20
1625.3796697186453
 10
875.53806883561629
 20
1622.9796697186453
 42
-0.414213562373095
 10
875.23806883561633
 20
1622.6796697186453
 10
872.83806883561624
 20
1622.6796697186453
 42
-0.414213562373095
 10
872.53806883561629
 20
1622.9796697186453
  0
POLYLINE
  5
279
100
AcDbEntity
  8
一般
370
              15
  6
Continuous
 62
               7
100
AcDb2dPolyline
 66
               1
 10
0.0
 20
0.0
 30
0.0
 70
               1
 75
               5
  0
VERTEX
  5
27A
100
AcDbEntity
  8
一般
370
              15
  6
Continuous
 62
               7
100
AcDbVertex
100
AcDb2dVertex
 10
878.78806883561629
 20
1625.9296697186453
 30
0.0
  0
VERTEX
  5
27B
100
AcDbEntity
  8
一般
370
              15
  6
Continuous
 62
               7
100
AcDbVertex
100
AcDb2dVertex
 10
882.28806883561629
 20
1625.9296697186453
 30
0.0
  0
VERTEX
  5
27C
100
AcDbEntity
  8
一般
370
              15
  6
Continuous
 62
               7
100
AcDbVertex
100
AcDb2dVertex
 10
882.28806883561629
 20
1622.4296697186453
 30
0.0
  0
VERTEX
  5
27D
100
AcDbEntity
  8
一般
370
              15
  6
Continuous
 62
               7
100
AcDbVertex
100
AcDb2dVertex
 10
878.78806883561629
 20
1622.4296697186453
 30
0.0
  0
SEQEND
  5
27E
100
AcDbEntity
  8
一般
370
              15
  6
Continuous
 62
               7
  0
CIRCLE
  5
27F
100
AcDbEntity
  8
一般
370
              15
  6
Continuous
 62
               7
100
AcDbCircle
 10
880.53806883561629
 20
1624.1796697186453
 30
0.0
 40
0.5999999999994543
  0
LWPOLYLINE
  5
280
100
AcDbEntity
  8
一般
370
              15
  6
Continuous
 62
               7
100
AcDbPolyline
 90
        8
 70
             129
 10
879.03806883561629
 20
1625.3796697186453
 42
-0.414213562373095
 10
879.33806883561624
 20
1625.6796697186453
 10
881.73806883561633
 20
1625.6796697186453
 42
-0.414213562373095
 10
882.03806883561629
 20
1625.3796697186453
 10
882.03806883561629
 20
1622.9796697186453
 42
-0.414213562373095
 10
881.73806883561633
 20
1622.6796697186453
 10
879.33806883561624
 20
1622.6796697186453
 42
-0.414213562373095
 10
879.03806883561629
 20
1622.9796697186453
  0
POLYLINE
  5
281
100
AcDbEntity
  8
一般
370
              15
  6
Continuous
 62
               7
100
AcDb2dPolyline
 66
               1
 10
0.0
 20
0.0
 30
0.0
 70
               1
 75
               5
  0
VERTEX
  5
282
100
AcDbEntity
  8
一般
370
              15
  6
Continuous
 62
               7
100
AcDbVertex
100
AcDb2dVertex
 10
885.28806883561629
 20
1625.9296697186453
 30
0.0
  0
VERTEX
  5
283
100
AcDbEntity
  8
一般
370
              15
  6
Continuous
 62
               7
100
AcDbVertex
100
AcDb2dVertex
 10
888.78806883561629
 20
1625.9296697186453
 30
0.0
  0
VERTEX
  5
284
100
AcDbEntity
  8
一般
370
              15
  6
Continuous
 62
               7
100
AcDbVertex
100
AcDb2dVertex
 10
888.78806883561629
 20
1622.4296697186453
 30
0.0
  0
VERTEX
  5
285
100
AcDbEntity
  8
一般
370
              15
  6
Continuous
 62
               7
100
AcDbVertex
100
AcDb2dVertex
 10
885.28806883561629
 20
1622.4296697186453
 30
0.0
  0
SEQEND
  5
286
100
AcDbEntity
  8
一般
370
              15
  6
Continuous
 62
               7
  0
CIRCLE
  5
287
100
AcDbEntity
  8
一般
370
              15
  6
Continuous
 62
               7
100
AcDbCircle
 10
887.03806883561629
 20
1624.1796697186453
 30
0.0
 40
0.5999999999994543
  0
LWPOLYLINE
  5
288
100
AcDbEntity
  8
一般
370
              15
  6
Continuous
 62
               7
100
AcDbPolyline
 90
        8
 70
             129
 10
885.53806883561629
 20
1625.3796697186453
 42
-0.414213562373095
 10
885.83806883561624
 20
1625.6796697186453
 10
888.23806883561633
 20
1625.6796697186453
 42
-0.414213562373095
 10
888.53806883561629
 20
1625.3796697186453
 10
888.53806883561629
 20
1622.9796697186453
 42
-0.414213562373095
 10
888.23806883561633
 20
1622.6796697186453
 10
885.83806883561624
 20
1622.6796697186453
 42
-0.414213562373095
 10
885.53806883561629
 20
1622.9796697186453
  0
POLYLINE
  5
289
100
AcDbEntity
  8
一般
370
              15
  6
Continuous
 62
               7
100
AcDb2dPolyline
 66
               1
 10
0.0
 20
0.0
 30
0.0
 70
               1
 75
               5
  0
VERTEX
  5
28A
100
AcDbEntity
  8
一般
370
              15
  6
Continuous
 62
               7
100
AcDbVertex
100
AcDb2dVertex
 10
891.78806883561629
 20
1625.9296697186453
 30
0.0
  0
VERTEX
  5
28B
100
AcDbEntity
  8
一般
370
              15
  6
Continuous
 62
               7
100
AcDbVertex
100
AcDb2dVertex
 10
895.28806883561629
 20
1625.9296697186453
 30
0.0
  0
VERTEX
  5
28C
100
AcDbEntity
  8
一般
370
              15
  6
Continuous
 62
               7
100
AcDbVertex
100
AcDb2dVertex
 10
895.28806883561629
 20
1622.4296697186453
 30
0.0
  0
VERTEX
  5
28D
100
AcDbEntity
  8
一般
370
              15
  6
Continuous
 62
               7
100
AcDbVertex
100
AcDb2dVertex
 10
891.78806883561629
 20
1622.4296697186453
 30
0.0
  0
SEQEND
  5
28E
100
AcDbEntity
  8
一般
370
              15
  6
Continuous
 62
               7
  0
CIRCLE
  5
28F
100
AcDbEntity
  8
一般
370
              15
  6
Continuous
 62
               7
100
AcDbCircle
 10
893.53806883561629
 20
1624.1796697186453
 30
0.0
 40
0.5999999999994543
  0
LWPOLYLINE
  5
290
100
AcDbEntity
  8
一般
370
              15
  6
Continuous
 62
               7
100
AcDbPolyline
 90
        8
 70
             129
 10
892.03806883561629
 20
1625.3796697186453
 42
-0.414213562373095
 10
892.33806883561624
 20
1625.6796697186453
 10
894.73806883561633
 20
1625.6796697186453
 42
-0.414213562373095
 10
895.03806883561629
 20
1625.3796697186453
 10
895.03806883561629
 20
1622.9796697186453
 42
-0.414213562373095
 10
894.73806883561633
 20
1622.6796697186453
 10
892.33806883561624
 20
1622.6796697186453
 42
-0.414213562373095
 10
892.03806883561629
 20
1622.9796697186453
  0
POLYLINE
  5
291
100
AcDbEntity
  8
一般
370
              15
  6
Continuous
 62
               7
100
AcDb2dPolyline
 66
               1
 10
0.0
 20
0.0
 30
0.0
 70
               1
 75
               5
  0
VERTEX
  5
292
100
AcDbEntity
  8
一般
370
              15
  6
Continuous
 62
               7
100
AcDbVertex
100
AcDb2dVertex
 10
865.78806883561629
 20
1632.4296697186453
 30
0.0
  0
VERTEX
  5
293
100
AcDbEntity
  8
一般
370
              15
  6
Continuous
 62
               7
100
AcDbVertex
100
AcDb2dVertex
 10
869.28806883561629
 20
1632.4296697186453
 30
0.0
  0
VERTEX
  5
294
100
AcDbEntity
  8
一般
370
              15
  6
Continuous
 62
               7
100
AcDbVertex
100
AcDb2dVertex
 10
869.28806883561629
 20
1628.9296697186453
 30
0.0
  0
VERTEX
  5
295
100
AcDbEntity
  8
一般
370
              15
  6
Continuous
 62
               7
100
AcDbVertex
100
AcDb2dVertex
 10
865.78806883561629
 20
1628.9296697186453
 30
0.0
  0
SEQEND
  5
296
100
AcDbEntity
  8
一般
370
              15
  6
Continuous
 62
               7
  0
CIRCLE
  5
297
100
AcDbEntity
  8
一般
370
              15
  6
Continuous
 62
               7
100
AcDbCircle
 10
867.53806883561629
 20
1630.6796697186453
 30
0.0
 40
0.6000000000003638
  0
LWPOLYLINE
  5
298
100
AcDbEntity
  8
一般
370
              15
  6
Continuous
 62
               7
100
AcDbPolyline
 90
        8
 70
             129
 10
866.03806883561629
 20
1631.8796697186453
 42
-0.414213562373095
 10
866.33806883561624
 20
1632.1796697186453
 10
868.73806883561633
 20
1632.1796697186453
 42
-0.414213562373095
 10
869.03806883561629
 20
1631.8796697186453
 10
869.03806883561629
 20
1629.4796697186453
 42
-0.414213562373095
 10
868.73806883561633
 20
1629.1796697186453
 10
866.33806883561624
 20
1629.1796697186453
 42
-0.414213562373095
 10
866.03806883561629
 20
1629.4796697186453
  0
POLYLINE
  5
299
100
AcDbEntity
  8
一般
370
              15
  6
Continuous
 62
               7
100
AcDb2dPolyline
 66
               1
 10
0.0
 20
0.0
 30
0.0
 70
               1
 75
               5
  0
VERTEX
  5
29A
100
AcDbEntity
  8
一般
370
              15
  6
Continuous
 62
               7
100
AcDbVertex
100
AcDb2dVertex
 10
872.28806883561629
 20
1632.4296697186453
 30
0.0
  0
VERTEX
  5
29B
100
AcDbEntity
  8
一般
370
              15
  6
Continuous
 62
               7
100
AcDbVertex
100
AcDb2dVertex
 10
875.78806883561629
 20
1632.4296697186453
 30
0.0
  0
VERTEX
  5
29C
100
AcDbEntity
  8
一般
370
              15
  6
Continuous
 62
               7
100
AcDbVertex
100
AcDb2dVertex
 10
875.78806883561629
 20
1628.9296697186453
 30
0.0
  0
VERTEX
  5
29D
100
AcDbEntity
  8
一般
370
              15
  6
Continuous
 62
               7
100
AcDbVertex
100
AcDb2dVertex
 10
872.28806883561629
 20
1628.9296697186453
 30
0.0
  0
SEQEND
  5
29E
100
AcDbEntity
  8
一般
370
              15
  6
Continuous
 62
               7
  0
CIRCLE
  5
29F
100
AcDbEntity
  8
一般
370
              15
  6
Continuous
 62
               7
100
AcDbCircle
 10
874.03806883561629
 20
1630.6796697186453
 30
0.0
 40
0.5999999999994543
  0
LWPOLYLINE
  5
2A0
100
AcDbEntity
  8
一般
370
              15
  6
Continuous
 62
               7
100
AcDbPolyline
 90
        8
 70
             129
 10
872.53806883561629
 20
1631.8796697186453
 42
-0.414213562373095
 10
872.83806883561624
 20
1632.1796697186453
 10
875.23806883561633
 20
1632.1796697186453
 42
-0.414213562373095
 10
875.53806883561629
 20
1631.8796697186453
 10
875.53806883561629
 20
1629.4796697186453
 42
-0.414213562373095
 10
875.23806883561633
 20
1629.1796697186453
 10
872.83806883561624
 20
1629.1796697186453
 42
-0.414213562373095
 10
872.53806883561629
 20
1629.4796697186453
  0
POLYLINE
  5
2A1
100
AcDbEntity
  8
一般
370
              15
  6
Continuous
 62
               7
100
AcDb2dPolyline
 66
               1
 10
0.0
 20
0.0
 30
0.0
 70
               1
 75
               5
  0
VERTEX
  5
2A2
100
AcDbEntity
  8
一般
370
              15
  6
Continuous
 62
               7
100
AcDbVertex
100
AcDb2dVertex
 10
878.78806883561629
 20
1632.4296697186453
 30
0.0
  0
VERTEX
  5
2A3
100
AcDbEntity
  8
一般
370
              15
  6
Continuous
 62
               7
100
AcDbVertex
100
AcDb2dVertex
 10
882.28806883561629
 20
1632.4296697186453
 30
0.0
  0
VERTEX
  5
2A4
100
AcDbEntity
  8
一般
370
              15
  6
Continuous
 62
               7
100
AcDbVertex
100
AcDb2dVertex
 10
882.28806883561629
 20
1628.9296697186453
 30
0.0
  0
VERTEX
  5
2A5
100
AcDbEntity
  8
一般
370
              15
  6
Continuous
 62
               7
100
AcDbVertex
100
AcDb2dVertex
 10
878.78806883561629
 20
1628.9296697186453
 30
0.0
  0
SEQEND
  5
2A6
100
AcDbEntity
  8
一般
370
              15
  6
Continuous
 62
               7
  0
CIRCLE
  5
2A7
100
AcDbEntity
  8
一般
370
              15
  6
Continuous
 62
               7
100
AcDbCircle
 10
880.53806883561629
 20
1630.6796697186453
 30
0.0
 40
0.5999999999994543
  0
LWPOLYLINE
  5
2A8
100
AcDbEntity
  8
一般
370
              15
  6
Continuous
 62
               7
100
AcDbPolyline
 90
        8
 70
             129
 10
879.03806883561629
 20
1631.8796697186453
 42
-0.414213562373095
 10
879.33806883561624
 20
1632.1796697186453
 10
881.73806883561633
 20
1632.1796697186453
 42
-0.414213562373095
 10
882.03806883561629
 20
1631.8796697186453
 10
882.03806883561629
 20
1629.4796697186453
 42
-0.414213562373095
 10
881.73806883561633
 20
1629.1796697186453
 10
879.33806883561624
 20
1629.1796697186453
 42
-0.414213562373095
 10
879.03806883561629
 20
1629.4796697186453
  0
POLYLINE
  5
2A9
100
AcDbEntity
  8
一般
370
              15
  6
Continuous
 62
               7
100
AcDb2dPolyline
 66
               1
 10
0.0
 20
0.0
 30
0.0
 70
               1
 75
               5
  0
VERTEX
  5
2AA
100
AcDbEntity
  8
一般
370
              15
  6
Continuous
 62
               7
100
AcDbVertex
100
AcDb2dVertex
 10
885.28806883561629
 20
1632.4296697186453
 30
0.0
  0
VERTEX
  5
2AB
100
AcDbEntity
  8
一般
370
              15
  6
Continuous
 62
               7
100
AcDbVertex
100
AcDb2dVertex
 10
888.78806883561629
 20
1632.4296697186453
 30
0.0
  0
VERTEX
  5
2AC
100
AcDbEntity
  8
一般
370
              15
  6
Continuous
 62
               7
100
AcDbVertex
100
AcDb2dVertex
 10
888.78806883561629
 20
1628.9296697186453
 30
0.0
  0
VERTEX
  5
2AD
100
AcDbEntity
  8
一般
370
              15
  6
Continuous
 62
               7
100
AcDbVertex
100
AcDb2dVertex
 10
885.28806883561629
 20
1628.9296697186453
 30
0.0
  0
SEQEND
  5
2AE
100
AcDbEntity
  8
一般
370
              15
  6
Continuous
 62
               7
  0
CIRCLE
  5
2AF
100
AcDbEntity
  8
一般
370
              15
  6
Continuous
 62
               7
100
AcDbCircle
 10
887.03806883561629
 20
1630.6796697186453
 30
0.0
 40
0.5999999999994543
  0
LWPOLYLINE
  5
2B0
100
AcDbEntity
  8
一般
370
              15
  6
Continuous
 62
               7
100
AcDbPolyline
 90
        8
 70
             129
 10
885.53806883561629
 20
1631.8796697186453
 42
-0.414213562373095
 10
885.83806883561624
 20
1632.1796697186453
 10
888.23806883561633
 20
1632.1796697186453
 42
-0.414213562373095
 10
888.53806883561629
 20
1631.8796697186453
 10
888.53806883561629
 20
1629.4796697186453
 42
-0.414213562373095
 10
888.23806883561633
 20
1629.1796697186453
 10
885.83806883561624
 20
1629.1796697186453
 42
-0.414213562373095
 10
885.53806883561629
 20
1629.4796697186453
  0
POLYLINE
  5
2B1
100
AcDbEntity
  8
一般
370
              15
  6
Continuous
 62
               7
100
AcDb2dPolyline
 66
               1
 10
0.0
 20
0.0
 30
0.0
 70
               1
 75
               5
  0
VERTEX
  5
2B2
100
AcDbEntity
  8
一般
370
              15
  6
Continuous
 62
               7
100
AcDbVertex
100
AcDb2dVertex
 10
891.78806883561629
 20
1632.4296697186453
 30
0.0
  0
VERTEX
  5
2B3
100
AcDbEntity
  8
一般
370
              15
  6
Continuous
 62
               7
100
AcDbVertex
100
AcDb2dVertex
 10
895.28806883561629
 20
1632.4296697186453
 30
0.0
  0
VERTEX
  5
2B4
100
AcDbEntity
  8
一般
370
              15
  6
Continuous
 62
               7
100
AcDbVertex
100
AcDb2dVertex
 10
895.28806883561629
 20
1628.9296697186453
 30
0.0
  0
VERTEX
  5
2B5
100
AcDbEntity
  8
一般
370
              15
  6
Continuous
 62
               7
100
AcDbVertex
100
AcDb2dVertex
 10
891.78806883561629
 20
1628.9296697186453
 30
0.0
  0
SEQEND
  5
2B6
100
AcDbEntity
  8
一般
370
              15
  6
Continuous
 62
               7
  0
CIRCLE
  5
2B7
100
AcDbEntity
  8
一般
370
              15
  6
Continuous
 62
               7
100
AcDbCircle
 10
893.53806883561629
 20
1630.6796697186453
 30
0.0
 40
0.5999999999994543
  0
LWPOLYLINE
  5
2B8
100
AcDbEntity
  8
一般
370
              15
  6
Continuous
 62
               7
100
AcDbPolyline
 90
        8
 70
             129
 10
892.03806883561629
 20
1631.8796697186453
 42
-0.414213562373095
 10
892.33806883561624
 20
1632.1796697186453
 10
894.73806883561633
 20
1632.1796697186453
 42
-0.414213562373095
 10
895.03806883561629
 20
1631.8796697186453
 10
895.03806883561629
 20
1629.4796697186453
 42
-0.414213562373095
 10
894.73806883561633
 20
1629.1796697186453
 10
892.33806883561624
 20
1629.1796697186453
 42
-0.414213562373095
 10
892.03806883561629
 20
1629.4796697186453
  0
POLYLINE
  5
2B9
100
AcDbEntity
  8
一般
370
              15
  6
Continuous
 62
               7
100
AcDb2dPolyline
 66
               1
 10
0.0
 20
0.0
 30
0.0
 70
               1
 75
               5
  0
VERTEX
  5
2BA
100
AcDbEntity
  8
一般
370
              15
  6
Continuous
 62
               7
100
AcDbVertex
100
AcDb2dVertex
 10
865.78806883561629
 20
1638.9296697186453
 30
0.0
  0
VERTEX
  5
2BB
100
AcDbEntity
  8
一般
370
              15
  6
Continuous
 62
               7
100
AcDbVertex
100
AcDb2dVertex
 10
869.28806883561629
 20
1638.9296697186453
 30
0.0
  0
VERTEX
  5
2BC
100
AcDbEntity
  8
一般
370
              15
  6
Continuous
 62
               7
100
AcDbVertex
100
AcDb2dVertex
 10
869.28806883561629
 20
1635.4296697186453
 30
0.0
  0
VERTEX
  5
2BD
100
AcDbEntity
  8
一般
370
              15
  6
Continuous
 62
               7
100
AcDbVertex
100
AcDb2dVertex
 10
865.78806883561629
 20
1635.4296697186453
 30
0.0
  0
SEQEND
  5
2BE
100
AcDbEntity
  8
一般
370
              15
  6
Continuous
 62
               7
  0
CIRCLE
  5
2BF
100
AcDbEntity
  8
一般
370
              15
  6
Continuous
 62
               7
100
AcDbCircle
 10
867.53806883561629
 20
1637.1796697186453
 30
0.0
 40
0.6000000000003638
  0
LWPOLYLINE
  5
2C0
100
AcDbEntity
  8
一般
370
              15
  6
Continuous
 62
               7
100
AcDbPolyline
 90
        8
 70
             129
 10
866.03806883561629
 20
1638.3796697186453
 42
-0.414213562373095
 10
866.33806883561624
 20
1638.6796697186453
 10
868.73806883561633
 20
1638.6796697186453
 42
-0.414213562373095
 10
869.03806883561629
 20
1638.3796697186453
 10
869.03806883561629
 20
1635.9796697186453
 42
-0.414213562373095
 10
868.73806883561633
 20
1635.6796697186453
 10
866.33806883561624
 20
1635.6796697186453
 42
-0.414213562373095
 10
866.03806883561629
 20
1635.9796697186453
  0
POLYLINE
  5
2C1
100
AcDbEntity
  8
一般
370
              15
  6
Continuous
 62
               7
100
AcDb2dPolyline
 66
               1
 10
0.0
 20
0.0
 30
0.0
 70
               1
 75
               5
  0
VERTEX
  5
2C2
100
AcDbEntity
  8
一般
370
              15
  6
Continuous
 62
               7
100
AcDbVertex
100
AcDb2dVertex
 10
872.28806883561629
 20
1638.9296697186453
 30
0.0
  0
VERTEX
  5
2C3
100
AcDbEntity
  8
一般
370
              15
  6
Continuous
 62
               7
100
AcDbVertex
100
AcDb2dVertex
 10
875.78806883561629
 20
1638.9296697186453
 30
0.0
  0
VERTEX
  5
2C4
100
AcDbEntity
  8
一般
370
              15
  6
Continuous
 62
               7
100
AcDbVertex
100
AcDb2dVertex
 10
875.78806883561629
 20
1635.4296697186453
 30
0.0
  0
VERTEX
  5
2C5
100
AcDbEntity
  8
一般
370
              15
  6
Continuous
 62
               7
100
AcDbVertex
100
AcDb2dVertex
 10
872.28806883561629
 20
1635.4296697186453
 30
0.0
  0
SEQEND
  5
2C6
100
AcDbEntity
  8
一般
370
              15
  6
Continuous
 62
               7
  0
CIRCLE
  5
2C7
100
AcDbEntity
  8
一般
370
              15
  6
Continuous
 62
               7
100
AcDbCircle
 10
874.03806883561629
 20
1637.1796697186453
 30
0.0
 40
0.5999999999994543
  0
LWPOLYLINE
  5
2C8
100
AcDbEntity
  8
一般
370
              15
  6
Continuous
 62
               7
100
AcDbPolyline
 90
        8
 70
             129
 10
872.53806883561629
 20
1638.3796697186453
 42
-0.414213562373095
 10
872.83806883561624
 20
1638.6796697186453
 10
875.23806883561633
 20
1638.6796697186453
 42
-0.414213562373095
 10
875.53806883561629
 20
1638.3796697186453
 10
875.53806883561629
 20
1635.9796697186453
 42
-0.414213562373095
 10
875.23806883561633
 20
1635.6796697186453
 10
872.83806883561624
 20
1635.6796697186453
 42
-0.414213562373095
 10
872.53806883561629
 20
1635.9796697186453
  0
POLYLINE
  5
2C9
100
AcDbEntity
  8
一般
370
              15
  6
Continuous
 62
               7
100
AcDb2dPolyline
 66
               1
 10
0.0
 20
0.0
 30
0.0
 70
               1
 75
               5
  0
VERTEX
  5
2CA
100
AcDbEntity
  8
一般
370
              15
  6
Continuous
 62
               7
100
AcDbVertex
100
AcDb2dVertex
 10
878.78806883561629
 20
1638.9296697186453
 30
0.0
  0
VERTEX
  5
2CB
100
AcDbEntity
  8
一般
370
              15
  6
Continuous
 62
               7
100
AcDbVertex
100
AcDb2dVertex
 10
882.28806883561629
 20
1638.9296697186453
 30
0.0
  0
VERTEX
  5
2CC
100
AcDbEntity
  8
一般
370
              15
  6
Continuous
 62
               7
100
AcDbVertex
100
AcDb2dVertex
 10
882.28806883561629
 20
1635.4296697186453
 30
0.0
  0
VERTEX
  5
2CD
100
AcDbEntity
  8
一般
370
              15
  6
Continuous
 62
               7
100
AcDbVertex
100
AcDb2dVertex
 10
878.78806883561629
 20
1635.4296697186453
 30
0.0
  0
SEQEND
  5
2CE
100
AcDbEntity
  8
一般
370
              15
  6
Continuous
 62
               7
  0
CIRCLE
  5
2CF
100
AcDbEntity
  8
一般
370
              15
  6
Continuous
 62
               7
100
AcDbCircle
 10
880.53806883561629
 20
1637.1796697186453
 30
0.0
 40
0.5999999999994543
  0
LWPOLYLINE
  5
2D0
100
AcDbEntity
  8
一般
370
              15
  6
Continuous
 62
               7
100
AcDbPolyline
 90
        8
 70
             129
 10
879.03806883561629
 20
1638.3796697186453
 42
-0.414213562373095
 10
879.33806883561624
 20
1638.6796697186453
 10
881.73806883561633
 20
1638.6796697186453
 42
-0.414213562373095
 10
882.03806883561629
 20
1638.3796697186453
 10
882.03806883561629
 20
1635.9796697186453
 42
-0.414213562373095
 10
881.73806883561633
 20
1635.6796697186453
 10
879.33806883561624
 20
1635.6796697186453
 42
-0.414213562373095
 10
879.03806883561629
 20
1635.9796697186453
  0
POLYLINE
  5
2D1
100
AcDbEntity
  8
一般
370
              15
  6
Continuous
 62
               7
100
AcDb2dPolyline
 66
               1
 10
0.0
 20
0.0
 30
0.0
 70
               1
 75
               5
  0
VERTEX
  5
2D2
100
AcDbEntity
  8
一般
370
              15
  6
Continuous
 62
               7
100
AcDbVertex
100
AcDb2dVertex
 10
885.28806883561629
 20
1638.9296697186453
 30
0.0
  0
VERTEX
  5
2D3
100
AcDbEntity
  8
一般
370
              15
  6
Continuous
 62
               7
100
AcDbVertex
100
AcDb2dVertex
 10
888.78806883561629
 20
1638.9296697186453
 30
0.0
  0
VERTEX
  5
2D4
100
AcDbEntity
  8
一般
370
              15
  6
Continuous
 62
               7
100
AcDbVertex
100
AcDb2dVertex
 10
888.78806883561629
 20
1635.4296697186453
 30
0.0
  0
VERTEX
  5
2D5
100
AcDbEntity
  8
一般
370
              15
  6
Continuous
 62
               7
100
AcDbVertex
100
AcDb2dVertex
 10
885.28806883561629
 20
1635.4296697186453
 30
0.0
  0
SEQEND
  5
2D6
100
AcDbEntity
  8
一般
370
              15
  6
Continuous
 62
               7
  0
CIRCLE
  5
2D7
100
AcDbEntity
  8
一般
370
              15
  6
Continuous
 62
               7
100
AcDbCircle
 10
887.03806883561629
 20
1637.1796697186453
 30
0.0
 40
0.5999999999994543
  0
LWPOLYLINE
  5
2D8
100
AcDbEntity
  8
一般
370
              15
  6
Continuous
 62
               7
100
AcDbPolyline
 90
        8
 70
             129
 10
885.53806883561629
 20
1638.3796697186453
 42
-0.414213562373095
 10
885.83806883561624
 20
1638.6796697186453
 10
888.23806883561633
 20
1638.6796697186453
 42
-0.414213562373095
 10
888.53806883561629
 20
1638.3796697186453
 10
888.53806883561629
 20
1635.9796697186453
 42
-0.414213562373095
 10
888.23806883561633
 20
1635.6796697186453
 10
885.83806883561624
 20
1635.6796697186453
 42
-0.414213562373095
 10
885.53806883561629
 20
1635.9796697186453
  0
POLYLINE
  5
2D9
100
AcDbEntity
  8
一般
370
              15
  6
Continuous
 62
               7
100
AcDb2dPolyline
 66
               1
 10
0.0
 20
0.0
 30
0.0
 70
               1
 75
               5
  0
VERTEX
  5
2DA
100
AcDbEntity
  8
一般
370
              15
  6
Continuous
 62
               7
100
AcDbVertex
100
AcDb2dVertex
 10
891.78806883561629
 20
1638.9296697186453
 30
0.0
  0
VERTEX
  5
2DB
100
AcDbEntity
  8
一般
370
              15
  6
Continuous
 62
               7
100
AcDbVertex
100
AcDb2dVertex
 10
895.28806883561629
 20
1638.9296697186453
 30
0.0
  0
VERTEX
  5
2DC
100
AcDbEntity
  8
一般
370
              15
  6
Continuous
 62
               7
100
AcDbVertex
100
AcDb2dVertex
 10
895.28806883561629
 20
1635.4296697186453
 30
0.0
  0
VERTEX
  5
2DD
100
AcDbEntity
  8
一般
370
              15
  6
Continuous
 62
               7
100
AcDbVertex
100
AcDb2dVertex
 10
891.78806883561629
 20
1635.4296697186453
 30
0.0
  0
SEQEND
  5
2DE
100
AcDbEntity
  8
一般
370
              15
  6
Continuous
 62
               7
  0
CIRCLE
  5
2DF
100
AcDbEntity
  8
一般
370
              15
  6
Continuous
 62
               7
100
AcDbCircle
 10
893.53806883561629
 20
1637.1796697186453
 30
0.0
 40
0.5999999999994543
  0
LWPOLYLINE
  5
2E0
100
AcDbEntity
  8
一般
370
              15
  6
Continuous
 62
               7
100
AcDbPolyline
 90
        8
 70
             129
 10
892.03806883561629
 20
1638.3796697186453
 42
-0.414213562373095
 10
892.33806883561624
 20
1638.6796697186453
 10
894.73806883561633
 20
1638.6796697186453
 42
-0.414213562373095
 10
895.03806883561629
 20
1638.3796697186453
 10
895.03806883561629
 20
1635.9796697186453
 42
-0.414213562373095
 10
894.73806883561633
 20
1635.6796697186453
 10
892.33806883561624
 20
1635.6796697186453
 42
-0.414213562373095
 10
892.03806883561629
 20
1635.9796697186453
  0
LINE
  5
2E1
100
AcDbEntity
  8
一般
370
              15
  6
Continuous
 62
               7
100
AcDbLine
 10
860.53806883561629
 20
1653.9296697186453
 30
0.0
 11
900.53806883561629
 21
1653.9296697186453
 31
0.0
  0
POLYLINE
  5
2E2
100
AcDbEntity
  8
一般
370
              15
  6
Continuous
 62
               7
100
AcDb2dPolyline
 66
               1
 10
0.0
 20
0.0
 30
0.0
 75
               5
  0
VERTEX
  5
2E3
100
AcDbEntity
  8
一般
370
              15
  6
Continuous
 62
               7
100
AcDbVertex
100
AcDb2dVertex
 10
843.43354342423208
 20
1460.0162428868482
 30
0.0
  0
VERTEX
  5
2E4
100
AcDbEntity
  8
一般
370
              15
  6
Continuous
 62
               7
100
AcDbVertex
100
AcDb2dVertex
 10
843.43354342423208
 20
1690.0
 30
0.0
  0
VERTEX
  5
2E5
100
AcDbEntity
  8
一般
370
              15
  6
Continuous
 62
               7
100
AcDbVertex
100
AcDb2dVertex
 10
813.43354342423208
 20
1690.0
 30
0.0
  0
VERTEX
  5
2E6
100
AcDbEntity
  8
一般
370
              15
  6
Continuous
 62
               7
100
AcDbVertex
100
AcDb2dVertex
 10
813.43354342423208
 20
1460.0162428868482
 30
0.0
  0
SEQEND
  5
2E7
100
AcDbEntity
  8
一般
370
              15
  6
Continuous
 62
               7
  0
POLYLINE
  5
2E8
100
AcDbEntity
  8
一般
370
              15
  6
Continuous
 62
               7
100
AcDb2dPolyline
 66
               1
 10
0.0
 20
0.0
 30
0.0
 75
               5
  0
VERTEX
  5
2E9
100
AcDbEntity
  8
一般
370
              15
  6
Continuous
 62
               7
100
AcDbVertex
100
AcDb2dVertex
 10
843.43354342423208
 20
1444.0162428868482
 30
0.0
  0
VERTEX
  5
2EA
100
AcDbEntity
  8
一般
370
              15
  6
Continuous
 62
               7
100
AcDbVertex
100
AcDb2dVertex
 10
843.43354342423208
 20
1090.0
 30
0.0
  0
VERTEX
  5
2EB
100
AcDbEntity
  8
一般
370
              15
  6
Continuous
 62
               7
100
AcDbVertex
100
AcDb2dVertex
 10
813.43354342423208
 20
1090.0
 30
0.0
  0
VERTEX
  5
2EC
100
AcDbEntity
  8
一般
370
              15
  6
Continuous
 62
               7
100
AcDbVertex
100
AcDb2dVertex
 10
813.43354342423208
 20
1444.0162428868482
 30
0.0
  0
SEQEND
  5
2ED
100
AcDbEntity
  8
一般
370
              15
  6
Continuous
 62
               7
  0
POLYLINE
  5
2EE
100
AcDbEntity
  8
一般
370
              15
  6
Continuous
 62
               7
100
AcDb2dPolyline
 66
               1
 10
0.0
 20
0.0
 30
0.0
 70
               1
 75
               5
  0
VERTEX
  5
2EF
100
AcDbEntity
  8
一般
370
              15
  6
Continuous
 62
               7
100
AcDbVertex
100
AcDb2dVertex
 10
798.43354342423208
 20
1460.0162428868482
 30
0.0
  0
VERTEX
  5
2F0
100
AcDbEntity
  8
一般
370
              15
  6
Continuous
 62
               7
100
AcDbVertex
100
AcDb2dVertex
 10
858.43354342423299
 20
1460.0162428868482
 30
0.0
  0
VERTEX
  5
2F1
100
AcDbEntity
  8
一般
370
              15
  6
Continuous
 62
               7
100
AcDbVertex
100
AcDb2dVertex
 10
858.43354342423299
 20
1444.0162428868482
 30
0.0
  0
VERTEX
  5
2F2
100
AcDbEntity
  8
一般
370
              15
  6
Continuous
 62
               7
100
AcDbVertex
100
AcDb2dVertex
 10
798.43354342423208
 20
1444.0162428868482
 30
0.0
  0
SEQEND
  5
2F3
100
AcDbEntity
  8
一般
370
              15
  6
Continuous
 62
               7
  0
POLYLINE
  5
2F4
100
AcDbEntity
  8
一般
370
              15
  6
Continuous
 62
               7
100
AcDb2dPolyline
 66
               1
 10
0.0
 20
0.0
 30
0.0
 70
               1
 75
               5
  0
VERTEX
  5
2F5
100
AcDbEntity
  8
一般
370
              15
  6
Continuous
 62
               7
100
AcDbVertex
100
AcDb2dVertex
 10
766.93354342423208
 20
1460.0162428868482
 30
0.0
  0
VERTEX
  5
2F6
100
AcDbEntity
  8
一般
370
              15
  6
Continuous
 62
               7
100
AcDbVertex
100
AcDb2dVertex
 10
796.93354342423208
 20
1460.0162428868482
 30
0.0
  0
VERTEX
  5
2F7
100
AcDbEntity
  8
一般
370
              15
  6
Continuous
 62
               7
100
AcDbVertex
100
AcDb2dVertex
 10
796.93354342423208
 20
1444.0162428868482
 30
0.0
  0
VERTEX
  5
2F8
100
AcDbEntity
  8
一般
370
              15
  6
Continuous
 62
               7
100
AcDbVertex
100
AcDb2dVertex
 10
766.93354342423208
 20
1444.0162428868482
 30
0.0
  0
SEQEND
  5
2F9
100
AcDbEntity
  8
一般
370
              15
  6
Continuous
 62
               7
  0
POLYLINE
  5
2FA
100
AcDbEntity
  8
一般
370
              15
  6
Continuous
 62
               7
100
AcDb2dPolyline
 66
               1
 10
0.0
 20
0.0
 30
0.0
 70
               1
 75
               5
  0
VERTEX
  5
2FB
100
AcDbEntity
  8
一般
370
              15
  6
Continuous
 62
               7
100
AcDbVertex
100
AcDb2dVertex
 10
859.93354342423299
 20
1460.0162428868482
 30
0.0
  0
VERTEX
  5
2FC
100
AcDbEntity
  8
一般
370
              15
  6
Continuous
 62
               7
100
AcDbVertex
100
AcDb2dVertex
 10
891.9335434242339
 20
1460.0162428868482
 30
0.0
  0
VERTEX
  5
2FD
100
AcDbEntity
  8
一般
370
              15
  6
Continuous
 62
               7
100
AcDbVertex
100
AcDb2dVertex
 10
891.9335434242339
 20
1444.0162428868482
 30
0.0
  0
VERTEX
  5
2FE
100
AcDbEntity
  8
一般
370
              15
  6
Continuous
 62
               7
100
AcDbVertex
100
AcDb2dVertex
 10
859.93354342423299
 20
1444.0162428868482
 30
0.0
  0
SEQEND
  5
2FF
100
AcDbEntity
  8
一般
370
              15
  6
Continuous
 62
               7
  0
POLYLINE
  5
300
100
AcDbEntity
  8
一般
370
              15
  6
Continuous
 62
               7
100
AcDb2dPolyline
 66
               1
 10
0.0
 20
0.0
 30
0.0
 75
               5
  0
VERTEX
  5
301
100
AcDbEntity
  8
一般
370
              15
  6
Continuous
 62
               7
100
AcDbVertex
100
AcDb2dVertex
 10
795.74580801058528
 20
1974.9815639643991
 30
0.0
  0
VERTEX
  5
302
100
AcDbEntity
  8
一般
370
              15
  6
Continuous
 62
               7
100
AcDbVertex
100
AcDb2dVertex
 10
795.74580801058528
 20
1974.9815639643991
 30
0.0
  0
VERTEX
  5
303
100
AcDbEntity
  8
一般
370
              15
  6
Continuous
 62
               7
100
AcDbVertex
100
AcDb2dVertex
 10
795.74580801058528
 20
2019.9815639643991
 30
0.0
  0
VERTEX
  5
304
100
AcDbEntity
  8
一般
370
              15
  6
Continuous
 62
               7
100
AcDbVertex
100
AcDb2dVertex
 10
810.74580801058528
 20
2019.9815639643991
 30
0.0
  0
SEQEND
  5
305
100
AcDbEntity
  8
一般
370
              15
  6
Continuous
 62
               7
  0
POLYLINE
  5
306
100
AcDbEntity
  8
一般
370
              15
  6
Continuous
 62
               7
100
AcDb2dPolyline
 66
               1
 10
0.0
 20
0.0
 30
0.0
 75
               5
  0
VERTEX
  5
307
100
AcDbEntity
  8
一般
370
              15
  6
Continuous
 62
               7
100
AcDbVertex
100
AcDb2dVertex
 10
855.74580801058528
 20
1974.9815639643991
 30
0.0
  0
VERTEX
  5
308
100
AcDbEntity
  8
一般
370
              15
  6
Continuous
 62
               7
100
AcDbVertex
100
AcDb2dVertex
 10
855.74580801058528
 20
1974.9815639643991
 30
0.0
  0
VERTEX
  5
309
100
AcDbEntity
  8
一般
370
              15
  6
Continuous
 62
               7
100
AcDbVertex
100
AcDb2dVertex
 10
795.74580801058528
 20
1974.9815639643991
 30
0.0
  0
SEQEND
  5
30A
100
AcDbEntity
  8
一般
370
              15
  6
Continuous
 62
               7
  0
POLYLINE
  5
30B
100
AcDbEntity
  8
一般
370
              15
  6
Continuous
 62
               7
100
AcDb2dPolyline
 66
               1
 10
0.0
 20
0.0
 30
0.0
 75
               5
  0
VERTEX
  5
30C
100
AcDbEntity
  8
一般
370
              15
  6
Continuous
 62
               7
100
AcDbVertex
100
AcDb2dVertex
 10
840.74580801058528
 20
2019.9815639643991
 30
0.0
  0
VERTEX
  5
30D
100
AcDbEntity
  8
一般
370
              15
  6
Continuous
 62
               7
100
AcDbVertex
100
AcDb2dVertex
 10
855.74580801058528
 20
2019.9815639643991
 30
0.0
  0
VERTEX
  5
30E
100
AcDbEntity
  8
一般
370
              15
  6
Continuous
 62
               7
100
AcDbVertex
100
AcDb2dVertex
 10
855.74580801058528
 20
1974.9815639643991
 30
0.0
  0
SEQEND
  5
30F
100
AcDbEntity
  8
一般
370
              15
  6
Continuous
 62
               7
  0
ARC
  5
310
100
AcDbEntity
  8
一般
370
              15
  6
Continuous
 62
               7
100
AcDbCircle
 10
825.74580801058528
 20
1997.4815639643991
 30
0.0
 40
20.999999999999915
100
AcDbArc
 50
135.58469140280727
 51
44.415308597192308
  0
LWPOLYLINE
  5
311
100
AcDbEntity
  8
一般
370
              15
  6
Continuous
 62
               7
100
AcDbPolyline
 90
        4
 70
             128
 10
764.24580801058528
 20
1974.9815639643991
 10
764.24580801058528
 20
2019.9815639643991
 10
794.24580801058528
 20
2019.9815639643991
 10
794.24580801058528
 20
1974.9815639643991
  0
LINE
  5
312
100
AcDbEntity
  8
一般
370
              15
  6
Continuous
 62
               7
100
AcDbLine
 10
794.24580801058528
 20
1974.9815639643991
 30
0.0
 11
764.24580801058528
 21
1974.9815639643991
 31
0.0
  0
LWPOLYLINE
  5
313
100
AcDbEntity
  8
一般
370
              15
  6
Continuous
 62
               7
100
AcDbPolyline
 90
        3
 70
             128
 10
884.21795102482031
 20
1988.2439502131347
 42
-0.1444709201449379
 10
878.2458080105846
 20
1986.4815639643991
 42
-0.1646888704726648
 10
871.56343523336693
 20
1988.7439502131338
 42
-0.1646888704726648
  0
LWPOLYLINE
  5
314
100
AcDbEntity
  8
一般
370
              15
  6
Continuous
 62
               7
100
AcDbPolyline
 90
        3
 70
             128
 10
857.24580801058528
 20
1974.9815639643991
 10
889.24580801058528
 20
1974.9815639643991
 10
889.24580801058528
 20
1988.2439502131351
  0
LWPOLYLINE
  5
315
100
AcDbEntity
  8
一般
370
              15
  6
Continuous
 62
               7
100
AcDbPolyline
 90
        4
 70
             128
 10
889.24580801058528
 20
2008.7439502131351
 10
889.24580801058528
 20
2019.9815639643991
 10
857.24580801058528
 20
2019.9815639643991
 10
857.24580801058528
 20
1974.9815639643991
  0
POLYLINE
  5
316
100
AcDbEntity
  8
一般
370
              15
  6
Continuous
 62
               7
100
AcDb2dPolyline
 66
               1
 10
0.0
 20
0.0
 30
0.0
 70
               1
 75
               5
  0
VERTEX
  5
317
100
AcDbEntity
  8
一般
370
              15
  6
Continuous
 62
               7
100
AcDbVertex
100
AcDb2dVertex
 10
810.74580801058528
 20
2069.9815639643994
 30
0.0
  0
VERTEX
  5
318
100
AcDbEntity
  8
一般
370
              15
  6
Continuous
 62
               7
100
AcDbVertex
100
AcDb2dVertex
 10
840.74580801058528
 20
2069.9815639643994
 30
0.0
  0
VERTEX
  5
319
100
AcDbEntity
  8
一般
370
              15
  6
Continuous
 62
               7
100
AcDbVertex
100
AcDb2dVertex
 10
840.74580801058528
 20
1999.9815639643991
 30
0.0
  0
VERTEX
  5
31A
100
AcDbEntity
  8
一般
370
              15
  6
Continuous
 62
               7
100
AcDbVertex
100
AcDb2dVertex
 10
810.74580801058528
 20
1999.9815639643991
 30
0.0
  0
SEQEND
  5
31B
100
AcDbEntity
  8
一般
370
              15
  6
Continuous
 62
               7
  0
POLYLINE
  5
31C
100
AcDbEntity
  8
一般
370
              15
  6
Continuous
 62
               7
100
AcDb2dPolyline
 66
               1
 10
0.0
 20
0.0
 30
0.0
 70
               1
 75
               5
  0
VERTEX
  5
31D
100
AcDbEntity
  8
一般
370
              15
  6
Continuous
 62
               7
100
AcDbVertex
100
AcDb2dVertex
 10
810.74580801058528
 20
1999.9815639643991
 30
0.0
  0
VERTEX
  5
31E
100
AcDbEntity
  8
一般
370
              15
  6
Continuous
 62
               7
100
AcDbVertex
100
AcDb2dVertex
 10
840.74580801058528
 20
1999.9815639643991
 30
0.0
  0
VERTEX
  5
31F
100
AcDbEntity
  8
一般
370
              15
  6
Continuous
 62
               7
100
AcDbVertex
100
AcDb2dVertex
 10
840.74580801058528
 20
1994.9815639643991
 30
0.0
  0
VERTEX
  5
320
100
AcDbEntity
  8
一般
370
              15
  6
Continuous
 62
               7
100
AcDbVertex
100
AcDb2dVertex
 10
810.74580801058528
 20
1994.9815639643991
 30
0.0
  0
SEQEND
  5
321
100
AcDbEntity
  8
一般
370
              15
  6
Continuous
 62
               7
  0
ARC
  5
322
100
AcDbEntity
  8
一般
370
              15
  6
Continuous
 62
               7
100
AcDbCircle
 10
878.61592892750787
 20
1998.7439502131351
 30
0.0
 40
12.250000000000146
100
AcDbArc
 50
234.71873817273305
 51
301.00271913387337
  0
ARC
  5
323
100
AcDbEntity
  8
一般
370
              15
  6
Continuous
 62
               7
100
AcDbCircle
 10
878.61592892750787
 20
1998.7439502131351
 30
0.0
 40
12.249999999999885
100
AcDbArc
 50
54.718738172734739
 51
125.281261827267
  0
LWPOLYLINE
  5
324
100
AcDbEntity
  8
一般
370
              15
  6
Continuous
 62
               7
100
AcDbPolyline
 90
        8
 70
             129
 10
858.61592892750787
 20
2005.7439502131351
 42
-0.414213562373095
 10
861.61592892750787
 20
2008.7439502131351
 10
895.61592892750787
 20
2008.7439502131351
 42
-0.414213562373095
 10
898.61592892750787
 20
2005.7439502131351
 10
898.61592892750787
 20
1991.7439502131351
 42
-0.414213562373095
 10
895.61592892750787
 20
1988.7439502131351
 10
861.61592892750787
 20
1988.7439502131351
 42
-0.414213562373095
 10
858.61592892750787
 20
1991.7439502131351
  0
LWPOLYLINE
  5
325
100
AcDbEntity
  8
一般
370
              15
  6
Continuous
 62
               7
100
AcDbPolyline
 90
        6
 70
             128
 10
889.86592892750787
 20
1988.2439502131351
 10
893.36592892750787
 20
1988.2439502131351
 10
889.86592892750787
 20
1988.2439502131351
 10
889.86592892750787
 20
1988.7439502131351
 10
893.36592892750787
 20
1988.7439502131351
 10
893.36592892750787
 20
1988.2439502131351
  0
LINE
  5
326
100
AcDbEntity
  8
一般
370
              15
  6
Continuous
 62
               7
100
AcDbLine
 10
893.36592892750787
 20
1988.2439502131351
 30
0.0
 11
889.86592892750787
 21
1988.2439502131351
 31
0.0
  0
INSERT
  5
327
100
AcDbEntity
  8
一般
 62
               7
100
AcDbBlockReference
  2
グループ-3
 10
1450.0
 20
1020.0
 30
0.0
  0
ENDSEC
  0
SECTION
  2
OBJECTS
  0
DICTIONARY
  5
19
100
AcDbDictionary
280
               0
281
               1
  3
ACAD_GROUP
350
1A
  3
ACAD_MLINESTYLE
350
1B
  3
ACAD_LAYOUT
350
1E
  3
ACAD_PLOTSETTINGS
350
22
  3
ACAD_PLOTSTYLENAME
350
1F
  3
ACAD_WIPEOUT_VARS
350
23
  0
DICTIONARY
  5
1A
102
{ACAD_REACTORS
330
19
102
}
100
AcDbDictionary
280
               0
281
               1
  0
DICTIONARY
  5
1B
102
{ACAD_REACTORS
330
19
102
}
100
AcDbDictionary
280
               0
281
               1
  3
Standard
350
1C
  0
MLINESTYLE
  5
1C
102
{ACAD_REACTORS
330
1B
102
}
100
AcDbMlineStyle
  2
Standard
 70
               0
  3

 62
               0
 51
90.0
 52
90.0
 71
               2
 49
0.5
 62
             256
  6
ByLayer
 49
-0.5
 62
             256
  6
ByLayer
  0
ACDBDICTIONARYWDFLT
  5
1F
102
{ACAD_REACTORS
330
19
102
}
100
AcDbDictionary
281
               1
  3
Normal
350
1D
100
AcDbDictionaryWithDefault
340
1D
  0
ACDBPLACEHOLDER
  5
1D
102
{ACAD_REACTORS
330
1F
102
}
  0
LAYOUT
  5
20
102
{ACAD_REACTORS
330
1E
102
}
100
AcDbPlotSettings
  1

  2

  4

  6

 40
0.0
 41
0.0
 42
0.0
 43
0.0
 44
0.0
 45
0.0
 46
0.0
 47
0.0
 48
0.0
 49
0.0
140
0.0
141
0.0
142
1.0
143
1.0
 70
            1024
 72
               0
 73
               0
 74
               0
  7

 75
               0
147
1.0
148
0.0
149
0.0
100
AcDbLayout
  1
Model
 70
               0
 71
               0
 10
0.0
 20
0.0
 11
0.0
 21
0.0
 12
0.0
 22
0.0
 32
0.0
 14
0.0
 24
0.0
 34
0.0
 15
0.0
 25
0.0
 35
0.0
146
0.0
 13
0.0
 23
0.0
 33
0.0
 16
0.0
 26
0.0
 36
0.0
 17
0.0
 27
0.0
 37
0.0
 76
               0
330
A
331
0
345
0
346
0
  0
LAYOUT
  5
21
102
{ACAD_REACTORS
330
1E
102
}
100
AcDbPlotSettings
  1

  2

  4

  6

 40
0.0
 41
0.0
 42
0.0
 43
0.0
 44
0.0
 45
0.0
 46
0.0
 47
0.0
 48
0.0
 49
0.0
140
0.0
141
0.0
142
1.0
143
1.0
 70
               0
 72
               0
 73
               0
 74
               0
  7

 75
               0
147
1.0
148
0.0
149
0.0
100
AcDbLayout
  1
Layout1
 70
               0
 71
               0
 10
0.0
 20
0.0
 11
0.0
 21
0.0
 12
0.0
 22
0.0
 32
0.0
 14
0.0
 24
0.0
 34
0.0
 15
0.0
 25
0.0
 35
0.0
146
0.0
 13
0.0
 23
0.0
 33
0.0
 16
0.0
 26
0.0
 36
0.0
 17
0.0
 27
0.0
 37
0.0
 76
               0
330
B
331
0
345
0
346
0
  0
DICTIONARY
  5
1E
102
{ACAD_REACTORS
330
19
102
}
100
AcDbDictionary
280
               0
281
               1
  3
Layout1
350
21
  3
Model
350
20
  0
DICTIONARY
  5
22
102
{ACAD_REACTORS
330
19
102
}
100
AcDbDictionary
280
               0
281
               1
  0
WIPEOUTVARIABLES
  5
23
100
AcDbWipeoutVariables
 70
               0
  0
ENDSEC
  0
EOF
