  0
SECTION
  2
HEADER
  9
$ACADVER
  1
AC1009
  9
$INSBASE
 10
0
 20
0
 30
0
  9
$EXTMIN
 10
0
 20
0
  9
$EXTMAX
 10
2970
 20
2100
  9
$LIMMIN
 10
0
 20
0
  9
$LIMMAX
 10
2970
 20
2100
  9
$LTSCALE
 40
10
  0
ENDSEC
  0
SECTION
  2
TABLES
  0
TABLE
  2
LTYPE
 70
     9
  0
LTYPE
  2
CONTINUOUS
 70
    64
  3
実線
 72
    65
 73
     0
 40
0.0
  0
LTYPE
  2
DASHED1
 70
    64
  3
--  --  --  --  --  --  --  --  
 72
    65
 73
     2
 40
2.5
 49
1.25
 49
-1.25
  0
LTYPE
  2
DASHED2
 70
    64
  3
----    ----    ----    ----    
 72
    65
 73
     2
 40
5.0
 49
2.5
 49
-2.5
  0
LTYPE
  2
DASHED3
 70
    64
  3
------  ------  ------  ------  
 72
    65
 73
     2
 40
5.0
 49
3.75
 49
-1.25
  0
LTYPE
  2
CENTER1
 70
    64
  3
----- - ----- - ----- - ----- - 
 72
    65
 73
     4
 40
10.0
 49
6.25
 49
-1.25
 49
1.25
 49
-1.25
  0
LTYPE
  2
CENTER2
 70
    64
  3
----------  --  ----------  --  
 72
    65
 73
     4
 40
20.0
 49
12.5
 49
-2.5
 49
2.5
 49
-2.5
  0
LTYPE
  2
PHANTOM1
 70
    64
  3
--- - - --- - - --- - - --- - - 
 72
    65
 73
     6
 40
10.0
 49
3.25
 49
-1.25
 49
1.25
 49
-1.25
 49
1.25
 49
-1.25
  0
LTYPE
  2
PHANTOM2
 70
    64
  3
--------  -  -  --------  -  -  
 72
    65
 73
     6
 40
20.0
 49
10.0
 49
-2.5
 49
1.25
 49
-2.5
 49
1.25
 49
-2.5
  0
LTYPE
  2
DOT
 70
    64
  3
-   -   -   -   -   -   -   -   
 72
    65
 73
     2
 40
2.5
 49
0.625
 49
-1.875
  0
LTYPE
  2
DUMMY
 70
    64
  3
ダミー
 72
    65
 73
     0
 40
0.0
  0
LTYPE
  2
RAND1
 70
    64
  3
ランダム線1
 72
    65
 73
     4
 40
10.0
 49
1.0
 49
-2.0
 49
3.0
 49
-4.0
  0
LTYPE
  2
RAND2
 70
    64
  3
ランダム線2
 72
    65
 73
     4
 40
14.0
 49
2.0
 49
-3.0
 49
4.0
 49
-5.0
  0
LTYPE
  2
RAND3
 70
    64
  3
ランダム線3
 72
    65
 73
     4
 40
18.0
 49
3.0
 49
-4.0
 49
5.0
 49
-6.0
  0
LTYPE
  2
RAND4
 70
    64
  3
ランダム線4
 72
    65
 73
     4
 40
22.0
 49
4.0
 49
-5.0
 49
6.0
 49
-7.0
  0
LTYPE
  2
RAND5
 70
    64
  3
ランダム線5
 72
    65
 73
     4
 40
26.0
 49
5.0
 49
-6.0
 49
7.0
 49
-8.0
  0
LTYPE
  2
LONG1
 70
    64
  3
----------  --  ----------  --  
 72
    65
 73
     4
 40
40.0
 49
32.5
 49
-2.5
 49
2.5
 49
-2.5
  0
LTYPE
  2
LONG2
 70
    64
  3
--------  -  -  --------  -  -  
 72
    65
 73
     6
 40
40.0
 49
30.0
 49
-2.5
 49
1.25
 49
-2.5
 49
1.25
 49
-2.5
  0
LTYPE
  2
LONG3
 70
    64
  3
+++++++++++++++..+++++++++++++++
 72
    65
 73
     2
 40
40.0
 49
37.5
 49
-2.5
  0
LTYPE
  2
LONG4
 70
    64
  3
+++++++++++++++..+++++++++++++++
 72
    65
 73
     2
 40
80.0
 49
75.0
 49
-5.0
  0
LTYPE
  2
LONG5
 70
    64
  3
----------  --  ----------  --  
 72
    65
 73
     4
 40
60.0
 49
37.5
 49
-7.5
 49
7.5
 49
-7.5
  0
LTYPE
  2
dashed
 70
   64
  3
-------   -------------   ------
 72
   65
 73
    2
 40
7.5
 49
6
 49
-1.5
  0
LTYPE
  2
dashed_spaced
 70
   64
  3
----        --------        ----
 72
   65
 73
    2
 40
12
 49
6
 49
-6
  0
LTYPE
  2
long_dashed_dotted
 70
   64
  3
------------- --- --------------
 72
   65
 73
    4
 40
15.25
 49
12
 49
-1.5
 49
0.25
 49
-1.5
  0
LTYPE
  2
long_dashed_double-dotted
 70
   64
  3
----------- --- --- ------------
 72
   65
 73
    6
 40
17
 49
12
 49
-1.5
 49
0.25
 49
-1.5
 49
0.25
 49
-1.5
  0
LTYPE
  2
long_dashed_triplicate-dotted
 70
   64
  3
--------- --- --- --- ----------
 72
   65
 73
    8
 40
18.75
 49
12
 49
-1.5
 49
0.25
 49
-1.5
 49
0.25
 49
-1.5
 49
0.25
 49
-1.5
  0
LTYPE
  2
dotted
 70
   64
  3
   -       -       -       -    
 72
   65
 73
    2
 40
1.75
 49
0.25
 49
-1.5
  0
LTYPE
  2
chain
 70
   64
  3
-------------- -- --------------
 72
   65
 73
    4
 40
18.5
 49
12
 49
-1.5
 49
3.5
 49
-1.5
  0
LTYPE
  2
chain_double_dash
 70
   64
  3
------------ -- -- -------------
 72
   65
 73
    6
 40
23.5
 49
12
 49
-1.5
 49
3.5
 49
-1.5
 49
3.5
 49
-1.5
  0
LTYPE
  2
dashed_dotted
 70
   64
  3
-----------     -     ----------
 72
   65
 73
    4
 40
9.25
 49
6
 49
-1.5
 49
0.25
 49
-1.5
  0
LTYPE
  2
double-dashed_dotted
 70
   64
  3
------   -----------   -   -----
 72
   65
 73
    6
 40
16.75
 49
6
 49
-1.5
 49
6
 49
-1.5
 49
0.25
 49
-1.5
  0
LTYPE
  2
dashed_double-dotted
 70
   64
  3
---------    -    -    ---------
 72
   65
 73
    6
 40
11
 49
6
 49
-1.5
 49
0.25
 49
-1.5
 49
0.25
 49
-1.5
  0
LTYPE
  2
double-dashed_double-dotted
 70
   64
  3
-----   ---------   -   -   ----
 72
   65
 73
    8
 40
18.5
 49
6
 49
-1.5
 49
6
 49
-1.5
 49
0.25
 49
-1.5
 49
0.25
 49
-1.5
  0
LTYPE
  2
dashed_triplicate-dotted
 70
   64
  3
-------    -    -    -    ------
 72
   65
 73
    8
 40
12.75
 49
6
 49
-1.5
 49
0.25
 49
-1.5
 49
0.25
 49
-1.5
 49
0.25
 49
-1.5
  0
LTYPE
  2
double-dashed_triplicate-dotted
 70
   64
  3
-----  ---------  -  -  -  -----
 72
   65
 73
   10
 40
20.25
 49
6
 49
-1.5
 49
6
 49
-1.5
 49
0.25
 49
-1.5
 49
0.25
 49
-1.5
 49
0.25
 49
-1.5
  0
LTYPE
  2
undefined
 70
   64
  3
--------------------------------
 72
   65
 73
    0
 40
0
  0
LTYPE
  2
_
 70
   64
  3
                                
 72
   65
 73
    0
 40
0
  0
LTYPE
  2
__18
 70
   64
  3
                                
 72
   65
 73
    0
 40
0
  0
LTYPE
  2
__19
 70
   64
  3
                                
 72
   65
 73
    0
 40
0
  0
LTYPE
  2
__20
 70
   64
  3
                                
 72
   65
 73
    0
 40
0
  0
LTYPE
  2
__21
 70
   64
  3
                                
 72
   65
 73
    0
 40
0
  0
LTYPE
  2
__22
 70
   64
  3
                                
 72
   65
 73
    0
 40
0
  0
LTYPE
  2
__23
 70
   64
  3
                                
 72
   65
 73
    0
 40
0
  0
LTYPE
  2
__24
 70
   64
  3
                                
 72
   65
 73
    0
 40
0
  0
LTYPE
  2
__25
 70
   64
  3
                                
 72
   65
 73
    0
 40
0
  0
LTYPE
  2
__26
 70
   64
  3
                                
 72
   65
 73
    0
 40
0
  0
LTYPE
  2
__27
 70
   64
  3
                                
 72
   65
 73
    0
 40
0
  0
LTYPE
  2
__28
 70
   64
  3
                                
 72
   65
 73
    0
 40
0
  0
LTYPE
  2
__29
 70
   64
  3
                                
 72
   65
 73
    0
 40
0
  0
LTYPE
  2
__30
 70
   64
  3
                                
 72
   65
 73
    0
 40
0
  0
LTYPE
  2
__31
 70
   64
  3
                                
 72
   65
 73
    0
 40
0
  0
LTYPE
  2
__32
 70
   64
  3
                                
 72
   65
 73
    0
 40
0
  0
ENDTAB
  0
TABLE
  2
STYLE
  5
3
100
AcDbSymbolTable
 70
     1
  0
STYLE
  5
10
100
AcDbSymbolTableRecord
100
AcDbTextStyleTableRecord
  2
STANDARD
 70
     0
 40
0.0
 41
1.0
 50
0.0
 71
     0
 42
0.2
  3
txt
  4
bigfont.shx
  0
STYLE
  5
26
100
AcDbSymbolTableRecord
100
AcDbTextStyleTableRecord
  2
TATEGAKI
 70
    68
 40
0.0
 41
1.0
 50
0.0
 71
     0
 42
1.0
  3
txt
  4
bigfont.shx
  0
ENDTAB
  0
TABLE
  2
LAYER
 70
    3
  0
LAYER
  2
_0-0_
 70
   64
 62
    7
  6
CONTINUOUS
  0
LAYER
  2
_1-0_
 70
   64
 62
    7
  6
CONTINUOUS
  0
LAYER
  2
ADD_LINE
 70
   64
 62
    7
  6
CONTINUOUS
  0
ENDTAB
  0
ENDSEC
  0
SECTION
  2
BLOCKS
  0
ENDSEC
  0
SECTION
  2
ENTITIES
  0
LINE
  8
_1-0_
  6
CONTINUOUS
 62
    7
 10
1279.9102223517812
 20
484.07385675143087
 11
1659.9102123363596
 21
484.07385675143087
  0
LINE
  8
_1-0_
  6
CONTINUOUS
 62
    7
 10
1409.9102235300661
 20
394.07386603042426
 11
1529.9102111580748
 21
394.07386603042426
  0
LINE
  8
_1-0_
  6
CONTINUOUS
 62
    7
 10
1447.4102305997753
 20
394.07386603042426
 11
1447.4102305997753
 21
420.72238598090797
  0
LINE
  8
_1-0_
  6
CONTINUOUS
 62
    7
 10
1492.4102040883656
 20
394.07386603042426
 11
1447.4102305997753
 21
394.07386603042426
  0
LINE
  8
_1-0_
  6
CONTINUOUS
 62
    7
 10
1492.4102040883656
 20
420.72238598090797
 11
1492.4102040883656
 21
394.07386603042426
  0
LINE
  8
_1-0_
  6
CONTINUOUS
 62
    7
 10
860.82827358172199
 20
484.07385675143087
 11
260.82829169785185
 21
484.07385675143087
  0
LINE
  8
_1-0_
  6
CONTINUOUS
 62
    7
 10
620.8282983257044
 20
394.07386603042426
 11
500.82831069769543
 21
394.07386603042426
  0
LINE
  8
_1-0_
  6
CONTINUOUS
 62
    7
 10
538.32831776740466
 20
419.07385616228845
 11
583.32829125599517
 21
419.07385616228845
  0
LINE
  8
_1-0_
  6
CONTINUOUS
 62
    7
 10
583.32829125599517
 20
419.07385616228845
 11
583.32829125599517
 21
394.07386603042426
  0
LINE
  8
_1-0_
  6
CONTINUOUS
 62
    7
 10
583.32829125599517
 20
394.07386603042426
 11
538.32831776740466
 21
394.07386603042426
  0
LINE
  8
_1-0_
  6
CONTINUOUS
 62
    7
 10
538.32831776740466
 20
394.07386603042426
 11
538.32831776740466
 21
419.07385616228845
  0
LINE
  8
_1-0_
  6
CONTINUOUS
 62
    7
 10
560.82830451170003
 20
1172.0739053851387
 11
577.07843589046297
 21
1171.5680517837347
  0
LINE
  8
_1-0_
  6
CONTINUOUS
 62
    7
 10
577.07843589046297
 20
1171.5680517837347
 11
592.55841347241494
 21
1171.0504748370195
  0
LINE
  8
_1-0_
  6
CONTINUOUS
 62
    7
 10
592.55841347241494
 20
1171.0504748370195
 11
607.26823725755605
 21
1170.5211745449933
  0
LINE
  8
_1-0_
  6
CONTINUOUS
 62
    7
 10
607.26823725755605
 20
1170.5211745449933
 11
621.2078635020606
 21
1169.9801509076563
  0
LINE
  8
_1-0_
  6
CONTINUOUS
 62
    7
 10
621.2078635020606
 20
1169.9801509076563
 11
634.37733594975407
 21
1169.4274039250083
  0
LINE
  8
_1-0_
  6
CONTINUOUS
 62
    7
 10
634.37733594975407
 20
1169.4274039250083
 11
646.77665460063679
 21
1168.8629335970491
  0
LINE
  8
_1-0_
  6
CONTINUOUS
 62
    7
 10
646.77665460063679
 20
1168.8629335970491
 11
658.40577571088272
 21
1168.2867399237789
  0
LINE
  8
_1-0_
  6
CONTINUOUS
 62
    7
 10
658.40577571088272
 20
1168.2867399237789
 11
669.2646992804921
 21
1167.6989103928495
  0
LINE
  8
_1-0_
  6
CONTINUOUS
 62
    7
 10
669.2646992804921
 20
1167.6989103928495
 11
679.35351279711631
 21
1167.0992700289573
  0
LINE
  8
_1-0_
  6
CONTINUOUS
 62
    7
 10
679.35351279711631
 20
1167.0992700289573
 11
688.67212877310385
 21
1166.4879063197545
  0
LINE
  8
_1-0_
  6
CONTINUOUS
 62
    7
 10
688.67212877310385
 20
1166.4879063197545
 11
697.2205472084546
 21
1165.8649067528918
  0
LINE
  8
_1-0_
  6
CONTINUOUS
 62
    7
 10
697.2205472084546
 20
1165.8649067528918
 11
704.9988118469945
 21
1165.230096353067
  0
LINE
  8
_1-0_
  6
CONTINUOUS
 62
    7
 10
704.9988118469945
 20
1165.230096353067
 11
712.00692268872342
 21
1164.5836500955825
  0
LINE
  8
_1-0_
  6
CONTINUOUS
 62
    7
 10
712.00692268872342
 20
1164.5836500955825
 11
718.2448359898159
 21
1163.9254804927868
  0
LINE
  8
_1-0_
  6
CONTINUOUS
 62
    7
 10
718.2448359898159
 20
1163.9254804927868
 11
723.71259549409729
 21
1163.2555000570289
  0
LINE
  8
_1-0_
  6
CONTINUOUS
 62
    7
 10
723.71259549409729
 20
1163.2555000570289
 11
728.4102012015677
 21
1162.5738837636115
  0
LINE
  8
_1-0_
  6
CONTINUOUS
 62
    7
 10
728.4102012015677
 20
1162.5738837636115
 11
732.65825161142232
 21
1161.8922674701939
  0
LINE
  8
_1-0_
  6
CONTINUOUS
 62
    7
 10
732.65825161142232
 20
1161.8922674701939
 11
736.77734522285607
 21
1161.222287034436
  0
LINE
  8
_1-0_
  6
CONTINUOUS
 62
    7
 10
736.77734522285607
 20
1161.222287034436
 11
740.76756952352048
 21
1160.5641174316404
  0
LINE
  8
_1-0_
  6
CONTINUOUS
 62
    7
 10
740.76756952352048
 20
1160.5641174316404
 11
744.62892451341543
 21
1159.9175836865045
  0
LINE
  8
_1-0_
  6
CONTINUOUS
 62
    7
 10
744.62892451341543
 20
1159.9175836865045
 11
748.36132270488963
 21
1159.2828607743311
  0
LINE
  8
_1-0_
  6
CONTINUOUS
 62
    7
 10
748.36132270488963
 20
1159.2828607743311
 11
751.96485158559437
 21
1158.6597737198169
  0
LINE
  8
_1-0_
  6
CONTINUOUS
 62
    7
 10
751.96485158559437
 20
1158.6597737198169
 11
755.43951115552977
 21
1158.0484974982655
  0
LINE
  8
_1-0_
  6
CONTINUOUS
 62
    7
 10
755.43951115552977
 20
1158.0484974982655
 11
758.78521392704431
 21
1157.4488571343734
  0
LINE
  8
_1-0_
  6
CONTINUOUS
 62
    7
 10
758.78521392704431
 20
1157.4488571343734
 11
762.00195990013799
 21
1156.861027603444
  0
LINE
  8
_1-0_
  6
CONTINUOUS
 62
    7
 10
762.00195990013799
 20
1156.861027603444
 11
765.08983656246232
 21
1156.2848339301738
  0
LINE
  8
_1-0_
  6
CONTINUOUS
 62
    7
 10
765.08983656246232
 20
1156.2848339301738
 11
768.0488439140172
 21
1155.7203636022148
  0
LINE
  8
_1-0_
  6
CONTINUOUS
 62
    7
 10
768.0488439140172
 20
1155.7203636022148
 11
770.87898195480284
 21
1155.1676166195666
  0
LINE
  8
_1-0_
  6
CONTINUOUS
 62
    7
 10
770.87898195480284
 20
1155.1676166195666
 11
773.580075709516
 21
1154.6265929822293
  0
LINE
  8
_1-0_
  6
CONTINUOUS
 62
    7
 10
773.580075709516
 20
1154.6265929822293
 11
776.15238764111143
 21
1154.0972926902034
  0
LINE
  8
_1-0_
  6
CONTINUOUS
 62
    7
 10
776.15238764111143
 20
1154.0972926902034
 11
778.59574277428578
 21
1153.5797157434881
  0
LINE
  8
_1-0_
  6
CONTINUOUS
 62
    7
 10
778.59574277428578
 20
1153.5797157434881
 11
780.91022859669101
 21
1153.0738621420842
  0
LINE
  8
_1-0_
  6
CONTINUOUS
 62
    7
 10
780.91022859669101
 20
1153.0738621420842
 11
783.14650045858843
 21
1152.5568101212784
  0
LINE
  8
_1-0_
  6
CONTINUOUS
 62
    7
 10
783.14650045858843
 20
1152.5568101212784
 11
785.35547617319469
 21
1152.005550428707
  0
LINE
  8
_1-0_
  6
CONTINUOUS
 62
    7
 10
785.35547617319469
 20
1152.005550428707
 11
787.53715574050955
 21
1151.4201705520218
  0
LINE
  8
_1-0_
  6
CONTINUOUS
 62
    7
 10
787.53715574050955
 20
1151.4201705520218
 11
789.69145167288161
 21
1150.8006704912223
  0
LINE
  8
_1-0_
  6
CONTINUOUS
 62
    7
 10
789.69145167288161
 20
1150.8006704912223
 11
791.81836397031088
 21
1150.1469627586571
  0
LINE
  8
_1-0_
  6
CONTINUOUS
 62
    7
 10
791.81836397031088
 20
1150.1469627586571
 11
793.91798012044887
 21
1149.4591348419776
  0
LINE
  8
_1-0_
  6
CONTINUOUS
 62
    7
 10
793.91798012044887
 20
1149.4591348419776
 11
795.99030012329558
 21
1148.737099253533
  0
LINE
  8
_1-0_
  6
CONTINUOUS
 62
    7
 10
795.99030012329558
 20
1148.737099253533
 11
798.03514900354799
 21
1147.980943480974
  0
LINE
  8
_1-0_
  6
CONTINUOUS
 62
    7
 10
798.03514900354799
 20
1147.980943480974
 11
800.05278922416073
 21
1147.1906675243008
  0
LINE
  8
_1-0_
  6
CONTINUOUS
 62
    7
 10
800.05278922416073
 20
1147.1906675243008
 11
802.04304580983046
 21
1146.3662713835138
  0
LINE
  8
_1-0_
  6
CONTINUOUS
 62
    7
 10
802.04304580983046
 20
1146.3662713835138
 11
804.00591876055739
 21
1145.5075800833094
  0
LINE
  8
_1-0_
  6
CONTINUOUS
 62
    7
 10
804.00591876055739
 20
1145.5075800833094
 11
805.94140807634153
 21
1144.6148560866425
  0
LINE
  8
_1-0_
  6
CONTINUOUS
 62
    7
 10
805.94140807634153
 20
1144.6148560866425
 11
807.84960124483428
 21
1143.6879244182101
  0
LINE
  8
_1-0_
  6
CONTINUOUS
 62
    7
 10
807.84960124483428
 20
1143.6879244182101
 11
809.73049826603597
 21
1142.7268725656634
  0
LINE
  8
_1-0_
  6
CONTINUOUS
 62
    7
 10
809.73049826603597
 20
1142.7268725656634
 11
811.58401165229463
 21
1141.7317005290029
  0
LINE
  8
_1-0_
  6
CONTINUOUS
 62
    7
 10
811.58401165229463
 20
1141.7317005290029
 11
813.41022889126225
 21
1140.7023208205765
  0
LINE
  8
_1-0_
  6
CONTINUOUS
 62
    7
 10
813.41022889126225
 20
1140.7023208205765
 11
815.17975413200929
 21
1139.6648922482052
  0
LINE
  8
_1-0_
  6
CONTINUOUS
 62
    7
 10
815.17975413200929
 20
1139.6648922482052
 11
816.86327901125867
 21
1138.6454861320583
  0
LINE
  8
_1-0_
  6
CONTINUOUS
 62
    7
 10
816.86327901125867
 20
1138.6454861320583
 11
818.46097850431329
 21
1137.644102472136
  0
LINE
  8
_1-0_
  6
CONTINUOUS
 62
    7
 10
818.46097850431329
 20
1137.644102472136
 11
819.97267763587035
 21
1136.6608287560894
  0
LINE
  8
_1-0_
  6
CONTINUOUS
 62
    7
 10
819.97267763587035
 20
1136.6608287560894
 11
821.39846389358104
 21
1135.6955774962671
  0
LINE
  8
_1-0_
  6
CONTINUOUS
 62
    7
 10
821.39846389358104
 20
1135.6955774962671
 11
822.73833727744545
 21
1134.7483486926692
  0
LINE
  8
_1-0_
  6
CONTINUOUS
 62
    7
 10
822.73833727744545
 20
1134.7483486926692
 11
823.9922102998122
 21
1133.8192298329475
  0
LINE
  8
_1-0_
  6
CONTINUOUS
 62
    7
 10
823.9922102998122
 20
1133.8192298329475
 11
825.16017044833256
 21
1132.9080459417983
  0
LINE
  8
_1-0_
  6
CONTINUOUS
 62
    7
 10
825.16017044833256
 20
1132.9080459417983
 11
826.24221772300689
 21
1132.0149719945252
  0
LINE
  8
_1-0_
  6
CONTINUOUS
 62
    7
 10
826.24221772300689
 20
1132.0149719945252
 11
827.23835212383494
 21
1131.1399205034763
  0
LINE
  8
_1-0_
  6
CONTINUOUS
 62
    7
 10
827.23835212383494
 20
1131.1399205034763
 11
828.1484861631651
 21
1130.282891468652
  0
LINE
  8
_1-0_
  6
CONTINUOUS
 62
    7
 10
828.1484861631651
 20
1130.282891468652
 11
828.97270732864911
 21
1129.4439723777034
  0
LINE
  8
_1-0_
  6
CONTINUOUS
 62
    7
 10
828.97270732864911
 20
1129.4439723777034
 11
829.71092813263522
 21
1128.6230757429794
  0
LINE
  8
_1-0_
  6
CONTINUOUS
 62
    7
 10
829.71092813263522
 20
1128.6230757429794
 11
830.36332355042668
 21
1127.8202015644795
  0
LINE
  8
_1-0_
  6
CONTINUOUS
 62
    7
 10
830.36332355042668
 20
1127.8202015644795
 11
830.92971860672048
 21
1127.0353498422039
  0
LINE
  8
_1-0_
  6
CONTINUOUS
 62
    7
 10
830.92971860672048
 20
1127.0353498422039
 11
831.4102007891679
 21
1126.2685205761529
  0
LINE
  8
_1-0_
  6
CONTINUOUS
 62
    7
 10
831.4102007891679
 20
1126.2685205761529
 11
831.85533796037942
 21
1125.4974919028264
  0
LINE
  8
_1-0_
  6
CONTINUOUS
 62
    7
 10
831.85533796037942
 20
1125.4974919028264
 11
832.31578547061633
 21
1124.6999544710725
  0
LINE
  8
_1-0_
  6
CONTINUOUS
 62
    7
 10
832.31578547061633
 20
1124.6999544710725
 11
832.79154331987888
 21
1123.8759082808917
  0
LINE
  8
_1-0_
  6
CONTINUOUS
 62
    7
 10
832.79154331987888
 20
1123.8759082808917
 11
833.28261150816684
 21
1123.0253533322839
  0
LINE
  8
_1-0_
  6
CONTINUOUS
 62
    7
 10
833.28261150816684
 20
1123.0253533322839
 11
833.78899003548042
 21
1122.1482896252487
  0
LINE
  8
_1-0_
  6
CONTINUOUS
 62
    7
 10
833.78899003548042
 20
1122.1482896252487
 11
834.31067890181964
 21
1121.2447171597867
  0
LINE
  8
_1-0_
  6
CONTINUOUS
 62
    7
 10
834.31067890181964
 20
1121.2447171597867
 11
834.84767810718427
 21
1120.3146359358975
  0
LINE
  8
_1-0_
  6
CONTINUOUS
 62
    7
 10
834.84767810718427
 20
1120.3146359358975
 11
835.39998765157452
 21
1119.3580459535813
  0
LINE
  8
_1-0_
  6
CONTINUOUS
 62
    7
 10
835.39998765157452
 20
1119.3580459535813
 11
835.96752004733867
 21
1118.3749472128377
  0
LINE
  8
_1-0_
  6
CONTINUOUS
 62
    7
 10
835.96752004733867
 20
1118.3749472128377
 11
836.55045026977996
 21
1117.3653397136673
  0
LINE
  8
_1-0_
  6
CONTINUOUS
 62
    7
 10
836.55045026977996
 20
1117.3653397136673
 11
837.148690831247
 21
1116.3292234560697
  0
LINE
  8
_1-0_
  6
CONTINUOUS
 62
    7
 10
837.148690831247
 20
1116.3292234560697
 11
837.7621542440877
 21
1115.2665984400451
  0
LINE
  8
_1-0_
  6
CONTINUOUS
 62
    7
 10
837.7621542440877
 20
1115.2665984400451
 11
838.39101548360577
 21
1114.1774646655931
  0
LINE
  8
_1-0_
  6
CONTINUOUS
 62
    7
 10
838.39101548360577
 20
1114.1774646655931
 11
839.03509957449774
 21
1113.0618221327145
  0
LINE
  8
_1-0_
  6
CONTINUOUS
 62
    7
 10
839.03509957449774
 20
1113.0618221327145
 11
839.69449400441522
 21
1111.9196708414083
  0
LINE
  8
_1-0_
  6
CONTINUOUS
 62
    7
 10
839.69449400441522
 20
1111.9196708414083
 11
840.36928626100985
 21
1110.7510107916753
  0
LINE
  8
_1-0_
  6
CONTINUOUS
 62
    7
 10
840.36928626100985
 20
1110.7510107916753
 11
841.04609073359075
 21
1109.527495984405
  0
LINE
  8
_1-0_
  6
CONTINUOUS
 62
    7
 10
841.04609073359075
 20
1109.527495984405
 11
841.71187176207309
 21
1108.2206929328358
  0
LINE
  8
_1-0_
  6
CONTINUOUS
 62
    7
 10
841.71187176207309
 20
1108.2206929328358
 11
842.36654185880548
 21
1106.8306016369675
  0
LINE
  8
_1-0_
  6
CONTINUOUS
 62
    7
 10
842.36654185880548
 20
1106.8306016369675
 11
843.01010102378814
 21
1105.3573970721034
  0
LINE
  8
_1-0_
  6
CONTINUOUS
 62
    7
 10
843.01010102378814
 20
1105.3573970721034
 11
843.64263674467225
 21
1103.8008167752887
  0
LINE
  8
_1-0_
  6
CONTINUOUS
 62
    7
 10
843.64263674467225
 20
1103.8008167752887
 11
844.26414902145791
 21
1102.1610357218267
  0
LINE
  8
_1-0_
  6
CONTINUOUS
 62
    7
 10
844.26414902145791
 20
1102.1610357218267
 11
844.87446287884211
 21
1100.4380539117171
  0
LINE
  8
_1-0_
  6
CONTINUOUS
 62
    7
 10
844.87446287884211
 20
1100.4380539117171
 11
845.47375329212787
 21
1098.6317838573088
  0
LINE
  8
_1-0_
  6
CONTINUOUS
 62
    7
 10
845.47375329212787
 20
1098.6317838573088
 11
846.0620202613153
 21
1096.7422255586011
  0
LINE
  8
_1-0_
  6
CONTINUOUS
 62
    7
 10
846.0620202613153
 20
1096.7422255586011
 11
846.63908881110103
 21
1094.7694665032463
  0
LINE
  8
_1-0_
  6
CONTINUOUS
 62
    7
 10
846.63908881110103
 20
1094.7694665032463
 11
847.20513391678855
 21
1092.713506691244
  0
LINE
  8
_1-0_
  6
CONTINUOUS
 62
    7
 10
847.20513391678855
 20
1092.713506691244
 11
847.76015557837752
 21
1090.5742586349427
  0
LINE
  8
_1-0_
  6
CONTINUOUS
 62
    7
 10
847.76015557837752
 20
1090.5742586349427
 11
848.30406630821676
 21
1088.3517223343424
  0
LINE
  8
_1-0_
  6
CONTINUOUS
 62
    7
 10
848.30406630821676
 20
1088.3517223343424
 11
848.83686610630571
 21
1086.0459852770948
  0
LINE
  8
_1-0_
  6
CONTINUOUS
 62
    7
 10
848.83686610630571
 20
1086.0459852770948
 11
849.35855497264481
 21
1083.6569599755483
  0
LINE
  8
_1-0_
  6
CONTINUOUS
 62
    7
 10
849.35855497264481
 20
1083.6569599755483
 11
849.86922039488559
 21
1081.1847339173542
  0
LINE
  8
_1-0_
  6
CONTINUOUS
 62
    7
 10
849.86922039488559
 20
1081.1847339173542
 11
850.38557251447867
 21
1078.4408587010212
  0
LINE
  8
_1-0_
  6
CONTINUOUS
 62
    7
 10
850.38557251447867
 20
1078.4408587010212
 11
850.92440896052653
 21
1075.2368859250573
  0
LINE
  8
_1-0_
  6
CONTINUOUS
 62
    7
 10
850.92440896052653
 20
1075.2368859250573
 11
851.48572973302885
 21
1071.5728155894628
  0
LINE
  8
_1-0_
  6
CONTINUOUS
 62
    7
 10
851.48572973302885
 20
1071.5728155894628
 11
852.06953483198595
 21
1067.4487351818893
  0
LINE
  8
_1-0_
  6
CONTINUOUS
 62
    7
 10
852.06953483198595
 20
1067.4487351818893
 11
852.67582425739772
 21
1062.8645572146852
  0
LINE
  8
_1-0_
  6
CONTINUOUS
 62
    7
 10
852.67582425739772
 20
1062.8645572146852
 11
853.30459800926405
 21
1057.8202816878506
  0
LINE
  8
_1-0_
  6
CONTINUOUS
 62
    7
 10
853.30459800926405
 20
1057.8202816878506
 11
853.95576859993355
 21
1052.3159960890368
  0
LINE
  8
_1-0_
  6
CONTINUOUS
 62
    7
 10
853.95576859993355
 20
1052.3159960890368
 11
854.62951100470934
 21
1046.3516129305924
  0
LINE
  8
_1-0_
  6
CONTINUOUS
 62
    7
 10
854.62951100470934
 20
1046.3516129305924
 11
855.32565024828818
 21
1039.9271322125173
  0
LINE
  8
_1-0_
  6
CONTINUOUS
 62
    7
 10
855.32565024828818
 20
1039.9271322125173
 11
856.04436130597321
 21
1033.0425539348116
  0
LINE
  8
_1-0_
  6
CONTINUOUS
 62
    7
 10
856.04436130597321
 20
1033.0425539348116
 11
856.7854692024614
 21
1025.6979655851269
  0
LINE
  8
_1-0_
  6
CONTINUOUS
 62
    7
 10
856.7854692024614
 20
1025.6979655851269
 11
857.54906142540426
 21
1017.8932796758113
  0
LINE
  8
_1-0_
  6
CONTINUOUS
 62
    7
 10
857.54906142540426
 20
1017.8932796758113
 11
858.33513797480168
 21
1009.6285836945168
  0
LINE
  8
_1-0_
  6
CONTINUOUS
 62
    7
 10
858.33513797480168
 20
1009.6285836945168
 11
859.14369885065366
 21
1000.9037026659403
  0
LINE
  8
_1-0_
  6
CONTINUOUS
 62
    7
 10
859.14369885065366
 20
1000.9037026659403
 11
859.97474405296066
 21
991.71881156538439
  0
LINE
  8
_1-0_
  6
CONTINUOUS
 62
    7
 10
859.97474405296066
 20
991.71881156538439
 11
860.82827358172199
 21
982.0739103928496
  0
LINE
  8
_1-0_
  6
CONTINUOUS
 62
    7
 10
560.82830451170003
 20
1157.0738850597249
 11
571.74444500543905
 21
1157.0621617144138
  0
LINE
  8
_1-0_
  6
CONTINUOUS
 62
    7
 10
571.74444500543905
 20
1157.0621617144138
 11
582.22249108391838
 21
1157.0269916784807
  0
LINE
  8
_1-0_
  6
CONTINUOUS
 62
    7
 10
582.22249108391838
 20
1157.0269916784807
 11
592.26239900331234
 21
1156.9683749519259
  0
LINE
  8
_1-0_
  6
CONTINUOUS
 62
    7
 10
592.26239900331234
 20
1156.9683749519259
 11
601.86412501979521
 21
1156.8863990224006
  0
LINE
  8
_1-0_
  6
CONTINUOUS
 62
    7
 10
601.86412501979521
 20
1156.8863990224006
 11
611.02771287719247
 21
1156.7808889146017
  0
LINE
  8
_1-0_
  6
CONTINUOUS
 62
    7
 10
611.02771287719247
 20
1156.7808889146017
 11
619.75320631933016
 21
1156.6520196038323
  0
LINE
  8
_1-0_
  6
CONTINUOUS
 62
    7
 10
619.75320631933016
 20
1156.6520196038323
 11
628.04051785855677
 21
1156.4996161147894
  0
LINE
  8
_1-0_
  6
CONTINUOUS
 62
    7
 10
628.04051785855677
 20
1156.4996161147894
 11
635.88973498252358
 21
1156.323853422776
  0
LINE
  8
_1-0_
  6
CONTINUOUS
 62
    7
 10
635.88973498252358
 20
1156.323853422776
 11
643.3007702035793
 21
1156.1246440401408
  0
LINE
  8
_1-0_
  6
CONTINUOUS
 62
    7
 10
643.3007702035793
 20
1156.1246440401408
 11
650.27366726554965
 21
1155.9019879668836
  0
LINE
  8
_1-0_
  6
CONTINUOUS
 62
    7
 10
650.27366726554965
 20
1155.9019879668836
 11
656.80842616843438
 21
1155.6558852030043
  0
LINE
  8
_1-0_
  6
CONTINUOUS
 62
    7
 10
656.80842616843438
 20
1155.6558852030043
 11
662.90509065605966
 21
1155.3863357485031
  0
LINE
  8
_1-0_
  6
CONTINUOUS
 62
    7
 10
662.90509065605966
 20
1155.3863357485031
 11
668.56357324077351
 21
1155.0934270910313
  0
LINE
  8
_1-0_
  6
CONTINUOUS
 62
    7
 10
668.56357324077351
 20
1155.0934270910313
 11
673.78391766640209
 21
1154.7769842552862
  0
LINE
  8
_1-0_
  6
CONTINUOUS
 62
    7
 10
673.78391766640209
 20
1154.7769842552862
 11
678.56612393294517
 21
1154.4371822165706
  0
LINE
  8
_1-0_
  6
CONTINUOUS
 62
    7
 10
678.56612393294517
 20
1154.4371822165706
 11
682.91019204040276
 21
1154.0738459995814
  0
LINE
  8
_1-0_
  6
CONTINUOUS
 62
    7
 10
682.91019204040276
 20
1154.0738459995814
 11
686.98829768707378
 21
1153.6988739249327
  0
LINE
  8
_1-0_
  6
CONTINUOUS
 62
    7
 10
686.98829768707378
 20
1153.6988739249327
 11
690.97270405890856
 21
1153.3239018502841
  0
LINE
  8
_1-0_
  6
CONTINUOUS
 62
    7
 10
690.97270405890856
 20
1153.3239018502841
 11
694.86332366825525
 21
1152.948842287984
  0
LINE
  8
_1-0_
  6
CONTINUOUS
 62
    7
 10
694.86332366825525
 20
1152.948842287984
 11
698.66020025893988
 21
1152.5738702133353
  0
LINE
  8
_1-0_
  6
CONTINUOUS
 62
    7
 10
698.66020025893988
 20
1152.5738702133353
 11
702.36333383096223
 21
1152.1988981386869
  0
LINE
  8
_1-0_
  6
CONTINUOUS
 62
    7
 10
702.36333383096223
 20
1152.1988981386869
 11
705.97268064049672
 21
1151.8238385763866
  0
LINE
  8
_1-0_
  6
CONTINUOUS
 62
    7
 10
705.97268064049672
 20
1151.8238385763866
 11
709.48832817519485
 21
1151.4488665017382
  0
LINE
  8
_1-0_
  6
CONTINUOUS
 62
    7
 10
709.48832817519485
 20
1151.4488665017382
 11
712.910188947405
 21
1151.0738944270895
  0
LINE
  8
_1-0_
  6
CONTINUOUS
 62
    7
 10
712.910188947405
 20
1151.0738944270895
 11
716.23830670095322
 21
1150.6988348647894
  0
LINE
  8
_1-0_
  6
CONTINUOUS
 62
    7
 10
716.23830670095322
 20
1150.6988348647894
 11
719.47268143583892
 21
1150.3238627901408
  0
LINE
  8
_1-0_
  6
CONTINUOUS
 62
    7
 10
719.47268143583892
 20
1150.3238627901408
 11
722.6133131520628
 21
1149.9488907154923
  0
LINE
  8
_1-0_
  6
CONTINUOUS
 62
    7
 10
722.6133131520628
 20
1149.9488907154923
 11
725.6602018496244
 21
1149.5739186408437
  0
LINE
  8
_1-0_
  6
CONTINUOUS
 62
    7
 10
725.6602018496244
 20
1149.5739186408437
 11
728.61330378469802
 21
1149.1988590785436
  0
LINE
  8
_1-0_
  6
CONTINUOUS
 62
    7
 10
728.61330378469802
 20
1149.1988590785436
 11
731.47270644493551
 21
1148.8238870038949
  0
LINE
  8
_1-0_
  6
CONTINUOUS
 62
    7
 10
731.47270644493551
 20
1148.8238870038949
 11
734.2382785988591
 21
1148.4489149292463
  0
LINE
  8
_1-0_
  6
CONTINUOUS
 62
    7
 10
734.2382785988591
 20
1148.4489149292463
 11
736.91015147794633
 21
1148.0738553669462
  0
LINE
  8
_1-0_
  6
CONTINUOUS
 62
    7
 10
736.91015147794633
 20
1148.0738553669462
 11
739.50783482849829
 21
1147.6988832922975
  0
LINE
  8
_1-0_
  6
CONTINUOUS
 62
    7
 10
739.50783482849829
 20
1147.6988832922975
 11
742.05083839681618
 21
1147.3239112176489
  0
LINE
  8
_1-0_
  6
CONTINUOUS
 62
    7
 10
742.05083839681618
 20
1147.3239112176489
 11
744.53907469524836
 21
1146.9488516553488
  0
LINE
  8
_1-0_
  6
CONTINUOUS
 62
    7
 10
744.53907469524836
 20
1146.9488516553488
 11
746.97271869909798
 21
1146.5738795807001
  0
LINE
  8
_1-0_
  6
CONTINUOUS
 62
    7
 10
746.97271869909798
 20
1146.5738795807001
 11
749.35159543306213
 21
1146.1989075060517
  0
LINE
  8
_1-0_
  6
CONTINUOUS
 62
    7
 10
749.35159543306213
 20
1146.1989075060517
 11
751.67579238479198
 21
1145.8238479437514
  0
LINE
  8
_1-0_
  6
CONTINUOUS
 62
    7
 10
751.67579238479198
 20
1145.8238479437514
 11
753.94530955428775
 21
1145.4488758691027
  0
LINE
  8
_1-0_
  6
CONTINUOUS
 62
    7
 10
753.94530955428775
 20
1145.4488758691027
 11
756.16014694154944
 21
1145.0739037944543
  0
LINE
  8
_1-0_
  6
CONTINUOUS
 62
    7
 10
756.16014694154944
 20
1145.0739037944543
 11
758.32030454657706
 21
1144.698844232154
  0
LINE
  8
_1-0_
  6
CONTINUOUS
 62
    7
 10
758.32030454657706
 20
1144.698844232154
 11
760.42578236937061
 21
1144.3238721575055
  0
LINE
  8
_1-0_
  6
CONTINUOUS
 62
    7
 10
760.42578236937061
 20
1144.3238721575055
 11
762.47658040992997
 21
1143.9489000828569
  0
LINE
  8
_1-0_
  6
CONTINUOUS
 62
    7
 10
762.47658040992997
 20
1143.9489000828569
 11
764.47269866825525
 21
1143.5738405205568
  0
LINE
  8
_1-0_
  6
CONTINUOUS
 62
    7
 10
764.47269866825525
 20
1143.5738405205568
 11
766.41413714434645
 21
1143.1988684459081
  0
LINE
  8
_1-0_
  6
CONTINUOUS
 62
    7
 10
766.41413714434645
 20
1143.1988684459081
 11
768.30080835055196
 21
1142.8238963712597
  0
LINE
  8
_1-0_
  6
CONTINUOUS
 62
    7
 10
768.30080835055196
 20
1142.8238963712597
 11
770.13288726217502
 21
1142.4488368089594
  0
LINE
  8
_1-0_
  6
CONTINUOUS
 62
    7
 10
770.13288726217502
 20
1142.4488368089594
 11
771.91019890391215
 21
1142.073864734311
  0
LINE
  8
_1-0_
  6
CONTINUOUS
 62
    7
 10
771.91019890391215
 20
1142.073864734311
 11
773.66021439835833
 21
1141.6790329627547
  0
LINE
  8
_1-0_
  6
CONTINUOUS
 62
    7
 10
773.66021439835833
 20
1141.6790329627547
 11
775.41022989280441
 21
1141.244481797384
  0
LINE
  8
_1-0_
  6
CONTINUOUS
 62
    7
 10
775.41022989280441
 20
1141.244481797384
 11
777.16015789959886
 21
1140.7702112381983
  0
LINE
  8
_1-0_
  6
CONTINUOUS
 62
    7
 10
777.16015789959886
 20
1140.7702112381983
 11
778.91017339404482
 21
1140.2562212851976
  0
LINE
  8
_1-0_
  6
CONTINUOUS
 62
    7
 10
778.91017339404482
 20
1140.2562212851976
 11
780.66018888849089
 21
1139.7025119383823
  0
LINE
  8
_1-0_
  6
CONTINUOUS
 62
    7
 10
780.66018888849089
 20
1139.7025119383823
 11
782.41020438293685
 21
1139.1090831977519
  0
LINE
  8
_1-0_
  6
CONTINUOUS
 62
    7
 10
782.41020438293685
 20
1139.1090831977519
 11
784.16021987738293
 21
1138.4759350633069
  0
LINE
  8
_1-0_
  6
CONTINUOUS
 62
    7
 10
784.16021987738293
 20
1138.4759350633069
 11
785.91014788417738
 21
1137.8031550226983
  0
LINE
  8
_1-0_
  6
CONTINUOUS
 62
    7
 10
785.91014788417738
 20
1137.8031550226983
 11
787.66016337862334
 21
1137.0906555882752
  0
LINE
  8
_1-0_
  6
CONTINUOUS
 62
    7
 10
787.66016337862334
 20
1137.0906555882752
 11
789.41017887306941
 21
1136.3383492723854
  0
LINE
  8
_1-0_
  6
CONTINUOUS
 62
    7
 10
789.41017887306941
 20
1136.3383492723854
 11
791.16019436751549
 21
1135.5464110503326
  0
LINE
  8
_1-0_
  6
CONTINUOUS
 62
    7
 10
791.16019436751549
 20
1135.5464110503326
 11
792.91020986196156
 21
1134.7147534344647
  0
LINE
  8
_1-0_
  6
CONTINUOUS
 62
    7
 10
792.91020986196156
 20
1134.7147534344647
 11
794.66022535640764
 21
1133.843376424782
  0
LINE
  8
_1-0_
  6
CONTINUOUS
 62
    7
 10
794.66022535640764
 20
1133.843376424782
 11
796.41015336320208
 21
1132.9322800212844
  0
LINE
  8
_1-0_
  6
CONTINUOUS
 62
    7
 10
796.41015336320208
 20
1132.9322800212844
 11
798.16016885764816
 21
1131.9814642239721
  0
LINE
  8
_1-0_
  6
CONTINUOUS
 62
    7
 10
798.16016885764816
 20
1131.9814642239721
 11
799.91018435209412
 21
1130.9909290328449
  0
LINE
  8
_1-0_
  6
CONTINUOUS
 62
    7
 10
799.91018435209412
 20
1130.9909290328449
 11
801.62502981060709
 21
1129.992694928379
  0
LINE
  8
_1-0_
  6
CONTINUOUS
 62
    7
 10
801.62502981060709
 20
1129.992694928379
 11
803.26953519725419
 21
1129.0184324404447
  0
LINE
  8
_1-0_
  6
CONTINUOUS
 62
    7
 10
803.26953519725419
 20
1129.0184324404447
 11
804.84378799968692
 21
1128.0682290566933
  0
LINE
  8
_1-0_
  6
CONTINUOUS
 62
    7
 10
804.84378799968692
 20
1128.0682290566933
 11
806.34770073025379
 21
1127.1421722647765
  0
LINE
  8
_1-0_
  6
CONTINUOUS
 62
    7
 10
806.34770073025379
 20
1127.1421722647765
 11
807.78127338895456
 21
1126.2402620646944
  0
LINE
  8
_1-0_
  6
CONTINUOUS
 62
    7
 10
807.78127338895456
 20
1126.2402620646944
 11
809.14459346344097
 21
1125.3623234811434
  0
LINE
  8
_1-0_
  6
CONTINUOUS
 62
    7
 10
809.14459346344097
 20
1125.3623234811434
 11
810.43757346606162
 21
1124.5085314894275
  0
LINE
  8
_1-0_
  6
CONTINUOUS
 62
    7
 10
810.43757346606162
 20
1124.5085314894275
 11
811.66021339681606
 21
1123.6787986018942
  0
LINE
  8
_1-0_
  6
CONTINUOUS
 62
    7
 10
811.66021339681606
 20
1123.6787986018942
 11
812.81251325570474
 21
1122.8731248185441
  0
LINE
  8
_1-0_
  6
CONTINUOUS
 62
    7
 10
812.81251325570474
 20
1122.8731248185441
 11
813.89456053037884
 21
1122.0915976270285
  0
LINE
  8
_1-0_
  6
CONTINUOUS
 62
    7
 10
813.89456053037884
 20
1122.0915976270285
 11
814.90626773318718
 21
1121.3341295396958
  0
LINE
  8
_1-0_
  6
CONTINUOUS
 62
    7
 10
814.90626773318718
 20
1121.3341295396958
 11
815.84772235178104
 21
1120.6007205565463
  0
LINE
  8
_1-0_
  6
CONTINUOUS
 62
    7
 10
815.84772235178104
 20
1120.6007205565463
 11
816.71874941085753
 21
1119.8914581652314
  0
LINE
  8
_1-0_
  6
CONTINUOUS
 62
    7
 10
816.71874941085753
 20
1119.8914581652314
 11
817.51952388571954
 21
1119.2062548780993
  0
LINE
  8
_1-0_
  6
CONTINUOUS
 62
    7
 10
817.51952388571954
 20
1119.2062548780993
 11
818.25004577636719
 21
1118.5451106951502
  0
LINE
  8
_1-0_
  6
CONTINUOUS
 62
    7
 10
818.25004577636719
 20
1118.5451106951502
 11
818.91022759514885
 21
1117.9080256163843
  0
LINE
  8
_1-0_
  6
CONTINUOUS
 62
    7
 10
818.91022759514885
 20
1117.9080256163843
 11
819.53130243367673
 21
1117.2619293095063
  0
LINE
  8
_1-0_
  6
CONTINUOUS
 62
    7
 10
819.53130243367673
 20
1117.2619293095063
 11
820.1445908712144
 21
1116.5734014916143
  0
LINE
  8
_1-0_
  6
CONTINUOUS
 62
    7
 10
820.1445908712144
 20
1116.5734014916143
 11
820.75000542011037
 21
1115.842617138012
  0
LINE
  8
_1-0_
  6
CONTINUOUS
 62
    7
 10
820.75000542011037
 20
1115.842617138012
 11
821.34772105566776
 21
1115.0694887610475
  0
LINE
  8
_1-0_
  6
CONTINUOUS
 62
    7
 10
821.34772105566776
 20
1115.0694887610475
 11
821.93756280258356
 21
1114.2540163607209
  0
LINE
  8
_1-0_
  6
CONTINUOUS
 62
    7
 10
821.93756280258356
 20
1114.2540163607209
 11
822.51953066085753
 21
1113.396287424684
  0
LINE
  8
_1-0_
  6
CONTINUOUS
 62
    7
 10
822.51953066085753
 20
1113.396287424684
 11
823.09379960579292
 21
1112.4962144652848
  0
LINE
  8
_1-0_
  6
CONTINUOUS
 62
    7
 10
823.09379960579292
 20
1112.4962144652848
 11
823.66019466208672
 21
1111.5537974825236
  0
LINE
  8
_1-0_
  6
CONTINUOUS
 62
    7
 10
823.66019466208672
 20
1111.5537974825236
 11
824.21880331739032
 21
1110.5690364764002
  0
LINE
  8
_1-0_
  6
CONTINUOUS
 62
    7
 10
824.21880331739032
 20
1110.5690364764002
 11
824.7695380840521
 21
1109.5420189345664
  0
LINE
  8
_1-0_
  6
CONTINUOUS
 62
    7
 10
824.7695380840521
 20
1109.5420189345664
 11
825.31257393737542
 21
1108.4726573693706
  0
LINE
  8
_1-0_
  6
CONTINUOUS
 62
    7
 10
825.31257393737542
 20
1108.4726573693706
 11
825.84764841440563
 21
1107.3609517808127
  0
LINE
  8
_1-0_
  6
CONTINUOUS
 62
    7
 10
825.84764841440563
 20
1107.3609517808127
 11
826.37502397809703
 21
1106.2069021688924
  0
LINE
  8
_1-0_
  6
CONTINUOUS
 62
    7
 10
826.37502397809703
 20
1106.2069021688924
 11
826.89452565314684
 21
1105.0105960212618
  0
LINE
  8
_1-0_
  6
CONTINUOUS
 62
    7
 10
826.89452565314684
 20
1105.0105960212618
 11
827.40624092720645
 21
1103.771945850269
  0
LINE
  8
_1-0_
  6
CONTINUOUS
 62
    7
 10
827.40624092720645
 20
1103.771945850269
 11
827.91016980027598
 21
1102.4909516559144
  0
LINE
  8
_1-0_
  6
CONTINUOUS
 62
    7
 10
827.91016980027598
 20
1102.4909516559144
 11
828.42171009903245
 21
1101.1143334583885
  0
LINE
  8
_1-0_
  6
CONTINUOUS
 62
    7
 10
828.42171009903245
 20
1101.1143334583885
 11
828.95643462545627
 21
1099.5885488149281
  0
LINE
  8
_1-0_
  6
CONTINUOUS
 62
    7
 10
828.95643462545627
 20
1099.5885488149281
 11
829.51425589189557
 21
1097.9136852131846
  0
LINE
  8
_1-0_
  6
CONTINUOUS
 62
    7
 10
829.51425589189557
 20
1097.9136852131846
 11
830.09517389835071
 21
1096.0897426531581
  0
LINE
  8
_1-0_
  6
CONTINUOUS
 62
    7
 10
830.09517389835071
 20
1096.0897426531581
 11
830.69918864482145
 21
1094.1167211348486
  0
LINE
  8
_1-0_
  6
CONTINUOUS
 62
    7
 10
830.69918864482145
 20
1094.1167211348486
 11
831.32630013130802
 21
1091.9946206582558
  0
LINE
  8
_1-0_
  6
CONTINUOUS
 62
    7
 10
831.32630013130802
 20
1091.9946206582558
 11
831.9765958454617
 21
1089.7234412233802
  0
LINE
  8
_1-0_
  6
CONTINUOUS
 62
    7
 10
831.9765958454617
 20
1089.7234412233802
 11
832.64998829963122
 21
1087.3031828302212
  0
LINE
  8
_1-0_
  6
CONTINUOUS
 62
    7
 10
832.64998829963122
 20
1087.3031828302212
 11
833.34647749381634
 21
1084.733757991128
  0
LINE
  8
_1-0_
  6
CONTINUOUS
 62
    7
 10
833.34647749381634
 20
1084.733757991128
 11
834.06606342801706
 21
1082.015341681403
  0
LINE
  8
_1-0_
  6
CONTINUOUS
 62
    7
 10
834.06606342801706
 20
1082.015341681403
 11
834.80883358988524
 21
1079.1478464133952
  0
LINE
  8
_1-0_
  6
CONTINUOUS
 62
    7
 10
834.80883358988524
 20
1079.1478464133952
 11
835.57470049176891
 21
1076.1311846994524
  0
LINE
  8
_1-0_
  6
CONTINUOUS
 62
    7
 10
835.57470049176891
 20
1076.1311846994524
 11
836.36366413366829
 21
1072.9655315148784
  0
LINE
  8
_1-0_
  6
CONTINUOUS
 62
    7
 10
836.36366413366829
 20
1072.9655315148784
 11
837.17572451558351
 21
1069.6507118843697
  0
LINE
  8
_1-0_
  6
CONTINUOUS
 62
    7
 10
837.17572451558351
 20
1069.6507118843697
 11
838.01088163751433
 21
1066.1868132955778
  0
LINE
  8
_1-0_
  6
CONTINUOUS
 62
    7
 10
838.01088163751433
 20
1066.1868132955778
 11
838.86922298711238
 21
1062.5738357485031
  0
LINE
  8
_1-0_
  6
CONTINUOUS
 62
    7
 10
838.86922298711238
 20
1062.5738357485031
 11
839.71190404707852
 21
1058.8024180644268
  0
LINE
  8
_1-0_
  6
CONTINUOUS
 62
    7
 10
839.71190404707852
 20
1058.8024180644268
 11
840.50025527541698
 21
1054.8629366016755
  0
LINE
  8
_1-0_
  6
CONTINUOUS
 62
    7
 10
840.50025527541698
 20
1054.8629366016755
 11
841.23427667212752
 21
1050.7554788479013
  0
LINE
  8
_1-0_
  6
CONTINUOUS
 62
    7
 10
841.23427667212752
 20
1050.7554788479013
 11
841.91379326190724
 21
1046.4801322907554
  0
LINE
  8
_1-0_
  6
CONTINUOUS
 62
    7
 10
841.91379326190724
 20
1046.4801322907554
 11
842.53906750771068
 21
1042.0368094425864
  0
LINE
  8
_1-0_
  6
CONTINUOUS
 62
    7
 10
842.53906750771068
 20
1042.0368094425864
 11
843.1099244342347
 21
1037.4254228157426
  0
LINE
  8
_1-0_
  6
CONTINUOUS
 62
    7
 10
843.1099244342347
 20
1037.4254228157426
 11
843.62645152913092
 21
1032.6461473855272
  0
LINE
  8
_1-0_
  6
CONTINUOUS
 62
    7
 10
843.62645152913092
 20
1032.6461473855272
 11
844.08856130474771
 21
1027.6988956642888
  0
LINE
  8
_1-0_
  6
CONTINUOUS
 62
    7
 10
844.08856130474771
 20
1027.6988956642888
 11
844.49625376108531
 21
1022.583667652027
  0
LINE
  8
_1-0_
  6
CONTINUOUS
 62
    7
 10
844.49625376108531
 20
1022.583667652027
 11
844.84970387344651
 21
1017.300463348742
  0
LINE
  8
_1-0_
  6
CONTINUOUS
 62
    7
 10
844.84970387344651
 20
1017.300463348742
 11
845.14873666652829
 21
1011.8492827544342
  0
LINE
  8
_1-0_
  6
CONTINUOUS
 62
    7
 10
845.14873666652829
 20
1011.8492827544342
 11
845.39335214033088
 21
1006.2301258691029
  0
LINE
  8
_1-0_
  6
CONTINUOUS
 62
    7
 10
845.39335214033088
 20
1006.2301258691029
 11
845.58363778250555
 21
1000.4429926927485
  0
LINE
  8
_1-0_
  6
CONTINUOUS
 62
    7
 10
845.58363778250555
 20
1000.4429926927485
 11
845.71959359305242
 21
994.48797071302249
  0
LINE
  8
_1-0_
  6
CONTINUOUS
 62
    7
 10
845.71959359305242
 20
994.48797071302249
 11
845.80113208431999
 21
988.36488495462174
  0
LINE
  8
_1-0_
  6
CONTINUOUS
 62
    7
 10
845.80113208431999
 20
988.36488495462174
 11
845.82834074395964
 21
982.0739103928496
  0
LINE
  8
_1-0_
  6
CONTINUOUS
 62
    7
 10
560.82830451170003
 20
792.07391540056028
 11
577.07843589046297
 21
792.57976900196445
  0
LINE
  8
_1-0_
  6
CONTINUOUS
 62
    7
 10
577.07843589046297
 20
792.57976900196445
 11
592.55841347241494
 21
793.0973459486795
  0
LINE
  8
_1-0_
  6
CONTINUOUS
 62
    7
 10
592.55841347241494
 20
793.0973459486795
 11
607.26823725755605
 21
793.62664624070567
  0
LINE
  8
_1-0_
  6
CONTINUOUS
 62
    7
 10
607.26823725755605
 20
793.62664624070567
 11
621.2078635020606
 21
794.16766987804283
  0
LINE
  8
_1-0_
  6
CONTINUOUS
 62
    7
 10
621.2078635020606
 20
794.16766987804283
 11
634.37733594975407
 21
794.72032937303925
  0
LINE
  8
_1-0_
  6
CONTINUOUS
 62
    7
 10
634.37733594975407
 20
794.72032937303925
 11
646.77665460063679
 21
795.28479970099841
  0
LINE
  8
_1-0_
  6
CONTINUOUS
 62
    7
 10
646.77665460063679
 20
795.28479970099841
 11
658.40577571088272
 21
795.86099337426845
  0
LINE
  8
_1-0_
  6
CONTINUOUS
 62
    7
 10
658.40577571088272
 20
795.86099337426845
 11
669.2646992804921
 21
796.4489103928496
  0
LINE
  8
_1-0_
  6
CONTINUOUS
 62
    7
 10
669.2646992804921
 20
796.4489103928496
 11
679.35351279711631
 21
797.04846326909001
  0
LINE
  8
_1-0_
  6
CONTINUOUS
 62
    7
 10
679.35351279711631
 20
797.04846326909001
 11
688.67212877310385
 21
797.65982697829315
  0
LINE
  8
_1-0_
  6
CONTINUOUS
 62
    7
 10
688.67212877310385
 20
797.65982697829315
 11
697.2205472084546
 21
798.28282654515556
  0
LINE
  8
_1-0_
  6
CONTINUOUS
 62
    7
 10
697.2205472084546
 20
798.28282654515556
 11
704.9988118469945
 21
798.9176369449807
  0
LINE
  8
_1-0_
  6
CONTINUOUS
 62
    7
 10
704.9988118469945
 20
798.9176369449807
 11
712.00692268872342
 21
799.5640832024651
  0
LINE
  8
_1-0_
  6
CONTINUOUS
 62
    7
 10
712.00692268872342
 20
799.5640832024651
 11
718.2448359898159
 21
800.22234029291212
  0
LINE
  8
_1-0_
  6
CONTINUOUS
 62
    7
 10
718.2448359898159
 20
800.22234029291212
 11
723.71259549409729
 21
800.89223324101863
  0
LINE
  8
_1-0_
  6
CONTINUOUS
 62
    7
 10
723.71259549409729
 20
800.89223324101863
 11
728.4102012015677
 21
801.57384953443602
  0
LINE
  8
_1-0_
  6
CONTINUOUS
 62
    7
 10
728.4102012015677
 20
801.57384953443602
 11
732.65825161142232
 21
802.25555331550504
  0
LINE
  8
_1-0_
  6
CONTINUOUS
 62
    7
 10
732.65825161142232
 20
802.25555331550504
 11
736.77734522285607
 21
802.92544626361155
  0
LINE
  8
_1-0_
  6
CONTINUOUS
 62
    7
 10
736.77734522285607
 20
802.92544626361155
 11
740.76756952352048
 21
803.58361586640694
  0
LINE
  8
_1-0_
  6
CONTINUOUS
 62
    7
 10
740.76756952352048
 20
803.58361586640694
 11
744.62892451341543
 21
804.23014961154297
  0
LINE
  8
_1-0_
  6
CONTINUOUS
 62
    7
 10
744.62892451341543
 20
804.23014961154297
 11
748.36132270488963
 21
804.86487252371649
  0
LINE
  8
_1-0_
  6
CONTINUOUS
 62
    7
 10
748.36132270488963
 20
804.86487252371649
 11
751.96485158559437
 21
805.4879595782304
  0
LINE
  8
_1-0_
  6
CONTINUOUS
 62
    7
 10
751.96485158559437
 20
805.4879595782304
 11
755.43951115552977
 21
806.09923579978204
  0
LINE
  8
_1-0_
  6
CONTINUOUS
 62
    7
 10
755.43951115552977
 20
806.09923579978204
 11
758.78521392704431
 21
806.69887616367407
  0
LINE
  8
_1-0_
  6
CONTINUOUS
 62
    7
 10
758.78521392704431
 20
806.69887616367407
 11
762.00195990013799
 21
807.28679318225522
  0
LINE
  8
_1-0_
  6
CONTINUOUS
 62
    7
 10
762.00195990013799
 20
807.28679318225522
 11
765.08983656246232
 21
807.86289936787375
  0
LINE
  8
_1-0_
  6
CONTINUOUS
 62
    7
 10
765.08983656246232
 20
807.86289936787375
 11
768.0488439140172
 21
808.42736969583279
  0
LINE
  8
_1-0_
  6
CONTINUOUS
 62
    7
 10
768.0488439140172
 20
808.42736969583279
 11
770.87898195480284
 21
808.98011667848095
  0
LINE
  8
_1-0_
  6
CONTINUOUS
 62
    7
 10
770.87898195480284
 20
808.98011667848095
 11
773.580075709516
 21
809.521140315818
  0
LINE
  8
_1-0_
  6
CONTINUOUS
 62
    7
 10
773.580075709516
 20
809.521140315818
 11
776.15238764111143
 21
810.05044060784417
  0
LINE
  8
_1-0_
  6
CONTINUOUS
 62
    7
 10
776.15238764111143
 20
810.05044060784417
 11
778.59574277428578
 21
810.56801755455922
  0
LINE
  8
_1-0_
  6
CONTINUOUS
 62
    7
 10
778.59574277428578
 20
810.56801755455922
 11
780.91022859669101
 21
811.07387115596339
  0
LINE
  8
_1-0_
  6
CONTINUOUS
 62
    7
 10
780.91022859669101
 20
811.07387115596339
 11
783.14650045858843
 21
811.59092317676914
  0
LINE
  8
_1-0_
  6
CONTINUOUS
 62
    7
 10
783.14650045858843
 20
811.59092317676914
 11
785.35547617319469
 21
812.14218286934044
  0
LINE
  8
_1-0_
  6
CONTINUOUS
 62
    7
 10
785.35547617319469
 20
812.14218286934044
 11
787.53715574050955
 21
812.7275627460258
  0
LINE
  8
_1-0_
  6
CONTINUOUS
 62
    7
 10
787.53715574050955
 20
812.7275627460258
 11
789.69145167288161
 21
813.34706280682542
  0
LINE
  8
_1-0_
  6
CONTINUOUS
 62
    7
 10
789.69145167288161
 20
813.34706280682542
 11
791.81836397031088
 21
814.00077053939049
  0
LINE
  8
_1-0_
  6
CONTINUOUS
 62
    7
 10
791.81836397031088
 20
814.00077053939049
 11
793.91798012044887
 21
814.68859845606971
  0
LINE
  8
_1-0_
  6
CONTINUOUS
 62
    7
 10
793.91798012044887
 20
814.68859845606971
 11
795.99030012329558
 21
815.41063404451461
  0
LINE
  8
_1-0_
  6
CONTINUOUS
 62
    7
 10
795.99030012329558
 20
815.41063404451461
 11
798.03514900354799
 21
816.16678981707355
  0
LINE
  8
_1-0_
  6
CONTINUOUS
 62
    7
 10
798.03514900354799
 20
816.16678981707355
 11
800.05278922416073
 21
816.95706577374665
  0
LINE
  8
_1-0_
  6
CONTINUOUS
 62
    7
 10
800.05278922416073
 20
816.95706577374665
 11
802.04304580983046
 21
817.78154940218531
  0
LINE
  8
_1-0_
  6
CONTINUOUS
 62
    7
 10
802.04304580983046
 20
817.78154940218531
 11
804.00591876055739
 21
818.64015321473812
  0
LINE
  8
_1-0_
  6
CONTINUOUS
 62
    7
 10
804.00591876055739
 20
818.64015321473812
 11
805.94140807634153
 21
819.53287721140498
  0
LINE
  8
_1-0_
  6
CONTINUOUS
 62
    7
 10
805.94140807634153
 20
819.53287721140498
 11
807.84960124483428
 21
820.45980887983751
  0
LINE
  8
_1-0_
  6
CONTINUOUS
 62
    7
 10
807.84960124483428
 20
820.45980887983751
 11
809.73049826603597
 21
821.4208607323842
  0
LINE
  8
_1-0_
  6
CONTINUOUS
 62
    7
 10
809.73049826603597
 20
821.4208607323842
 11
811.58401165229463
 21
822.41612025669633
  0
LINE
  8
_1-0_
  6
CONTINUOUS
 62
    7
 10
811.58401165229463
 20
822.41612025669633
 11
813.41022889126225
 21
823.44541247747111
  0
LINE
  8
_1-0_
  6
CONTINUOUS
 62
    7
 10
813.41022889126225
 20
823.44541247747111
 11
815.17975413200929
 21
824.48284104984236
  0
LINE
  8
_1-0_
  6
CONTINUOUS
 62
    7
 10
815.17975413200929
 20
824.48284104984236
 11
816.86327901125867
 21
825.50224716598916
  0
LINE
  8
_1-0_
  6
CONTINUOUS
 62
    7
 10
816.86327901125867
 20
825.50224716598916
 11
818.46097850431329
 21
826.50363082591173
  0
LINE
  8
_1-0_
  6
CONTINUOUS
 62
    7
 10
818.46097850431329
 20
826.50363082591173
 11
819.97267763587035
 21
827.48690454195821
  0
LINE
  8
_1-0_
  6
CONTINUOUS
 62
    7
 10
819.97267763587035
 20
827.48690454195821
 11
821.39846389358104
 21
828.45215580178035
  0
LINE
  8
_1-0_
  6
CONTINUOUS
 62
    7
 10
821.39846389358104
 20
828.45215580178035
 11
822.73833727744545
 21
829.39938460537815
  0
LINE
  8
_1-0_
  6
CONTINUOUS
 62
    7
 10
822.73833727744545
 20
829.39938460537815
 11
823.9922102998122
 21
830.32859095275171
  0
LINE
  8
_1-0_
  6
CONTINUOUS
 62
    7
 10
823.9922102998122
 20
830.32859095275171
 11
825.16017044833256
 21
831.23968735624908
  0
LINE
  8
_1-0_
  6
CONTINUOUS
 62
    7
 10
825.16017044833256
 20
831.23968735624908
 11
826.24221772300689
 21
832.13276130352244
  0
LINE
  8
_1-0_
  6
CONTINUOUS
 62
    7
 10
826.24221772300689
 20
832.13276130352244
 11
827.23835212383494
 21
833.00781279457112
  0
LINE
  8
_1-0_
  6
CONTINUOUS
 62
    7
 10
827.23835212383494
 20
833.00781279457112
 11
828.1484861631651
 21
833.86484182939557
  0
LINE
  8
_1-0_
  6
CONTINUOUS
 62
    7
 10
828.1484861631651
 20
833.86484182939557
 11
828.97270732864911
 21
834.70376092034417
  0
LINE
  8
_1-0_
  6
CONTINUOUS
 62
    7
 10
828.97270732864911
 20
834.70376092034417
 11
829.71092813263522
 21
835.52474504271981
  0
LINE
  8
_1-0_
  6
CONTINUOUS
 62
    7
 10
829.71092813263522
 20
835.52474504271981
 11
830.36332355042668
 21
836.32761922121961
  0
LINE
  8
_1-0_
  6
CONTINUOUS
 62
    7
 10
830.36332355042668
 20
836.32761922121961
 11
830.92971860672048
 21
837.11238345584343
  0
LINE
  8
_1-0_
  6
CONTINUOUS
 62
    7
 10
830.92971860672048
 20
837.11238345584343
 11
831.4102007891679
 21
837.87921272189453
  0
LINE
  8
_1-0_
  6
CONTINUOUS
 62
    7
 10
831.4102007891679
 20
837.87921272189453
 11
831.85533796037942
 21
838.6502413952212
  0
LINE
  8
_1-0_
  6
CONTINUOUS
 62
    7
 10
831.85533796037942
 20
838.6502413952212
 11
832.31578547061633
 21
839.44777882697497
  0
LINE
  8
_1-0_
  6
CONTINUOUS
 62
    7
 10
832.31578547061633
 20
839.44777882697497
 11
832.79154331987888
 21
840.27182501715572
  0
LINE
  8
_1-0_
  6
CONTINUOUS
 62
    7
 10
832.79154331987888
 20
840.27182501715572
 11
833.28261150816684
 21
841.12237996576368
  0
LINE
  8
_1-0_
  6
CONTINUOUS
 62
    7
 10
833.28261150816684
 20
841.12237996576368
 11
833.78899003548042
 21
841.99944367279863
  0
LINE
  8
_1-0_
  6
CONTINUOUS
 62
    7
 10
833.78899003548042
 20
841.99944367279863
 11
834.31067890181964
 21
842.90301613826091
  0
LINE
  8
_1-0_
  6
CONTINUOUS
 62
    7
 10
834.31067890181964
 20
842.90301613826091
 11
834.84767810718427
 21
843.83309736215006
  0
LINE
  8
_1-0_
  6
CONTINUOUS
 62
    7
 10
834.84767810718427
 20
843.83309736215006
 11
835.39998765157452
 21
844.78968734446642
  0
LINE
  8
_1-0_
  6
CONTINUOUS
 62
    7
 10
835.39998765157452
 20
844.78968734446642
 11
835.96752004733867
 21
845.77278608520965
  0
LINE
  8
_1-0_
  6
CONTINUOUS
 62
    7
 10
835.96752004733867
 20
845.77278608520965
 11
836.55045026977996
 21
846.7823935843802
  0
LINE
  8
_1-0_
  6
CONTINUOUS
 62
    7
 10
836.55045026977996
 20
846.7823935843802
 11
837.148690831247
 21
847.81850984197774
  0
LINE
  8
_1-0_
  6
CONTINUOUS
 62
    7
 10
837.148690831247
 20
847.81850984197774
 11
837.7621542440877
 21
848.8811348580025
  0
LINE
  8
_1-0_
  6
CONTINUOUS
 62
    7
 10
837.7621542440877
 20
848.8811348580025
 11
838.39101548360577
 21
849.97026863245424
  0
LINE
  8
_1-0_
  6
CONTINUOUS
 62
    7
 10
838.39101548360577
 20
849.97026863245424
 11
839.03509957449774
 21
851.08591116533307
  0
LINE
  8
_1-0_
  6
CONTINUOUS
 62
    7
 10
839.03509957449774
 20
851.08591116533307
 11
839.69449400441522
 21
852.22806245663901
  0
LINE
  8
_1-0_
  6
CONTINUOUS
 62
    7
 10
839.69449400441522
 20
852.22806245663901
 11
840.36928626100985
 21
853.39672250637204
  0
LINE
  8
_1-0_
  6
CONTINUOUS
 62
    7
 10
840.36928626100985
 20
853.39672250637204
 11
841.04609073359075
 21
854.62032480129392
  0
LINE
  8
_1-0_
  6
CONTINUOUS
 62
    7
 10
841.04609073359075
 20
854.62032480129392
 11
841.71187176207309
 21
855.92704036521172
  0
LINE
  8
_1-0_
  6
CONTINUOUS
 62
    7
 10
841.71187176207309
 20
855.92704036521172
 11
842.36654185880548
 21
857.31713166107988
  0
LINE
  8
_1-0_
  6
CONTINUOUS
 62
    7
 10
842.36654185880548
 20
857.31713166107988
 11
843.01010102378814
 21
858.7904237135956
  0
LINE
  8
_1-0_
  6
CONTINUOUS
 62
    7
 10
843.01010102378814
 20
858.7904237135956
 11
843.64263674467225
 21
860.34691652275887
  0
LINE
  8
_1-0_
  6
CONTINUOUS
 62
    7
 10
843.64263674467225
 20
860.34691652275887
 11
844.26414902145791
 21
861.98669757622088
  0
LINE
  8
_1-0_
  6
CONTINUOUS
 62
    7
 10
844.26414902145791
 20
861.98669757622088
 11
844.87446287884211
 21
863.70967938633032
  0
LINE
  8
_1-0_
  6
CONTINUOUS
 62
    7
 10
844.87446287884211
 20
863.70967938633032
 11
845.47375329212787
 21
865.51594944073884
  0
LINE
  8
_1-0_
  6
CONTINUOUS
 62
    7
 10
845.47375329212787
 20
865.51594944073884
 11
846.0620202613153
 21
867.40550773944631
  0
LINE
  8
_1-0_
  6
CONTINUOUS
 62
    7
 10
846.0620202613153
 20
867.40550773944631
 11
846.63908881110103
 21
869.37826679480111
  0
LINE
  8
_1-0_
  6
CONTINUOUS
 62
    7
 10
846.63908881110103
 20
869.37826679480111
 11
847.20513391678855
 21
871.43422660680346
  0
LINE
  8
_1-0_
  6
CONTINUOUS
 62
    7
 10
847.20513391678855
 20
871.43422660680346
 11
847.76015557837752
 21
873.57356215075629
  0
LINE
  8
_1-0_
  6
CONTINUOUS
 62
    7
 10
847.76015557837752
 20
873.57356215075629
 11
848.30406630821676
 21
875.79601096370493
  0
LINE
  8
_1-0_
  6
CONTINUOUS
 62
    7
 10
848.30406630821676
 20
875.79601096370493
 11
848.83686610630571
 21
878.10174802095264
  0
LINE
  8
_1-0_
  6
CONTINUOUS
 62
    7
 10
848.83686610630571
 20
878.10174802095264
 11
849.35855497264481
 21
880.49077332249931
  0
LINE
  8
_1-0_
  6
CONTINUOUS
 62
    7
 10
849.35855497264481
 20
880.49077332249931
 11
849.86922039488559
 21
882.96299938069342
  0
LINE
  8
_1-0_
  6
CONTINUOUS
 62
    7
 10
849.86922039488559
 20
882.96299938069342
 11
850.38557251447867
 21
885.70687459702651
  0
LINE
  8
_1-0_
  6
CONTINUOUS
 62
    7
 10
850.38557251447867
 20
885.70687459702651
 11
850.92440896052653
 21
888.91084737299025
  0
LINE
  8
_1-0_
  6
CONTINUOUS
 62
    7
 10
850.92440896052653
 20
888.91084737299025
 11
851.48572973302885
 21
892.57491770858462
  0
LINE
  8
_1-0_
  6
CONTINUOUS
 62
    7
 10
851.48572973302885
 20
892.57491770858462
 11
852.06953483198595
 21
896.69899811615801
  0
LINE
  8
_1-0_
  6
CONTINUOUS
 62
    7
 10
852.06953483198595
 20
896.69899811615801
 11
852.67582425739772
 21
901.28317608336215
  0
LINE
  8
_1-0_
  6
CONTINUOUS
 62
    7
 10
852.67582425739772
 20
901.28317608336215
 11
853.30459800926405
 21
906.32745161019682
  0
LINE
  8
_1-0_
  6
CONTINUOUS
 62
    7
 10
853.30459800926405
 20
906.32745161019682
 11
853.95576859993355
 21
911.83173720901073
  0
LINE
  8
_1-0_
  6
CONTINUOUS
 62
    7
 10
853.95576859993355
 20
911.83173720901073
 11
854.62951100470934
 21
917.79612036745516
  0
LINE
  8
_1-0_
  6
CONTINUOUS
 62
    7
 10
854.62951100470934
 20
917.79612036745516
 11
855.32565024828818
 21
924.22060108553023
  0
LINE
  8
_1-0_
  6
CONTINUOUS
 62
    7
 10
855.32565024828818
 20
924.22060108553023
 11
856.04436130597321
 21
931.10517936323595
  0
LINE
  8
_1-0_
  6
CONTINUOUS
 62
    7
 10
856.04436130597321
 20
931.10517936323595
 11
856.7854692024614
 21
938.44976771292067
  0
LINE
  8
_1-0_
  6
CONTINUOUS
 62
    7
 10
856.7854692024614
 20
938.44976771292067
 11
857.54906142540426
 21
946.25445362223616
  0
LINE
  8
_1-0_
  6
CONTINUOUS
 62
    7
 10
857.54906142540426
 20
946.25445362223616
 11
858.33513797480168
 21
954.51923709118216
  0
LINE
  8
_1-0_
  6
CONTINUOUS
 62
    7
 10
858.33513797480168
 20
954.51923709118216
 11
859.14369885065366
 21
963.24403063210741
  0
LINE
  8
_1-0_
  6
CONTINUOUS
 62
    7
 10
859.14369885065366
 20
963.24403063210741
 11
859.97474405296066
 21
972.42892173266318
  0
LINE
  8
_1-0_
  6
CONTINUOUS
 62
    7
 10
859.97474405296066
 20
972.42892173266318
 11
860.82827358172199
 21
982.0739103928496
  0
LINE
  8
_1-0_
  6
CONTINUOUS
 62
    7
 10
560.82830451170003
 20
807.07384823832274
 11
571.74444500543905
 21
807.08557158363362
  0
LINE
  8
_1-0_
  6
CONTINUOUS
 62
    7
 10
571.74444500543905
 20
807.08557158363362
 11
582.22249108391838
 21
807.12074161956662
  0
LINE
  8
_1-0_
  6
CONTINUOUS
 62
    7
 10
582.22249108391838
 20
807.12074161956662
 11
592.26239900331234
 21
807.1793583461216
  0
LINE
  8
_1-0_
  6
CONTINUOUS
 62
    7
 10
592.26239900331234
 20
807.1793583461216
 11
601.86412501979521
 21
807.26133427564696
  0
LINE
  8
_1-0_
  6
CONTINUOUS
 62
    7
 10
601.86412501979521
 20
807.26133427564696
 11
611.02771287719247
 21
807.36684438344594
  0
LINE
  8
_1-0_
  6
CONTINUOUS
 62
    7
 10
611.02771287719247
 20
807.36684438344594
 11
619.75320631933016
 21
807.49571369421517
  0
LINE
  8
_1-0_
  6
CONTINUOUS
 62
    7
 10
619.75320631933016
 20
807.49571369421517
 11
628.04051785855677
 21
807.64811718325814
  0
LINE
  8
_1-0_
  6
CONTINUOUS
 62
    7
 10
628.04051785855677
 20
807.64811718325814
 11
635.88973498252358
 21
807.82387987527147
  0
LINE
  8
_1-0_
  6
CONTINUOUS
 62
    7
 10
635.88973498252358
 20
807.82387987527147
 11
643.3007702035793
 21
808.02308925790669
  0
LINE
  8
_1-0_
  6
CONTINUOUS
 62
    7
 10
643.3007702035793
 20
808.02308925790669
 11
650.27366726554965
 21
808.24574533116402
  0
LINE
  8
_1-0_
  6
CONTINUOUS
 62
    7
 10
650.27366726554965
 20
808.24574533116402
 11
656.80842616843438
 21
808.49184809504322
  0
LINE
  8
_1-0_
  6
CONTINUOUS
 62
    7
 10
656.80842616843438
 20
808.49184809504322
 11
662.90509065605966
 21
808.76139754954454
  0
LINE
  8
_1-0_
  6
CONTINUOUS
 62
    7
 10
662.90509065605966
 20
808.76139754954454
 11
668.56357324077351
 21
809.05430620701611
  0
LINE
  8
_1-0_
  6
CONTINUOUS
 62
    7
 10
668.56357324077351
 20
809.05430620701611
 11
673.78391766640209
 21
809.3707490427613
  0
LINE
  8
_1-0_
  6
CONTINUOUS
 62
    7
 10
673.78391766640209
 20
809.3707490427613
 11
678.56612393294517
 21
809.71063856912849
  0
LINE
  8
_1-0_
  6
CONTINUOUS
 62
    7
 10
678.56612393294517
 20
809.71063856912849
 11
682.91019204040276
 21
810.07388729846616
  0
LINE
  8
_1-0_
  6
CONTINUOUS
 62
    7
 10
682.91019204040276
 20
810.07388729846616
 11
686.98829768707378
 21
810.4488593731146
  0
LINE
  8
_1-0_
  6
CONTINUOUS
 62
    7
 10
686.98829768707378
 20
810.4488593731146
 11
690.97270405890856
 21
810.82391893541489
  0
LINE
  8
_1-0_
  6
CONTINUOUS
 62
    7
 10
690.97270405890856
 20
810.82391893541489
 11
694.86332366825525
 21
811.19889101006356
  0
LINE
  8
_1-0_
  6
CONTINUOUS
 62
    7
 10
694.86332366825525
 20
811.19889101006356
 11
698.66020025893988
 21
811.573863084712
  0
LINE
  8
_1-0_
  6
CONTINUOUS
 62
    7
 10
698.66020025893988
 20
811.573863084712
 11
702.36333383096223
 21
811.94883515936056
  0
LINE
  8
_1-0_
  6
CONTINUOUS
 62
    7
 10
702.36333383096223
 20
811.94883515936056
 11
705.97268064049672
 21
812.32389472166074
  0
LINE
  8
_1-0_
  6
CONTINUOUS
 62
    7
 10
705.97268064049672
 20
812.32389472166074
 11
709.48832817519485
 21
812.6988667963094
  0
LINE
  8
_1-0_
  6
CONTINUOUS
 62
    7
 10
709.48832817519485
 20
812.6988667963094
 11
712.910188947405
 21
813.07383887095796
  0
LINE
  8
_1-0_
  6
CONTINUOUS
 62
    7
 10
712.910188947405
 20
813.07383887095796
 11
716.23830670095322
 21
813.44889843325814
  0
LINE
  8
_1-0_
  6
CONTINUOUS
 62
    7
 10
716.23830670095322
 20
813.44889843325814
 11
719.47268143583892
 21
813.82387050790669
  0
LINE
  8
_1-0_
  6
CONTINUOUS
 62
    7
 10
719.47268143583892
 20
813.82387050790669
 11
722.6133131520628
 21
814.19884258255536
  0
LINE
  8
_1-0_
  6
CONTINUOUS
 62
    7
 10
722.6133131520628
 20
814.19884258255536
 11
725.6602018496244
 21
814.57390214485542
  0
LINE
  8
_1-0_
  6
CONTINUOUS
 62
    7
 10
725.6602018496244
 20
814.57390214485542
 11
728.61330378469802
 21
814.94887421950409
  0
LINE
  8
_1-0_
  6
CONTINUOUS
 62
    7
 10
728.61330378469802
 20
814.94887421950409
 11
731.47270644493551
 21
815.32384629415264
  0
LINE
  8
_1-0_
  6
CONTINUOUS
 62
    7
 10
731.47270644493551
 20
815.32384629415264
 11
734.2382785988591
 21
815.69890585645282
  0
LINE
  8
_1-0_
  6
CONTINUOUS
 62
    7
 10
734.2382785988591
 20
815.69890585645282
 11
736.91015147794633
 21
816.07387793110138
  0
LINE
  8
_1-0_
  6
CONTINUOUS
 62
    7
 10
736.91015147794633
 20
816.07387793110138
 11
739.50783482849829
 21
816.44885000575005
  0
LINE
  8
_1-0_
  6
CONTINUOUS
 62
    7
 10
739.50783482849829
 20
816.44885000575005
 11
742.05083839681618
 21
816.82390956805011
  0
LINE
  8
_1-0_
  6
CONTINUOUS
 62
    7
 10
742.05083839681618
 20
816.82390956805011
 11
744.53907469524836
 21
817.19888164269878
  0
LINE
  8
_1-0_
  6
CONTINUOUS
 62
    7
 10
744.53907469524836
 20
817.19888164269878
 11
746.97271869909798
 21
817.57385371734722
  0
LINE
  8
_1-0_
  6
CONTINUOUS
 62
    7
 10
746.97271869909798
 20
817.57385371734722
 11
749.35159543306213
 21
817.94891327964751
  0
LINE
  8
_1-0_
  6
CONTINUOUS
 62
    7
 10
749.35159543306213
 20
817.94891327964751
 11
751.67579238479198
 21
818.32388535429595
  0
LINE
  8
_1-0_
  6
CONTINUOUS
 62
    7
 10
751.67579238479198
 20
818.32388535429595
 11
753.94530955428775
 21
818.69885742894462
  0
LINE
  8
_1-0_
  6
CONTINUOUS
 62
    7
 10
753.94530955428775
 20
818.69885742894462
 11
756.16014694154944
 21
819.07391699124491
  0
LINE
  8
_1-0_
  6
CONTINUOUS
 62
    7
 10
756.16014694154944
 20
819.07391699124491
 11
758.32030454657706
 21
819.44888906589335
  0
LINE
  8
_1-0_
  6
CONTINUOUS
 62
    7
 10
758.32030454657706
 20
819.44888906589335
 11
760.42578236937061
 21
819.82386114054191
  0
LINE
  8
_1-0_
  6
CONTINUOUS
 62
    7
 10
760.42578236937061
 20
819.82386114054191
 11
762.47658040992997
 21
820.19883321519058
  0
LINE
  8
_1-0_
  6
CONTINUOUS
 62
    7
 10
762.47658040992997
 20
820.19883321519058
 11
764.47269866825525
 21
820.57389277749076
  0
LINE
  8
_1-0_
  6
CONTINUOUS
 62
    7
 10
764.47269866825525
 20
820.57389277749076
 11
766.41413714434645
 21
820.94886485213931
  0
LINE
  8
_1-0_
  6
CONTINUOUS
 62
    7
 10
766.41413714434645
 20
820.94886485213931
 11
768.30080835055196
 21
821.32383692678786
  0
LINE
  8
_1-0_
  6
CONTINUOUS
 62
    7
 10
768.30080835055196
 20
821.32383692678786
 11
770.13288726217502
 21
821.69889648908804
  0
LINE
  8
_1-0_
  6
CONTINUOUS
 62
    7
 10
770.13288726217502
 20
821.69889648908804
 11
771.91019890391215
 21
822.07386856373671
  0
LINE
  8
_1-0_
  6
CONTINUOUS
 62
    7
 10
771.91019890391215
 20
822.07386856373671
 11
773.66021439835833
 21
822.46870033529262
  0
LINE
  8
_1-0_
  6
CONTINUOUS
 62
    7
 10
773.66021439835833
 20
822.46870033529262
 11
775.41022989280441
 21
822.90333898831523
  0
LINE
  8
_1-0_
  6
CONTINUOUS
 62
    7
 10
775.41022989280441
 20
822.90333898831523
 11
777.16015789959886
 21
823.37760954750081
  0
LINE
  8
_1-0_
  6
CONTINUOUS
 62
    7
 10
777.16015789959886
 20
823.37760954750081
 11
778.91017339404482
 21
823.89159950050146
  0
LINE
  8
_1-0_
  6
CONTINUOUS
 62
    7
 10
778.91017339404482
 20
823.89159950050146
 11
780.66018888849089
 21
824.4452213596652
  0
LINE
  8
_1-0_
  6
CONTINUOUS
 62
    7
 10
780.66018888849089
 20
824.4452213596652
 11
782.41020438293685
 21
825.03865010029563
  0
LINE
  8
_1-0_
  6
CONTINUOUS
 62
    7
 10
782.41020438293685
 20
825.03865010029563
 11
784.16021987738293
 21
825.67179823474066
  0
LINE
  8
_1-0_
  6
CONTINUOUS
 62
    7
 10
784.16021987738293
 20
825.67179823474066
 11
785.91014788417738
 21
826.34457827534914
  0
LINE
  8
_1-0_
  6
CONTINUOUS
 62
    7
 10
785.91014788417738
 20
826.34457827534914
 11
787.66016337862334
 21
827.05716519742396
  0
LINE
  8
_1-0_
  6
CONTINUOUS
 62
    7
 10
787.66016337862334
 20
827.05716519742396
 11
789.41017887306941
 21
827.8093840256621
  0
LINE
  8
_1-0_
  6
CONTINUOUS
 62
    7
 10
789.41017887306941
 20
827.8093840256621
 11
791.16019436751549
 21
828.60132224771507
  0
LINE
  8
_1-0_
  6
CONTINUOUS
 62
    7
 10
791.16019436751549
 20
828.60132224771507
 11
792.91020986196156
 21
829.43297986358289
  0
LINE
  8
_1-0_
  6
CONTINUOUS
 62
    7
 10
792.91020986196156
 20
829.43297986358289
 11
794.66022535640764
 21
830.30435687326542
  0
LINE
  8
_1-0_
  6
CONTINUOUS
 62
    7
 10
794.66022535640764
 20
830.30435687326542
 11
796.41015336320208
 21
831.21545327676301
  0
LINE
  8
_1-0_
  6
CONTINUOUS
 62
    7
 10
796.41015336320208
 20
831.21545327676301
 11
798.16016885764816
 21
832.16626907407544
  0
LINE
  8
_1-0_
  6
CONTINUOUS
 62
    7
 10
798.16016885764816
 20
832.16626907407544
 11
799.91018435209412
 21
833.1568042652026
  0
LINE
  8
_1-0_
  6
CONTINUOUS
 62
    7
 10
799.91018435209412
 20
833.1568042652026
 11
801.62502981060709
 21
834.15512585732006
  0
LINE
  8
_1-0_
  6
CONTINUOUS
 62
    7
 10
801.62502981060709
 20
834.15512585732006
 11
803.26953519725419
 21
835.12930085760274
  0
LINE
  8
_1-0_
  6
CONTINUOUS
 62
    7
 10
803.26953519725419
 20
835.12930085760274
 11
804.84378799968692
 21
836.07950424135413
  0
LINE
  8
_1-0_
  6
CONTINUOUS
 62
    7
 10
804.84378799968692
 20
836.07950424135413
 11
806.34770073025379
 21
837.00556103327085
  0
LINE
  8
_1-0_
  6
CONTINUOUS
 62
    7
 10
806.34770073025379
 20
837.00556103327085
 11
807.78127338895456
 21
837.90755872100476
  0
LINE
  8
_1-0_
  6
CONTINUOUS
 62
    7
 10
807.78127338895456
 20
837.90755872100476
 11
809.14459346344097
 21
838.78540981690389
  0
LINE
  8
_1-0_
  6
CONTINUOUS
 62
    7
 10
809.14459346344097
 20
838.78540981690389
 11
810.43757346606162
 21
839.6392018086201
  0
LINE
  8
_1-0_
  6
CONTINUOUS
 62
    7
 10
810.43757346606162
 20
839.6392018086201
 11
811.66021339681606
 21
840.46893469615327
  0
LINE
  8
_1-0_
  6
CONTINUOUS
 62
    7
 10
811.66021339681606
 20
840.46893469615327
 11
812.81251325570474
 21
841.27460847950351
  0
LINE
  8
_1-0_
  6
CONTINUOUS
 62
    7
 10
812.81251325570474
 20
841.27460847950351
 11
813.89456053037884
 21
842.05613567101909
  0
LINE
  8
_1-0_
  6
CONTINUOUS
 62
    7
 10
813.89456053037884
 20
842.05613567101909
 11
814.90626773318718
 21
842.81360375835163
  0
LINE
  8
_1-0_
  6
CONTINUOUS
 62
    7
 10
814.90626773318718
 20
842.81360375835163
 11
815.84772235178104
 21
843.54701274150113
  0
LINE
  8
_1-0_
  6
CONTINUOUS
 62
    7
 10
815.84772235178104
 20
843.54701274150113
 11
816.71874941085753
 21
844.2562751328162
  0
LINE
  8
_1-0_
  6
CONTINUOUS
 62
    7
 10
816.71874941085753
 20
844.2562751328162
 11
817.51952388571954
 21
844.94147841994823
  0
LINE
  8
_1-0_
  6
CONTINUOUS
 62
    7
 10
817.51952388571954
 20
844.94147841994823
 11
818.25004577636719
 21
845.60262260289721
  0
LINE
  8
_1-0_
  6
CONTINUOUS
 62
    7
 10
818.25004577636719
 20
845.60262260289721
 11
818.91022759514885
 21
846.23970768166316
  0
LINE
  8
_1-0_
  6
CONTINUOUS
 62
    7
 10
818.91022759514885
 20
846.23970768166316
 11
819.53130243367673
 21
846.8858039885414
  0
LINE
  8
_1-0_
  6
CONTINUOUS
 62
    7
 10
819.53130243367673
 20
846.8858039885414
 11
820.1445908712144
 21
847.57433180643318
  0
LINE
  8
_1-0_
  6
CONTINUOUS
 62
    7
 10
820.1445908712144
 20
847.57433180643318
 11
820.75000542011037
 21
848.30511616003548
  0
LINE
  8
_1-0_
  6
CONTINUOUS
 62
    7
 10
820.75000542011037
 20
848.30511616003548
 11
821.34772105566776
 21
849.07824453700005
  0
LINE
  8
_1-0_
  6
CONTINUOUS
 62
    7
 10
821.34772105566776
 20
849.07824453700005
 11
821.93756280258356
 21
849.89371693732653
  0
LINE
  8
_1-0_
  6
CONTINUOUS
 62
    7
 10
821.93756280258356
 20
849.89371693732653
 11
822.51953066085753
 21
850.75144587336354
  0
LINE
  8
_1-0_
  6
CONTINUOUS
 62
    7
 10
822.51953066085753
 20
850.75144587336354
 11
823.09379960579292
 21
851.65151883276269
  0
LINE
  8
_1-0_
  6
CONTINUOUS
 62
    7
 10
823.09379960579292
 20
851.65151883276269
 11
823.66019466208672
 21
852.59393581552388
  0
LINE
  8
_1-0_
  6
CONTINUOUS
 62
    7
 10
823.66019466208672
 20
852.59393581552388
 11
824.21880331739032
 21
853.57869682164721
  0
LINE
  8
_1-0_
  6
CONTINUOUS
 62
    7
 10
824.21880331739032
 20
853.57869682164721
 11
824.7695380840521
 21
854.60571436348107
  0
LINE
  8
_1-0_
  6
CONTINUOUS
 62
    7
 10
824.7695380840521
 20
854.60571436348107
 11
825.31257393737542
 21
855.67507592867696
  0
LINE
  8
_1-0_
  6
CONTINUOUS
 62
    7
 10
825.31257393737542
 20
855.67507592867696
 11
825.84764841440563
 21
856.78678151723489
  0
LINE
  8
_1-0_
  6
CONTINUOUS
 62
    7
 10
825.84764841440563
 20
856.78678151723489
 11
826.37502397809703
 21
857.94083112915496
  0
LINE
  8
_1-0_
  6
CONTINUOUS
 62
    7
 10
826.37502397809703
 20
857.94083112915496
 11
826.89452565314684
 21
859.13713727678567
  0
LINE
  8
_1-0_
  6
CONTINUOUS
 62
    7
 10
826.89452565314684
 20
859.13713727678567
 11
827.40624092720645
 21
860.37578744777829
  0
LINE
  8
_1-0_
  6
CONTINUOUS
 62
    7
 10
827.40624092720645
 20
860.37578744777829
 11
827.91016980027598
 21
861.65678164213318
  0
LINE
  8
_1-0_
  6
CONTINUOUS
 62
    7
 10
827.91016980027598
 20
861.65678164213318
 11
828.42171009903245
 21
863.03348732731047
  0
LINE
  8
_1-0_
  6
CONTINUOUS
 62
    7
 10
828.42171009903245
 20
863.03348732731047
 11
828.95643462545627
 21
864.55918448311934
  0
LINE
  8
_1-0_
  6
CONTINUOUS
 62
    7
 10
828.95643462545627
 20
864.55918448311934
 11
829.51425589189557
 21
866.23404808486282
  0
LINE
  8
_1-0_
  6
CONTINUOUS
 62
    7
 10
829.51425589189557
 20
866.23404808486282
 11
830.09517389835071
 21
868.0579906448894
  0
LINE
  8
_1-0_
  6
CONTINUOUS
 62
    7
 10
830.09517389835071
 20
868.0579906448894
 11
830.69918864482145
 21
870.03101216319908
  0
LINE
  8
_1-0_
  6
CONTINUOUS
 62
    7
 10
830.69918864482145
 20
870.03101216319908
 11
831.32630013130802
 21
872.15311263979163
  0
LINE
  8
_1-0_
  6
CONTINUOUS
 62
    7
 10
831.32630013130802
 20
872.15311263979163
 11
831.9765958454617
 21
874.42429207466739
  0
LINE
  8
_1-0_
  6
CONTINUOUS
 62
    7
 10
831.9765958454617
 20
874.42429207466739
 11
832.64998829963122
 21
876.84463795547776
  0
LINE
  8
_1-0_
  6
CONTINUOUS
 62
    7
 10
832.64998829963122
 20
876.84463795547776
 11
833.34647749381634
 21
879.41397530691961
  0
LINE
  8
_1-0_
  6
CONTINUOUS
 62
    7
 10
833.34647749381634
 20
879.41397530691961
 11
834.06606342801706
 21
882.13239161664444
  0
LINE
  8
_1-0_
  6
CONTINUOUS
 62
    7
 10
834.06606342801706
 20
882.13239161664444
 11
834.80883358988524
 21
884.999974372304
  0
LINE
  8
_1-0_
  6
CONTINUOUS
 62
    7
 10
834.80883358988524
 20
884.999974372304
 11
835.57470049176891
 21
888.01654859859514
  0
LINE
  8
_1-0_
  6
CONTINUOUS
 62
    7
 10
835.57470049176891
 20
888.01654859859514
 11
836.36366413366829
 21
891.18228927082077
  0
LINE
  8
_1-0_
  6
CONTINUOUS
 62
    7
 10
836.36366413366829
 20
891.18228927082077
 11
837.17572451558351
 21
894.49702141367777
  0
LINE
  8
_1-0_
  6
CONTINUOUS
 62
    7
 10
837.17572451558351
 20
894.49702141367777
 11
838.01088163751433
 21
897.96092000246961
  0
LINE
  8
_1-0_
  6
CONTINUOUS
 62
    7
 10
838.01088163751433
 20
897.96092000246961
 11
838.86922298711238
 21
901.57389754954454
  0
LINE
  8
_1-0_
  6
CONTINUOUS
 62
    7
 10
838.86922298711238
 20
901.57389754954454
 11
839.71190404707852
 21
905.34540272127242
  0
LINE
  8
_1-0_
  6
CONTINUOUS
 62
    7
 10
839.71190404707852
 20
905.34540272127242
 11
840.50025527541698
 21
909.28479669637204
  0
LINE
  8
_1-0_
  6
CONTINUOUS
 62
    7
 10
840.50025527541698
 20
909.28479669637204
 11
841.23427667212752
 21
913.3922544501462
  0
LINE
  8
_1-0_
  6
CONTINUOUS
 62
    7
 10
841.23427667212752
 20
913.3922544501462
 11
841.91379326190724
 21
917.66760100729221
  0
LINE
  8
_1-0_
  6
CONTINUOUS
 62
    7
 10
841.91379326190724
 20
917.66760100729221
 11
842.53906750771068
 21
922.11101134311275
  0
LINE
  8
_1-0_
  6
CONTINUOUS
 62
    7
 10
842.53906750771068
 20
922.11101134311275
 11
843.1099244342347
 21
926.72231048230492
  0
LINE
  8
_1-0_
  6
CONTINUOUS
 62
    7
 10
843.1099244342347
 20
926.72231048230492
 11
843.62645152913092
 21
931.50158591252034
  0
LINE
  8
_1-0_
  6
CONTINUOUS
 62
    7
 10
843.62645152913092
 20
931.50158591252034
 11
844.08856130474771
 21
936.4488376337589
  0
LINE
  8
_1-0_
  6
CONTINUOUS
 62
    7
 10
844.08856130474771
 20
936.4488376337589
 11
844.49625376108531
 21
941.56415313367211
  0
LINE
  8
_1-0_
  6
CONTINUOUS
 62
    7
 10
844.49625376108531
 20
941.56415313367211
 11
844.84970387344651
 21
946.84735743695694
  0
LINE
  8
_1-0_
  6
CONTINUOUS
 62
    7
 10
844.84970387344651
 20
946.84735743695694
 11
845.14873666652829
 21
952.29845054361351
  0
LINE
  8
_1-0_
  6
CONTINUOUS
 62
    7
 10
845.14873666652829
 20
952.29845054361351
 11
845.39335214033088
 21
957.91760742894462
  0
LINE
  8
_1-0_
  6
CONTINUOUS
 62
    7
 10
845.39335214033088
 20
957.91760742894462
 11
845.58363778250555
 21
963.70474060529898
  0
LINE
  8
_1-0_
  6
CONTINUOUS
 62
    7
 10
845.58363778250555
 20
963.70474060529898
 11
845.71959359305242
 21
969.65985007267659
  0
LINE
  8
_1-0_
  6
CONTINUOUS
 62
    7
 10
845.71959359305242
 20
969.65985007267659
 11
845.80113208431999
 21
975.78284834342571
  0
LINE
  8
_1-0_
  6
CONTINUOUS
 62
    7
 10
845.80113208431999
 20
975.78284834342571
 11
845.82834074395964
 21
982.0739103928496
  0
LINE
  8
_1-0_
  6
CONTINUOUS
 62
    7
 10
560.82830451170003
 20
1172.0739053851387
 11
544.57812938911104
 21
1171.5680517837347
  0
LINE
  8
_1-0_
  6
CONTINUOUS
 62
    7
 10
544.57812938911104
 20
1171.5680517837347
 11
529.09815180715896
 21
1171.0504748370195
  0
LINE
  8
_1-0_
  6
CONTINUOUS
 62
    7
 10
529.09815180715896
 20
1171.0504748370195
 11
514.38837176584366
 21
1170.5211745449933
  0
LINE
  8
_1-0_
  6
CONTINUOUS
 62
    7
 10
514.38837176584366
 20
1170.5211745449933
 11
500.44870177751335
 21
1169.9801509076563
  0
LINE
  8
_1-0_
  6
CONTINUOUS
 62
    7
 10
500.44870177751335
 20
1169.9801509076563
 11
487.27927307364553
 21
1169.4274039250083
  0
LINE
  8
_1-0_
  6
CONTINUOUS
 62
    7
 10
487.27927307364553
 20
1169.4274039250083
 11
474.87995442276286
 21
1168.8629335970491
  0
LINE
  8
_1-0_
  6
CONTINUOUS
 62
    7
 10
474.87995442276286
 20
1168.8629335970491
 11
463.25083331251687
 21
1168.2867399237789
  0
LINE
  8
_1-0_
  6
CONTINUOUS
 62
    7
 10
463.25083331251687
 20
1168.2867399237789
 11
452.3918659990818
 21
1167.6989103928495
  0
LINE
  8
_1-0_
  6
CONTINUOUS
 62
    7
 10
452.3918659990818
 20
1167.6989103928495
 11
442.3030962262834
 21
1167.0992700289573
  0
LINE
  8
_1-0_
  6
CONTINUOUS
 62
    7
 10
442.3030962262834
 20
1167.0992700289573
 11
432.98448025029586
 21
1166.4879063197545
  0
LINE
  8
_1-0_
  6
CONTINUOUS
 62
    7
 10
432.98448025029586
 20
1166.4879063197545
 11
424.43606181494516
 21
1165.8649067528918
  0
LINE
  8
_1-0_
  6
CONTINUOUS
 62
    7
 10
424.43606181494516
 20
1165.8649067528918
 11
416.65779717640532
 21
1165.230096353067
  0
LINE
  8
_1-0_
  6
CONTINUOUS
 62
    7
 10
416.65779717640532
 20
1165.230096353067
 11
409.64968633467618
 21
1164.5836500955825
  0
LINE
  8
_1-0_
  6
CONTINUOUS
 62
    7
 10
409.64968633467618
 20
1164.5836500955825
 11
403.41172928975823
 21
1163.9254804927868
  0
LINE
  8
_1-0_
  6
CONTINUOUS
 62
    7
 10
403.41172928975823
 20
1163.9254804927868
 11
397.94401352930254
 21
1163.2555000570289
  0
LINE
  8
_1-0_
  6
CONTINUOUS
 62
    7
 10
397.94401352930254
 20
1163.2555000570289
 11
393.24640782183195
 21
1162.5738837636115
  0
LINE
  8
_1-0_
  6
CONTINUOUS
 62
    7
 10
393.24640782183195
 20
1162.5738837636115
 11
388.99835741197734
 21
1161.8922674701939
  0
LINE
  8
_1-0_
  6
CONTINUOUS
 62
    7
 10
388.99835741197734
 20
1161.8922674701939
 11
384.87922005671794
 21
1161.222287034436
  0
LINE
  8
_1-0_
  6
CONTINUOUS
 62
    7
 10
384.87922005671794
 20
1161.222287034436
 11
380.88899575605353
 21
1160.5641174316404
  0
LINE
  8
_1-0_
  6
CONTINUOUS
 62
    7
 10
380.88899575605353
 20
1160.5641174316404
 11
377.02764076615847
 21
1159.9175836865045
  0
LINE
  8
_1-0_
  6
CONTINUOUS
 62
    7
 10
377.02764076615847
 20
1159.9175836865045
 11
373.29524257468438
 21
1159.2828607743311
  0
LINE
  8
_1-0_
  6
CONTINUOUS
 62
    7
 10
373.29524257468438
 20
1159.2828607743311
 11
369.69171369397969
 21
1158.6597737198169
  0
LINE
  8
_1-0_
  6
CONTINUOUS
 62
    7
 10
369.69171369397969
 20
1158.6597737198169
 11
366.21711973978279
 21
1158.0484974982655
  0
LINE
  8
_1-0_
  6
CONTINUOUS
 62
    7
 10
366.21711973978279
 20
1158.0484974982655
 11
362.87141696826836
 21
1157.4488571343734
  0
LINE
  8
_1-0_
  6
CONTINUOUS
 62
    7
 10
362.87141696826836
 20
1157.4488571343734
 11
359.65460537943602
 21
1156.861027603444
  0
LINE
  8
_1-0_
  6
CONTINUOUS
 62
    7
 10
359.65460537943602
 20
1156.861027603444
 11
356.56672871711169
 21
1156.2848339301738
  0
LINE
  8
_1-0_
  6
CONTINUOUS
 62
    7
 10
356.56672871711169
 20
1156.2848339301738
 11
353.60774323746966
 21
1155.7203636022148
  0
LINE
  8
_1-0_
  6
CONTINUOUS
 62
    7
 10
353.60774323746966
 20
1155.7203636022148
 11
350.77764894050972
 21
1155.1676166195666
  0
LINE
  8
_1-0_
  6
CONTINUOUS
 62
    7
 10
350.77764894050972
 20
1155.1676166195666
 11
348.07648957005796
 21
1154.6265929822293
  0
LINE
  8
_1-0_
  6
CONTINUOUS
 62
    7
 10
348.07648957005796
 20
1154.6265929822293
 11
345.50422138228839
 21
1154.0972926902034
  0
LINE
  8
_1-0_
  6
CONTINUOUS
 62
    7
 10
345.50422138228839
 20
1154.0972926902034
 11
343.06086624911387
 21
1153.5797157434881
  0
LINE
  8
_1-0_
  6
CONTINUOUS
 62
    7
 10
343.06086624911387
 20
1153.5797157434881
 11
340.74640229862166
 21
1153.0738621420842
  0
LINE
  8
_1-0_
  6
CONTINUOUS
 62
    7
 10
340.74640229862166
 20
1153.0738621420842
 11
338.51008669289843
 21
1152.5568101212784
  0
LINE
  8
_1-0_
  6
CONTINUOUS
 62
    7
 10
338.51008669289843
 20
1152.5568101212784
 11
336.30108910637932
 21
1152.005550428707
  0
LINE
  8
_1-0_
  6
CONTINUOUS
 62
    7
 10
336.30108910637932
 20
1152.005550428707
 11
334.11945328289022
 21
1151.4201705520218
  0
LINE
  8
_1-0_
  6
CONTINUOUS
 62
    7
 10
334.11945328289022
 20
1151.4201705520218
 11
331.96515735051804
 21
1150.8006704912223
  0
LINE
  8
_1-0_
  6
CONTINUOUS
 62
    7
 10
331.96515735051804
 20
1150.8006704912223
 11
329.8382013092629
 21
1150.1469627586571
  0
LINE
  8
_1-0_
  6
CONTINUOUS
 62
    7
 10
329.8382013092629
 20
1150.1469627586571
 11
327.73858515912508
 21
1149.4591348419776
  0
LINE
  8
_1-0_
  6
CONTINUOUS
 62
    7
 10
327.73858515912508
 20
1149.4591348419776
 11
325.66633077201686
 21
1148.737099253533
  0
LINE
  8
_1-0_
  6
CONTINUOUS
 62
    7
 10
325.66633077201686
 20
1148.737099253533
 11
323.62141627602597
 21
1147.980943480974
  0
LINE
  8
_1-0_
  6
CONTINUOUS
 62
    7
 10
323.62141627602597
 20
1147.980943480974
 11
321.60381979923909
 21
1147.1906675243008
  0
LINE
  8
_1-0_
  6
CONTINUOUS
 62
    7
 10
321.60381979923909
 20
1147.1906675243008
 11
319.61358508548216
 21
1146.3662713835138
  0
LINE
  8
_1-0_
  6
CONTINUOUS
 62
    7
 10
319.61358508548216
 20
1146.3662713835138
 11
317.65071213475522
 21
1145.5075800833094
  0
LINE
  8
_1-0_
  6
CONTINUOUS
 62
    7
 10
317.65071213475522
 20
1145.5075800833094
 11
315.71515720323248
 21
1144.6148560866425
  0
LINE
  8
_1-0_
  6
CONTINUOUS
 62
    7
 10
315.71515720323248
 20
1144.6148560866425
 11
313.80696403473962
 21
1143.6879244182101
  0
LINE
  8
_1-0_
  6
CONTINUOUS
 62
    7
 10
313.80696403473962
 20
1143.6879244182101
 11
311.92608888545095
 21
1142.7268725656634
  0
LINE
  8
_1-0_
  6
CONTINUOUS
 62
    7
 10
311.92608888545095
 20
1142.7268725656634
 11
310.07257549919217
 21
1141.7317005290029
  0
LINE
  8
_1-0_
  6
CONTINUOUS
 62
    7
 10
310.07257549919217
 20
1141.7317005290029
 11
308.24640200405042
 21
1140.7023208205765
  0
LINE
  8
_1-0_
  6
CONTINUOUS
 62
    7
 10
308.24640200405042
 20
1140.7023208205765
 11
306.47687676330321
 21
1139.6648922482052
  0
LINE
  8
_1-0_
  6
CONTINUOUS
 62
    7
 10
306.47687676330321
 20
1139.6648922482052
 11
304.79328626831517
 21
1138.6454861320583
  0
LINE
  8
_1-0_
  6
CONTINUOUS
 62
    7
 10
304.79328626831517
 20
1138.6454861320583
 11
303.19563051908631
 21
1137.644102472136
  0
LINE
  8
_1-0_
  6
CONTINUOUS
 62
    7
 10
303.19563051908631
 20
1137.644102472136
 11
301.68390951561651
 21
1136.6608287560894
  0
LINE
  8
_1-0_
  6
CONTINUOUS
 62
    7
 10
301.68390951561651
 20
1136.6608287560894
 11
300.25812325790582
 21
1135.6955774962671
  0
LINE
  8
_1-0_
  6
CONTINUOUS
 62
    7
 10
300.25812325790582
 20
1135.6955774962671
 11
298.9182717459542
 21
1134.7483486926692
  0
LINE
  8
_1-0_
  6
CONTINUOUS
 62
    7
 10
298.9182717459542
 20
1134.7483486926692
 11
297.6643768516746
 21
1133.8192298329475
  0
LINE
  8
_1-0_
  6
CONTINUOUS
 62
    7
 10
297.6643768516746
 20
1133.8192298329475
 11
296.49641670315418
 21
1132.9080459417983
  0
LINE
  8
_1-0_
  6
CONTINUOUS
 62
    7
 10
296.49641670315418
 20
1132.9080459417983
 11
295.41436942847997
 21
1132.0149719945252
  0
LINE
  8
_1-0_
  6
CONTINUOUS
 62
    7
 10
295.41436942847997
 20
1132.0149719945252
 11
294.41827877147773
 21
1131.1399205034763
  0
LINE
  8
_1-0_
  6
CONTINUOUS
 62
    7
 10
294.41827877147773
 20
1131.1399205034763
 11
293.50812286023472
 21
1130.282891468652
  0
LINE
  8
_1-0_
  6
CONTINUOUS
 62
    7
 10
293.50812286023472
 20
1130.282891468652
 11
292.68390169475072
 21
1129.4439723777034
  0
LINE
  8
_1-0_
  6
CONTINUOUS
 62
    7
 10
292.68390169475072
 20
1129.4439723777034
 11
291.94561527502583
 21
1128.6230757429794
  0
LINE
  8
_1-0_
  6
CONTINUOUS
 62
    7
 10
291.94561527502583
 20
1128.6230757429794
 11
291.29328547297291
 21
1127.8202015644795
  0
LINE
  8
_1-0_
  6
CONTINUOUS
 62
    7
 10
291.29328547297291
 20
1127.8202015644795
 11
290.72686854476626
 21
1127.0353498422039
  0
LINE
  8
_1-0_
  6
CONTINUOUS
 62
    7
 10
290.72686854476626
 20
1127.0353498422039
 11
290.24640823423169
 21
1126.2685205761529
  0
LINE
  8
_1-0_
  6
CONTINUOUS
 62
    7
 10
290.24640823423169
 20
1126.2685205761529
 11
289.8012491911075
 21
1125.4974919028264
  0
LINE
  8
_1-0_
  6
CONTINUOUS
 62
    7
 10
289.8012491911075
 20
1125.4974919028264
 11
289.34080168087053
 21
1124.6999544710725
  0
LINE
  8
_1-0_
  6
CONTINUOUS
 62
    7
 10
289.34080168087053
 20
1124.6999544710725
 11
288.86504383160798
 21
1123.8759082808917
  0
LINE
  8
_1-0_
  6
CONTINUOUS
 62
    7
 10
288.86504383160798
 20
1123.8759082808917
 11
288.37397564331991
 21
1123.0253533322839
  0
LINE
  8
_1-0_
  6
CONTINUOUS
 62
    7
 10
288.37397564331991
 20
1123.0253533322839
 11
287.86759711600638
 21
1122.1482896252487
  0
LINE
  8
_1-0_
  6
CONTINUOUS
 62
    7
 10
287.86759711600638
 20
1122.1482896252487
 11
287.34590824966716
 21
1121.2447171597867
  0
LINE
  8
_1-0_
  6
CONTINUOUS
 62
    7
 10
287.34590824966716
 20
1121.2447171597867
 11
286.80893091621544
 21
1120.3146359358975
  0
LINE
  8
_1-0_
  6
CONTINUOUS
 62
    7
 10
286.80893091621544
 20
1120.3146359358975
 11
286.25664324373815
 21
1119.3580459535813
  0
LINE
  8
_1-0_
  6
CONTINUOUS
 62
    7
 10
286.25664324373815
 20
1119.3580459535813
 11
285.68904523223523
 21
1118.3749472128377
  0
LINE
  8
_1-0_
  6
CONTINUOUS
 62
    7
 10
285.68904523223523
 20
1118.3749472128377
 11
285.10615875361964
 21
1117.3653397136673
  0
LINE
  8
_1-0_
  6
CONTINUOUS
 62
    7
 10
285.10615875361964
 20
1117.3653397136673
 11
284.50794006406568
 21
1116.3292234560697
  0
LINE
  8
_1-0_
  6
CONTINUOUS
 62
    7
 10
284.50794006406568
 20
1116.3292234560697
 11
283.89443290739905
 21
1115.2665984400451
  0
LINE
  8
_1-0_
  6
CONTINUOUS
 62
    7
 10
283.89443290739905
 20
1115.2665984400451
 11
283.2656154117069
 21
1114.1774646655931
  0
LINE
  8
_1-0_
  6
CONTINUOUS
 62
    7
 10
283.2656154117069
 20
1114.1774646655931
 11
282.62150944890209
 21
1113.0618221327145
  0
LINE
  8
_1-0_
  6
CONTINUOUS
 62
    7
 10
282.62150944890209
 20
1113.0618221327145
 11
281.96209314707164
 21
1111.9196708414083
  0
LINE
  8
_1-0_
  6
CONTINUOUS
 62
    7
 10
281.96209314707164
 20
1111.9196708414083
 11
281.28734463430277
 21
1110.7510107916753
  0
LINE
  8
_1-0_
  6
CONTINUOUS
 62
    7
 10
281.28734463430277
 20
1110.7510107916753
 11
280.61051828980908
 21
1109.527495984405
  0
LINE
  8
_1-0_
  6
CONTINUOUS
 62
    7
 10
280.61051828980908
 20
1109.527495984405
 11
279.94473726132668
 21
1108.2206929328358
  0
LINE
  8
_1-0_
  6
CONTINUOUS
 62
    7
 10
279.94473726132668
 20
1108.2206929328358
 11
279.29006716459412
 21
1106.8306016369675
  0
LINE
  8
_1-0_
  6
CONTINUOUS
 62
    7
 10
279.29006716459412
 20
1106.8306016369675
 11
278.64646425578587
 21
1105.3573970721034
  0
LINE
  8
_1-0_
  6
CONTINUOUS
 62
    7
 10
278.64646425578587
 20
1105.3573970721034
 11
278.01392853490171
 21
1103.8008167752887
  0
LINE
  8
_1-0_
  6
CONTINUOUS
 62
    7
 10
278.01392853490171
 20
1103.8008167752887
 11
277.39248187385471
 21
1102.1610357218267
  0
LINE
  8
_1-0_
  6
CONTINUOUS
 62
    7
 10
277.39248187385471
 20
1102.1610357218267
 11
276.78212427264469
 21
1100.4380539117171
  0
LINE
  8
_1-0_
  6
CONTINUOUS
 62
    7
 10
276.78212427264469
 20
1100.4380539117171
 11
276.18283385935899
 21
1098.6317838573088
  0
LINE
  8
_1-0_
  6
CONTINUOUS
 62
    7
 10
276.18283385935899
 20
1098.6317838573088
 11
275.59461063399738
 21
1096.7422255586011
  0
LINE
  8
_1-0_
  6
CONTINUOUS
 62
    7
 10
275.59461063399738
 20
1096.7422255586011
 11
275.01747646847292
 21
1094.7694665032463
  0
LINE
  8
_1-0_
  6
CONTINUOUS
 62
    7
 10
275.01747646847292
 20
1094.7694665032463
 11
274.45143136278546
 21
1092.713506691244
  0
LINE
  8
_1-0_
  6
CONTINUOUS
 62
    7
 10
274.45143136278546
 20
1092.713506691244
 11
273.89645344502213
 21
1090.5742586349427
  0
LINE
  8
_1-0_
  6
CONTINUOUS
 62
    7
 10
273.89645344502213
 20
1090.5742586349427
 11
273.35256458709591
 21
1088.3517223343424
  0
LINE
  8
_1-0_
  6
CONTINUOUS
 62
    7
 10
273.35256458709591
 20
1088.3517223343424
 11
272.81974291709389
 21
1086.0459852770948
  0
LINE
  8
_1-0_
  6
CONTINUOUS
 62
    7
 10
272.81974291709389
 20
1086.0459852770948
 11
272.29801030692897
 21
1083.6569599755483
  0
LINE
  8
_1-0_
  6
CONTINUOUS
 62
    7
 10
272.29801030692897
 20
1083.6569599755483
 11
271.78734488468831
 21
1081.1847339173542
  0
LINE
  8
_1-0_
  6
CONTINUOUS
 62
    7
 10
271.78734488468831
 20
1081.1847339173542
 11
271.27099276509523
 21
1078.4408587010212
  0
LINE
  8
_1-0_
  6
CONTINUOUS
 62
    7
 10
271.27099276509523
 20
1078.4408587010212
 11
270.73215631904748
 21
1075.2368859250573
  0
LINE
  8
_1-0_
  6
CONTINUOUS
 62
    7
 10
270.73215631904748
 20
1075.2368859250573
 11
270.1708574184579
 21
1071.5728155894628
  0
LINE
  8
_1-0_
  6
CONTINUOUS
 62
    7
 10
270.1708574184579
 20
1071.5728155894628
 11
269.58705231950091
 21
1067.4487351818893
  0
LINE
  8
_1-0_
  6
CONTINUOUS
 62
    7
 10
269.58705231950091
 20
1067.4487351818893
 11
268.98078476600205
 21
1062.8645572146852
  0
LINE
  8
_1-0_
  6
CONTINUOUS
 62
    7
 10
268.98078476600205
 20
1062.8645572146852
 11
268.35203288604845
 21
1057.8202816878506
  0
LINE
  8
_1-0_
  6
CONTINUOUS
 62
    7
 10
268.35203288604845
 20
1057.8202816878506
 11
267.70081855155325
 21
1052.3159960890368
  0
LINE
  8
_1-0_
  6
CONTINUOUS
 62
    7
 10
267.70081855155325
 20
1052.3159960890368
 11
267.02711989060333
 21
1046.3516129305924
  0
LINE
  8
_1-0_
  6
CONTINUOUS
 62
    7
 10
267.02711989060333
 20
1046.3516129305924
 11
266.33093690319868
 21
1039.9271322125173
  0
LINE
  8
_1-0_
  6
CONTINUOUS
 62
    7
 10
266.33093690319868
 20
1039.9271322125173
 11
265.61226958933946
 21
1033.0425539348116
  0
LINE
  8
_1-0_
  6
CONTINUOUS
 62
    7
 10
265.61226958933946
 20
1033.0425539348116
 11
264.87113982093831
 21
1025.6979655851269
  0
LINE
  8
_1-0_
  6
CONTINUOUS
 62
    7
 10
264.87113982093831
 20
1025.6979655851269
 11
264.1075257260826
 21
1017.8932796758113
  0
LINE
  8
_1-0_
  6
CONTINUOUS
 62
    7
 10
264.1075257260826
 20
1017.8932796758113
 11
263.32144917668529
 21
1009.6285836945168
  0
LINE
  8
_1-0_
  6
CONTINUOUS
 62
    7
 10
263.32144917668529
 20
1009.6285836945168
 11
262.51286642892012
 21
1000.9037026659403
  0
LINE
  8
_1-0_
  6
CONTINUOUS
 62
    7
 10
262.51286642892012
 20
1000.9037026659403
 11
261.68182122661335
 21
991.71881156538439
  0
LINE
  8
_1-0_
  6
CONTINUOUS
 62
    7
 10
261.68182122661335
 20
991.71881156538439
 11
260.82829169785185
 21
982.0739103928496
  0
LINE
  8
_1-0_
  6
CONTINUOUS
 62
    7
 10
560.82830451170003
 20
1157.0738850597249
 11
549.91212027413496
 21
1157.0621617144138
  0
LINE
  8
_1-0_
  6
CONTINUOUS
 62
    7
 10
549.91212027413496
 20
1157.0621617144138
 11
539.43411793948144
 21
1157.0269916784807
  0
LINE
  8
_1-0_
  6
CONTINUOUS
 62
    7
 10
539.43411793948144
 20
1157.0269916784807
 11
529.39421002008748
 21
1156.9683749519259
  0
LINE
  8
_1-0_
  6
CONTINUOUS
 62
    7
 10
529.39421002008748
 20
1156.9683749519259
 11
519.79248400360461
 21
1156.8863990224006
  0
LINE
  8
_1-0_
  6
CONTINUOUS
 62
    7
 10
519.79248400360461
 20
1156.8863990224006
 11
510.62885240238143
 21
1156.7808889146017
  0
LINE
  8
_1-0_
  6
CONTINUOUS
 62
    7
 10
510.62885240238143
 20
1156.7808889146017
 11
501.90340270406949
 21
1156.6520196038323
  0
LINE
  8
_1-0_
  6
CONTINUOUS
 62
    7
 10
501.90340270406949
 20
1156.6520196038323
 11
493.61604742101719
 21
1156.4996161147894
  0
LINE
  8
_1-0_
  6
CONTINUOUS
 62
    7
 10
493.61604742101719
 20
1156.4996161147894
 11
485.76687404087608
 21
1156.323853422776
  0
LINE
  8
_1-0_
  6
CONTINUOUS
 62
    7
 10
485.76687404087608
 20
1156.323853422776
 11
478.35583881982046
 21
1156.1246440401408
  0
LINE
  8
_1-0_
  6
CONTINUOUS
 62
    7
 10
478.35583881982046
 20
1156.1246440401408
 11
471.38294175785018
 21
1155.9019879668836
  0
LINE
  8
_1-0_
  6
CONTINUOUS
 62
    7
 10
471.38294175785018
 20
1155.9019879668836
 11
464.84813911113963
 21
1155.6558852030043
  0
LINE
  8
_1-0_
  6
CONTINUOUS
 62
    7
 10
464.84813911113963
 20
1155.6558852030043
 11
458.75151836734017
 21
1155.3863357485031
  0
LINE
  8
_1-0_
  6
CONTINUOUS
 62
    7
 10
458.75151836734017
 20
1155.3863357485031
 11
453.09303578262615
 21
1155.0934270910313
  0
LINE
  8
_1-0_
  6
CONTINUOUS
 62
    7
 10
453.09303578262615
 20
1155.0934270910313
 11
447.87269135699773
 21
1154.7769842552862
  0
LINE
  8
_1-0_
  6
CONTINUOUS
 62
    7
 10
447.87269135699773
 20
1154.7769842552862
 11
443.09048509045454
 21
1154.4371822165706
  0
LINE
  8
_1-0_
  6
CONTINUOUS
 62
    7
 10
443.09048509045454
 20
1154.4371822165706
 11
438.74641698299683
 21
1154.0738459995814
  0
LINE
  8
_1-0_
  6
CONTINUOUS
 62
    7
 10
438.74641698299683
 20
1154.0738459995814
 11
434.66826759250011
 21
1153.6988739249327
  0
LINE
  8
_1-0_
  6
CONTINUOUS
 62
    7
 10
434.66826759250011
 20
1153.6988739249327
 11
430.68390496449126
 21
1153.3239018502841
  0
LINE
  8
_1-0_
  6
CONTINUOUS
 62
    7
 10
430.68390496449126
 20
1153.3239018502841
 11
426.79328535514446
 21
1152.948842287984
  0
LINE
  8
_1-0_
  6
CONTINUOUS
 62
    7
 10
426.79328535514446
 20
1152.948842287984
 11
422.99640876445994
 21
1152.5738702133353
  0
LINE
  8
_1-0_
  6
CONTINUOUS
 62
    7
 10
422.99640876445994
 20
1152.5738702133353
 11
419.29327519243742
 21
1152.1988981386869
  0
LINE
  8
_1-0_
  6
CONTINUOUS
 62
    7
 10
419.29327519243742
 20
1152.1988981386869
 11
415.68392838290293
 21
1151.8238385763866
  0
LINE
  8
_1-0_
  6
CONTINUOUS
 62
    7
 10
415.68392838290293
 20
1151.8238385763866
 11
412.16828084820492
 21
1151.4488665017382
  0
LINE
  8
_1-0_
  6
CONTINUOUS
 62
    7
 10
412.16828084820492
 20
1151.4488665017382
 11
408.74642007599459
 21
1151.0738944270895
  0
LINE
  8
_1-0_
  6
CONTINUOUS
 62
    7
 10
408.74642007599459
 20
1151.0738944270895
 11
405.41830232244649
 21
1150.6988348647894
  0
LINE
  8
_1-0_
  6
CONTINUOUS
 62
    7
 10
405.41830232244649
 20
1150.6988348647894
 11
402.18392758756067
 21
1150.3238627901408
  0
LINE
  8
_1-0_
  6
CONTINUOUS
 62
    7
 10
402.18392758756067
 20
1150.3238627901408
 11
399.04329587133702
 21
1149.9488907154923
  0
LINE
  8
_1-0_
  6
CONTINUOUS
 62
    7
 10
399.04329587133702
 20
1149.9488907154923
 11
395.99640717377525
 21
1149.5739186408437
  0
LINE
  8
_1-0_
  6
CONTINUOUS
 62
    7
 10
395.99640717377525
 20
1149.5739186408437
 11
393.04326149487594
 21
1149.1988590785436
  0
LINE
  8
_1-0_
  6
CONTINUOUS
 62
    7
 10
393.04326149487594
 20
1149.1988590785436
 11
390.18390257846431
 21
1148.8238870038949
  0
LINE
  8
_1-0_
  6
CONTINUOUS
 62
    7
 10
390.18390257846431
 20
1148.8238870038949
 11
387.41828668071491
 21
1148.4489149292463
  0
LINE
  8
_1-0_
  6
CONTINUOUS
 62
    7
 10
387.41828668071491
 20
1148.4489149292463
 11
384.7464138016278
 21
1148.0738553669462
  0
LINE
  8
_1-0_
  6
CONTINUOUS
 62
    7
 10
384.7464138016278
 20
1148.0738553669462
 11
382.14873045107566
 21
1147.6988832922975
  0
LINE
  8
_1-0_
  6
CONTINUOUS
 62
    7
 10
382.14873045107566
 20
1147.6988832922975
 11
379.60577062658359
 21
1147.3239112176489
  0
LINE
  8
_1-0_
  6
CONTINUOUS
 62
    7
 10
379.60577062658359
 20
1147.3239112176489
 11
377.11749058432559
 21
1146.9488516553488
  0
LINE
  8
_1-0_
  6
CONTINUOUS
 62
    7
 10
377.11749058432559
 20
1146.9488516553488
 11
374.68389032430167
 21
1146.5738795807001
  0
LINE
  8
_1-0_
  6
CONTINUOUS
 62
    7
 10
374.68389032430167
 20
1146.5738795807001
 11
372.30501359033769
 21
1146.1989075060517
  0
LINE
  8
_1-0_
  6
CONTINUOUS
 62
    7
 10
372.30501359033769
 20
1146.1989075060517
 11
369.98077289478204
 21
1145.8238479437514
  0
LINE
  8
_1-0_
  6
CONTINUOUS
 62
    7
 10
369.98077289478204
 20
1145.8238479437514
 11
367.71125572528615
 21
1145.4488758691027
  0
LINE
  8
_1-0_
  6
CONTINUOUS
 62
    7
 10
367.71125572528615
 20
1145.4488758691027
 11
365.49639646611155
 21
1145.0739037944543
  0
LINE
  8
_1-0_
  6
CONTINUOUS
 62
    7
 10
365.49639646611155
 20
1145.0739037944543
 11
363.33626073299683
 21
1144.698844232154
  0
LINE
  8
_1-0_
  6
CONTINUOUS
 62
    7
 10
363.33626073299683
 20
1144.698844232154
 11
361.23078291020335
 21
1144.3238721575055
  0
LINE
  8
_1-0_
  6
CONTINUOUS
 62
    7
 10
361.23078291020335
 20
1144.3238721575055
 11
359.18000674155678
 21
1143.9489000828569
  0
LINE
  8
_1-0_
  6
CONTINUOUS
 62
    7
 10
359.18000674155678
 20
1143.9489000828569
 11
357.18391035514446
 21
1143.5738405205568
  0
LINE
  8
_1-0_
  6
CONTINUOUS
 62
    7
 10
357.18391035514446
 20
1143.5738405205568
 11
355.24249375096616
 21
1143.1988684459081
  0
LINE
  8
_1-0_
  6
CONTINUOUS
 62
    7
 10
355.24249375096616
 20
1143.1988684459081
 11
353.35577880093496
 21
1142.8238963712597
  0
LINE
  8
_1-0_
  6
CONTINUOUS
 62
    7
 10
353.35577880093496
 20
1142.8238963712597
 11
351.52374363313766
 21
1142.4488368089594
  0
LINE
  8
_1-0_
  6
CONTINUOUS
 62
    7
 10
351.52374363313766
 20
1142.4488368089594
 11
349.74641011948745
 21
1142.073864734311
  0
LINE
  8
_1-0_
  6
CONTINUOUS
 62
    7
 10
349.74641011948745
 20
1142.073864734311
 11
347.99641649695445
 21
1141.6790329627547
  0
LINE
  8
_1-0_
  6
CONTINUOUS
 62
    7
 10
347.99641649695445
 20
1141.6790329627547
 11
346.24640100250826
 21
1141.244481797384
  0
LINE
  8
_1-0_
  6
CONTINUOUS
 62
    7
 10
346.24640100250826
 20
1141.244481797384
 11
344.49640737997527
 21
1140.7702112381983
  0
LINE
  8
_1-0_
  6
CONTINUOUS
 62
    7
 10
344.49640737997527
 20
1140.7702112381983
 11
342.7464137574421
 21
1140.2562212851976
  0
LINE
  8
_1-0_
  6
CONTINUOUS
 62
    7
 10
342.7464137574421
 20
1140.2562212851976
 11
340.99639826299608
 21
1139.7025119383823
  0
LINE
  8
_1-0_
  6
CONTINUOUS
 62
    7
 10
340.99639826299608
 20
1139.7025119383823
 11
339.24640464046291
 21
1139.1090831977519
  0
LINE
  8
_1-0_
  6
CONTINUOUS
 62
    7
 10
339.24640464046291
 20
1139.1090831977519
 11
337.49641101792974
 21
1138.4759350633069
  0
LINE
  8
_1-0_
  6
CONTINUOUS
 62
    7
 10
337.49641101792974
 20
1138.4759350633069
 11
335.74641739539658
 21
1137.8031550226983
  0
LINE
  8
_1-0_
  6
CONTINUOUS
 62
    7
 10
335.74641739539658
 20
1137.8031550226983
 11
333.99640190095056
 21
1137.0906555882752
  0
LINE
  8
_1-0_
  6
CONTINUOUS
 62
    7
 10
333.99640190095056
 20
1137.0906555882752
 11
332.24640827841739
 21
1136.3383492723854
  0
LINE
  8
_1-0_
  6
CONTINUOUS
 62
    7
 10
332.24640827841739
 20
1136.3383492723854
 11
330.49641465588422
 21
1135.5464110503326
  0
LINE
  8
_1-0_
  6
CONTINUOUS
 62
    7
 10
330.49641465588422
 20
1135.5464110503326
 11
328.74639916143821
 21
1134.7147534344647
  0
LINE
  8
_1-0_
  6
CONTINUOUS
 62
    7
 10
328.74639916143821
 20
1134.7147534344647
 11
326.99640553890504
 21
1133.843376424782
  0
LINE
  8
_1-0_
  6
CONTINUOUS
 62
    7
 10
326.99640553890504
 20
1133.843376424782
 11
325.24641191637187
 21
1132.9322800212844
  0
LINE
  8
_1-0_
  6
CONTINUOUS
 62
    7
 10
325.24641191637187
 20
1132.9322800212844
 11
323.49639642192585
 21
1131.9814642239721
  0
LINE
  8
_1-0_
  6
CONTINUOUS
 62
    7
 10
323.49639642192585
 20
1131.9814642239721
 11
321.74640279939268
 21
1130.9909290328449
  0
LINE
  8
_1-0_
  6
CONTINUOUS
 62
    7
 10
321.74640279939268
 20
1130.9909290328449
 11
320.03155734087966
 21
1129.992694928379
  0
LINE
  8
_1-0_
  6
CONTINUOUS
 62
    7
 10
320.03155734087966
 20
1129.992694928379
 11
318.3870300823196
 21
1129.0184324404447
  0
LINE
  8
_1-0_
  6
CONTINUOUS
 62
    7
 10
318.3870300823196
 20
1129.0184324404447
 11
316.81282102371267
 21
1128.0682290566933
  0
LINE
  8
_1-0_
  6
CONTINUOUS
 62
    7
 10
316.81282102371267
 20
1128.0682290566933
 11
315.30890829314586
 21
1127.1421722647765
  0
LINE
  8
_1-0_
  6
CONTINUOUS
 62
    7
 10
315.30890829314586
 20
1127.1421722647765
 11
313.87531376253219
 21
1126.2402620646944
  0
LINE
  8
_1-0_
  6
CONTINUOUS
 62
    7
 10
313.87531376253219
 20
1126.2402620646944
 11
312.51203743187148
 21
1125.3623234811434
  0
LINE
  8
_1-0_
  6
CONTINUOUS
 62
    7
 10
312.51203743187148
 20
1125.3623234811434
 11
311.21905742925105
 21
1124.5085314894275
  0
LINE
  8
_1-0_
  6
CONTINUOUS
 62
    7
 10
311.21905742925105
 20
1124.5085314894275
 11
309.99641749849644
 21
1123.6787986018942
  0
LINE
  8
_1-0_
  6
CONTINUOUS
 62
    7
 10
309.99641749849644
 20
1123.6787986018942
 11
308.84407389578212
 21
1122.8731248185441
  0
LINE
  8
_1-0_
  6
CONTINUOUS
 62
    7
 10
308.84407389578212
 20
1122.8731248185441
 11
307.76202662110791
 21
1122.0915976270285
  0
LINE
  8
_1-0_
  6
CONTINUOUS
 62
    7
 10
307.76202662110791
 20
1122.0915976270285
 11
306.75031941829957
 21
1121.3341295396958
  0
LINE
  8
_1-0_
  6
CONTINUOUS
 62
    7
 10
306.75031941829957
 20
1121.3341295396958
 11
305.8089085435314
 21
1120.6007205565463
  0
LINE
  8
_1-0_
  6
CONTINUOUS
 62
    7
 10
305.8089085435314
 20
1120.6007205565463
 11
304.93781586871648
 21
1119.8914581652314
  0
LINE
  8
_1-0_
  6
CONTINUOUS
 62
    7
 10
304.93781586871648
 20
1119.8914581652314
 11
304.13704139385447
 21
1119.2062548780993
  0
LINE
  8
_1-0_
  6
CONTINUOUS
 62
    7
 10
304.13704139385447
 20
1119.2062548780993
 11
303.40656324703264
 21
1118.5451106951502
  0
LINE
  8
_1-0_
  6
CONTINUOUS
 62
    7
 10
303.40656324703264
 20
1118.5451106951502
 11
302.74640330016382
 21
1117.9080256163843
  0
LINE
  8
_1-0_
  6
CONTINUOUS
 62
    7
 10
302.74640330016382
 20
1117.9080256163843
 11
302.1253065897231
 21
1117.2619293095063
  0
LINE
  8
_1-0_
  6
CONTINUOUS
 62
    7
 10
302.1253065897231
 20
1117.2619293095063
 11
301.51204002409827
 21
1116.5734014916143
  0
LINE
  8
_1-0_
  6
CONTINUOUS
 62
    7
 10
301.51204002409827
 20
1116.5734014916143
 11
300.90655985946353
 21
1115.842617138012
  0
LINE
  8
_1-0_
  6
CONTINUOUS
 62
    7
 10
300.90655985946353
 20
1115.842617138012
 11
300.3089098396448
 21
1115.0694887610475
  0
LINE
  8
_1-0_
  6
CONTINUOUS
 62
    7
 10
300.3089098396448
 20
1115.0694887610475
 11
299.71906809272912
 21
1114.2540163607209
  0
LINE
  8
_1-0_
  6
CONTINUOUS
 62
    7
 10
299.71906809272912
 20
1114.2540163607209
 11
299.13703461871648
 21
1113.396287424684
  0
LINE
  8
_1-0_
  6
CONTINUOUS
 62
    7
 10
299.13703461871648
 20
1113.396287424684
 11
298.56280941760673
 21
1112.4962144652848
  0
LINE
  8
_1-0_
  6
CONTINUOUS
 62
    7
 10
298.56280941760673
 20
1112.4962144652848
 11
297.9964143613131
 21
1111.5537974825236
  0
LINE
  8
_1-0_
  6
CONTINUOUS
 62
    7
 10
297.9964143613131
 20
1111.5537974825236
 11
297.4378057060095
 21
1110.5690364764002
  0
LINE
  8
_1-0_
  6
CONTINUOUS
 62
    7
 10
297.4378057060095
 20
1110.5690364764002
 11
296.88702719552168
 21
1109.5420189345664
  0
LINE
  8
_1-0_
  6
CONTINUOUS
 62
    7
 10
296.88702719552168
 20
1109.5420189345664
 11
296.34405695793703
 21
1108.4726573693706
  0
LINE
  8
_1-0_
  6
CONTINUOUS
 62
    7
 10
296.34405695793703
 20
1108.4726573693706
 11
295.80891686516838
 21
1107.3609517808127
  0
LINE
  8
_1-0_
  6
CONTINUOUS
 62
    7
 10
295.80891686516838
 20
1107.3609517808127
 11
295.28156317338983
 21
1106.2069021688924
  0
LINE
  8
_1-0_
  6
CONTINUOUS
 62
    7
 10
295.28156317338983
 20
1106.2069021688924
 11
294.76203962642717
 21
1105.0105960212618
  0
LINE
  8
_1-0_
  6
CONTINUOUS
 62
    7
 10
294.76203962642717
 20
1105.0105960212618
 11
294.25032435236744
 21
1103.771945850269
  0
LINE
  8
_1-0_
  6
CONTINUOUS
 62
    7
 10
294.25032435236744
 20
1103.771945850269
 11
293.74641735121088
 21
1102.4909516559144
  0
LINE
  8
_1-0_
  6
CONTINUOUS
 62
    7
 10
293.74641735121088
 20
1102.4909516559144
 11
293.23485518054156
 21
1101.1143334583885
  0
LINE
  8
_1-0_
  6
CONTINUOUS
 62
    7
 10
293.23485518054156
 20
1101.1143334583885
 11
292.70017439794356
 21
1099.5885488149281
  0
LINE
  8
_1-0_
  6
CONTINUOUS
 62
    7
 10
292.70017439794356
 20
1099.5885488149281
 11
292.14237500341699
 21
1097.9136852131846
  0
LINE
  8
_1-0_
  6
CONTINUOUS
 62
    7
 10
292.14237500341699
 20
1097.9136852131846
 11
291.56145699696197
 21
1096.0897426531581
  0
LINE
  8
_1-0_
  6
CONTINUOUS
 62
    7
 10
291.56145699696197
 20
1096.0897426531581
 11
290.95744225049117
 21
1094.1167211348486
  0
LINE
  8
_1-0_
  6
CONTINUOUS
 62
    7
 10
290.95744225049117
 20
1094.1167211348486
 11
290.33028702017873
 21
1091.9946206582558
  0
LINE
  8
_1-0_
  6
CONTINUOUS
 62
    7
 10
290.33028702017873
 20
1091.9946206582558
 11
289.68003504985091
 21
1089.7234412233802
  0
LINE
  8
_1-0_
  6
CONTINUOUS
 62
    7
 10
289.68003504985091
 20
1089.7234412233802
 11
289.00664259568146
 21
1087.3031828302212
  0
LINE
  8
_1-0_
  6
CONTINUOUS
 62
    7
 10
289.00664259568146
 20
1087.3031828302212
 11
288.31015340149634
 21
1084.733757991128
  0
LINE
  8
_1-0_
  6
CONTINUOUS
 62
    7
 10
288.31015340149634
 20
1084.733757991128
 11
287.59052372346969
 21
1082.015341681403
  0
LINE
  8
_1-0_
  6
CONTINUOUS
 62
    7
 10
287.59052372346969
 20
1082.015341681403
 11
286.84779730542743
 21
1079.1478464133952
  0
LINE
  8
_1-0_
  6
CONTINUOUS
 62
    7
 10
286.84779730542743
 20
1079.1478464133952
 11
286.08193040354365
 21
1076.1311846994524
  0
LINE
  8
_1-0_
  6
CONTINUOUS
 62
    7
 10
286.08193040354365
 20
1076.1311846994524
 11
285.29296676164421
 21
1072.9655315148784
  0
LINE
  8
_1-0_
  6
CONTINUOUS
 62
    7
 10
285.29296676164421
 20
1072.9655315148784
 11
284.48088450781626
 21
1069.6507118843697
  0
LINE
  8
_1-0_
  6
CONTINUOUS
 62
    7
 10
284.48088450781626
 20
1069.6507118843697
 11
283.64568364205968
 21
1066.1868132955778
  0
LINE
  8
_1-0_
  6
CONTINUOUS
 62
    7
 10
283.64568364205968
 20
1066.1868132955778
 11
282.78734229246152
 21
1062.5738357485031
  0
LINE
  8
_1-0_
  6
CONTINUOUS
 62
    7
 10
282.78734229246152
 20
1062.5738357485031
 11
281.94466123249538
 21
1058.8024180644268
  0
LINE
  8
_1-0_
  6
CONTINUOUS
 62
    7
 10
281.94466123249538
 20
1058.8024180644268
 11
281.15633187606988
 21
1054.8629366016755
  0
LINE
  8
_1-0_
  6
CONTINUOUS
 62
    7
 10
281.15633187606988
 20
1054.8629366016755
 11
280.42235422318498
 21
1050.7554788479013
  0
LINE
  8
_1-0_
  6
CONTINUOUS
 62
    7
 10
280.42235422318498
 20
1050.7554788479013
 11
279.74277201766665
 21
1046.4801322907554
  0
LINE
  8
_1-0_
  6
CONTINUOUS
 62
    7
 10
279.74277201766665
 20
1046.4801322907554
 11
279.11754151568914
 21
1042.0368094425864
  0
LINE
  8
_1-0_
  6
CONTINUOUS
 62
    7
 10
279.11754151568914
 20
1042.0368094425864
 11
278.54668458916507
 21
1037.4254228157426
  0
LINE
  8
_1-0_
  6
CONTINUOUS
 62
    7
 10
278.54668458916507
 20
1037.4254228157426
 11
278.03017936618176
 21
1032.6461473855272
  0
LINE
  8
_1-0_
  6
CONTINUOUS
 62
    7
 10
278.03017936618176
 20
1032.6461473855272
 11
277.5680695905649
 21
1027.6988956642888
  0
LINE
  8
_1-0_
  6
CONTINUOUS
 62
    7
 10
277.5680695905649
 20
1027.6988956642888
 11
277.1603115184887
 21
1022.583667652027
  0
LINE
  8
_1-0_
  6
CONTINUOUS
 62
    7
 10
277.1603115184887
 20
1022.583667652027
 11
276.8069051499532
 21
1017.300463348742
  0
LINE
  8
_1-0_
  6
CONTINUOUS
 62
    7
 10
276.8069051499532
 20
1017.300463348742
 11
276.50789422878432
 21
1011.8492827544342
  0
LINE
  8
_1-0_
  6
CONTINUOUS
 62
    7
 10
276.50789422878432
 20
1011.8492827544342
 11
276.26323501115593
 21
1006.2301258691029
  0
LINE
  8
_1-0_
  6
CONTINUOUS
 62
    7
 10
276.26323501115593
 20
1006.2301258691029
 11
276.07294936898131
 21
1000.4429926927485
  0
LINE
  8
_1-0_
  6
CONTINUOUS
 62
    7
 10
276.07294936898131
 20
1000.4429926927485
 11
275.93703730226025
 21
994.48797071302249
  0
LINE
  8
_1-0_
  6
CONTINUOUS
 62
    7
 10
275.93703730226025
 20
994.48797071302249
 11
275.85547693907984
 21
988.36488495462174
  0
LINE
  8
_1-0_
  6
CONTINUOUS
 62
    7
 10
275.85547693907984
 20
988.36488495462174
 11
275.82829015135303
 21
982.0739103928496
  0
LINE
  8
_1-0_
  6
CONTINUOUS
 62
    7
 10
560.82830451170003
 20
792.07391540056028
 11
544.57812938911104
 21
792.57976900196445
  0
LINE
  8
_1-0_
  6
CONTINUOUS
 62
    7
 10
544.57812938911104
 20
792.57976900196445
 11
529.09815180715896
 21
793.0973459486795
  0
LINE
  8
_1-0_
  6
CONTINUOUS
 62
    7
 10
529.09815180715896
 20
793.0973459486795
 11
514.38837176584366
 21
793.62664624070567
  0
LINE
  8
_1-0_
  6
CONTINUOUS
 62
    7
 10
514.38837176584366
 20
793.62664624070567
 11
500.44870177751335
 21
794.16766987804283
  0
LINE
  8
_1-0_
  6
CONTINUOUS
 62
    7
 10
500.44870177751335
 20
794.16766987804283
 11
487.27927307364553
 21
794.72032937303925
  0
LINE
  8
_1-0_
  6
CONTINUOUS
 62
    7
 10
487.27927307364553
 20
794.72032937303925
 11
474.87995442276286
 21
795.28479970099841
  0
LINE
  8
_1-0_
  6
CONTINUOUS
 62
    7
 10
474.87995442276286
 20
795.28479970099841
 11
463.25083331251687
 21
795.86099337426845
  0
LINE
  8
_1-0_
  6
CONTINUOUS
 62
    7
 10
463.25083331251687
 20
795.86099337426845
 11
452.3918659990818
 21
796.4489103928496
  0
LINE
  8
_1-0_
  6
CONTINUOUS
 62
    7
 10
452.3918659990818
 20
796.4489103928496
 11
442.3030962262834
 21
797.04846326909001
  0
LINE
  8
_1-0_
  6
CONTINUOUS
 62
    7
 10
442.3030962262834
 20
797.04846326909001
 11
432.98448025029586
 21
797.65982697829315
  0
LINE
  8
_1-0_
  6
CONTINUOUS
 62
    7
 10
432.98448025029586
 20
797.65982697829315
 11
424.43606181494516
 21
798.28282654515556
  0
LINE
  8
_1-0_
  6
CONTINUOUS
 62
    7
 10
424.43606181494516
 20
798.28282654515556
 11
416.65779717640532
 21
798.9176369449807
  0
LINE
  8
_1-0_
  6
CONTINUOUS
 62
    7
 10
416.65779717640532
 20
798.9176369449807
 11
409.64968633467618
 21
799.5640832024651
  0
LINE
  8
_1-0_
  6
CONTINUOUS
 62
    7
 10
409.64968633467618
 20
799.5640832024651
 11
403.41172928975823
 21
800.22234029291212
  0
LINE
  8
_1-0_
  6
CONTINUOUS
 62
    7
 10
403.41172928975823
 20
800.22234029291212
 11
397.94401352930254
 21
800.89223324101863
  0
LINE
  8
_1-0_
  6
CONTINUOUS
 62
    7
 10
397.94401352930254
 20
800.89223324101863
 11
393.24640782183195
 21
801.57384953443602
  0
LINE
  8
_1-0_
  6
CONTINUOUS
 62
    7
 10
393.24640782183195
 20
801.57384953443602
 11
388.99835741197734
 21
802.25555331550504
  0
LINE
  8
_1-0_
  6
CONTINUOUS
 62
    7
 10
388.99835741197734
 20
802.25555331550504
 11
384.87922005671794
 21
802.92544626361155
  0
LINE
  8
_1-0_
  6
CONTINUOUS
 62
    7
 10
384.87922005671794
 20
802.92544626361155
 11
380.88899575605353
 21
803.58361586640694
  0
LINE
  8
_1-0_
  6
CONTINUOUS
 62
    7
 10
380.88899575605353
 20
803.58361586640694
 11
377.02764076615847
 21
804.23014961154297
  0
LINE
  8
_1-0_
  6
CONTINUOUS
 62
    7
 10
377.02764076615847
 20
804.23014961154297
 11
373.29524257468438
 21
804.86487252371649
  0
LINE
  8
_1-0_
  6
CONTINUOUS
 62
    7
 10
373.29524257468438
 20
804.86487252371649
 11
369.69171369397969
 21
805.4879595782304
  0
LINE
  8
_1-0_
  6
CONTINUOUS
 62
    7
 10
369.69171369397969
 20
805.4879595782304
 11
366.21711973978279
 21
806.09923579978204
  0
LINE
  8
_1-0_
  6
CONTINUOUS
 62
    7
 10
366.21711973978279
 20
806.09923579978204
 11
362.87141696826836
 21
806.69887616367407
  0
LINE
  8
_1-0_
  6
CONTINUOUS
 62
    7
 10
362.87141696826836
 20
806.69887616367407
 11
359.65460537943602
 21
807.28679318225522
  0
LINE
  8
_1-0_
  6
CONTINUOUS
 62
    7
 10
359.65460537943602
 20
807.28679318225522
 11
356.56672871711169
 21
807.86289936787375
  0
LINE
  8
_1-0_
  6
CONTINUOUS
 62
    7
 10
356.56672871711169
 20
807.86289936787375
 11
353.60774323746966
 21
808.42736969583279
  0
LINE
  8
_1-0_
  6
CONTINUOUS
 62
    7
 10
353.60774323746966
 20
808.42736969583279
 11
350.77764894050972
 21
808.98011667848095
  0
LINE
  8
_1-0_
  6
CONTINUOUS
 62
    7
 10
350.77764894050972
 20
808.98011667848095
 11
348.07648957005796
 21
809.521140315818
  0
LINE
  8
_1-0_
  6
CONTINUOUS
 62
    7
 10
348.07648957005796
 20
809.521140315818
 11
345.50422138228839
 21
810.05044060784417
  0
LINE
  8
_1-0_
  6
CONTINUOUS
 62
    7
 10
345.50422138228839
 20
810.05044060784417
 11
343.06086624911387
 21
810.56801755455922
  0
LINE
  8
_1-0_
  6
CONTINUOUS
 62
    7
 10
343.06086624911387
 20
810.56801755455922
 11
340.74640229862166
 21
811.07387115596339
  0
LINE
  8
_1-0_
  6
CONTINUOUS
 62
    7
 10
340.74640229862166
 20
811.07387115596339
 11
338.51008669289843
 21
811.59092317676914
  0
LINE
  8
_1-0_
  6
CONTINUOUS
 62
    7
 10
338.51008669289843
 20
811.59092317676914
 11
336.30108910637932
 21
812.14218286934044
  0
LINE
  8
_1-0_
  6
CONTINUOUS
 62
    7
 10
336.30108910637932
 20
812.14218286934044
 11
334.11945328289022
 21
812.7275627460258
  0
LINE
  8
_1-0_
  6
CONTINUOUS
 62
    7
 10
334.11945328289022
 20
812.7275627460258
 11
331.96515735051804
 21
813.34706280682542
  0
LINE
  8
_1-0_
  6
CONTINUOUS
 62
    7
 10
331.96515735051804
 20
813.34706280682542
 11
329.8382013092629
 21
814.00077053939049
  0
LINE
  8
_1-0_
  6
CONTINUOUS
 62
    7
 10
329.8382013092629
 20
814.00077053939049
 11
327.73858515912508
 21
814.68859845606971
  0
LINE
  8
_1-0_
  6
CONTINUOUS
 62
    7
 10
327.73858515912508
 20
814.68859845606971
 11
325.66633077201686
 21
815.41063404451461
  0
LINE
  8
_1-0_
  6
CONTINUOUS
 62
    7
 10
325.66633077201686
 20
815.41063404451461
 11
323.62141627602597
 21
816.16678981707355
  0
LINE
  8
_1-0_
  6
CONTINUOUS
 62
    7
 10
323.62141627602597
 20
816.16678981707355
 11
321.60381979923909
 21
816.95706577374665
  0
LINE
  8
_1-0_
  6
CONTINUOUS
 62
    7
 10
321.60381979923909
 20
816.95706577374665
 11
319.61358508548216
 21
817.78154940218531
  0
LINE
  8
_1-0_
  6
CONTINUOUS
 62
    7
 10
319.61358508548216
 20
817.78154940218531
 11
317.65071213475522
 21
818.64015321473812
  0
LINE
  8
_1-0_
  6
CONTINUOUS
 62
    7
 10
317.65071213475522
 20
818.64015321473812
 11
315.71515720323248
 21
819.53287721140498
  0
LINE
  8
_1-0_
  6
CONTINUOUS
 62
    7
 10
315.71515720323248
 20
819.53287721140498
 11
313.80696403473962
 21
820.45980887983751
  0
LINE
  8
_1-0_
  6
CONTINUOUS
 62
    7
 10
313.80696403473962
 20
820.45980887983751
 11
311.92608888545095
 21
821.4208607323842
  0
LINE
  8
_1-0_
  6
CONTINUOUS
 62
    7
 10
311.92608888545095
 20
821.4208607323842
 11
310.07257549919217
 21
822.41612025669633
  0
LINE
  8
_1-0_
  6
CONTINUOUS
 62
    7
 10
310.07257549919217
 20
822.41612025669633
 11
308.24640200405042
 21
823.44541247747111
  0
LINE
  8
_1-0_
  6
CONTINUOUS
 62
    7
 10
308.24640200405042
 20
823.44541247747111
 11
306.47687676330321
 21
824.48284104984236
  0
LINE
  8
_1-0_
  6
CONTINUOUS
 62
    7
 10
306.47687676330321
 20
824.48284104984236
 11
304.79328626831517
 21
825.50224716598916
  0
LINE
  8
_1-0_
  6
CONTINUOUS
 62
    7
 10
304.79328626831517
 20
825.50224716598916
 11
303.19563051908631
 21
826.50363082591173
  0
LINE
  8
_1-0_
  6
CONTINUOUS
 62
    7
 10
303.19563051908631
 20
826.50363082591173
 11
301.68390951561651
 21
827.48690454195821
  0
LINE
  8
_1-0_
  6
CONTINUOUS
 62
    7
 10
301.68390951561651
 20
827.48690454195821
 11
300.25812325790582
 21
828.45215580178035
  0
LINE
  8
_1-0_
  6
CONTINUOUS
 62
    7
 10
300.25812325790582
 20
828.45215580178035
 11
298.9182717459542
 21
829.39938460537815
  0
LINE
  8
_1-0_
  6
CONTINUOUS
 62
    7
 10
298.9182717459542
 20
829.39938460537815
 11
297.6643768516746
 21
830.32859095275171
  0
LINE
  8
_1-0_
  6
CONTINUOUS
 62
    7
 10
297.6643768516746
 20
830.32859095275171
 11
296.49641670315418
 21
831.23968735624908
  0
LINE
  8
_1-0_
  6
CONTINUOUS
 62
    7
 10
296.49641670315418
 20
831.23968735624908
 11
295.41436942847997
 21
832.13276130352244
  0
LINE
  8
_1-0_
  6
CONTINUOUS
 62
    7
 10
295.41436942847997
 20
832.13276130352244
 11
294.41827877147773
 21
833.00781279457112
  0
LINE
  8
_1-0_
  6
CONTINUOUS
 62
    7
 10
294.41827877147773
 20
833.00781279457112
 11
293.50812286023472
 21
833.86484182939557
  0
LINE
  8
_1-0_
  6
CONTINUOUS
 62
    7
 10
293.50812286023472
 20
833.86484182939557
 11
292.68390169475072
 21
834.70376092034417
  0
LINE
  8
_1-0_
  6
CONTINUOUS
 62
    7
 10
292.68390169475072
 20
834.70376092034417
 11
291.94561527502583
 21
835.52474504271981
  0
LINE
  8
_1-0_
  6
CONTINUOUS
 62
    7
 10
291.94561527502583
 20
835.52474504271981
 11
291.29328547297291
 21
836.32761922121961
  0
LINE
  8
_1-0_
  6
CONTINUOUS
 62
    7
 10
291.29328547297291
 20
836.32761922121961
 11
290.72686854476626
 21
837.11238345584343
  0
LINE
  8
_1-0_
  6
CONTINUOUS
 62
    7
 10
290.72686854476626
 20
837.11238345584343
 11
290.24640823423169
 21
837.87921272189453
  0
LINE
  8
_1-0_
  6
CONTINUOUS
 62
    7
 10
290.24640823423169
 20
837.87921272189453
 11
289.8012491911075
 21
838.6502413952212
  0
LINE
  8
_1-0_
  6
CONTINUOUS
 62
    7
 10
289.8012491911075
 20
838.6502413952212
 11
289.34080168087053
 21
839.44777882697497
  0
LINE
  8
_1-0_
  6
CONTINUOUS
 62
    7
 10
289.34080168087053
 20
839.44777882697497
 11
288.86504383160798
 21
840.27182501715572
  0
LINE
  8
_1-0_
  6
CONTINUOUS
 62
    7
 10
288.86504383160798
 20
840.27182501715572
 11
288.37397564331991
 21
841.12237996576368
  0
LINE
  8
_1-0_
  6
CONTINUOUS
 62
    7
 10
288.37397564331991
 20
841.12237996576368
 11
287.86759711600638
 21
841.99944367279863
  0
LINE
  8
_1-0_
  6
CONTINUOUS
 62
    7
 10
287.86759711600638
 20
841.99944367279863
 11
287.34590824966716
 21
842.90301613826091
  0
LINE
  8
_1-0_
  6
CONTINUOUS
 62
    7
 10
287.34590824966716
 20
842.90301613826091
 11
286.80893091621544
 21
843.83309736215006
  0
LINE
  8
_1-0_
  6
CONTINUOUS
 62
    7
 10
286.80893091621544
 20
843.83309736215006
 11
286.25664324373815
 21
844.78968734446642
  0
LINE
  8
_1-0_
  6
CONTINUOUS
 62
    7
 10
286.25664324373815
 20
844.78968734446642
 11
285.68904523223523
 21
845.77278608520965
  0
LINE
  8
_1-0_
  6
CONTINUOUS
 62
    7
 10
285.68904523223523
 20
845.77278608520965
 11
285.10615875361964
 21
846.7823935843802
  0
LINE
  8
_1-0_
  6
CONTINUOUS
 62
    7
 10
285.10615875361964
 20
846.7823935843802
 11
284.50794006406568
 21
847.81850984197774
  0
LINE
  8
_1-0_
  6
CONTINUOUS
 62
    7
 10
284.50794006406568
 20
847.81850984197774
 11
283.89443290739905
 21
848.8811348580025
  0
LINE
  8
_1-0_
  6
CONTINUOUS
 62
    7
 10
283.89443290739905
 20
848.8811348580025
 11
283.2656154117069
 21
849.97026863245424
  0
LINE
  8
_1-0_
  6
CONTINUOUS
 62
    7
 10
283.2656154117069
 20
849.97026863245424
 11
282.62150944890209
 21
851.08591116533307
  0
LINE
  8
_1-0_
  6
CONTINUOUS
 62
    7
 10
282.62150944890209
 20
851.08591116533307
 11
281.96209314707164
 21
852.22806245663901
  0
LINE
  8
_1-0_
  6
CONTINUOUS
 62
    7
 10
281.96209314707164
 20
852.22806245663901
 11
281.28734463430277
 21
853.39672250637204
  0
LINE
  8
_1-0_
  6
CONTINUOUS
 62
    7
 10
281.28734463430277
 20
853.39672250637204
 11
280.61051828980908
 21
854.62032480129392
  0
LINE
  8
_1-0_
  6
CONTINUOUS
 62
    7
 10
280.61051828980908
 20
854.62032480129392
 11
279.94473726132668
 21
855.92704036521172
  0
LINE
  8
_1-0_
  6
CONTINUOUS
 62
    7
 10
279.94473726132668
 20
855.92704036521172
 11
279.29006716459412
 21
857.31713166107988
  0
LINE
  8
_1-0_
  6
CONTINUOUS
 62
    7
 10
279.29006716459412
 20
857.31713166107988
 11
278.64646425578587
 21
858.7904237135956
  0
LINE
  8
_1-0_
  6
CONTINUOUS
 62
    7
 10
278.64646425578587
 20
858.7904237135956
 11
278.01392853490171
 21
860.34691652275887
  0
LINE
  8
_1-0_
  6
CONTINUOUS
 62
    7
 10
278.01392853490171
 20
860.34691652275887
 11
277.39248187385471
 21
861.98669757622088
  0
LINE
  8
_1-0_
  6
CONTINUOUS
 62
    7
 10
277.39248187385471
 20
861.98669757622088
 11
276.78212427264469
 21
863.70967938633032
  0
LINE
  8
_1-0_
  6
CONTINUOUS
 62
    7
 10
276.78212427264469
 20
863.70967938633032
 11
276.18283385935899
 21
865.51594944073884
  0
LINE
  8
_1-0_
  6
CONTINUOUS
 62
    7
 10
276.18283385935899
 20
865.51594944073884
 11
275.59461063399738
 21
867.40550773944631
  0
LINE
  8
_1-0_
  6
CONTINUOUS
 62
    7
 10
275.59461063399738
 20
867.40550773944631
 11
275.01747646847292
 21
869.37826679480111
  0
LINE
  8
_1-0_
  6
CONTINUOUS
 62
    7
 10
275.01747646847292
 20
869.37826679480111
 11
274.45143136278546
 21
871.43422660680346
  0
LINE
  8
_1-0_
  6
CONTINUOUS
 62
    7
 10
274.45143136278546
 20
871.43422660680346
 11
273.89645344502213
 21
873.57356215075629
  0
LINE
  8
_1-0_
  6
CONTINUOUS
 62
    7
 10
273.89645344502213
 20
873.57356215075629
 11
273.35256458709591
 21
875.79601096370493
  0
LINE
  8
_1-0_
  6
CONTINUOUS
 62
    7
 10
273.35256458709591
 20
875.79601096370493
 11
272.81974291709389
 21
878.10174802095264
  0
LINE
  8
_1-0_
  6
CONTINUOUS
 62
    7
 10
272.81974291709389
 20
878.10174802095264
 11
272.29801030692897
 21
880.49077332249931
  0
LINE
  8
_1-0_
  6
CONTINUOUS
 62
    7
 10
272.29801030692897
 20
880.49077332249931
 11
271.78734488468831
 21
882.96299938069342
  0
LINE
  8
_1-0_
  6
CONTINUOUS
 62
    7
 10
271.78734488468831
 20
882.96299938069342
 11
271.27099276509523
 21
885.70687459702651
  0
LINE
  8
_1-0_
  6
CONTINUOUS
 62
    7
 10
271.27099276509523
 20
885.70687459702651
 11
270.73215631904748
 21
888.91084737299025
  0
LINE
  8
_1-0_
  6
CONTINUOUS
 62
    7
 10
270.73215631904748
 20
888.91084737299025
 11
270.1708574184579
 21
892.57491770858462
  0
LINE
  8
_1-0_
  6
CONTINUOUS
 62
    7
 10
270.1708574184579
 20
892.57491770858462
 11
269.58705231950091
 21
896.69899811615801
  0
LINE
  8
_1-0_
  6
CONTINUOUS
 62
    7
 10
269.58705231950091
 20
896.69899811615801
 11
268.98078476600205
 21
901.28317608336215
  0
LINE
  8
_1-0_
  6
CONTINUOUS
 62
    7
 10
268.98078476600205
 20
901.28317608336215
 11
268.35203288604845
 21
906.32745161019682
  0
LINE
  8
_1-0_
  6
CONTINUOUS
 62
    7
 10
268.35203288604845
 20
906.32745161019682
 11
267.70081855155325
 21
911.83173720901073
  0
LINE
  8
_1-0_
  6
CONTINUOUS
 62
    7
 10
267.70081855155325
 20
911.83173720901073
 11
267.02711989060333
 21
917.79612036745516
  0
LINE
  8
_1-0_
  6
CONTINUOUS
 62
    7
 10
267.02711989060333
 20
917.79612036745516
 11
266.33093690319868
 21
924.22060108553023
  0
LINE
  8
_1-0_
  6
CONTINUOUS
 62
    7
 10
266.33093690319868
 20
924.22060108553023
 11
265.61226958933946
 21
931.10517936323595
  0
LINE
  8
_1-0_
  6
CONTINUOUS
 62
    7
 10
265.61226958933946
 20
931.10517936323595
 11
264.87113982093831
 21
938.44976771292067
  0
LINE
  8
_1-0_
  6
CONTINUOUS
 62
    7
 10
264.87113982093831
 20
938.44976771292067
 11
264.1075257260826
 21
946.25445362223616
  0
LINE
  8
_1-0_
  6
CONTINUOUS
 62
    7
 10
264.1075257260826
 20
946.25445362223616
 11
263.32144917668529
 21
954.51923709118216
  0
LINE
  8
_1-0_
  6
CONTINUOUS
 62
    7
 10
263.32144917668529
 20
954.51923709118216
 11
262.51286642892012
 21
963.24403063210741
  0
LINE
  8
_1-0_
  6
CONTINUOUS
 62
    7
 10
262.51286642892012
 20
963.24403063210741
 11
261.68182122661335
 21
972.42892173266318
  0
LINE
  8
_1-0_
  6
CONTINUOUS
 62
    7
 10
261.68182122661335
 20
972.42892173266318
 11
260.82829169785185
 21
982.0739103928496
  0
LINE
  8
_1-0_
  6
CONTINUOUS
 62
    7
 10
560.82830451170003
 20
807.07384823832274
 11
549.91212027413496
 21
807.08557158363362
  0
LINE
  8
_1-0_
  6
CONTINUOUS
 62
    7
 10
549.91212027413496
 20
807.08557158363362
 11
539.43411793948144
 21
807.12074161956662
  0
LINE
  8
_1-0_
  6
CONTINUOUS
 62
    7
 10
539.43411793948144
 20
807.12074161956662
 11
529.39421002008748
 21
807.1793583461216
  0
LINE
  8
_1-0_
  6
CONTINUOUS
 62
    7
 10
529.39421002008748
 20
807.1793583461216
 11
519.79248400360461
 21
807.26133427564696
  0
LINE
  8
_1-0_
  6
CONTINUOUS
 62
    7
 10
519.79248400360461
 20
807.26133427564696
 11
510.62885240238143
 21
807.36684438344594
  0
LINE
  8
_1-0_
  6
CONTINUOUS
 62
    7
 10
510.62885240238143
 20
807.36684438344594
 11
501.90340270406949
 21
807.49571369421517
  0
LINE
  8
_1-0_
  6
CONTINUOUS
 62
    7
 10
501.90340270406949
 20
807.49571369421517
 11
493.61604742101719
 21
807.64811718325814
  0
LINE
  8
_1-0_
  6
CONTINUOUS
 62
    7
 10
493.61604742101719
 20
807.64811718325814
 11
485.76687404087608
 21
807.82387987527147
  0
LINE
  8
_1-0_
  6
CONTINUOUS
 62
    7
 10
485.76687404087608
 20
807.82387987527147
 11
478.35583881982046
 21
808.02308925790669
  0
LINE
  8
_1-0_
  6
CONTINUOUS
 62
    7
 10
478.35583881982046
 20
808.02308925790669
 11
471.38294175785018
 21
808.24574533116402
  0
LINE
  8
_1-0_
  6
CONTINUOUS
 62
    7
 10
471.38294175785018
 20
808.24574533116402
 11
464.84813911113963
 21
808.49184809504322
  0
LINE
  8
_1-0_
  6
CONTINUOUS
 62
    7
 10
464.84813911113963
 20
808.49184809504322
 11
458.75151836734017
 21
808.76139754954454
  0
LINE
  8
_1-0_
  6
CONTINUOUS
 62
    7
 10
458.75151836734017
 20
808.76139754954454
 11
453.09303578262615
 21
809.05430620701611
  0
LINE
  8
_1-0_
  6
CONTINUOUS
 62
    7
 10
453.09303578262615
 20
809.05430620701611
 11
447.87269135699773
 21
809.3707490427613
  0
LINE
  8
_1-0_
  6
CONTINUOUS
 62
    7
 10
447.87269135699773
 20
809.3707490427613
 11
443.09048509045454
 21
809.71063856912849
  0
LINE
  8
_1-0_
  6
CONTINUOUS
 62
    7
 10
443.09048509045454
 20
809.71063856912849
 11
438.74641698299683
 21
810.07388729846616
  0
LINE
  8
_1-0_
  6
CONTINUOUS
 62
    7
 10
438.74641698299683
 20
810.07388729846616
 11
434.66826759250011
 21
810.4488593731146
  0
LINE
  8
_1-0_
  6
CONTINUOUS
 62
    7
 10
434.66826759250011
 20
810.4488593731146
 11
430.68390496449126
 21
810.82391893541489
  0
LINE
  8
_1-0_
  6
CONTINUOUS
 62
    7
 10
430.68390496449126
 20
810.82391893541489
 11
426.79328535514446
 21
811.19889101006356
  0
LINE
  8
_1-0_
  6
CONTINUOUS
 62
    7
 10
426.79328535514446
 20
811.19889101006356
 11
422.99640876445994
 21
811.573863084712
  0
LINE
  8
_1-0_
  6
CONTINUOUS
 62
    7
 10
422.99640876445994
 20
811.573863084712
 11
419.29327519243742
 21
811.94883515936056
  0
LINE
  8
_1-0_
  6
CONTINUOUS
 62
    7
 10
419.29327519243742
 20
811.94883515936056
 11
415.68392838290293
 21
812.32389472166074
  0
LINE
  8
_1-0_
  6
CONTINUOUS
 62
    7
 10
415.68392838290293
 20
812.32389472166074
 11
412.16828084820492
 21
812.6988667963094
  0
LINE
  8
_1-0_
  6
CONTINUOUS
 62
    7
 10
412.16828084820492
 20
812.6988667963094
 11
408.74642007599459
 21
813.07383887095796
  0
LINE
  8
_1-0_
  6
CONTINUOUS
 62
    7
 10
408.74642007599459
 20
813.07383887095796
 11
405.41830232244649
 21
813.44889843325814
  0
LINE
  8
_1-0_
  6
CONTINUOUS
 62
    7
 10
405.41830232244649
 20
813.44889843325814
 11
402.18392758756067
 21
813.82387050790669
  0
LINE
  8
_1-0_
  6
CONTINUOUS
 62
    7
 10
402.18392758756067
 20
813.82387050790669
 11
399.04329587133702
 21
814.19884258255536
  0
LINE
  8
_1-0_
  6
CONTINUOUS
 62
    7
 10
399.04329587133702
 20
814.19884258255536
 11
395.99640717377525
 21
814.57390214485542
  0
LINE
  8
_1-0_
  6
CONTINUOUS
 62
    7
 10
395.99640717377525
 20
814.57390214485542
 11
393.04326149487594
 21
814.94887421950409
  0
LINE
  8
_1-0_
  6
CONTINUOUS
 62
    7
 10
393.04326149487594
 20
814.94887421950409
 11
390.18390257846431
 21
815.32384629415264
  0
LINE
  8
_1-0_
  6
CONTINUOUS
 62
    7
 10
390.18390257846431
 20
815.32384629415264
 11
387.41828668071491
 21
815.69890585645282
  0
LINE
  8
_1-0_
  6
CONTINUOUS
 62
    7
 10
387.41828668071491
 20
815.69890585645282
 11
384.7464138016278
 21
816.07387793110138
  0
LINE
  8
_1-0_
  6
CONTINUOUS
 62
    7
 10
384.7464138016278
 20
816.07387793110138
 11
382.14873045107566
 21
816.44885000575005
  0
LINE
  8
_1-0_
  6
CONTINUOUS
 62
    7
 10
382.14873045107566
 20
816.44885000575005
 11
379.60577062658359
 21
816.82390956805011
  0
LINE
  8
_1-0_
  6
CONTINUOUS
 62
    7
 10
379.60577062658359
 20
816.82390956805011
 11
377.11749058432559
 21
817.19888164269878
  0
LINE
  8
_1-0_
  6
CONTINUOUS
 62
    7
 10
377.11749058432559
 20
817.19888164269878
 11
374.68389032430167
 21
817.57385371734722
  0
LINE
  8
_1-0_
  6
CONTINUOUS
 62
    7
 10
374.68389032430167
 20
817.57385371734722
 11
372.30501359033769
 21
817.94891327964751
  0
LINE
  8
_1-0_
  6
CONTINUOUS
 62
    7
 10
372.30501359033769
 20
817.94891327964751
 11
369.98077289478204
 21
818.32388535429595
  0
LINE
  8
_1-0_
  6
CONTINUOUS
 62
    7
 10
369.98077289478204
 20
818.32388535429595
 11
367.71125572528615
 21
818.69885742894462
  0
LINE
  8
_1-0_
  6
CONTINUOUS
 62
    7
 10
367.71125572528615
 20
818.69885742894462
 11
365.49639646611155
 21
819.07391699124491
  0
LINE
  8
_1-0_
  6
CONTINUOUS
 62
    7
 10
365.49639646611155
 20
819.07391699124491
 11
363.33626073299683
 21
819.44888906589335
  0
LINE
  8
_1-0_
  6
CONTINUOUS
 62
    7
 10
363.33626073299683
 20
819.44888906589335
 11
361.23078291020335
 21
819.82386114054191
  0
LINE
  8
_1-0_
  6
CONTINUOUS
 62
    7
 10
361.23078291020335
 20
819.82386114054191
 11
359.18000674155678
 21
820.19883321519058
  0
LINE
  8
_1-0_
  6
CONTINUOUS
 62
    7
 10
359.18000674155678
 20
820.19883321519058
 11
357.18391035514446
 21
820.57389277749076
  0
LINE
  8
_1-0_
  6
CONTINUOUS
 62
    7
 10
357.18391035514446
 20
820.57389277749076
 11
355.24249375096616
 21
820.94886485213931
  0
LINE
  8
_1-0_
  6
CONTINUOUS
 62
    7
 10
355.24249375096616
 20
820.94886485213931
 11
353.35577880093496
 21
821.32383692678786
  0
LINE
  8
_1-0_
  6
CONTINUOUS
 62
    7
 10
353.35577880093496
 20
821.32383692678786
 11
351.52374363313766
 21
821.69889648908804
  0
LINE
  8
_1-0_
  6
CONTINUOUS
 62
    7
 10
351.52374363313766
 20
821.69889648908804
 11
349.74641011948745
 21
822.07386856373671
  0
LINE
  8
_1-0_
  6
CONTINUOUS
 62
    7
 10
349.74641011948745
 20
822.07386856373671
 11
347.99641649695445
 21
822.46870033529262
  0
LINE
  8
_1-0_
  6
CONTINUOUS
 62
    7
 10
347.99641649695445
 20
822.46870033529262
 11
346.24640100250826
 21
822.90333898831523
  0
LINE
  8
_1-0_
  6
CONTINUOUS
 62
    7
 10
346.24640100250826
 20
822.90333898831523
 11
344.49640737997527
 21
823.37760954750081
  0
LINE
  8
_1-0_
  6
CONTINUOUS
 62
    7
 10
344.49640737997527
 20
823.37760954750081
 11
342.7464137574421
 21
823.89159950050146
  0
LINE
  8
_1-0_
  6
CONTINUOUS
 62
    7
 10
342.7464137574421
 20
823.89159950050146
 11
340.99639826299608
 21
824.4452213596652
  0
LINE
  8
_1-0_
  6
CONTINUOUS
 62
    7
 10
340.99639826299608
 20
824.4452213596652
 11
339.24640464046291
 21
825.03865010029563
  0
LINE
  8
_1-0_
  6
CONTINUOUS
 62
    7
 10
339.24640464046291
 20
825.03865010029563
 11
337.49641101792974
 21
825.67179823474066
  0
LINE
  8
_1-0_
  6
CONTINUOUS
 62
    7
 10
337.49641101792974
 20
825.67179823474066
 11
335.74641739539658
 21
826.34457827534914
  0
LINE
  8
_1-0_
  6
CONTINUOUS
 62
    7
 10
335.74641739539658
 20
826.34457827534914
 11
333.99640190095056
 21
827.05716519742396
  0
LINE
  8
_1-0_
  6
CONTINUOUS
 62
    7
 10
333.99640190095056
 20
827.05716519742396
 11
332.24640827841739
 21
827.8093840256621
  0
LINE
  8
_1-0_
  6
CONTINUOUS
 62
    7
 10
332.24640827841739
 20
827.8093840256621
 11
330.49641465588422
 21
828.60132224771507
  0
LINE
  8
_1-0_
  6
CONTINUOUS
 62
    7
 10
330.49641465588422
 20
828.60132224771507
 11
328.74639916143821
 21
829.43297986358289
  0
LINE
  8
_1-0_
  6
CONTINUOUS
 62
    7
 10
328.74639916143821
 20
829.43297986358289
 11
326.99640553890504
 21
830.30435687326542
  0
LINE
  8
_1-0_
  6
CONTINUOUS
 62
    7
 10
326.99640553890504
 20
830.30435687326542
 11
325.24641191637187
 21
831.21545327676301
  0
LINE
  8
_1-0_
  6
CONTINUOUS
 62
    7
 10
325.24641191637187
 20
831.21545327676301
 11
323.49639642192585
 21
832.16626907407544
  0
LINE
  8
_1-0_
  6
CONTINUOUS
 62
    7
 10
323.49639642192585
 20
832.16626907407544
 11
321.74640279939268
 21
833.1568042652026
  0
LINE
  8
_1-0_
  6
CONTINUOUS
 62
    7
 10
321.74640279939268
 20
833.1568042652026
 11
320.03155734087966
 21
834.15512585732006
  0
LINE
  8
_1-0_
  6
CONTINUOUS
 62
    7
 10
320.03155734087966
 20
834.15512585732006
 11
318.3870300823196
 21
835.12930085760274
  0
LINE
  8
_1-0_
  6
CONTINUOUS
 62
    7
 10
318.3870300823196
 20
835.12930085760274
 11
316.81282102371267
 21
836.07950424135413
  0
LINE
  8
_1-0_
  6
CONTINUOUS
 62
    7
 10
316.81282102371267
 20
836.07950424135413
 11
315.30890829314586
 21
837.00556103327085
  0
LINE
  8
_1-0_
  6
CONTINUOUS
 62
    7
 10
315.30890829314586
 20
837.00556103327085
 11
313.87531376253219
 21
837.90755872100476
  0
LINE
  8
_1-0_
  6
CONTINUOUS
 62
    7
 10
313.87531376253219
 20
837.90755872100476
 11
312.51203743187148
 21
838.78540981690389
  0
LINE
  8
_1-0_
  6
CONTINUOUS
 62
    7
 10
312.51203743187148
 20
838.78540981690389
 11
311.21905742925105
 21
839.6392018086201
  0
LINE
  8
_1-0_
  6
CONTINUOUS
 62
    7
 10
311.21905742925105
 20
839.6392018086201
 11
309.99641749849644
 21
840.46893469615327
  0
LINE
  8
_1-0_
  6
CONTINUOUS
 62
    7
 10
309.99641749849644
 20
840.46893469615327
 11
308.84407389578212
 21
841.27460847950351
  0
LINE
  8
_1-0_
  6
CONTINUOUS
 62
    7
 10
308.84407389578212
 20
841.27460847950351
 11
307.76202662110791
 21
842.05613567101909
  0
LINE
  8
_1-0_
  6
CONTINUOUS
 62
    7
 10
307.76202662110791
 20
842.05613567101909
 11
306.75031941829957
 21
842.81360375835163
  0
LINE
  8
_1-0_
  6
CONTINUOUS
 62
    7
 10
306.75031941829957
 20
842.81360375835163
 11
305.8089085435314
 21
843.54701274150113
  0
LINE
  8
_1-0_
  6
CONTINUOUS
 62
    7
 10
305.8089085435314
 20
843.54701274150113
 11
304.93781586871648
 21
844.2562751328162
  0
LINE
  8
_1-0_
  6
CONTINUOUS
 62
    7
 10
304.93781586871648
 20
844.2562751328162
 11
304.13704139385447
 21
844.94147841994823
  0
LINE
  8
_1-0_
  6
CONTINUOUS
 62
    7
 10
304.13704139385447
 20
844.94147841994823
 11
303.40656324703264
 21
845.60262260289721
  0
LINE
  8
_1-0_
  6
CONTINUOUS
 62
    7
 10
303.40656324703264
 20
845.60262260289721
 11
302.74640330016382
 21
846.23970768166316
  0
LINE
  8
_1-0_
  6
CONTINUOUS
 62
    7
 10
302.74640330016382
 20
846.23970768166316
 11
302.1253065897231
 21
846.8858039885414
  0
LINE
  8
_1-0_
  6
CONTINUOUS
 62
    7
 10
302.1253065897231
 20
846.8858039885414
 11
301.51204002409827
 21
847.57433180643318
  0
LINE
  8
_1-0_
  6
CONTINUOUS
 62
    7
 10
301.51204002409827
 20
847.57433180643318
 11
300.90655985946353
 21
848.30511616003548
  0
LINE
  8
_1-0_
  6
CONTINUOUS
 62
    7
 10
300.90655985946353
 20
848.30511616003548
 11
300.3089098396448
 21
849.07824453700005
  0
LINE
  8
_1-0_
  6
CONTINUOUS
 62
    7
 10
300.3089098396448
 20
849.07824453700005
 11
299.71906809272912
 21
849.89371693732653
  0
LINE
  8
_1-0_
  6
CONTINUOUS
 62
    7
 10
299.71906809272912
 20
849.89371693732653
 11
299.13703461871648
 21
850.75144587336354
  0
LINE
  8
_1-0_
  6
CONTINUOUS
 62
    7
 10
299.13703461871648
 20
850.75144587336354
 11
298.56280941760673
 21
851.65151883276269
  0
LINE
  8
_1-0_
  6
CONTINUOUS
 62
    7
 10
298.56280941760673
 20
851.65151883276269
 11
297.9964143613131
 21
852.59393581552388
  0
LINE
  8
_1-0_
  6
CONTINUOUS
 62
    7
 10
297.9964143613131
 20
852.59393581552388
 11
297.4378057060095
 21
853.57869682164721
  0
LINE
  8
_1-0_
  6
CONTINUOUS
 62
    7
 10
297.4378057060095
 20
853.57869682164721
 11
296.88702719552168
 21
854.60571436348107
  0
LINE
  8
_1-0_
  6
CONTINUOUS
 62
    7
 10
296.88702719552168
 20
854.60571436348107
 11
296.34405695793703
 21
855.67507592867696
  0
LINE
  8
_1-0_
  6
CONTINUOUS
 62
    7
 10
296.34405695793703
 20
855.67507592867696
 11
295.80891686516838
 21
856.78678151723489
  0
LINE
  8
_1-0_
  6
CONTINUOUS
 62
    7
 10
295.80891686516838
 20
856.78678151723489
 11
295.28156317338983
 21
857.94083112915496
  0
LINE
  8
_1-0_
  6
CONTINUOUS
 62
    7
 10
295.28156317338983
 20
857.94083112915496
 11
294.76203962642717
 21
859.13713727678567
  0
LINE
  8
_1-0_
  6
CONTINUOUS
 62
    7
 10
294.76203962642717
 20
859.13713727678567
 11
294.25032435236744
 21
860.37578744777829
  0
LINE
  8
_1-0_
  6
CONTINUOUS
 62
    7
 10
294.25032435236744
 20
860.37578744777829
 11
293.74641735121088
 21
861.65678164213318
  0
LINE
  8
_1-0_
  6
CONTINUOUS
 62
    7
 10
293.74641735121088
 20
861.65678164213318
 11
293.23485518054156
 21
863.03348732731047
  0
LINE
  8
_1-0_
  6
CONTINUOUS
 62
    7
 10
293.23485518054156
 20
863.03348732731047
 11
292.70017439794356
 21
864.55918448311934
  0
LINE
  8
_1-0_
  6
CONTINUOUS
 62
    7
 10
292.70017439794356
 20
864.55918448311934
 11
292.14237500341699
 21
866.23404808486282
  0
LINE
  8
_1-0_
  6
CONTINUOUS
 62
    7
 10
292.14237500341699
 20
866.23404808486282
 11
291.56145699696197
 21
868.0579906448894
  0
LINE
  8
_1-0_
  6
CONTINUOUS
 62
    7
 10
291.56145699696197
 20
868.0579906448894
 11
290.95744225049117
 21
870.03101216319908
  0
LINE
  8
_1-0_
  6
CONTINUOUS
 62
    7
 10
290.95744225049117
 20
870.03101216319908
 11
290.33028702017873
 21
872.15311263979163
  0
LINE
  8
_1-0_
  6
CONTINUOUS
 62
    7
 10
290.33028702017873
 20
872.15311263979163
 11
289.68003504985091
 21
874.42429207466739
  0
LINE
  8
_1-0_
  6
CONTINUOUS
 62
    7
 10
289.68003504985091
 20
874.42429207466739
 11
289.00664259568146
 21
876.84463795547776
  0
LINE
  8
_1-0_
  6
CONTINUOUS
 62
    7
 10
289.00664259568146
 20
876.84463795547776
 11
288.31015340149634
 21
879.41397530691961
  0
LINE
  8
_1-0_
  6
CONTINUOUS
 62
    7
 10
288.31015340149634
 20
879.41397530691961
 11
287.59052372346969
 21
882.13239161664444
  0
LINE
  8
_1-0_
  6
CONTINUOUS
 62
    7
 10
287.59052372346969
 20
882.13239161664444
 11
286.84779730542743
 21
884.999974372304
  0
LINE
  8
_1-0_
  6
CONTINUOUS
 62
    7
 10
286.84779730542743
 20
884.999974372304
 11
286.08193040354365
 21
888.01654859859514
  0
LINE
  8
_1-0_
  6
CONTINUOUS
 62
    7
 10
286.08193040354365
 20
888.01654859859514
 11
285.29296676164421
 21
891.18228927082077
  0
LINE
  8
_1-0_
  6
CONTINUOUS
 62
    7
 10
285.29296676164421
 20
891.18228927082077
 11
284.48088450781626
 21
894.49702141367777
  0
LINE
  8
_1-0_
  6
CONTINUOUS
 62
    7
 10
284.48088450781626
 20
894.49702141367777
 11
283.64568364205968
 21
897.96092000246961
  0
LINE
  8
_1-0_
  6
CONTINUOUS
 62
    7
 10
283.64568364205968
 20
897.96092000246961
 11
282.78734229246152
 21
901.57389754954454
  0
LINE
  8
_1-0_
  6
CONTINUOUS
 62
    7
 10
282.78734229246152
 20
901.57389754954454
 11
281.94466123249538
 21
905.34540272127242
  0
LINE
  8
_1-0_
  6
CONTINUOUS
 62
    7
 10
281.94466123249538
 20
905.34540272127242
 11
281.15633187606988
 21
909.28479669637204
  0
LINE
  8
_1-0_
  6
CONTINUOUS
 62
    7
 10
281.15633187606988
 20
909.28479669637204
 11
280.42235422318498
 21
913.3922544501462
  0
LINE
  8
_1-0_
  6
CONTINUOUS
 62
    7
 10
280.42235422318498
 20
913.3922544501462
 11
279.74277201766665
 21
917.66760100729221
  0
LINE
  8
_1-0_
  6
CONTINUOUS
 62
    7
 10
279.74277201766665
 20
917.66760100729221
 11
279.11754151568914
 21
922.11101134311275
  0
LINE
  8
_1-0_
  6
CONTINUOUS
 62
    7
 10
279.11754151568914
 20
922.11101134311275
 11
278.54668458916507
 21
926.72231048230492
  0
LINE
  8
_1-0_
  6
CONTINUOUS
 62
    7
 10
278.54668458916507
 20
926.72231048230492
 11
278.03017936618176
 21
931.50158591252034
  0
LINE
  8
_1-0_
  6
CONTINUOUS
 62
    7
 10
278.03017936618176
 20
931.50158591252034
 11
277.5680695905649
 21
936.4488376337589
  0
LINE
  8
_1-0_
  6
CONTINUOUS
 62
    7
 10
277.5680695905649
 20
936.4488376337589
 11
277.1603115184887
 21
941.56415313367211
  0
LINE
  8
_1-0_
  6
CONTINUOUS
 62
    7
 10
277.1603115184887
 20
941.56415313367211
 11
276.8069051499532
 21
946.84735743695694
  0
LINE
  8
_1-0_
  6
CONTINUOUS
 62
    7
 10
276.8069051499532
 20
946.84735743695694
 11
276.50789422878432
 21
952.29845054361351
  0
LINE
  8
_1-0_
  6
CONTINUOUS
 62
    7
 10
276.50789422878432
 20
952.29845054361351
 11
276.26323501115593
 21
957.91760742894462
  0
LINE
  8
_1-0_
  6
CONTINUOUS
 62
    7
 10
276.26323501115593
 20
957.91760742894462
 11
276.07294936898131
 21
963.70474060529898
  0
LINE
  8
_1-0_
  6
CONTINUOUS
 62
    7
 10
276.07294936898131
 20
963.70474060529898
 11
275.93703730226025
 21
969.65985007267659
  0
LINE
  8
_1-0_
  6
CONTINUOUS
 62
    7
 10
275.93703730226025
 20
969.65985007267659
 11
275.85547693907984
 21
975.78284834342571
  0
LINE
  8
_1-0_
  6
CONTINUOUS
 62
    7
 10
275.85547693907984
 20
975.78284834342571
 11
275.82829015135303
 21
982.0739103928496
  0
ARC
  8
_1-0_
  6
CONTINUOUS
 62
    7
 10
1493.6602276540632
 20
585.32388458841092
 40
194.65514731683325
 50
280.73265075683594
 51
328.65763854980469
  0
ARC
  8
_1-0_
  6
CONTINUOUS
 62
    7
 10
1459.5324321142953
 20
715.09094989437858
 40
296.19893681588781
 50
272.00784301757813
 51
308.74501037597662
  0
ARC
  8
_1-0_
  6
CONTINUOUS
 62
    7
 10
1446.1602070340778
 20
585.32388458841092
 40
194.65514731683325
 50
211.34234619140625
 51
259.267333984375
  0
ARC
  8
_1-0_
  6
CONTINUOUS
 62
    7
 10
1480.2879150861938
 20
715.09094989437858
 40
296.19893681588781
 50
231.25497436523437
 51
267.99214172363281
  0
ARC
  8
_1-0_
  6
CONTINUOUS
 62
    7
 10
609.38810679903349
 20
789.58104225659451
 40
395.67261537529788
 50
271.65682983398437
 51
309.45524597167969
  0
ARC
  8
_1-0_
  6
CONTINUOUS
 62
    7
 10
571.28115414652586
 20
1030.5497682784974
 40
611.56519326464081
 50
269.02064514160156
 51
296.67474365234375
  0
ARC
  8
_1-0_
  6
CONTINUOUS
 62
    7
 10
512.2685022243661
 20
789.58104225659451
 40
395.67261537529788
 50
230.54473876953125
 51
268.34315490722656
  0
ARC
  8
_1-0_
  6
CONTINUOUS
 62
    7
 10
550.37541113304815
 20
1030.5497682784974
 40
611.56519326464081
 50
243.32524108886716
 51
270.97933959960932
  0
CIRCLE
  8
_1-0_
  6
CONTINUOUS
 62
    7
 10
560.82830451170003
 20
982.0739103928496
 40
22.500000414240773
  0
TEXT
  8
_0-0_
 62
    6
 10
1980.5661664690288
 20
1789.9725047225656
 40
100
 41
1
 50
0
  1
 B8-A605LB
  0
ENDSEC
  0
EOF
