  0
SECTION
  2
HEADER
  9
$ACADVER
  1
AC1009
  9
$INSBASE
 10
0
 20
0
 30
0
  9
$EXTMIN
 10
0
 20
0
  9
$EXTMAX
 10
2970
 20
2100
  9
$LIMMIN
 10
0
 20
0
  9
$LIMMAX
 10
2970
 20
2100
  9
$LTSCALE
 40
10
  0
ENDSEC
  0
SECTION
  2
TABLES
  0
TABLE
  2
LTYPE
 70
     9
  0
LTYPE
  2
CONTINUOUS
 70
    64
  3
実線
 72
    65
 73
     0
 40
0.0
  0
LTYPE
  2
DASHED1
 70
    64
  3
--  --  --  --  --  --  --  --  
 72
    65
 73
     2
 40
2.5
 49
1.25
 49
-1.25
  0
LTYPE
  2
DASHED2
 70
    64
  3
----    ----    ----    ----    
 72
    65
 73
     2
 40
5.0
 49
2.5
 49
-2.5
  0
LTYPE
  2
DASHED3
 70
    64
  3
------  ------  ------  ------  
 72
    65
 73
     2
 40
5.0
 49
3.75
 49
-1.25
  0
LTYPE
  2
CENTER1
 70
    64
  3
----- - ----- - ----- - ----- - 
 72
    65
 73
     4
 40
10.0
 49
6.25
 49
-1.25
 49
1.25
 49
-1.25
  0
LTYPE
  2
CENTER2
 70
    64
  3
----------  --  ----------  --  
 72
    65
 73
     4
 40
20.0
 49
12.5
 49
-2.5
 49
2.5
 49
-2.5
  0
LTYPE
  2
PHANTOM1
 70
    64
  3
--- - - --- - - --- - - --- - - 
 72
    65
 73
     6
 40
10.0
 49
3.25
 49
-1.25
 49
1.25
 49
-1.25
 49
1.25
 49
-1.25
  0
LTYPE
  2
PHANTOM2
 70
    64
  3
--------  -  -  --------  -  -  
 72
    65
 73
     6
 40
20.0
 49
10.0
 49
-2.5
 49
1.25
 49
-2.5
 49
1.25
 49
-2.5
  0
LTYPE
  2
DOT
 70
    64
  3
-   -   -   -   -   -   -   -   
 72
    65
 73
     2
 40
2.5
 49
0.625
 49
-1.875
  0
LTYPE
  2
DUMMY
 70
    64
  3
ダミー
 72
    65
 73
     0
 40
0.0
  0
LTYPE
  2
RAND1
 70
    64
  3
ランダム線1
 72
    65
 73
     4
 40
10.0
 49
1.0
 49
-2.0
 49
3.0
 49
-4.0
  0
LTYPE
  2
RAND2
 70
    64
  3
ランダム線2
 72
    65
 73
     4
 40
14.0
 49
2.0
 49
-3.0
 49
4.0
 49
-5.0
  0
LTYPE
  2
RAND3
 70
    64
  3
ランダム線3
 72
    65
 73
     4
 40
18.0
 49
3.0
 49
-4.0
 49
5.0
 49
-6.0
  0
LTYPE
  2
RAND4
 70
    64
  3
ランダム線4
 72
    65
 73
     4
 40
22.0
 49
4.0
 49
-5.0
 49
6.0
 49
-7.0
  0
LTYPE
  2
RAND5
 70
    64
  3
ランダム線5
 72
    65
 73
     4
 40
26.0
 49
5.0
 49
-6.0
 49
7.0
 49
-8.0
  0
LTYPE
  2
LONG1
 70
    64
  3
----------  --  ----------  --  
 72
    65
 73
     4
 40
40.0
 49
32.5
 49
-2.5
 49
2.5
 49
-2.5
  0
LTYPE
  2
LONG2
 70
    64
  3
--------  -  -  --------  -  -  
 72
    65
 73
     6
 40
40.0
 49
30.0
 49
-2.5
 49
1.25
 49
-2.5
 49
1.25
 49
-2.5
  0
LTYPE
  2
LONG3
 70
    64
  3
+++++++++++++++..+++++++++++++++
 72
    65
 73
     2
 40
40.0
 49
37.5
 49
-2.5
  0
LTYPE
  2
LONG4
 70
    64
  3
+++++++++++++++..+++++++++++++++
 72
    65
 73
     2
 40
80.0
 49
75.0
 49
-5.0
  0
LTYPE
  2
LONG5
 70
    64
  3
----------  --  ----------  --  
 72
    65
 73
     4
 40
60.0
 49
37.5
 49
-7.5
 49
7.5
 49
-7.5
  0
LTYPE
  2
dashed
 70
   64
  3
-------   -------------   ------
 72
   65
 73
    2
 40
7.5
 49
6
 49
-1.5
  0
LTYPE
  2
dashed_spaced
 70
   64
  3
----        --------        ----
 72
   65
 73
    2
 40
12
 49
6
 49
-6
  0
LTYPE
  2
long_dashed_dotted
 70
   64
  3
------------- --- --------------
 72
   65
 73
    4
 40
15.25
 49
12
 49
-1.5
 49
0.25
 49
-1.5
  0
LTYPE
  2
long_dashed_double-dotted
 70
   64
  3
----------- --- --- ------------
 72
   65
 73
    6
 40
17
 49
12
 49
-1.5
 49
0.25
 49
-1.5
 49
0.25
 49
-1.5
  0
LTYPE
  2
long_dashed_triplicate-dotted
 70
   64
  3
--------- --- --- --- ----------
 72
   65
 73
    8
 40
18.75
 49
12
 49
-1.5
 49
0.25
 49
-1.5
 49
0.25
 49
-1.5
 49
0.25
 49
-1.5
  0
LTYPE
  2
dotted
 70
   64
  3
   -       -       -       -    
 72
   65
 73
    2
 40
1.75
 49
0.25
 49
-1.5
  0
LTYPE
  2
chain
 70
   64
  3
-------------- -- --------------
 72
   65
 73
    4
 40
18.5
 49
12
 49
-1.5
 49
3.5
 49
-1.5
  0
LTYPE
  2
chain_double_dash
 70
   64
  3
------------ -- -- -------------
 72
   65
 73
    6
 40
23.5
 49
12
 49
-1.5
 49
3.5
 49
-1.5
 49
3.5
 49
-1.5
  0
LTYPE
  2
dashed_dotted
 70
   64
  3
-----------     -     ----------
 72
   65
 73
    4
 40
9.25
 49
6
 49
-1.5
 49
0.25
 49
-1.5
  0
LTYPE
  2
double-dashed_dotted
 70
   64
  3
------   -----------   -   -----
 72
   65
 73
    6
 40
16.75
 49
6
 49
-1.5
 49
6
 49
-1.5
 49
0.25
 49
-1.5
  0
LTYPE
  2
dashed_double-dotted
 70
   64
  3
---------    -    -    ---------
 72
   65
 73
    6
 40
11
 49
6
 49
-1.5
 49
0.25
 49
-1.5
 49
0.25
 49
-1.5
  0
LTYPE
  2
double-dashed_double-dotted
 70
   64
  3
-----   ---------   -   -   ----
 72
   65
 73
    8
 40
18.5
 49
6
 49
-1.5
 49
6
 49
-1.5
 49
0.25
 49
-1.5
 49
0.25
 49
-1.5
  0
LTYPE
  2
dashed_triplicate-dotted
 70
   64
  3
-------    -    -    -    ------
 72
   65
 73
    8
 40
12.75
 49
6
 49
-1.5
 49
0.25
 49
-1.5
 49
0.25
 49
-1.5
 49
0.25
 49
-1.5
  0
LTYPE
  2
double-dashed_triplicate-dotted
 70
   64
  3
-----  ---------  -  -  -  -----
 72
   65
 73
   10
 40
20.25
 49
6
 49
-1.5
 49
6
 49
-1.5
 49
0.25
 49
-1.5
 49
0.25
 49
-1.5
 49
0.25
 49
-1.5
  0
LTYPE
  2
undefined
 70
   64
  3
--------------------------------
 72
   65
 73
    0
 40
0
  0
LTYPE
  2
_
 70
   64
  3
                                
 72
   65
 73
    0
 40
0
  0
LTYPE
  2
__18
 70
   64
  3
                                
 72
   65
 73
    0
 40
0
  0
LTYPE
  2
__19
 70
   64
  3
                                
 72
   65
 73
    0
 40
0
  0
LTYPE
  2
__20
 70
   64
  3
                                
 72
   65
 73
    0
 40
0
  0
LTYPE
  2
__21
 70
   64
  3
                                
 72
   65
 73
    0
 40
0
  0
LTYPE
  2
__22
 70
   64
  3
                                
 72
   65
 73
    0
 40
0
  0
LTYPE
  2
__23
 70
   64
  3
                                
 72
   65
 73
    0
 40
0
  0
LTYPE
  2
__24
 70
   64
  3
                                
 72
   65
 73
    0
 40
0
  0
LTYPE
  2
__25
 70
   64
  3
                                
 72
   65
 73
    0
 40
0
  0
LTYPE
  2
__26
 70
   64
  3
                                
 72
   65
 73
    0
 40
0
  0
LTYPE
  2
__27
 70
   64
  3
                                
 72
   65
 73
    0
 40
0
  0
LTYPE
  2
__28
 70
   64
  3
                                
 72
   65
 73
    0
 40
0
  0
LTYPE
  2
__29
 70
   64
  3
                                
 72
   65
 73
    0
 40
0
  0
LTYPE
  2
__30
 70
   64
  3
                                
 72
   65
 73
    0
 40
0
  0
LTYPE
  2
__31
 70
   64
  3
                                
 72
   65
 73
    0
 40
0
  0
LTYPE
  2
__32
 70
   64
  3
                                
 72
   65
 73
    0
 40
0
  0
ENDTAB
  0
TABLE
  2
STYLE
  5
3
100
AcDbSymbolTable
 70
     1
  0
STYLE
  5
10
100
AcDbSymbolTableRecord
100
AcDbTextStyleTableRecord
  2
STANDARD
 70
     0
 40
0.0
 41
1.0
 50
0.0
 71
     0
 42
0.2
  3
txt
  4
bigfont.shx
  0
STYLE
  5
26
100
AcDbSymbolTableRecord
100
AcDbTextStyleTableRecord
  2
TATEGAKI
 70
    68
 40
0.0
 41
1.0
 50
0.0
 71
     0
 42
1.0
  3
txt
  4
bigfont.shx
  0
ENDTAB
  0
TABLE
  2
LAYER
 70
    4
  0
LAYER
  2
_0-0_
 70
   64
 62
    7
  6
CONTINUOUS
  0
LAYER
  2
_1-0_
 70
   64
 62
    7
  6
CONTINUOUS
  0
LAYER
  2
_1-1_
 70
   64
 62
    7
  6
CONTINUOUS
  0
LAYER
  2
ADD_LINE
 70
   64
 62
    7
  6
CONTINUOUS
  0
ENDTAB
  0
ENDSEC
  0
SECTION
  2
BLOCKS
  0
ENDSEC
  0
SECTION
  2
ENTITIES
  0
LINE
  8
_1-0_
  6
CONTINUOUS
 62
    7
 10
54.639275451424396
 20
984.49250652062847
 11
1654.639256304295
 21
984.49250652062847
  0
LINE
  8
_1-0_
  6
CONTINUOUS
 62
    7
 10
1654.639256304295
 20
984.49250652062847
 11
1654.639256304295
 21
834.49256572944307
  0
LINE
  8
_1-0_
  6
CONTINUOUS
 62
    7
 10
1654.639256304295
 20
834.49256572944307
 11
54.639275451424396
 21
834.49256572944307
  0
LINE
  8
_1-0_
  6
CONTINUOUS
 62
    7
 10
54.639275451424396
 20
834.49256572944307
 11
54.639275451424396
 21
984.49250652062847
  0
LINE
  8
_1-1_
  6
CONTINUOUS
 62
    7
 10
74.639275212085465
 20
834.49256572944307
 11
74.639275212085465
 21
964.49256690772802
  0
LINE
  8
_1-1_
  6
CONTINUOUS
 62
    7
 10
74.639275212085465
 20
964.49256690772802
 11
1634.6392292037433
 21
964.49256690772802
  0
LINE
  8
_1-1_
  6
CONTINUOUS
 62
    7
 10
1634.6392292037433
 20
964.49256690772802
 11
1634.6392292037433
 21
834.49256572944307
  0
LINE
  8
_1-1_
  6
CONTINUOUS
 62
    7
 10
1634.6392292037433
 20
834.49256572944307
 11
1654.639256304295
 21
834.49256572944307
  0
LINE
  8
_1-1_
  6
CONTINUOUS
 62
    7
 10
1654.639256304295
 20
834.49256572944307
 11
1654.639256304295
 21
984.49250652062847
  0
LINE
  8
_1-1_
  6
CONTINUOUS
 62
    7
 10
1654.639256304295
 20
984.49250652062847
 11
54.639275451424396
 21
984.49250652062847
  0
LINE
  8
_1-1_
  6
CONTINUOUS
 62
    7
 10
54.639275451424396
 20
984.49250652062847
 11
54.639275451424396
 21
834.49256572944307
  0
LINE
  8
_1-1_
  6
CONTINUOUS
 62
    7
 10
54.639275451424396
 20
834.49256572944307
 11
74.639275212085465
 21
834.49256572944307
  0
LINE
  8
_1-0_
  6
CONTINUOUS
 62
    7
 10
54.639275451424396
 20
483.64608587905707
 11
1654.639256304295
 21
483.64608587905707
  0
LINE
  8
_1-0_
  6
CONTINUOUS
 62
    7
 10
1654.639256304295
 20
483.64608587905707
 11
1654.639256304295
 21
333.64605760022016
  0
LINE
  8
_1-0_
  6
CONTINUOUS
 62
    7
 10
1654.639256304295
 20
333.64605760022016
 11
54.639275451424396
 21
333.64605760022016
  0
LINE
  8
_1-0_
  6
CONTINUOUS
 62
    7
 10
54.639275451424396
 20
333.64605760022016
 11
54.639275451424396
 21
483.64608587905707
  0
LINE
  8
_1-0_
  6
CONTINUOUS
 62
    7
 10
477.13927928085025
 20
365.41330506902852
 11
477.13927928085025
 21
333.64605760022016
  0
LINE
  8
_1-0_
  6
CONTINUOUS
 62
    7
 10
432.13926204843403
 20
365.41330506902852
 11
432.13926204843403
 21
333.64605760022016
  0
LINE
  8
_1-0_
  6
CONTINUOUS
 62
    7
 10
417.13928546684588
 20
375.41331861930462
 11
420.06491627932519
 21
375.41331861930462
  0
LINE
  8
_1-0_
  6
CONTINUOUS
 62
    7
 10
489.21362504995926
 20
375.41331861930462
 11
492.13925586243846
 21
375.41331861930462
  0
LINE
  8
_1-0_
  6
CONTINUOUS
 62
    7
 10
432.13926204843403
 20
365.41330506902852
 11
477.13927928085025
 21
365.41330506902852
  0
LINE
  8
_1-0_
  6
CONTINUOUS
 62
    7
 10
417.13928546684588
 20
375.41331861930462
 11
432.13926204843403
 21
365.41330506902852
  0
LINE
  8
_1-0_
  6
CONTINUOUS
 62
    7
 10
492.13925586243846
 20
375.41331861930462
 11
477.13927928085025
 21
365.41330506902852
  0
LINE
  8
_1-0_
  6
CONTINUOUS
 62
    7
 10
435.13925736475176
 20
463.64605877850499
 11
474.13928396453258
 21
463.64605877850499
  0
LINE
  8
_1-0_
  6
CONTINUOUS
 62
    7
 10
474.13928396453258
 20
457.64606814586978
 11
435.13925736475176
 21
457.64606814586978
  0
LINE
  8
_1-0_
  6
CONTINUOUS
 62
    7
 10
1277.1393134511115
 20
365.41330506902852
 11
1277.1393134511115
 21
333.64605760022016
  0
LINE
  8
_1-0_
  6
CONTINUOUS
 62
    7
 10
1232.1392524748694
 20
365.41330506902852
 11
1232.1392524748694
 21
333.64605760022016
  0
LINE
  8
_1-0_
  6
CONTINUOUS
 62
    7
 10
1217.1392321494554
 20
375.41331861930462
 11
1220.0649067057607
 21
375.41331861930462
  0
LINE
  8
_1-0_
  6
CONTINUOUS
 62
    7
 10
1289.2136592202203
 20
375.41331861930462
 11
1292.1392462888739
 21
375.41331861930462
  0
LINE
  8
_1-0_
  6
CONTINUOUS
 62
    7
 10
1232.1392524748694
 20
365.41330506902852
 11
1277.1393134511115
 21
365.41330506902852
  0
LINE
  8
_1-0_
  6
CONTINUOUS
 62
    7
 10
1217.1392321494554
 20
375.41331861930462
 11
1232.1392524748694
 21
365.41330506902852
  0
LINE
  8
_1-0_
  6
CONTINUOUS
 62
    7
 10
1292.1392462888739
 20
375.41331861930462
 11
1277.1393134511115
 21
365.41330506902852
  0
LINE
  8
_1-0_
  6
CONTINUOUS
 62
    7
 10
1235.1392915350129
 20
463.64605877850499
 11
1274.139274390968
 21
463.64605877850499
  0
LINE
  8
_1-0_
  6
CONTINUOUS
 62
    7
 10
1274.139274390968
 20
457.64606814586978
 11
1235.1392915350129
 21
457.64606814586978
  0
LINE
  8
_1-0_
  6
CONTINUOUS
 62
    7
 10
2068.7328341568759
 20
373.64606805749844
 11
2138.5960983217451
 21
373.64606805749844
  0
LINE
  8
_1-0_
  6
CONTINUOUS
 62
    7
 10
2323.5820885146445
 20
483.64608587905707
 11
1823.5821109020571
 21
483.64608587905707
  0
LINE
  8
_1-0_
  6
CONTINUOUS
 62
    7
 10
1823.5821109020571
 20
483.64608587905707
 11
1823.5821109020571
 21
333.64605760022016
  0
LINE
  8
_1-0_
  6
CONTINUOUS
 62
    7
 10
1823.5821109020571
 20
333.64605760022016
 11
2323.5820885146445
 21
333.64605760022016
  0
LINE
  8
_1-0_
  6
CONTINUOUS
 62
    7
 10
2323.5820885146445
 20
333.64605760022016
 11
2323.5820885146445
 21
483.64608587905707
  0
LINE
  8
_1-0_
  6
CONTINUOUS
 62
    7
 10
2081.0820661272319
 20
365.41328319711567
 11
2081.0820661272319
 21
333.64605760022016
  0
LINE
  8
_1-0_
  6
CONTINUOUS
 62
    7
 10
2126.0820396158224
 20
365.41328319711567
 11
2126.0820396158224
 21
333.64605760022016
  0
LINE
  8
_1-0_
  6
CONTINUOUS
 62
    7
 10
2126.0820396158224
 20
365.41328319711567
 11
2081.0820661272319
 21
365.41328319711567
  0
LINE
  8
_1-0_
  6
CONTINUOUS
 62
    7
 10
2138.4310966108756
 20
373.64606805749844
 11
2126.0820396158224
 21
365.41328319711567
  0
LINE
  8
_1-0_
  6
CONTINUOUS
 62
    7
 10
2068.7328341568759
 20
373.64606805749844
 11
2081.0820661272319
 21
365.41328319711567
  0
LINE
  8
_1-0_
  6
CONTINUOUS
 62
    7
 10
2323.5820885146445
 20
256.14606194514568
 11
2323.5820885146445
 21
648.64609073948213
  0
LINE
  8
_1-0_
  6
CONTINUOUS
 62
    7
 10
2348.4927974980769
 20
430.14607462643653
 11
2348.4927974980769
 21
437.1460928603949
  0
LINE
  8
_1-0_
  6
CONTINUOUS
 62
    7
 10
2348.4927974980769
 20
437.1460928603949
 11
2378.4928381489049
 21
437.1460928603949
  0
LINE
  8
_1-0_
  6
CONTINUOUS
 62
    7
 10
2378.4928381489049
 20
437.1460928603949
 11
2386.4928839841864
 21
438.64606864664086
  0
LINE
  8
_1-0_
  6
CONTINUOUS
 62
    7
 10
2386.4928839841864
 20
438.64606864664086
 11
2386.4928839841864
 21
428.64605509636482
  0
LINE
  8
_1-0_
  6
CONTINUOUS
 62
    7
 10
2386.4928839841864
 20
428.64605509636482
 11
2378.4928381489049
 21
430.14607462643653
  0
LINE
  8
_1-0_
  6
CONTINUOUS
 62
    7
 10
2378.4928381489049
 20
430.14607462643653
 11
2348.4927974980769
 21
430.14607462643653
  0
LINE
  8
_1-0_
  6
CONTINUOUS
 62
    7
 10
2300.4928724369947
 20
436.14606525907186
 11
2348.4927974980769
 21
436.14606525907186
  0
LINE
  8
_1-0_
  6
CONTINUOUS
 62
    7
 10
2348.4927974980769
 20
436.14606525907186
 11
2348.4927974980769
 21
431.14605848393381
  0
LINE
  8
_1-0_
  6
CONTINUOUS
 62
    7
 10
2348.4927974980769
 20
431.14605848393381
 11
2300.4928724369947
 21
431.14605848393381
  0
LINE
  8
_1-0_
  6
CONTINUOUS
 62
    7
 10
2300.4928724369947
 20
431.14605848393381
 11
2300.4928724369947
 21
436.14606525907186
  0
LINE
  8
_1-0_
  6
CONTINUOUS
 62
    7
 10
2302.9880202599011
 20
430.4052567942262
 11
2302.7476041933742
 21
430.14616211408816
  0
LINE
  8
_1-0_
  6
CONTINUOUS
 62
    7
 10
2302.7476041933742
 20
430.14616211408816
 11
2302.4884657694106
 21
430.38670941209239
  0
LINE
  8
_1-0_
  6
CONTINUOUS
 62
    7
 10
2302.4884657694106
 20
430.38670941209239
 11
2302.2476997522772
 21
436.88227384707176
  0
LINE
  8
_1-0_
  6
CONTINUOUS
 62
    7
 10
2302.2476997522772
 20
436.88227384707176
 11
2302.4882907941073
 21
437.14136852720981
  0
LINE
  8
_1-0_
  6
CONTINUOUS
 62
    7
 10
2302.4882907941073
 20
437.14136852720981
 11
2302.7474292180709
 21
436.90077748537982
  0
LINE
  8
_1-0_
  6
CONTINUOUS
 62
    7
 10
2302.7474292180709
 20
436.90077748537982
 11
2302.9880202599011
 21
430.4052567942262
  0
LINE
  8
_1-0_
  6
CONTINUOUS
 62
    7
 10
2304.4880835337985
 20
430.4052567942262
 11
2304.2474924919688
 21
430.14616211408816
  0
LINE
  8
_1-0_
  6
CONTINUOUS
 62
    7
 10
2304.2474924919688
 20
430.14616211408816
 11
2303.9885290433081
 21
430.38670941209239
  0
LINE
  8
_1-0_
  6
CONTINUOUS
 62
    7
 10
2303.9885290433081
 20
430.38670941209239
 11
2303.7477630261747
 21
436.88227384707176
  0
LINE
  8
_1-0_
  6
CONTINUOUS
 62
    7
 10
2303.7477630261747
 20
436.88227384707176
 11
2303.9883540680048
 21
437.14136852720981
  0
LINE
  8
_1-0_
  6
CONTINUOUS
 62
    7
 10
2303.9883540680048
 20
437.14136852720981
 11
2304.2473175166656
 21
436.90077748537982
  0
LINE
  8
_1-0_
  6
CONTINUOUS
 62
    7
 10
2304.2473175166656
 20
436.90077748537982
 11
2304.4880835337985
 21
430.4052567942262
  0
LINE
  8
_1-0_
  6
CONTINUOUS
 62
    7
 10
2305.9881468076965
 20
430.4052567942262
 11
2305.7475557658663
 21
430.14616211408816
  0
LINE
  8
_1-0_
  6
CONTINUOUS
 62
    7
 10
2305.7475557658663
 20
430.14616211408816
 11
2305.4884173419023
 21
430.38670941209239
  0
LINE
  8
_1-0_
  6
CONTINUOUS
 62
    7
 10
2305.4884173419023
 20
430.38670941209239
 11
2305.2476513247693
 21
436.88227384707176
  0
LINE
  8
_1-0_
  6
CONTINUOUS
 62
    7
 10
2305.2476513247693
 20
436.88227384707176
 11
2305.4882423665995
 21
437.14136852720981
  0
LINE
  8
_1-0_
  6
CONTINUOUS
 62
    7
 10
2305.4882423665995
 20
437.14136852720981
 11
2305.7473807905631
 21
436.90077748537982
  0
LINE
  8
_1-0_
  6
CONTINUOUS
 62
    7
 10
2305.7473807905631
 20
436.90077748537982
 11
2305.9881468076965
 21
430.4052567942262
  0
LINE
  8
_1-0_
  6
CONTINUOUS
 62
    7
 10
2307.4880351062902
 20
430.4052567942262
 11
2307.2474440644605
 21
430.14616211408816
  0
LINE
  8
_1-0_
  6
CONTINUOUS
 62
    7
 10
2307.2474440644605
 20
430.14616211408816
 11
2306.9884806157997
 21
430.38670941209239
  0
LINE
  8
_1-0_
  6
CONTINUOUS
 62
    7
 10
2306.9884806157997
 20
430.38670941209239
 11
2306.7477145986668
 21
436.88227384707176
  0
LINE
  8
_1-0_
  6
CONTINUOUS
 62
    7
 10
2306.7477145986668
 20
436.88227384707176
 11
2306.9883056404969
 21
437.14136852720981
  0
LINE
  8
_1-0_
  6
CONTINUOUS
 62
    7
 10
2306.9883056404969
 20
437.14136852720981
 11
2307.2474440644605
 21
436.90077748537982
  0
LINE
  8
_1-0_
  6
CONTINUOUS
 62
    7
 10
2307.2474440644605
 20
436.90077748537982
 11
2307.4880351062902
 21
430.4052567942262
  0
LINE
  8
_1-0_
  6
CONTINUOUS
 62
    7
 10
2308.9880983801881
 20
430.4052567942262
 11
2308.747507338358
 21
430.14616211408816
  0
LINE
  8
_1-0_
  6
CONTINUOUS
 62
    7
 10
2308.747507338358
 20
430.14616211408816
 11
2308.4883689143944
 21
430.38670941209239
  0
LINE
  8
_1-0_
  6
CONTINUOUS
 62
    7
 10
2308.4883689143944
 20
430.38670941209239
 11
2308.2477778725643
 21
436.88227384707176
  0
LINE
  8
_1-0_
  6
CONTINUOUS
 62
    7
 10
2308.2477778725643
 20
436.88227384707176
 11
2308.4881939390912
 21
437.14136852720981
  0
LINE
  8
_1-0_
  6
CONTINUOUS
 62
    7
 10
2308.4881939390912
 20
437.14136852720981
 11
2308.7473323630547
 21
436.90077748537982
  0
LINE
  8
_1-0_
  6
CONTINUOUS
 62
    7
 10
2308.7473323630547
 20
436.90077748537982
 11
2308.9880983801881
 21
430.4052567942262
  0
LINE
  8
_1-0_
  6
CONTINUOUS
 62
    7
 10
2310.4881616540856
 20
430.4052567942262
 11
2310.2475706122555
 21
430.14616211408816
  0
LINE
  8
_1-0_
  6
CONTINUOUS
 62
    7
 10
2310.2475706122555
 20
430.14616211408816
 11
2309.9884321882919
 21
430.38670941209239
  0
LINE
  8
_1-0_
  6
CONTINUOUS
 62
    7
 10
2309.9884321882919
 20
430.38670941209239
 11
2309.7476661711585
 21
436.88227384707176
  0
LINE
  8
_1-0_
  6
CONTINUOUS
 62
    7
 10
2309.7476661711585
 20
436.88227384707176
 11
2309.9882572129886
 21
437.14136852720981
  0
LINE
  8
_1-0_
  6
CONTINUOUS
 62
    7
 10
2309.9882572129886
 20
437.14136852720981
 11
2310.2473956369527
 21
436.90077748537982
  0
LINE
  8
_1-0_
  6
CONTINUOUS
 62
    7
 10
2310.2473956369527
 20
436.90077748537982
 11
2310.4881616540856
 21
430.4052567942262
  0
LINE
  8
_1-0_
  6
CONTINUOUS
 62
    7
 10
2311.9880499526798
 20
430.4052567942262
 11
2311.7474589108501
 21
430.14616211408816
  0
LINE
  8
_1-0_
  6
CONTINUOUS
 62
    7
 10
2311.7474589108501
 20
430.14616211408816
 11
2311.4884954621893
 21
430.38670941209239
  0
LINE
  8
_1-0_
  6
CONTINUOUS
 62
    7
 10
2311.4884954621893
 20
430.38670941209239
 11
2311.2477294450559
 21
436.88227384707176
  0
LINE
  8
_1-0_
  6
CONTINUOUS
 62
    7
 10
2311.2477294450559
 20
436.88227384707176
 11
2311.4883204868861
 21
437.14136852720981
  0
LINE
  8
_1-0_
  6
CONTINUOUS
 62
    7
 10
2311.4883204868861
 20
437.14136852720981
 11
2311.7472839355464
 21
436.90077748537982
  0
LINE
  8
_1-0_
  6
CONTINUOUS
 62
    7
 10
2311.7472839355464
 20
436.90077748537982
 11
2311.9880499526798
 21
430.4052567942262
  0
LINE
  8
_1-0_
  6
CONTINUOUS
 62
    7
 10
2381.338111553413
 20
434.14605380025142
 11
2362.3380683103583
 21
434.14605380025142
  0
LINE
  8
_1-0_
  6
CONTINUOUS
 62
    7
 10
2362.3380683103583
 20
434.14605380025142
 11
2362.3380683103583
 21
433.14606994275414
  0
LINE
  8
_1-0_
  6
CONTINUOUS
 62
    7
 10
2362.3380683103583
 20
433.14606994275414
 11
2381.338111553413
 21
433.14606994275414
  0
LINE
  8
_1-0_
  6
CONTINUOUS
 62
    7
 10
2381.338111553413
 20
433.14606994275414
 11
2381.338111553413
 21
428.64605509636482
  0
LINE
  8
_1-0_
  6
CONTINUOUS
 62
    7
 10
2381.338111553413
 20
428.64605509636482
 11
2324.3381567995521
 21
428.64605509636482
  0
LINE
  8
_1-0_
  6
CONTINUOUS
 62
    7
 10
2324.3381567995521
 20
428.64605509636482
 11
2324.3381567995521
 21
438.64606864664086
  0
LINE
  8
_1-0_
  6
CONTINUOUS
 62
    7
 10
2324.3381567995521
 20
438.64606864664086
 11
2381.338111553413
 21
438.64606864664086
  0
LINE
  8
_1-0_
  6
CONTINUOUS
 62
    7
 10
2381.338111553413
 20
438.64606864664086
 11
2381.338111553413
 21
434.14605380025142
  0
LINE
  8
_1-0_
  6
CONTINUOUS
 62
    7
 10
2312.6370333520599
 20
441.14607203420979
 11
2318.637111472347
 21
441.14607203420979
  0
LINE
  8
_1-0_
  6
CONTINUOUS
 62
    7
 10
2318.637111472347
 20
441.14607203420979
 11
2318.637111472347
 21
426.14605170879588
  0
LINE
  8
_1-0_
  6
CONTINUOUS
 62
    7
 10
2318.637111472347
 20
426.14605170879588
 11
2312.6370333520599
 21
426.14605170879588
  0
LINE
  8
_1-0_
  6
CONTINUOUS
 62
    7
 10
2312.6370333520599
 20
426.14605170879588
 11
2312.6370333520599
 21
441.14607203420979
  0
LINE
  8
_1-0_
  6
CONTINUOUS
 62
    7
 10
2312.6370333520599
 20
437.39608882476921
 11
2318.637111472347
 21
437.39608882476921
  0
LINE
  8
_1-0_
  6
CONTINUOUS
 62
    7
 10
2312.6370333520599
 20
429.89607866206222
 11
2318.637111472347
 21
429.89607866206222
  0
LINE
  8
_1-0_
  6
CONTINUOUS
 62
    7
 10
2318.3191813465246
 20
458.6345036333592
 11
2320.3193240368228
 21
458.6345036333592
  0
LINE
  8
_1-0_
  6
CONTINUOUS
 62
    7
 10
2320.3193240368228
 20
458.6345036333592
 11
2320.3193240368228
 21
408.63447962580494
  0
LINE
  8
_1-0_
  6
CONTINUOUS
 62
    7
 10
2320.3193240368228
 20
408.63447962580494
 11
2318.3191813465246
 21
408.63447962580494
  0
LINE
  8
_1-0_
  6
CONTINUOUS
 62
    7
 10
2318.3191813465246
 20
408.63447962580494
 11
2318.3191813465246
 21
458.6345036333592
  0
LINE
  8
_1-0_
  6
CONTINUOUS
 62
    7
 10
2348.4927974980769
 20
365.14607403729417
 11
2348.4927974980769
 21
372.14604852742667
  0
LINE
  8
_1-0_
  6
CONTINUOUS
 62
    7
 10
2348.4927974980769
 20
372.14604852742667
 11
2378.4928381489049
 21
372.14604852742667
  0
LINE
  8
_1-0_
  6
CONTINUOUS
 62
    7
 10
2378.4928381489049
 20
372.14604852742667
 11
2386.4928839841864
 21
373.64606805749844
  0
LINE
  8
_1-0_
  6
CONTINUOUS
 62
    7
 10
2386.4928839841864
 20
373.64606805749844
 11
2386.4928839841864
 21
363.64607637913537
  0
LINE
  8
_1-0_
  6
CONTINUOUS
 62
    7
 10
2386.4928839841864
 20
363.64607637913537
 11
2378.4928381489049
 21
365.14607403729417
  0
LINE
  8
_1-0_
  6
CONTINUOUS
 62
    7
 10
2378.4928381489049
 20
365.14607403729417
 11
2348.4927974980769
 21
365.14607403729417
  0
LINE
  8
_1-0_
  6
CONTINUOUS
 62
    7
 10
2300.4928724369947
 20
371.14606466992939
 11
2348.4927974980769
 21
371.14606466992939
  0
LINE
  8
_1-0_
  6
CONTINUOUS
 62
    7
 10
2348.4927974980769
 20
371.14606466992939
 11
2348.4927974980769
 21
366.1460578947914
  0
LINE
  8
_1-0_
  6
CONTINUOUS
 62
    7
 10
2348.4927974980769
 20
366.1460578947914
 11
2300.4928724369947
 21
366.1460578947914
  0
LINE
  8
_1-0_
  6
CONTINUOUS
 62
    7
 10
2300.4928724369947
 20
366.1460578947914
 11
2300.4928724369947
 21
371.14606466992939
  0
LINE
  8
_1-0_
  6
CONTINUOUS
 62
    7
 10
2302.9880202599011
 20
365.40523433317077
 11
2302.7476041933742
 21
365.14616152494568
  0
LINE
  8
_1-0_
  6
CONTINUOUS
 62
    7
 10
2302.7476041933742
 20
365.14616152494568
 11
2302.4884657694106
 21
365.38673069486293
  0
LINE
  8
_1-0_
  6
CONTINUOUS
 62
    7
 10
2302.4884657694106
 20
365.38673069486293
 11
2302.2476997522772
 21
371.88227325792934
  0
LINE
  8
_1-0_
  6
CONTINUOUS
 62
    7
 10
2302.2476997522772
 20
371.88227325792934
 11
2302.4882907941073
 21
372.14136793806745
  0
LINE
  8
_1-0_
  6
CONTINUOUS
 62
    7
 10
2302.4882907941073
 20
372.14136793806745
 11
2302.7474292180709
 21
371.90077689623735
  0
LINE
  8
_1-0_
  6
CONTINUOUS
 62
    7
 10
2302.7474292180709
 20
371.90077689623735
 11
2302.9880202599011
 21
365.40523433317077
  0
LINE
  8
_1-0_
  6
CONTINUOUS
 62
    7
 10
2304.4880835337985
 20
365.40523433317077
 11
2304.2474924919688
 21
365.14616152494568
  0
LINE
  8
_1-0_
  6
CONTINUOUS
 62
    7
 10
2304.2474924919688
 20
365.14616152494568
 11
2303.9885290433081
 21
365.38673069486293
  0
LINE
  8
_1-0_
  6
CONTINUOUS
 62
    7
 10
2303.9885290433081
 20
365.38673069486293
 11
2303.7477630261747
 21
371.88227325792934
  0
LINE
  8
_1-0_
  6
CONTINUOUS
 62
    7
 10
2303.7477630261747
 20
371.88227325792934
 11
2303.9883540680048
 21
372.14136793806745
  0
LINE
  8
_1-0_
  6
CONTINUOUS
 62
    7
 10
2303.9883540680048
 20
372.14136793806745
 11
2304.2473175166656
 21
371.90077689623735
  0
LINE
  8
_1-0_
  6
CONTINUOUS
 62
    7
 10
2304.2473175166656
 20
371.90077689623735
 11
2304.4880835337985
 21
365.40523433317077
  0
LINE
  8
_1-0_
  6
CONTINUOUS
 62
    7
 10
2305.9881468076965
 20
365.40523433317077
 11
2305.7475557658663
 21
365.14616152494568
  0
LINE
  8
_1-0_
  6
CONTINUOUS
 62
    7
 10
2305.7475557658663
 20
365.14616152494568
 11
2305.4884173419023
 21
365.38673069486293
  0
LINE
  8
_1-0_
  6
CONTINUOUS
 62
    7
 10
2305.4884173419023
 20
365.38673069486293
 11
2305.2476513247693
 21
371.88227325792934
  0
LINE
  8
_1-0_
  6
CONTINUOUS
 62
    7
 10
2305.2476513247693
 20
371.88227325792934
 11
2305.4882423665995
 21
372.14136793806745
  0
LINE
  8
_1-0_
  6
CONTINUOUS
 62
    7
 10
2305.4882423665995
 20
372.14136793806745
 11
2305.7473807905631
 21
371.90077689623735
  0
LINE
  8
_1-0_
  6
CONTINUOUS
 62
    7
 10
2305.7473807905631
 20
371.90077689623735
 11
2305.9881468076965
 21
365.40523433317077
  0
LINE
  8
_1-0_
  6
CONTINUOUS
 62
    7
 10
2307.4880351062902
 20
365.40523433317077
 11
2307.2474440644605
 21
365.14616152494568
  0
LINE
  8
_1-0_
  6
CONTINUOUS
 62
    7
 10
2307.2474440644605
 20
365.14616152494568
 11
2306.9884806157997
 21
365.38673069486293
  0
LINE
  8
_1-0_
  6
CONTINUOUS
 62
    7
 10
2306.9884806157997
 20
365.38673069486293
 11
2306.7477145986668
 21
371.88227325792934
  0
LINE
  8
_1-0_
  6
CONTINUOUS
 62
    7
 10
2306.7477145986668
 20
371.88227325792934
 11
2306.9883056404969
 21
372.14136793806745
  0
LINE
  8
_1-0_
  6
CONTINUOUS
 62
    7
 10
2306.9883056404969
 20
372.14136793806745
 11
2307.2474440644605
 21
371.90077689623735
  0
LINE
  8
_1-0_
  6
CONTINUOUS
 62
    7
 10
2307.2474440644605
 20
371.90077689623735
 11
2307.4880351062902
 21
365.40523433317077
  0
LINE
  8
_1-0_
  6
CONTINUOUS
 62
    7
 10
2308.9880983801881
 20
365.40523433317077
 11
2308.747507338358
 21
365.14616152494568
  0
LINE
  8
_1-0_
  6
CONTINUOUS
 62
    7
 10
2308.747507338358
 20
365.14616152494568
 11
2308.4883689143944
 21
365.38673069486293
  0
LINE
  8
_1-0_
  6
CONTINUOUS
 62
    7
 10
2308.4883689143944
 20
365.38673069486293
 11
2308.2477778725643
 21
371.88227325792934
  0
LINE
  8
_1-0_
  6
CONTINUOUS
 62
    7
 10
2308.2477778725643
 20
371.88227325792934
 11
2308.4881939390912
 21
372.14136793806745
  0
LINE
  8
_1-0_
  6
CONTINUOUS
 62
    7
 10
2308.4881939390912
 20
372.14136793806745
 11
2308.7473323630547
 21
371.90077689623735
  0
LINE
  8
_1-0_
  6
CONTINUOUS
 62
    7
 10
2308.7473323630547
 20
371.90077689623735
 11
2308.9880983801881
 21
365.40523433317077
  0
LINE
  8
_1-0_
  6
CONTINUOUS
 62
    7
 10
2310.4881616540856
 20
365.40523433317077
 11
2310.2475706122555
 21
365.14616152494568
  0
LINE
  8
_1-0_
  6
CONTINUOUS
 62
    7
 10
2310.2475706122555
 20
365.14616152494568
 11
2309.9884321882919
 21
365.38673069486293
  0
LINE
  8
_1-0_
  6
CONTINUOUS
 62
    7
 10
2309.9884321882919
 20
365.38673069486293
 11
2309.7476661711585
 21
371.88227325792934
  0
LINE
  8
_1-0_
  6
CONTINUOUS
 62
    7
 10
2309.7476661711585
 20
371.88227325792934
 11
2309.9882572129886
 21
372.14136793806745
  0
LINE
  8
_1-0_
  6
CONTINUOUS
 62
    7
 10
2309.9882572129886
 20
372.14136793806745
 11
2310.2473956369527
 21
371.90077689623735
  0
LINE
  8
_1-0_
  6
CONTINUOUS
 62
    7
 10
2310.2473956369527
 20
371.90077689623735
 11
2310.4881616540856
 21
365.40523433317077
  0
LINE
  8
_1-0_
  6
CONTINUOUS
 62
    7
 10
2311.9880499526798
 20
365.40523433317077
 11
2311.7474589108501
 21
365.14616152494568
  0
LINE
  8
_1-0_
  6
CONTINUOUS
 62
    7
 10
2311.7474589108501
 20
365.14616152494568
 11
2311.4884954621893
 21
365.38673069486293
  0
LINE
  8
_1-0_
  6
CONTINUOUS
 62
    7
 10
2311.4884954621893
 20
365.38673069486293
 11
2311.2477294450559
 21
371.88227325792934
  0
LINE
  8
_1-0_
  6
CONTINUOUS
 62
    7
 10
2311.2477294450559
 20
371.88227325792934
 11
2311.4883204868861
 21
372.14136793806745
  0
LINE
  8
_1-0_
  6
CONTINUOUS
 62
    7
 10
2311.4883204868861
 20
372.14136793806745
 11
2311.7472839355464
 21
371.90077689623735
  0
LINE
  8
_1-0_
  6
CONTINUOUS
 62
    7
 10
2311.7472839355464
 20
371.90077689623735
 11
2311.9880499526798
 21
365.40523433317077
  0
LINE
  8
_1-0_
  6
CONTINUOUS
 62
    7
 10
2381.338111553413
 20
369.14605321110912
 11
2362.3380683103583
 21
369.14605321110912
  0
LINE
  8
_1-0_
  6
CONTINUOUS
 62
    7
 10
2362.3380683103583
 20
369.14605321110912
 11
2362.3380683103583
 21
368.14606935361184
  0
LINE
  8
_1-0_
  6
CONTINUOUS
 62
    7
 10
2362.3380683103583
 20
368.14606935361184
 11
2381.338111553413
 21
368.14606935361184
  0
LINE
  8
_1-0_
  6
CONTINUOUS
 62
    7
 10
2381.338111553413
 20
368.14606935361184
 11
2381.338111553413
 21
363.64607637913537
  0
LINE
  8
_1-0_
  6
CONTINUOUS
 62
    7
 10
2381.338111553413
 20
363.64607637913537
 11
2324.3381567995521
 21
363.64607637913537
  0
LINE
  8
_1-0_
  6
CONTINUOUS
 62
    7
 10
2324.3381567995521
 20
363.64607637913537
 11
2324.3381567995521
 21
373.64606805749844
  0
LINE
  8
_1-0_
  6
CONTINUOUS
 62
    7
 10
2324.3381567995521
 20
373.64606805749844
 11
2381.338111553413
 21
373.64606805749844
  0
LINE
  8
_1-0_
  6
CONTINUOUS
 62
    7
 10
2381.338111553413
 20
373.64606805749844
 11
2381.338111553413
 21
369.14605321110912
  0
LINE
  8
_1-0_
  6
CONTINUOUS
 62
    7
 10
2312.6370333520599
 20
376.14607144506749
 11
2318.637111472347
 21
376.14607144506749
  0
LINE
  8
_1-0_
  6
CONTINUOUS
 62
    7
 10
2318.637111472347
 20
376.14607144506749
 11
2318.637111472347
 21
361.14607299156631
  0
LINE
  8
_1-0_
  6
CONTINUOUS
 62
    7
 10
2318.637111472347
 20
361.14607299156631
 11
2312.6370333520599
 21
361.14607299156631
  0
LINE
  8
_1-0_
  6
CONTINUOUS
 62
    7
 10
2312.6370333520599
 20
361.14607299156631
 11
2312.6370333520599
 21
376.14607144506749
  0
LINE
  8
_1-0_
  6
CONTINUOUS
 62
    7
 10
2312.6370333520599
 20
364.8960562010069
 11
2318.637111472347
 21
364.8960562010069
  0
LINE
  8
_1-0_
  6
CONTINUOUS
 62
    7
 10
2318.3191813465246
 20
393.63450304421679
 11
2320.3193240368228
 21
393.63450304421679
  0
LINE
  8
_1-0_
  6
CONTINUOUS
 62
    7
 10
2320.3193240368228
 20
393.63450304421679
 11
2320.3193240368228
 21
343.63450090857555
  0
LINE
  8
_1-0_
  6
CONTINUOUS
 62
    7
 10
2320.3193240368228
 20
343.63450090857555
 11
2318.3191813465246
 21
343.63450090857555
  0
LINE
  8
_1-0_
  6
CONTINUOUS
 62
    7
 10
2318.3191813465246
 20
343.63450090857555
 11
2318.3191813465246
 21
393.63450304421679
  0
LINE
  8
_1-0_
  6
CONTINUOUS
 62
    7
 10
54.639275451424396
 20
1714.3298062946803
 11
1654.639256304295
 21
1714.3298062946803
  0
LINE
  8
_1-0_
  6
CONTINUOUS
 62
    7
 10
1654.639256304295
 20
1714.3298062946803
 11
1654.639256304295
 21
1214.3298286820932
  0
LINE
  8
_1-0_
  6
CONTINUOUS
 62
    7
 10
1654.639256304295
 20
1214.3298286820932
 11
54.639275451424396
 21
1214.3298286820932
  0
LINE
  8
_1-0_
  6
CONTINUOUS
 62
    7
 10
54.639275451424396
 20
1214.3298286820932
 11
54.639275451424396
 21
1714.3298062946803
  0
CIRCLE
  8
_1-1_
  6
CONTINUOUS
 62
    7
 10
114.63926926542882
 20
934.49252625689996
 40
7.4999999102478316
  0
CIRCLE
  8
_1-1_
  6
CONTINUOUS
 62
    7
 10
114.63926926542882
 20
869.49252566775749
 40
7.4999999102478316
  0
CIRCLE
  8
_1-1_
  6
CONTINUOUS
 62
    7
 10
604.63927707156608
 20
934.49252625689996
 40
7.4999999102478316
  0
CIRCLE
  8
_1-1_
  6
CONTINUOUS
 62
    7
 10
1104.6392984279794
 20
869.49252566775749
 40
7.4999999102478316
  0
CIRCLE
  8
_1-1_
  6
CONTINUOUS
 62
    7
 10
1594.6393499779424
 20
934.49252625689996
 40
7.4999999102478316
  0
CIRCLE
  8
_1-1_
  6
CONTINUOUS
 62
    7
 10
1594.6393499779424
 20
869.49252566775749
 40
7.4999999102478316
  0
ARC
  8
_1-0_
  6
CONTINUOUS
 62
    7
 10
454.6392925365551
 20
712.73696339728747
 40
339.09091721170194
 50
270
 51
317.49897766113281
  0
ARC
  8
_1-0_
  6
CONTINUOUS
 62
    7
 10
454.6392925365551
 20
712.73696339728747
 40
339.09091721170194
 50
222.50100708007812
 51
270
  0
ARC
  8
_1-0_
  6
CONTINUOUS
 62
    7
 10
435.13925736475176
 20
460.64606346218739
 40
3.0000001007985881
 50
90
 51
270
  0
ARC
  8
_1-0_
  6
CONTINUOUS
 62
    7
 10
474.13928396453258
 20
460.64606346218739
 40
3.0000001007985881
 50
270
 51
90
  0
ARC
  8
_1-0_
  6
CONTINUOUS
 62
    7
 10
1254.6392392191647
 20
712.73696339728747
 40
339.09091721170194
 50
270
 51
317.49897766113281
  0
ARC
  8
_1-0_
  6
CONTINUOUS
 62
    7
 10
1254.6392392191647
 20
712.73696339728747
 40
339.09091721170194
 50
222.50100708007812
 51
270
  0
ARC
  8
_1-0_
  6
CONTINUOUS
 62
    7
 10
1235.1392915350129
 20
460.64606346218739
 40
3.0000001007985881
 50
90
 51
270
  0
ARC
  8
_1-0_
  6
CONTINUOUS
 62
    7
 10
1274.139274390968
 20
460.64606346218739
 40
3.0000001007985881
 50
270
 51
90
  0
ARC
  8
_1-0_
  6
CONTINUOUS
 62
    7
 10
2085.8326456077311
 20
479.09292228433617
 40
117.83738036873717
 50
296.51071166992187
 51
2.2144012451171946
  0
ARC
  8
_1-0_
  6
CONTINUOUS
 62
    7
 10
2064.7089271103555
 20
546.05496469151558
 40
172.36135803134286
 50
201.09390258789065
 51
271.24900817871094
  0
LINE
  8
_1-0_
  6
CONTINUOUS
 62
    7
 10
704.63930321476175
 20
1444.3297903878349
 11
704.63930321476175
 21
1444.3297903878349
  0
LINE
  8
_1-0_
  6
CONTINUOUS
 62
    7
 10
704.63930321476175
 20
1444.3297903878349
 11
700.8412413055878
 21
1470.372676945798
  0
LINE
  8
_1-0_
  6
CONTINUOUS
 62
    7
 10
700.8412413055878
 20
1470.372676945798
 11
689.56245776726416
 21
1495.6242635740339
  0
LINE
  8
_1-0_
  6
CONTINUOUS
 62
    7
 10
689.56245776726416
 20
1495.6242635740339
 11
671.14565273026301
 21
1519.317293590763
  0
LINE
  8
_1-0_
  6
CONTINUOUS
 62
    7
 10
671.14565273026301
 20
1519.317293590763
 11
646.15041149628041
 21
1540.7318662681787
  0
LINE
  8
_1-0_
  6
CONTINUOUS
 62
    7
 10
646.15041149628041
 20
1540.7318662681787
 11
615.33620182200889
 21
1559.2173106517741
  0
LINE
  8
_1-0_
  6
CONTINUOUS
 62
    7
 10
615.33620182200889
 20
1559.2173106517741
 11
579.63929787565849
 21
1574.2119558680401
  0
LINE
  8
_1-0_
  6
CONTINUOUS
 62
    7
 10
579.63929787565849
 20
1574.2119558680401
 11
540.14433202013402
 21
1585.2601972097373
  0
LINE
  8
_1-0_
  6
CONTINUOUS
 62
    7
 10
540.14433202013402
 20
1585.2601972097373
 11
498.05133880753885
 21
1592.0263394543776
  0
LINE
  8
_1-0_
  6
CONTINUOUS
 62
    7
 10
498.05133880753885
 20
1592.0263394543776
 11
454.6392925365551
 21
1594.3047967936911
  0
LINE
  8
_1-0_
  6
CONTINUOUS
 62
    7
 10
454.6392925365551
 20
1594.3047967936911
 11
411.22724626557141
 21
1592.0263394543776
  0
LINE
  8
_1-0_
  6
CONTINUOUS
 62
    7
 10
411.22724626557141
 20
1592.0263394543776
 11
369.13425305297619
 21
1585.2601972097373
  0
LINE
  8
_1-0_
  6
CONTINUOUS
 62
    7
 10
369.13425305297619
 20
1585.2601972097373
 11
329.63928719745184
 21
1574.2119558680404
  0
LINE
  8
_1-0_
  6
CONTINUOUS
 62
    7
 10
329.63928719745184
 20
1574.2119558680404
 11
293.94238325110143
 21
1559.2173106517741
  0
LINE
  8
_1-0_
  6
CONTINUOUS
 62
    7
 10
293.94238325110143
 20
1559.2173106517741
 11
263.12817357682985
 21
1540.7318662681787
  0
LINE
  8
_1-0_
  6
CONTINUOUS
 62
    7
 10
263.12817357682985
 20
1540.7318662681787
 11
238.13293234284734
 21
1519.317293590763
  0
LINE
  8
_1-0_
  6
CONTINUOUS
 62
    7
 10
238.13293234284734
 20
1519.317293590763
 11
219.71612730584613
 21
1495.6242635740341
  0
LINE
  8
_1-0_
  6
CONTINUOUS
 62
    7
 10
219.71612730584613
 20
1495.6242635740341
 11
208.43734376752249
 21
1470.3726769457983
  0
LINE
  8
_1-0_
  6
CONTINUOUS
 62
    7
 10
208.43734376752249
 20
1470.3726769457983
 11
204.63928185834848
 21
1444.3297903878351
  0
LINE
  8
_1-0_
  6
CONTINUOUS
 62
    7
 10
204.63928185834848
 20
1444.3297903878351
 11
208.43734376752235
 21
1418.286903829872
  0
LINE
  8
_1-0_
  6
CONTINUOUS
 62
    7
 10
208.43734376752235
 20
1418.286903829872
 11
219.7161273058459
 21
1393.0353172016362
  0
LINE
  8
_1-0_
  6
CONTINUOUS
 62
    7
 10
219.7161273058459
 20
1393.0353172016362
 11
238.13293234284697
 21
1369.342287184907
  0
LINE
  8
_1-0_
  6
CONTINUOUS
 62
    7
 10
238.13293234284697
 20
1369.342287184907
 11
263.1281735768294
 21
1347.9277145074914
  0
LINE
  8
_1-0_
  6
CONTINUOUS
 62
    7
 10
263.1281735768294
 20
1347.9277145074914
 11
293.94238325110098
 21
1329.4422701238959
  0
LINE
  8
_1-0_
  6
CONTINUOUS
 62
    7
 10
293.94238325110098
 20
1329.4422701238959
 11
329.63928719745132
 21
1314.4476249076297
  0
LINE
  8
_1-0_
  6
CONTINUOUS
 62
    7
 10
329.63928719745132
 20
1314.4476249076297
 11
369.13425305297557
 21
1303.3993835659326
  0
LINE
  8
_1-0_
  6
CONTINUOUS
 62
    7
 10
369.13425305297557
 20
1303.3993835659326
 11
411.22724626557073
 21
1296.6332413212922
  0
LINE
  8
_1-0_
  6
CONTINUOUS
 62
    7
 10
411.22724626557073
 20
1296.6332413212922
 11
454.63929253655436
 21
1294.3547839819787
  0
LINE
  8
_1-0_
  6
CONTINUOUS
 62
    7
 10
454.63929253655436
 20
1294.3547839819787
 11
498.05133880753806
 21
1296.6332413212922
  0
LINE
  8
_1-0_
  6
CONTINUOUS
 62
    7
 10
498.05133880753806
 20
1296.6332413212922
 11
540.14433202013333
 21
1303.3993835659323
  0
LINE
  8
_1-0_
  6
CONTINUOUS
 62
    7
 10
540.14433202013333
 20
1303.3993835659323
 11
579.63929787565769
 21
1314.4476249076292
  0
LINE
  8
_1-0_
  6
CONTINUOUS
 62
    7
 10
579.63929787565769
 20
1314.4476249076292
 11
615.33620182200809
 21
1329.4422701238952
  0
LINE
  8
_1-0_
  6
CONTINUOUS
 62
    7
 10
615.33620182200809
 20
1329.4422701238952
 11
646.15041149627984
 21
1347.9277145074907
  0
LINE
  8
_1-0_
  6
CONTINUOUS
 62
    7
 10
646.15041149627984
 20
1347.9277145074907
 11
671.14565273026244
 21
1369.3422871849064
  0
LINE
  8
_1-0_
  6
CONTINUOUS
 62
    7
 10
671.14565273026244
 20
1369.3422871849064
 11
689.56245776726382
 21
1393.0353172016353
  0
LINE
  8
_1-0_
  6
CONTINUOUS
 62
    7
 10
689.56245776726382
 20
1393.0353172016353
 11
700.84124130558757
 21
1418.2869038298711
  0
LINE
  8
_1-0_
  6
CONTINUOUS
 62
    7
 10
700.84124130558757
 20
1418.2869038298711
 11
704.63930321476175
 21
1444.3297903878342
  0
LINE
  8
_1-0_
  6
CONTINUOUS
 62
    7
 10
704.63930321476175
 20
1444.3297903878342
 11
704.63930321476175
 21
1444.3297903878349
  0
CIRCLE
  8
_1-0_
  6
CONTINUOUS
 62
    7
 10
1254.6392392191647
 20
1494.3298581392148
 40
37.49999886774188
  0
CIRCLE
  8
_1-0_
  6
CONTINUOUS
 62
    7
 10
1254.6392392191647
 20
1494.3298581392148
 40
22.500000414240773
  0
CIRCLE
  8
_1-0_
  6
CONTINUOUS
 62
    7
 10
454.6392925365551
 20
1494.3298581392148
 40
37.49999886774188
  0
CIRCLE
  8
_1-0_
  6
CONTINUOUS
 62
    7
 10
454.6392925365551
 20
1494.3298581392148
 40
22.500000414240773
  0
LINE
  8
_1-0_
  6
CONTINUOUS
 62
    7
 10
1504.6392498973712
 20
1444.3297903878349
 11
1504.6392498973712
 21
1444.3297903878349
  0
LINE
  8
_1-0_
  6
CONTINUOUS
 62
    7
 10
1504.6392498973712
 20
1444.3297903878349
 11
1500.8411879881974
 21
1470.372676945798
  0
LINE
  8
_1-0_
  6
CONTINUOUS
 62
    7
 10
1500.8411879881974
 20
1470.372676945798
 11
1489.5624044498736
 21
1495.6242635740339
  0
LINE
  8
_1-0_
  6
CONTINUOUS
 62
    7
 10
1489.5624044498736
 20
1495.6242635740339
 11
1471.1455994128726
 21
1519.317293590763
  0
LINE
  8
_1-0_
  6
CONTINUOUS
 62
    7
 10
1471.1455994128726
 20
1519.317293590763
 11
1446.15035817889
 21
1540.7318662681787
  0
LINE
  8
_1-0_
  6
CONTINUOUS
 62
    7
 10
1446.15035817889
 20
1540.7318662681787
 11
1415.3361485046184
 21
1559.2173106517741
  0
LINE
  8
_1-0_
  6
CONTINUOUS
 62
    7
 10
1415.3361485046184
 20
1559.2173106517741
 11
1379.639244558268
 21
1574.2119558680401
  0
LINE
  8
_1-0_
  6
CONTINUOUS
 62
    7
 10
1379.639244558268
 20
1574.2119558680401
 11
1340.1442787027436
 21
1585.2601972097373
  0
LINE
  8
_1-0_
  6
CONTINUOUS
 62
    7
 10
1340.1442787027436
 20
1585.2601972097373
 11
1298.0512854901483
 21
1592.0263394543776
  0
LINE
  8
_1-0_
  6
CONTINUOUS
 62
    7
 10
1298.0512854901483
 20
1592.0263394543776
 11
1254.6392392191647
 21
1594.3047967936911
  0
LINE
  8
_1-0_
  6
CONTINUOUS
 62
    7
 10
1254.6392392191647
 20
1594.3047967936911
 11
1211.227192948181
 21
1592.0263394543776
  0
LINE
  8
_1-0_
  6
CONTINUOUS
 62
    7
 10
1211.227192948181
 20
1592.0263394543776
 11
1169.1341997355858
 21
1585.2601972097373
  0
LINE
  8
_1-0_
  6
CONTINUOUS
 62
    7
 10
1169.1341997355858
 20
1585.2601972097373
 11
1129.6392338800615
 21
1574.2119558680404
  0
LINE
  8
_1-0_
  6
CONTINUOUS
 62
    7
 10
1129.6392338800615
 20
1574.2119558680404
 11
1093.9423299337109
 21
1559.2173106517741
  0
LINE
  8
_1-0_
  6
CONTINUOUS
 62
    7
 10
1093.9423299337109
 20
1559.2173106517741
 11
1063.1281202594394
 21
1540.7318662681787
  0
LINE
  8
_1-0_
  6
CONTINUOUS
 62
    7
 10
1063.1281202594394
 20
1540.7318662681787
 11
1038.132879025457
 21
1519.317293590763
  0
LINE
  8
_1-0_
  6
CONTINUOUS
 62
    7
 10
1038.132879025457
 20
1519.317293590763
 11
1019.7160739884557
 21
1495.6242635740341
  0
LINE
  8
_1-0_
  6
CONTINUOUS
 62
    7
 10
1019.7160739884557
 20
1495.6242635740341
 11
1008.4372904501321
 21
1470.3726769457983
  0
LINE
  8
_1-0_
  6
CONTINUOUS
 62
    7
 10
1008.4372904501321
 20
1470.3726769457983
 11
1004.639228540958
 21
1444.3297903878351
  0
LINE
  8
_1-0_
  6
CONTINUOUS
 62
    7
 10
1004.639228540958
 20
1444.3297903878351
 11
1008.437290450132
 21
1418.286903829872
  0
LINE
  8
_1-0_
  6
CONTINUOUS
 62
    7
 10
1008.437290450132
 20
1418.286903829872
 11
1019.7160739884555
 21
1393.0353172016362
  0
LINE
  8
_1-0_
  6
CONTINUOUS
 62
    7
 10
1019.7160739884555
 20
1393.0353172016362
 11
1038.1328790254565
 21
1369.342287184907
  0
LINE
  8
_1-0_
  6
CONTINUOUS
 62
    7
 10
1038.1328790254565
 20
1369.342287184907
 11
1063.1281202594389
 21
1347.9277145074914
  0
LINE
  8
_1-0_
  6
CONTINUOUS
 62
    7
 10
1063.1281202594389
 20
1347.9277145074914
 11
1093.9423299337104
 21
1329.4422701238959
  0
LINE
  8
_1-0_
  6
CONTINUOUS
 62
    7
 10
1093.9423299337104
 20
1329.4422701238959
 11
1129.6392338800608
 21
1314.4476249076297
  0
LINE
  8
_1-0_
  6
CONTINUOUS
 62
    7
 10
1129.6392338800608
 20
1314.4476249076297
 11
1169.1341997355851
 21
1303.3993835659326
  0
LINE
  8
_1-0_
  6
CONTINUOUS
 62
    7
 10
1169.1341997355851
 20
1303.3993835659326
 11
1211.2271929481803
 21
1296.6332413212922
  0
LINE
  8
_1-0_
  6
CONTINUOUS
 62
    7
 10
1211.2271929481803
 20
1296.6332413212922
 11
1254.639239219164
 21
1294.3547839819787
  0
LINE
  8
_1-0_
  6
CONTINUOUS
 62
    7
 10
1254.639239219164
 20
1294.3547839819787
 11
1298.0512854901476
 21
1296.6332413212922
  0
LINE
  8
_1-0_
  6
CONTINUOUS
 62
    7
 10
1298.0512854901476
 20
1296.6332413212922
 11
1340.1442787027429
 21
1303.3993835659323
  0
LINE
  8
_1-0_
  6
CONTINUOUS
 62
    7
 10
1340.1442787027429
 20
1303.3993835659323
 11
1379.6392445582671
 21
1314.4476249076292
  0
LINE
  8
_1-0_
  6
CONTINUOUS
 62
    7
 10
1379.6392445582671
 20
1314.4476249076292
 11
1415.3361485046178
 21
1329.4422701238952
  0
LINE
  8
_1-0_
  6
CONTINUOUS
 62
    7
 10
1415.3361485046178
 20
1329.4422701238952
 11
1446.1503581788893
 21
1347.9277145074907
  0
LINE
  8
_1-0_
  6
CONTINUOUS
 62
    7
 10
1446.1503581788893
 20
1347.9277145074907
 11
1471.1455994128719
 21
1369.3422871849064
  0
LINE
  8
_1-0_
  6
CONTINUOUS
 62
    7
 10
1471.1455994128719
 20
1369.3422871849064
 11
1489.5624044498734
 21
1393.0353172016353
  0
LINE
  8
_1-0_
  6
CONTINUOUS
 62
    7
 10
1489.5624044498734
 20
1393.0353172016353
 11
1500.8411879881971
 21
1418.2869038298711
  0
LINE
  8
_1-0_
  6
CONTINUOUS
 62
    7
 10
1500.8411879881971
 20
1418.2869038298711
 11
1504.6392498973712
 21
1444.3297903878342
  0
LINE
  8
_1-0_
  6
CONTINUOUS
 62
    7
 10
1504.6392498973712
 20
1444.3297903878342
 11
1504.6392498973712
 21
1444.3297903878349
  0
TEXT
  8
_0-0_
 62
    6
 10
2137.8868114810193
 20
1809.6084082172642
 40
100
 41
1
 50
0
  1
 B3-F1601_
  0
ENDSEC
  0
EOF
