  0
SECTION
  2
HEADER
  9
$ACADVER
  1
AC1009
  9
$INSBASE
 10
0
 20
0
 30
0
  9
$EXTMIN
 10
0
 20
0
  9
$EXTMAX
 10
2970
 20
2100
  9
$LIMMIN
 10
0
 20
0
  9
$LIMMAX
 10
2970
 20
2100
  9
$LTSCALE
 40
10
  0
ENDSEC
  0
SECTION
  2
TABLES
  0
TABLE
  2
LTYPE
 70
     9
  0
LTYPE
  2
CONTINUOUS
 70
    64
  3
実線
 72
    65
 73
     0
 40
0.0
  0
LTYPE
  2
DASHED1
 70
    64
  3
--  --  --  --  --  --  --  --  
 72
    65
 73
     2
 40
2.5
 49
1.25
 49
-1.25
  0
LTYPE
  2
DASHED2
 70
    64
  3
----    ----    ----    ----    
 72
    65
 73
     2
 40
5.0
 49
2.5
 49
-2.5
  0
LTYPE
  2
DASHED3
 70
    64
  3
------  ------  ------  ------  
 72
    65
 73
     2
 40
5.0
 49
3.75
 49
-1.25
  0
LTYPE
  2
CENTER1
 70
    64
  3
----- - ----- - ----- - ----- - 
 72
    65
 73
     4
 40
10.0
 49
6.25
 49
-1.25
 49
1.25
 49
-1.25
  0
LTYPE
  2
CENTER2
 70
    64
  3
----------  --  ----------  --  
 72
    65
 73
     4
 40
20.0
 49
12.5
 49
-2.5
 49
2.5
 49
-2.5
  0
LTYPE
  2
PHANTOM1
 70
    64
  3
--- - - --- - - --- - - --- - - 
 72
    65
 73
     6
 40
10.0
 49
3.25
 49
-1.25
 49
1.25
 49
-1.25
 49
1.25
 49
-1.25
  0
LTYPE
  2
PHANTOM2
 70
    64
  3
--------  -  -  --------  -  -  
 72
    65
 73
     6
 40
20.0
 49
10.0
 49
-2.5
 49
1.25
 49
-2.5
 49
1.25
 49
-2.5
  0
LTYPE
  2
DOT
 70
    64
  3
-   -   -   -   -   -   -   -   
 72
    65
 73
     2
 40
2.5
 49
0.625
 49
-1.875
  0
LTYPE
  2
DUMMY
 70
    64
  3
ダミー
 72
    65
 73
     0
 40
0.0
  0
LTYPE
  2
RAND1
 70
    64
  3
ランダム線1
 72
    65
 73
     4
 40
10.0
 49
1.0
 49
-2.0
 49
3.0
 49
-4.0
  0
LTYPE
  2
RAND2
 70
    64
  3
ランダム線2
 72
    65
 73
     4
 40
14.0
 49
2.0
 49
-3.0
 49
4.0
 49
-5.0
  0
LTYPE
  2
RAND3
 70
    64
  3
ランダム線3
 72
    65
 73
     4
 40
18.0
 49
3.0
 49
-4.0
 49
5.0
 49
-6.0
  0
LTYPE
  2
RAND4
 70
    64
  3
ランダム線4
 72
    65
 73
     4
 40
22.0
 49
4.0
 49
-5.0
 49
6.0
 49
-7.0
  0
LTYPE
  2
RAND5
 70
    64
  3
ランダム線5
 72
    65
 73
     4
 40
26.0
 49
5.0
 49
-6.0
 49
7.0
 49
-8.0
  0
LTYPE
  2
LONG1
 70
    64
  3
----------  --  ----------  --  
 72
    65
 73
     4
 40
40.0
 49
32.5
 49
-2.5
 49
2.5
 49
-2.5
  0
LTYPE
  2
LONG2
 70
    64
  3
--------  -  -  --------  -  -  
 72
    65
 73
     6
 40
40.0
 49
30.0
 49
-2.5
 49
1.25
 49
-2.5
 49
1.25
 49
-2.5
  0
LTYPE
  2
LONG3
 70
    64
  3
+++++++++++++++..+++++++++++++++
 72
    65
 73
     2
 40
40.0
 49
37.5
 49
-2.5
  0
LTYPE
  2
LONG4
 70
    64
  3
+++++++++++++++..+++++++++++++++
 72
    65
 73
     2
 40
80.0
 49
75.0
 49
-5.0
  0
LTYPE
  2
LONG5
 70
    64
  3
----------  --  ----------  --  
 72
    65
 73
     4
 40
60.0
 49
37.5
 49
-7.5
 49
7.5
 49
-7.5
  0
LTYPE
  2
dashed
 70
   64
  3
-------   -------------   ------
 72
   65
 73
    2
 40
7.5
 49
6
 49
-1.5
  0
LTYPE
  2
dashed_spaced
 70
   64
  3
----        --------        ----
 72
   65
 73
    2
 40
12
 49
6
 49
-6
  0
LTYPE
  2
long_dashed_dotted
 70
   64
  3
------------- --- --------------
 72
   65
 73
    4
 40
15.25
 49
12
 49
-1.5
 49
0.25
 49
-1.5
  0
LTYPE
  2
long_dashed_double-dotted
 70
   64
  3
----------- --- --- ------------
 72
   65
 73
    6
 40
17
 49
12
 49
-1.5
 49
0.25
 49
-1.5
 49
0.25
 49
-1.5
  0
LTYPE
  2
long_dashed_triplicate-dotted
 70
   64
  3
--------- --- --- --- ----------
 72
   65
 73
    8
 40
18.75
 49
12
 49
-1.5
 49
0.25
 49
-1.5
 49
0.25
 49
-1.5
 49
0.25
 49
-1.5
  0
LTYPE
  2
dotted
 70
   64
  3
   -       -       -       -    
 72
   65
 73
    2
 40
1.75
 49
0.25
 49
-1.5
  0
LTYPE
  2
chain
 70
   64
  3
-------------- -- --------------
 72
   65
 73
    4
 40
18.5
 49
12
 49
-1.5
 49
3.5
 49
-1.5
  0
LTYPE
  2
chain_double_dash
 70
   64
  3
------------ -- -- -------------
 72
   65
 73
    6
 40
23.5
 49
12
 49
-1.5
 49
3.5
 49
-1.5
 49
3.5
 49
-1.5
  0
LTYPE
  2
dashed_dotted
 70
   64
  3
-----------     -     ----------
 72
   65
 73
    4
 40
9.25
 49
6
 49
-1.5
 49
0.25
 49
-1.5
  0
LTYPE
  2
double-dashed_dotted
 70
   64
  3
------   -----------   -   -----
 72
   65
 73
    6
 40
16.75
 49
6
 49
-1.5
 49
6
 49
-1.5
 49
0.25
 49
-1.5
  0
LTYPE
  2
dashed_double-dotted
 70
   64
  3
---------    -    -    ---------
 72
   65
 73
    6
 40
11
 49
6
 49
-1.5
 49
0.25
 49
-1.5
 49
0.25
 49
-1.5
  0
LTYPE
  2
double-dashed_double-dotted
 70
   64
  3
-----   ---------   -   -   ----
 72
   65
 73
    8
 40
18.5
 49
6
 49
-1.5
 49
6
 49
-1.5
 49
0.25
 49
-1.5
 49
0.25
 49
-1.5
  0
LTYPE
  2
dashed_triplicate-dotted
 70
   64
  3
-------    -    -    -    ------
 72
   65
 73
    8
 40
12.75
 49
6
 49
-1.5
 49
0.25
 49
-1.5
 49
0.25
 49
-1.5
 49
0.25
 49
-1.5
  0
LTYPE
  2
double-dashed_triplicate-dotted
 70
   64
  3
-----  ---------  -  -  -  -----
 72
   65
 73
   10
 40
20.25
 49
6
 49
-1.5
 49
6
 49
-1.5
 49
0.25
 49
-1.5
 49
0.25
 49
-1.5
 49
0.25
 49
-1.5
  0
LTYPE
  2
undefined
 70
   64
  3
--------------------------------
 72
   65
 73
    0
 40
0
  0
LTYPE
  2
_
 70
   64
  3
                                
 72
   65
 73
    0
 40
0
  0
LTYPE
  2
__18
 70
   64
  3
                                
 72
   65
 73
    0
 40
0
  0
LTYPE
  2
__19
 70
   64
  3
                                
 72
   65
 73
    0
 40
0
  0
LTYPE
  2
__20
 70
   64
  3
                                
 72
   65
 73
    0
 40
0
  0
LTYPE
  2
__21
 70
   64
  3
                                
 72
   65
 73
    0
 40
0
  0
LTYPE
  2
__22
 70
   64
  3
                                
 72
   65
 73
    0
 40
0
  0
LTYPE
  2
__23
 70
   64
  3
                                
 72
   65
 73
    0
 40
0
  0
LTYPE
  2
__24
 70
   64
  3
                                
 72
   65
 73
    0
 40
0
  0
LTYPE
  2
__25
 70
   64
  3
                                
 72
   65
 73
    0
 40
0
  0
LTYPE
  2
__26
 70
   64
  3
                                
 72
   65
 73
    0
 40
0
  0
LTYPE
  2
__27
 70
   64
  3
                                
 72
   65
 73
    0
 40
0
  0
LTYPE
  2
__28
 70
   64
  3
                                
 72
   65
 73
    0
 40
0
  0
LTYPE
  2
__29
 70
   64
  3
                                
 72
   65
 73
    0
 40
0
  0
LTYPE
  2
__30
 70
   64
  3
                                
 72
   65
 73
    0
 40
0
  0
LTYPE
  2
__31
 70
   64
  3
                                
 72
   65
 73
    0
 40
0
  0
LTYPE
  2
__32
 70
   64
  3
                                
 72
   65
 73
    0
 40
0
  0
ENDTAB
  0
TABLE
  2
STYLE
  5
3
100
AcDbSymbolTable
 70
     1
  0
STYLE
  5
10
100
AcDbSymbolTableRecord
100
AcDbTextStyleTableRecord
  2
STANDARD
 70
     0
 40
0.0
 41
1.0
 50
0.0
 71
     0
 42
0.2
  3
txt
  4
bigfont.shx
  0
STYLE
  5
26
100
AcDbSymbolTableRecord
100
AcDbTextStyleTableRecord
  2
TATEGAKI
 70
    68
 40
0.0
 41
1.0
 50
0.0
 71
     0
 42
1.0
  3
txt
  4
bigfont.shx
  0
ENDTAB
  0
TABLE
  2
LAYER
 70
    3
  0
LAYER
  2
_0-0_
 70
   64
 62
    7
  6
CONTINUOUS
  0
LAYER
  2
_1-0_
 70
   64
 62
    7
  6
CONTINUOUS
  0
LAYER
  2
ADD_LINE
 70
   64
 62
    7
  6
CONTINUOUS
  0
ENDTAB
  0
ENDSEC
  0
SECTION
  2
BLOCKS
  0
ENDSEC
  0
SECTION
  2
ENTITIES
  0
LINE
  8
_1-0_
  6
CONTINUOUS
 62
    7
 10
343.90652188923366
 20
1733.4957261251204
 11
1138.9065492843567
 21
1733.4957261251204
  0
LINE
  8
_1-0_
  6
CONTINUOUS
 62
    7
 10
1138.9065492843567
 20
1733.4957261251204
 11
1138.9065492843567
 21
1238.4956678000194
  0
LINE
  8
_1-0_
  6
CONTINUOUS
 62
    7
 10
1138.9065492843567
 20
1238.4956678000194
 11
343.90652188923366
 21
1238.4956678000194
  0
LINE
  8
_1-0_
  6
CONTINUOUS
 62
    7
 10
343.90652188923366
 20
1238.4956678000194
 11
343.90652188923366
 21
1733.4957261251204
  0
LINE
  8
_1-0_
  6
CONTINUOUS
 62
    7
 10
358.33244824501537
 20
1625.7557330628617
 11
1123.3324349893105
 21
1625.7557330628617
  0
LINE
  8
_1-0_
  6
CONTINUOUS
 62
    7
 10
1123.3324349893105
 20
1625.7557330628617
 11
1123.3324349893105
 21
1253.7557014259132
  0
LINE
  8
_1-0_
  6
CONTINUOUS
 62
    7
 10
1123.3324349893105
 20
1253.7557014259132
 11
358.33244824501537
 21
1253.7557014259132
  0
LINE
  8
_1-0_
  6
CONTINUOUS
 62
    7
 10
358.33244824501537
 20
1253.7557014259132
 11
358.33244824501537
 21
1625.7557330628617
  0
LINE
  8
_1-0_
  6
CONTINUOUS
 62
    7
 10
361.00001235726256
 20
1625.7564329640743
 11
361.00001235726256
 21
1625.7562579887713
  0
LINE
  8
_1-0_
  6
CONTINUOUS
 62
    7
 10
361.00001235726256
 20
1625.7562579887713
 11
361.00001235726256
 21
1625.7560830134682
  0
LINE
  8
_1-0_
  6
CONTINUOUS
 62
    7
 10
361.00001235726256
 20
1625.7560830134682
 11
361.00001235726256
 21
1625.7559080381652
  0
LINE
  8
_1-0_
  6
CONTINUOUS
 62
    7
 10
361.00001235726256
 20
1625.7559080381652
 11
360.99999048534971
 21
1625.7559080381652
  0
LINE
  8
_1-0_
  6
CONTINUOUS
 62
    7
 10
360.99999048534971
 20
1625.7559080381652
 11
360.99999048534971
 21
1625.7557330628617
  0
LINE
  8
_1-0_
  6
CONTINUOUS
 62
    7
 10
360.99999048534971
 20
1625.7557330628617
 11
361.7954719572914
 21
1625.5896815001734
  0
LINE
  8
_1-0_
  6
CONTINUOUS
 62
    7
 10
361.7954719572914
 20
1625.5896815001734
 11
364.18189450120366
 21
1625.4264295423352
  0
LINE
  8
_1-0_
  6
CONTINUOUS
 62
    7
 10
364.18189450120366
 20
1625.4264295423352
 11
368.15927998899951
 21
1625.2659771893473
  0
LINE
  8
_1-0_
  6
CONTINUOUS
 62
    7
 10
368.15927998899951
 20
1625.2659771893473
 11
373.72760654876583
 21
1625.10832444121
  0
LINE
  8
_1-0_
  6
CONTINUOUS
 62
    7
 10
373.72760654876583
 20
1625.10832444121
 11
380.88685230858999
 21
1624.9534712979232
  0
LINE
  8
_1-0_
  6
CONTINUOUS
 62
    7
 10
380.88685230858999
 20
1624.9534712979232
 11
389.63706101229747
 21
1624.8014177594864
  0
LINE
  8
_1-0_
  6
CONTINUOUS
 62
    7
 10
389.63706101229747
 20
1624.8014177594864
 11
399.97823265988842
 21
1624.6521638259003
  0
LINE
  8
_1-0_
  6
CONTINUOUS
 62
    7
 10
399.97823265988842
 20
1624.6521638259003
 11
411.91036725136303
 21
1624.5057094971644
  0
LINE
  8
_1-0_
  6
CONTINUOUS
 62
    7
 10
411.91036725136303
 20
1624.5057094971644
 11
425.2202573798337
 21
1624.3645044275231
  0
LINE
  8
_1-0_
  6
CONTINUOUS
 62
    7
 10
425.2202573798337
 20
1624.3645044275231
 11
439.69482686989096
 21
1624.2309982712204
  0
LINE
  8
_1-0_
  6
CONTINUOUS
 62
    7
 10
439.69482686989096
 20
1624.2309982712204
 11
455.33407572153453
 21
1624.105016052953
  0
LINE
  8
_1-0_
  6
CONTINUOUS
 62
    7
 10
455.33407572153453
 20
1624.105016052953
 11
472.13791644711279
 21
1623.9869077233275
  0
LINE
  8
_1-0_
  6
CONTINUOUS
 62
    7
 10
472.13791644711279
 20
1623.9869077233275
 11
490.1064802781035
 21
1623.8763233317372
  0
LINE
  8
_1-0_
  6
CONTINUOUS
 62
    7
 10
490.1064802781035
 20
1623.8763233317372
 11
509.2396359830289
 21
1623.7734378534853
  0
LINE
  8
_1-0_
  6
CONTINUOUS
 62
    7
 10
509.2396359830289
 20
1623.7734378534853
 11
529.53751479336665
 21
1623.6782512885723
  0
LINE
  8
_1-0_
  6
CONTINUOUS
 62
    7
 10
529.53751479336665
 20
1623.6782512885723
 11
550.99998547763903
 21
1623.5905886616945
  0
LINE
  8
_1-0_
  6
CONTINUOUS
 62
    7
 10
550.99998547763903
 20
1623.5905886616945
 11
573.2579813776789
 21
1623.5121997258839
  0
LINE
  8
_1-0_
  6
CONTINUOUS
 62
    7
 10
573.2579813776789
 20
1623.5121997258839
 11
595.94226086001595
 21
1623.4441343329586
  0
LINE
  8
_1-0_
  6
CONTINUOUS
 62
    7
 10
595.94226086001595
 20
1623.4441343329586
 11
619.05278018082424
 21
1623.3865674582228
  0
LINE
  8
_1-0_
  6
CONTINUOUS
 62
    7
 10
619.05278018082424
 20
1623.3865674582228
 11
642.58967057158111
 21
1623.3394991016755
  0
LINE
  8
_1-0_
  6
CONTINUOUS
 62
    7
 10
642.58967057158111
 20
1623.3394991016755
 11
666.55280080080945
 21
1623.3027542880143
  0
LINE
  8
_1-0_
  6
CONTINUOUS
 62
    7
 10
666.55280080080945
 20
1623.3027542880143
 11
690.94225835616055
 21
1623.2766829678451
  0
LINE
  8
_1-0_
  6
CONTINUOUS
 62
    7
 10
690.94225835616055
 20
1623.2766829678451
 11
715.75795574998301
 21
1623.2609351905614
  0
LINE
  8
_1-0_
  6
CONTINUOUS
 62
    7
 10
715.75795574998301
 20
1623.2609351905614
 11
741.00002421375405
 21
1623.255685931467
  0
LINE
  8
_1-0_
  6
CONTINUOUS
 62
    7
 10
741.00002421375405
 20
1623.255685931467
 11
766.24204893369915
 21
1623.2609351905614
  0
LINE
  8
_1-0_
  6
CONTINUOUS
 62
    7
 10
766.24204893369915
 20
1623.2609351905614
 11
791.05774632752173
 21
1623.2766829678451
  0
LINE
  8
_1-0_
  6
CONTINUOUS
 62
    7
 10
791.05774632752173
 20
1623.2766829678451
 11
815.44720388287271
 21
1623.3027542880143
  0
LINE
  8
_1-0_
  6
CONTINUOUS
 62
    7
 10
815.44720388287271
 20
1623.3027542880143
 11
839.41033411210105
 21
1623.3394991016755
  0
LINE
  8
_1-0_
  6
CONTINUOUS
 62
    7
 10
839.41033411210105
 20
1623.3394991016755
 11
862.94722450285803
 21
1623.3865674582228
  0
LINE
  8
_1-0_
  6
CONTINUOUS
 62
    7
 10
862.94722450285803
 20
1623.3865674582228
 11
886.05778756749214
 21
1623.4441343329586
  0
LINE
  8
_1-0_
  6
CONTINUOUS
 62
    7
 10
886.05778756749214
 20
1623.4441343329586
 11
908.74202330600338
 21
1623.5121997258839
  0
LINE
  8
_1-0_
  6
CONTINUOUS
 62
    7
 10
908.74202330600338
 20
1623.5121997258839
 11
931.00001920604325
 21
1623.5905886616945
  0
LINE
  8
_1-0_
  6
CONTINUOUS
 62
    7
 10
931.00001920604325
 20
1623.5905886616945
 11
952.46248989031574
 21
1623.6782512885723
  0
LINE
  8
_1-0_
  6
CONTINUOUS
 62
    7
 10
952.46248989031574
 20
1623.6782512885723
 11
972.76032495682762
 21
1623.7734378534853
  0
LINE
  8
_1-0_
  6
CONTINUOUS
 62
    7
 10
972.76032495682762
 20
1623.7734378534853
 11
991.89352440557877
 21
1623.8763233317372
  0
LINE
  8
_1-0_
  6
CONTINUOUS
 62
    7
 10
991.89352440557877
 20
1623.8763233317372
 11
1009.8620882365694
 21
1623.9869077233275
  0
LINE
  8
_1-0_
  6
CONTINUOUS
 62
    7
 10
1009.8620882365694
 20
1623.9869077233275
 11
1026.6659289621477
 21
1624.105016052953
  0
LINE
  8
_1-0_
  6
CONTINUOUS
 62
    7
 10
1026.6659289621477
 20
1624.105016052953
 11
1042.3051340699656
 21
1624.2309982712204
  0
LINE
  8
_1-0_
  6
CONTINUOUS
 62
    7
 10
1042.3051340699656
 20
1624.2309982712204
 11
1056.7797035600229
 21
1624.3645044275231
  0
LINE
  8
_1-0_
  6
CONTINUOUS
 62
    7
 10
1056.7797035600229
 20
1624.3645044275231
 11
1070.0896374323193
 21
1624.5057094971644
  0
LINE
  8
_1-0_
  6
CONTINUOUS
 62
    7
 10
1070.0896374323193
 20
1624.5057094971644
 11
1082.0217282799679
 21
1624.6521638259003
  0
LINE
  8
_1-0_
  6
CONTINUOUS
 62
    7
 10
1082.0217282799679
 20
1624.6521638259003
 11
1092.3629436713848
 21
1624.8014177594864
  0
LINE
  8
_1-0_
  6
CONTINUOUS
 62
    7
 10
1092.3629436713848
 20
1624.8014177594864
 11
1101.1131086312664
 21
1624.9534712979232
  0
LINE
  8
_1-0_
  6
CONTINUOUS
 62
    7
 10
1101.1131086312664
 20
1624.9534712979232
 11
1108.2723981349163
 21
1625.10832444121
  0
LINE
  8
_1-0_
  6
CONTINUOUS
 62
    7
 10
1108.2723981349163
 20
1625.10832444121
 11
1113.8407246946829
 21
1625.2659771893473
  0
LINE
  8
_1-0_
  6
CONTINUOUS
 62
    7
 10
1113.8407246946829
 20
1625.2659771893473
 11
1117.8180883105656
 21
1625.4264295423352
  0
LINE
  8
_1-0_
  6
CONTINUOUS
 62
    7
 10
1117.8180883105656
 20
1625.4264295423352
 11
1120.204488982565
 21
1625.5896815001734
  0
LINE
  8
_1-0_
  6
CONTINUOUS
 62
    7
 10
1120.204488982565
 20
1625.5896815001734
 11
1121.0000141983326
 21
1625.7557330628617
  0
LINE
  8
_1-0_
  6
CONTINUOUS
 62
    7
 10
1121.0000141983326
 20
1625.7557330628617
 11
1121.0000141983326
 21
1625.7559080381652
  0
LINE
  8
_1-0_
  6
CONTINUOUS
 62
    7
 10
1121.0000141983326
 20
1625.7559080381652
 11
1121.0000141983326
 21
1625.7560830134682
  0
LINE
  8
_1-0_
  6
CONTINUOUS
 62
    7
 10
1121.0000141983326
 20
1253.7553514753067
 11
1121.0000141983326
 21
1253.7554389629584
  0
LINE
  8
_1-0_
  6
CONTINUOUS
 62
    7
 10
1121.0000141983326
 20
1253.7554389629584
 11
1121.0000141983326
 21
1253.75552645061
  0
LINE
  8
_1-0_
  6
CONTINUOUS
 62
    7
 10
1121.0000141983326
 20
1253.75552645061
 11
1121.0000141983326
 21
1253.7556139382616
  0
LINE
  8
_1-0_
  6
CONTINUOUS
 62
    7
 10
1121.0000141983326
 20
1253.7556139382616
 11
1121.0000141983326
 21
1253.7557014259132
  0
LINE
  8
_1-0_
  6
CONTINUOUS
 62
    7
 10
1121.0000141983326
 20
1253.7557014259132
 11
1120.204488982565
 21
1253.9217529886016
  0
LINE
  8
_1-0_
  6
CONTINUOUS
 62
    7
 10
1120.204488982565
 20
1253.9217529886016
 11
1117.8180883105656
 21
1254.0850049464398
  0
LINE
  8
_1-0_
  6
CONTINUOUS
 62
    7
 10
1117.8180883105656
 20
1254.0850049464398
 11
1113.8407246946829
 21
1254.2454572994275
  0
LINE
  8
_1-0_
  6
CONTINUOUS
 62
    7
 10
1113.8407246946829
 20
1254.2454572994275
 11
1108.2723981349163
 21
1254.403110047565
  0
LINE
  8
_1-0_
  6
CONTINUOUS
 62
    7
 10
1108.2723981349163
 20
1254.403110047565
 11
1101.1131086312664
 21
1254.557963190852
  0
LINE
  8
_1-0_
  6
CONTINUOUS
 62
    7
 10
1101.1131086312664
 20
1254.557963190852
 11
1092.3629436713848
 21
1254.7100167292886
  0
LINE
  8
_1-0_
  6
CONTINUOUS
 62
    7
 10
1092.3629436713848
 20
1254.7100167292886
 11
1082.0217282799679
 21
1254.8592706628747
  0
LINE
  8
_1-0_
  6
CONTINUOUS
 62
    7
 10
1082.0217282799679
 20
1254.8592706628747
 11
1070.0896374323193
 21
1255.0057249916106
  0
LINE
  8
_1-0_
  6
CONTINUOUS
 62
    7
 10
1070.0896374323193
 20
1255.0057249916106
 11
1056.7797035600229
 21
1255.1469300612519
  0
LINE
  8
_1-0_
  6
CONTINUOUS
 62
    7
 10
1056.7797035600229
 20
1255.1469300612519
 11
1042.3051340699656
 21
1255.2804362175548
  0
LINE
  8
_1-0_
  6
CONTINUOUS
 62
    7
 10
1042.3051340699656
 20
1255.2804362175548
 11
1026.6659289621477
 21
1255.4063309481705
  0
LINE
  8
_1-0_
  6
CONTINUOUS
 62
    7
 10
1026.6659289621477
 20
1255.4063309481705
 11
1009.8620882365694
 21
1255.5245267654477
  0
LINE
  8
_1-0_
  6
CONTINUOUS
 62
    7
 10
1009.8620882365694
 20
1255.5245267654477
 11
991.89352440557877
 21
1255.635111157038
  0
LINE
  8
_1-0_
  6
CONTINUOUS
 62
    7
 10
991.89352440557877
 20
1255.635111157038
 11
972.76032495682762
 21
1255.7379966352896
  0
LINE
  8
_1-0_
  6
CONTINUOUS
 62
    7
 10
972.76032495682762
 20
1255.7379966352896
 11
952.46248989031574
 21
1255.8331832002027
  0
LINE
  8
_1-0_
  6
CONTINUOUS
 62
    7
 10
952.46248989031574
 20
1255.8331832002027
 11
931.00001920604325
 21
1255.9207583394289
  0
LINE
  8
_1-0_
  6
CONTINUOUS
 62
    7
 10
931.00001920604325
 20
1255.9207583394289
 11
908.74202330600338
 21
1255.9992347628913
  0
LINE
  8
_1-0_
  6
CONTINUOUS
 62
    7
 10
908.74202330600338
 20
1255.9992347628913
 11
886.05778756749214
 21
1256.0673001558164
  0
LINE
  8
_1-0_
  6
CONTINUOUS
 62
    7
 10
886.05778756749214
 20
1256.0673001558164
 11
862.94722450285803
 21
1256.1248670305524
  0
LINE
  8
_1-0_
  6
CONTINUOUS
 62
    7
 10
862.94722450285803
 20
1256.1248670305524
 11
839.41033411210105
 21
1256.1720228747511
  0
LINE
  8
_1-0_
  6
CONTINUOUS
 62
    7
 10
839.41033411210105
 20
1256.1720228747511
 11
815.44720388287271
 21
1256.2085927131093
  0
LINE
  8
_1-0_
  6
CONTINUOUS
 62
    7
 10
815.44720388287271
 20
1256.2085927131093
 11
791.05774632752173
 21
1256.2347515209301
  0
LINE
  8
_1-0_
  6
CONTINUOUS
 62
    7
 10
791.05774632752173
 20
1256.2347515209301
 11
766.24204893369915
 21
1256.2504992982135
  0
LINE
  8
_1-0_
  6
CONTINUOUS
 62
    7
 10
766.24204893369915
 20
1256.2504992982135
 11
741.00002421375405
 21
1256.2557485573079
  0
LINE
  8
_1-0_
  6
CONTINUOUS
 62
    7
 10
741.00002421375405
 20
1256.2557485573079
 11
715.75795574998301
 21
1256.2504992982135
  0
LINE
  8
_1-0_
  6
CONTINUOUS
 62
    7
 10
715.75795574998301
 20
1256.2504992982135
 11
690.94225835616055
 21
1256.2347515209301
  0
LINE
  8
_1-0_
  6
CONTINUOUS
 62
    7
 10
690.94225835616055
 20
1256.2347515209301
 11
666.55280080080945
 21
1256.2085927131093
  0
LINE
  8
_1-0_
  6
CONTINUOUS
 62
    7
 10
666.55280080080945
 20
1256.2085927131093
 11
642.58967057158111
 21
1256.1720228747511
  0
LINE
  8
_1-0_
  6
CONTINUOUS
 62
    7
 10
642.58967057158111
 20
1256.1720228747511
 11
619.05278018082424
 21
1256.1248670305524
  0
LINE
  8
_1-0_
  6
CONTINUOUS
 62
    7
 10
619.05278018082424
 20
1256.1248670305524
 11
595.94226086001595
 21
1256.0673001558164
  0
LINE
  8
_1-0_
  6
CONTINUOUS
 62
    7
 10
595.94226086001595
 20
1256.0673001558164
 11
573.2579813776789
 21
1255.9992347628913
  0
LINE
  8
_1-0_
  6
CONTINUOUS
 62
    7
 10
573.2579813776789
 20
1255.9992347628913
 11
550.99998547763903
 21
1255.9207583394289
  0
LINE
  8
_1-0_
  6
CONTINUOUS
 62
    7
 10
550.99998547763903
 20
1255.9207583394289
 11
529.53751479336665
 21
1255.8331832002027
  0
LINE
  8
_1-0_
  6
CONTINUOUS
 62
    7
 10
529.53751479336665
 20
1255.8331832002027
 11
509.2396359830289
 21
1255.7379966352896
  0
LINE
  8
_1-0_
  6
CONTINUOUS
 62
    7
 10
509.2396359830289
 20
1255.7379966352896
 11
490.1064802781035
 21
1255.635111157038
  0
LINE
  8
_1-0_
  6
CONTINUOUS
 62
    7
 10
490.1064802781035
 20
1255.635111157038
 11
472.13791644711279
 21
1255.5245267654477
  0
LINE
  8
_1-0_
  6
CONTINUOUS
 62
    7
 10
472.13791644711279
 20
1255.5245267654477
 11
455.33407572153453
 21
1255.4063309481705
  0
LINE
  8
_1-0_
  6
CONTINUOUS
 62
    7
 10
455.33407572153453
 20
1255.4063309481705
 11
439.69482686989096
 21
1255.2804362175548
  0
LINE
  8
_1-0_
  6
CONTINUOUS
 62
    7
 10
439.69482686989096
 20
1255.2804362175548
 11
425.2202573798337
 21
1255.1469300612519
  0
LINE
  8
_1-0_
  6
CONTINUOUS
 62
    7
 10
425.2202573798337
 20
1255.1469300612519
 11
411.91036725136303
 21
1255.0057249916106
  0
LINE
  8
_1-0_
  6
CONTINUOUS
 62
    7
 10
411.91036725136303
 20
1255.0057249916106
 11
399.97823265988842
 21
1254.8592706628747
  0
LINE
  8
_1-0_
  6
CONTINUOUS
 62
    7
 10
399.97823265988842
 20
1254.8592706628747
 11
389.63706101229747
 21
1254.7100167292886
  0
LINE
  8
_1-0_
  6
CONTINUOUS
 62
    7
 10
389.63706101229747
 20
1254.7100167292886
 11
380.88685230858999
 21
1254.557963190852
  0
LINE
  8
_1-0_
  6
CONTINUOUS
 62
    7
 10
380.88685230858999
 20
1254.557963190852
 11
373.72760654876583
 21
1254.403110047565
  0
LINE
  8
_1-0_
  6
CONTINUOUS
 62
    7
 10
373.72760654876583
 20
1254.403110047565
 11
368.15927998899951
 21
1254.2454572994275
  0
LINE
  8
_1-0_
  6
CONTINUOUS
 62
    7
 10
368.15927998899951
 20
1254.2454572994275
 11
364.18189450120366
 21
1254.0850049464398
  0
LINE
  8
_1-0_
  6
CONTINUOUS
 62
    7
 10
364.18189450120366
 20
1254.0850049464398
 11
361.7954719572914
 21
1253.9217529886016
  0
LINE
  8
_1-0_
  6
CONTINUOUS
 62
    7
 10
361.7954719572914
 20
1253.9217529886016
 11
360.99999048534971
 21
1253.7557014259132
  0
LINE
  8
_1-0_
  6
CONTINUOUS
 62
    7
 10
360.99999048534971
 20
1253.7557014259132
 11
360.99999048534971
 21
1253.7556139382616
  0
LINE
  8
_1-0_
  6
CONTINUOUS
 62
    7
 10
360.99999048534971
 20
1253.7556139382616
 11
360.99999048534971
 21
1253.75552645061
  0
LINE
  8
_1-0_
  6
CONTINUOUS
 62
    7
 10
360.99999048534971
 20
1253.75552645061
 11
361.00001235726256
 21
1253.7554389629584
  0
LINE
  8
_1-0_
  6
CONTINUOUS
 62
    7
 10
361.00001235726256
 20
1253.7554389629584
 11
361.00001235726256
 21
1253.7553514753067
  0
LINE
  8
_1-0_
  6
CONTINUOUS
 62
    7
 10
361.00001235726256
 20
1253.7553514753067
 11
361.00001235726256
 21
1253.7552639876553
  0
LINE
  8
_1-0_
  6
CONTINUOUS
 62
    7
 10
361.00001235726256
 20
1253.7552639876553
 11
361.00001235726256
 21
1253.7551765000037
  0
LINE
  8
_1-0_
  6
CONTINUOUS
 62
    7
 10
361.00001235726256
 20
1253.7551765000037
 11
361.00001235726256
 21
1253.7550890123521
  0
LINE
  8
_1-0_
  6
CONTINUOUS
 62
    7
 10
1120.7145419912447
 20
1625.7557330628617
 11
1120.7145419912447
 21
1253.7557014259132
  0
LINE
  8
_1-0_
  6
CONTINUOUS
 62
    7
 10
362.01290064336717
 20
1625.7557330628617
 11
362.01290064336717
 21
1253.7557014259132
  0
LINE
  8
_1-0_
  6
CONTINUOUS
 62
    7
 10
345.00000817435136
 20
702.98069044429826
 11
1139.9999699537357
 21
702.98069044429826
  0
LINE
  8
_1-0_
  6
CONTINUOUS
 62
    7
 10
1139.9999699537357
 20
702.98069044429826
 11
1139.9999699537357
 21
602.98068617301556
  0
LINE
  8
_1-0_
  6
CONTINUOUS
 62
    7
 10
1139.9999699537357
 20
602.98068617301556
 11
345.00000817435136
 21
602.98068617301556
  0
LINE
  8
_1-0_
  6
CONTINUOUS
 62
    7
 10
345.00000817435136
 20
602.98068617301556
 11
345.00000817435136
 21
702.98069044429826
  0
LINE
  8
_1-0_
  6
CONTINUOUS
 62
    7
 10
362.98954716980688
 20
688.03421256164779
 11
364.29958726448433
 21
688.03421256164779
  0
LINE
  8
_1-0_
  6
CONTINUOUS
 62
    7
 10
1121.2637019801784
 20
688.03421256164779
 11
1122.0398049372964
 21
688.03421256164779
  0
LINE
  8
_1-0_
  6
CONTINUOUS
 62
    7
 10
1123.9677703150451
 20
702.98069044429826
 11
1122.0398049372964
 21
688.03421256164779
  0
LINE
  8
_1-0_
  6
CONTINUOUS
 62
    7
 10
362.98954716980688
 20
688.03421256164779
 11
360.90156687732826
 21
702.98069044429826
  0
LINE
  8
_1-0_
  6
CONTINUOUS
 62
    7
 10
344.9999863024384
 20
702.02812489395433
 11
345.00000817435136
 21
702.02812489395433
  0
LINE
  8
_1-0_
  6
CONTINUOUS
 62
    7
 10
777.74999964651442
 20
633.20906959445313
 11
799.47405840899489
 21
633.70381226410734
  0
LINE
  8
_1-0_
  6
CONTINUOUS
 62
    7
 10
799.47405840899489
 20
633.70381226410734
 11
820.88526132944469
 21
634.43639011456696
  0
LINE
  8
_1-0_
  6
CONTINUOUS
 62
    7
 10
820.88526132944469
 20
634.43639011456696
 11
841.98352092021207
 21
635.4068031458321
  0
LINE
  8
_1-0_
  6
CONTINUOUS
 62
    7
 10
841.98352092021207
 20
635.4068031458321
 11
862.76892466894901
 21
636.61505135790253
  0
LINE
  8
_1-0_
  6
CONTINUOUS
 62
    7
 10
862.76892466894901
 20
636.61505135790253
 11
883.24138508800377
 21
638.06113475077859
  0
LINE
  8
_1-0_
  6
CONTINUOUS
 62
    7
 10
883.24138508800377
 20
638.06113475077859
 11
903.40098966502762
 21
639.74505332446006
  0
LINE
  8
_1-0_
  6
CONTINUOUS
 62
    7
 10
903.40098966502762
 20
639.74505332446006
 11
923.24765091236952
 21
641.66676333512112
  0
LINE
  8
_1-0_
  6
CONTINUOUS
 62
    7
 10
923.24765091236952
 20
641.66676333512112
 11
942.78145631768075
 21
643.82630852658781
  0
LINE
  8
_1-0_
  6
CONTINUOUS
 62
    7
 10
942.78145631768075
 20
643.82630852658781
 11
965.37356755908388
 21
646.67971828269219
  0
LINE
  8
_1-0_
  6
CONTINUOUS
 62
    7
 10
965.37356755908388
 20
646.67971828269219
 11
986.73971433897259
 21
649.7827740525646
  0
LINE
  8
_1-0_
  6
CONTINUOUS
 62
    7
 10
986.73971433897259
 20
649.7827740525646
 11
1006.8798966573472
 21
653.13556332385679
  0
LINE
  8
_1-0_
  6
CONTINUOUS
 62
    7
 10
1006.8798966573472
 20
653.13556332385679
 11
1025.7942020018588
 21
656.73799860891688
  0
LINE
  8
_1-0_
  6
CONTINUOUS
 62
    7
 10
1025.7942020018588
 20
656.73799860891688
 11
1043.4824553972046
 21
660.59007990774501
  0
LINE
  8
_1-0_
  6
CONTINUOUS
 62
    7
 10
1043.4824553972046
 20
660.59007990774501
 11
1059.9448318186874
 21
664.69189470799267
  0
LINE
  8
_1-0_
  6
CONTINUOUS
 62
    7
 10
1059.9448318186874
 20
664.69189470799267
 11
1075.1811562910043
 21
669.04335552200848
  0
LINE
  8
_1-0_
  6
CONTINUOUS
 62
    7
 10
1075.1811562910043
 20
669.04335552200848
 11
1089.1916037894584
 21
673.64454983744383
  0
LINE
  8
_1-0_
  6
CONTINUOUS
 62
    7
 10
1089.1916037894584
 20
673.64454983744383
 11
1094.1445422080492
 21
675.44058383661809
  0
LINE
  8
_1-0_
  6
CONTINUOUS
 62
    7
 10
1094.1445422080492
 20
675.44058383661809
 11
1098.8574145107195
 21
677.24978472735427
  0
LINE
  8
_1-0_
  6
CONTINUOUS
 62
    7
 10
1098.8574145107195
 20
677.24978472735427
 11
1103.330045722166
 21
679.07202127817516
  0
LINE
  8
_1-0_
  6
CONTINUOUS
 62
    7
 10
1103.330045722166
 20
679.07202127817516
 11
1107.5626983053435
 21
680.90742472055797
  0
LINE
  8
_1-0_
  6
CONTINUOUS
 62
    7
 10
1107.5626983053435
 20
680.90742472055797
 11
1111.5551972849489
 21
682.75590756685119
  0
LINE
  8
_1-0_
  6
CONTINUOUS
 62
    7
 10
1111.5551972849489
 20
682.75590756685119
 11
1115.3075426609819
 21
684.61746981705471
  0
LINE
  8
_1-0_
  6
CONTINUOUS
 62
    7
 10
1115.3075426609819
 20
684.61746981705471
 11
1118.8198219210944
 21
686.49215521499457
  0
LINE
  8
_1-0_
  6
CONTINUOUS
 62
    7
 10
1118.8198219210944
 20
686.49215521499457
 11
1122.0919475776348
 21
688.37996376067053
  0
LINE
  8
_1-0_
  6
CONTINUOUS
 62
    7
 10
707.55043294899247
 20
633.21357520850927
 11
685.8624190989608
 21
633.71028635032383
  0
LINE
  8
_1-0_
  6
CONTINUOUS
 62
    7
 10
685.8624190989608
 20
633.71028635032383
 11
664.486386214444
 21
634.44408902790553
  0
LINE
  8
_1-0_
  6
CONTINUOUS
 62
    7
 10
664.486386214444
 20
634.44408902790553
 11
643.42233429544217
 21
635.41498324125428
  0
LINE
  8
_1-0_
  6
CONTINUOUS
 62
    7
 10
643.42233429544217
 20
635.41498324125428
 11
622.67021959812951
 21
636.62301273419587
  0
LINE
  8
_1-0_
  6
CONTINUOUS
 62
    7
 10
622.67021959812951
 20
636.62301273419587
 11
602.23008586633159
 21
638.06817750673031
  0
LINE
  8
_1-0_
  6
CONTINUOUS
 62
    7
 10
602.23008586633159
 20
638.06817750673031
 11
582.10193310004854
 21
639.75043381503178
  0
LINE
  8
_1-0_
  6
CONTINUOUS
 62
    7
 10
582.10193310004854
 20
639.75043381503178
 11
562.28571755545477
 21
641.66982540292622
  0
LINE
  8
_1-0_
  6
CONTINUOUS
 62
    7
 10
562.28571755545477
 20
641.66982540292622
 11
542.78148297637586
 21
643.82630852658781
  0
LINE
  8
_1-0_
  6
CONTINUOUS
 62
    7
 10
542.78148297637586
 20
643.82630852658781
 11
520.1893717349725
 21
646.67971828269219
  0
LINE
  8
_1-0_
  6
CONTINUOUS
 62
    7
 10
520.1893717349725
 20
646.67971828269219
 11
498.82322495508379
 21
649.7827740525646
  0
LINE
  8
_1-0_
  6
CONTINUOUS
 62
    7
 10
498.82322495508379
 20
649.7827740525646
 11
478.68299889288352
 21
653.13556332385679
  0
LINE
  8
_1-0_
  6
CONTINUOUS
 62
    7
 10
478.68299889288352
 20
653.13556332385679
 11
459.76878103602348
 21
656.73799860891688
  0
LINE
  8
_1-0_
  6
CONTINUOUS
 62
    7
 10
459.76878103602348
 20
656.73799860891688
 11
442.08048389685189
 21
660.59007990774501
  0
LINE
  8
_1-0_
  6
CONTINUOUS
 62
    7
 10
442.08048389685189
 20
660.59007990774501
 11
425.61810747536913
 21
664.69189470799267
  0
LINE
  8
_1-0_
  6
CONTINUOUS
 62
    7
 10
425.61810747536913
 20
664.69189470799267
 11
410.38173925922649
 21
669.04335552200848
  0
LINE
  8
_1-0_
  6
CONTINUOUS
 62
    7
 10
410.38173925922649
 20
669.04335552200848
 11
396.37129176077224
 21
673.64454983744383
  0
LINE
  8
_1-0_
  6
CONTINUOUS
 62
    7
 10
396.37129176077224
 20
673.64454983744383
 11
391.32084835450155
 21
675.47697869967305
  0
LINE
  8
_1-0_
  6
CONTINUOUS
 62
    7
 10
391.32084835450155
 20
675.47697869967305
 11
386.52026968112779
 21
677.32309937937373
  0
LINE
  8
_1-0_
  6
CONTINUOUS
 62
    7
 10
386.52026968112779
 20
677.32309937937373
 11
381.96964322830252
 21
679.18282438889435
  0
LINE
  8
_1-0_
  6
CONTINUOUS
 62
    7
 10
381.96964322830252
 20
679.18282438889435
 11
377.66888150837428
 21
681.05619747206049
  0
LINE
  8
_1-0_
  6
CONTINUOUS
 62
    7
 10
377.66888150837428
 20
681.05619747206049
 11
373.61807200899449
 21
682.94321862887227
  0
LINE
  8
_1-0_
  6
CONTINUOUS
 62
    7
 10
373.61807200899449
 20
682.94321862887227
 11
369.81712724251167
 21
684.8438878593297
  0
LINE
  8
_1-0_
  6
CONTINUOUS
 62
    7
 10
369.81712724251167
 20
684.8438878593297
 11
366.26611282466456
 21
686.75816141960695
  0
LINE
  8
_1-0_
  6
CONTINUOUS
 62
    7
 10
366.26611282466456
 20
686.75816141960695
 11
362.96500688354013
 21
688.68608305352996
  0
LINE
  8
_1-0_
  6
CONTINUOUS
 62
    7
 10
1139.9999699537357
 20
701.66255774185004
 11
1139.9999699537357
 21
701.66260148567574
  0
LINE
  8
_1-0_
  6
CONTINUOUS
 62
    7
 10
707.4541090446088
 20
633.1894286166746
 11
707.0185517712448
 21
633.1894286166746
  0
LINE
  8
_1-0_
  6
CONTINUOUS
 62
    7
 10
707.0185517712448
 20
633.1894286166746
 11
719.51852496526408
 21
623.18941506639862
  0
LINE
  8
_1-0_
  6
CONTINUOUS
 62
    7
 10
719.51852496526408
 20
623.18941506639862
 11
719.57810405598639
 21
623.18941506639862
  0
LINE
  8
_1-0_
  6
CONTINUOUS
 62
    7
 10
719.57810405598639
 20
623.18941506639862
 11
719.57810405598639
 21
603.24048075436622
  0
LINE
  8
_1-0_
  6
CONTINUOUS
 62
    7
 10
719.57810405598639
 20
603.24048075436622
 11
764.5781212884026
 21
603.24048075436622
  0
LINE
  8
_1-0_
  6
CONTINUOUS
 62
    7
 10
764.5781212884026
 20
603.24048075436622
 11
764.5781212884026
 21
623.2370958365068
  0
LINE
  8
_1-0_
  6
CONTINUOUS
 62
    7
 10
764.5781212884026
 20
623.2370958365068
 11
777.01851539169957
 21
633.1894286166746
  0
LINE
  8
_1-0_
  6
CONTINUOUS
 62
    7
 10
777.01851539169957
 20
633.1894286166746
 11
776.56261723934449
 21
633.1894286166746
  0
LINE
  8
_1-0_
  6
CONTINUOUS
 62
    7
 10
1520.7999470243121
 20
702.98069044429826
 11
2015.8000053494131
 21
702.98069044429826
  0
LINE
  8
_1-0_
  6
CONTINUOUS
 62
    7
 10
2015.8000053494131
 20
702.98069044429826
 11
2015.8000053494131
 21
602.98068617301556
  0
LINE
  8
_1-0_
  6
CONTINUOUS
 62
    7
 10
2015.8000053494131
 20
602.98068617301556
 11
1520.7999470243121
 21
602.98068617301556
  0
LINE
  8
_1-0_
  6
CONTINUOUS
 62
    7
 10
1520.7999470243121
 20
602.98068617301556
 11
1520.7999470243121
 21
702.98069044429826
  0
LINE
  8
_1-0_
  6
CONTINUOUS
 62
    7
 10
1783.984499898196
 20
633.06887063280487
 11
1783.5489863686578
 21
633.06887063280487
  0
LINE
  8
_1-0_
  6
CONTINUOUS
 62
    7
 10
1783.5489863686578
 20
633.06887063280487
 11
1796.0490470503287
 21
623.06885708252889
  0
LINE
  8
_1-0_
  6
CONTINUOUS
 62
    7
 10
1796.0490470503287
 20
623.06885708252889
 11
1796.1085386533996
 21
623.06885708252889
  0
LINE
  8
_1-0_
  6
CONTINUOUS
 62
    7
 10
1796.1085386533996
 20
623.06885708252889
 11
1796.1085386533996
 21
603.11992277049649
  0
LINE
  8
_1-0_
  6
CONTINUOUS
 62
    7
 10
1796.1085386533996
 20
603.11992277049649
 11
1841.1085121419899
 21
603.11992277049649
  0
LINE
  8
_1-0_
  6
CONTINUOUS
 62
    7
 10
1841.1085121419899
 20
603.11992277049649
 11
1841.1085121419899
 21
623.11649410881125
  0
LINE
  8
_1-0_
  6
CONTINUOUS
 62
    7
 10
1841.1085121419899
 20
623.11649410881125
 11
1853.5490812205899
 21
633.06887063280487
  0
LINE
  8
_1-0_
  6
CONTINUOUS
 62
    7
 10
1853.5490812205899
 20
633.06887063280487
 11
1853.0930955805832
 21
633.06887063280487
  0
LINE
  8
_1-0_
  6
CONTINUOUS
 62
    7
 10
1630.9129551478793
 20
702.98069044429826
 11
1633.412827303971
 21
642.98069663029378
  0
LINE
  8
_1-0_
  6
CONTINUOUS
 62
    7
 10
1999.9309701809091
 20
702.98069044429826
 11
1997.9310024659144
 21
642.98069663029378
  0
LINE
  8
_1-0_
  6
CONTINUOUS
 62
    7
 10
2014.8862843163683
 20
648.33826543741702
 11
2014.8777105265142
 21
648.33489716283134
  0
LINE
  8
_1-0_
  6
CONTINUOUS
 62
    7
 10
2014.8777105265142
 20
648.33489716283134
 11
2014.8691367366598
 21
648.33157263207158
  0
LINE
  8
_1-0_
  6
CONTINUOUS
 62
    7
 10
2014.8691367366598
 20
648.33157263207158
 11
2014.8605629468054
 21
648.3282043574859
  0
LINE
  8
_1-0_
  6
CONTINUOUS
 62
    7
 10
2014.8605629468054
 20
648.3282043574859
 11
2014.8519891569513
 21
648.32483608290033
  0
LINE
  8
_1-0_
  6
CONTINUOUS
 62
    7
 10
2014.8519891569513
 20
648.32483608290033
 11
2014.8432403917936
 21
648.32151155214046
  0
LINE
  8
_1-0_
  6
CONTINUOUS
 62
    7
 10
2014.8432403917936
 20
648.32151155214046
 11
2014.8346666019395
 21
648.31814327755478
  0
LINE
  8
_1-0_
  6
CONTINUOUS
 62
    7
 10
2014.8346666019395
 20
648.31814327755478
 11
2014.8260928120851
 21
648.31477500296933
  0
LINE
  8
_1-0_
  6
CONTINUOUS
 62
    7
 10
2014.8260928120851
 20
648.31477500296933
 11
2014.8173440469277
 21
648.31145047220946
  0
LINE
  8
_1-0_
  6
CONTINUOUS
 62
    7
 10
1633.2913944435857
 20
645.89547897397779
 11
1633.2913944435857
 21
645.89543523015197
  0
LINE
  8
_1-0_
  6
CONTINUOUS
 62
    7
 10
1853.5475064428615
 20
633.06764580568279
 11
1860.5318206433622
 21
633.17035630863143
  0
LINE
  8
_1-0_
  6
CONTINUOUS
 62
    7
 10
1860.5318206433622
 20
633.17035630863143
 11
1867.4410704388119
 21
633.29091429250116
  0
LINE
  8
_1-0_
  6
CONTINUOUS
 62
    7
 10
1867.4410704388119
 20
633.29091429250116
 11
1874.2756057798172
 21
633.42923226964058
  0
LINE
  8
_1-0_
  6
CONTINUOUS
 62
    7
 10
1874.2756057798172
 20
633.42923226964058
 11
1881.0350767157711
 21
633.58544147152691
  0
LINE
  8
_1-0_
  6
CONTINUOUS
 62
    7
 10
1881.0350767157711
 20
633.58544147152691
 11
1887.7198331972806
 21
633.75945441050874
  0
LINE
  8
_1-0_
  6
CONTINUOUS
 62
    7
 10
1887.7198331972806
 20
633.75945441050874
 11
1894.3293502984357
 21
633.95131483041177
  0
LINE
  8
_1-0_
  6
CONTINUOUS
 62
    7
 10
1894.3293502984357
 20
633.95131483041177
 11
1900.8641529451463
 21
634.1609789874102
  0
LINE
  8
_1-0_
  6
CONTINUOUS
 62
    7
 10
1900.8641529451463
 20
634.1609789874102
 11
1907.3240661621094
 21
634.38849062532984
  0
LINE
  8
_1-0_
  6
CONTINUOUS
 62
    7
 10
1907.3240661621094
 20
634.38849062532984
 11
1917.6882033182387
 21
634.7982827853051
  0
LINE
  8
_1-0_
  6
CONTINUOUS
 62
    7
 10
1917.6882033182387
 20
634.7982827853051
 11
1927.4897948747434
 21
635.24394488242604
  0
LINE
  8
_1-0_
  6
CONTINUOUS
 62
    7
 10
1927.4897948747434
 20
635.24394488242604
 11
1936.7291907822303
 21
635.7254769166924
  0
LINE
  8
_1-0_
  6
CONTINUOUS
 62
    7
 10
1936.7291907822303
 20
635.7254769166924
 11
1945.4060410900925
 21
636.24287888810431
  0
LINE
  8
_1-0_
  6
CONTINUOUS
 62
    7
 10
1945.4060410900925
 20
636.24287888810431
 11
1953.5205207736335
 21
636.79610705283619
  0
LINE
  8
_1-0_
  6
CONTINUOUS
 62
    7
 10
1953.5205207736335
 20
636.79610705283619
 11
1961.0726298328532
 21
637.3852051547135
  0
LINE
  8
_1-0_
  6
CONTINUOUS
 62
    7
 10
1961.0726298328532
 20
637.3852051547135
 11
1968.0623682677515
 21
638.01017319373636
  0
LINE
  8
_1-0_
  6
CONTINUOUS
 62
    7
 10
1968.0623682677515
 20
638.01017319373636
 11
1974.4897360783284
 21
638.67096742607907
  0
LINE
  8
_1-0_
  6
CONTINUOUS
 62
    7
 10
1974.4897360783284
 20
638.67096742607907
 11
1979.0779384775051
 21
639.20787914379218
  0
LINE
  8
_1-0_
  6
CONTINUOUS
 62
    7
 10
1979.0779384775051
 20
639.20787914379218
 11
1983.19265770636
 21
639.75283972545014
  0
LINE
  8
_1-0_
  6
CONTINUOUS
 62
    7
 10
1983.19265770636
 20
639.75283972545014
 11
1986.8338937648934
 21
640.30593665870458
  0
LINE
  8
_1-0_
  6
CONTINUOUS
 62
    7
 10
1986.8338937648934
 20
640.30593665870458
 11
1990.0016466531054
 21
640.86708245590387
  0
LINE
  8
_1-0_
  6
CONTINUOUS
 62
    7
 10
1990.0016466531054
 20
640.86708245590387
 11
1992.6959163709955
 21
641.43632086087382
  0
LINE
  8
_1-0_
  6
CONTINUOUS
 62
    7
 10
1992.6959163709955
 20
641.43632086087382
 11
1994.9168778938676
 21
642.01369561744002
  0
LINE
  8
_1-0_
  6
CONTINUOUS
 62
    7
 10
1994.9168778938676
 20
642.01369561744002
 11
1996.6641812711148
 21
642.5991192379513
  0
LINE
  8
_1-0_
  6
CONTINUOUS
 62
    7
 10
1996.6641812711148
 20
642.5991192379513
 11
1997.9380014780404
 21
643.19263546623324
  0
LINE
  8
_1-0_
  6
CONTINUOUS
 62
    7
 10
1783.6427731311458
 20
632.99384997157972
 11
1775.844123869789
 21
633.09170490986594
  0
LINE
  8
_1-0_
  6
CONTINUOUS
 62
    7
 10
1775.844123869789
 20
633.09170490986594
 11
1768.1371616672823
 21
633.21143176104567
  0
LINE
  8
_1-0_
  6
CONTINUOUS
 62
    7
 10
1768.1371616672823
 20
633.21143176104567
 11
1760.5220614989289
 21
633.35294303746753
  0
LINE
  8
_1-0_
  6
CONTINUOUS
 62
    7
 10
1760.5220614989289
 20
633.35294303746753
 11
1752.9988233647291
 21
633.51636997060882
  0
LINE
  8
_1-0_
  6
CONTINUOUS
 62
    7
 10
1752.9988233647291
 20
633.51636997060882
 11
1745.5672722893792
 21
633.70162507281793
  0
LINE
  8
_1-0_
  6
CONTINUOUS
 62
    7
 10
1745.5672722893792
 20
633.70162507281793
 11
1738.2277582234858
 21
633.90870834409498
  0
LINE
  8
_1-0_
  6
CONTINUOUS
 62
    7
 10
1738.2277582234858
 20
633.90870834409498
 11
1730.9799312164423
 21
634.13766352826565
  0
LINE
  8
_1-0_
  6
CONTINUOUS
 62
    7
 10
1730.9799312164423
 20
634.13766352826565
 11
1723.8239662435524
 21
634.38849062532984
  0
LINE
  8
_1-0_
  6
CONTINUOUS
 62
    7
 10
1723.8239662435524
 20
634.38849062532984
 11
1713.4598290874228
 21
634.7982827853051
  0
LINE
  8
_1-0_
  6
CONTINUOUS
 62
    7
 10
1713.4598290874228
 20
634.7982827853051
 11
1703.6582375309181
 21
635.24394488242604
  0
LINE
  8
_1-0_
  6
CONTINUOUS
 62
    7
 10
1703.6582375309181
 20
635.24394488242604
 11
1694.4188416234315
 21
635.7254769166924
  0
LINE
  8
_1-0_
  6
CONTINUOUS
 62
    7
 10
1694.4188416234315
 20
635.7254769166924
 11
1685.7419913155691
 21
636.24287888810431
  0
LINE
  8
_1-0_
  6
CONTINUOUS
 62
    7
 10
1685.7419913155691
 20
636.24287888810431
 11
1677.627511632028
 21
636.79610705283619
  0
LINE
  8
_1-0_
  6
CONTINUOUS
 62
    7
 10
1677.627511632028
 20
636.79610705283619
 11
1670.0754025728086
 21
637.3852051547135
  0
LINE
  8
_1-0_
  6
CONTINUOUS
 62
    7
 10
1670.0754025728086
 20
637.3852051547135
 11
1663.08566413791
 21
638.01017319373636
  0
LINE
  8
_1-0_
  6
CONTINUOUS
 62
    7
 10
1663.08566413791
 20
638.01017319373636
 11
1656.6582963273331
 21
638.67096742607907
  0
LINE
  8
_1-0_
  6
CONTINUOUS
 62
    7
 10
1656.6582963273331
 20
638.67096742607907
 11
1652.1703547768609
 21
639.19545589726863
  0
LINE
  8
_1-0_
  6
CONTINUOUS
 62
    7
 10
1652.1703547768609
 20
639.19545589726863
 11
1648.1341994591198
 21
639.72764328179676
  0
LINE
  8
_1-0_
  6
CONTINUOUS
 62
    7
 10
1648.1341994591198
 20
639.72764328179676
 11
1644.5500053494131
 21
640.26752957966335
  0
LINE
  8
_1-0_
  6
CONTINUOUS
 62
    7
 10
1644.5500053494131
 20
640.26752957966335
 11
1641.4177724477406
 21
640.81515853469432
  0
LINE
  8
_1-0_
  6
CONTINUOUS
 62
    7
 10
1641.4177724477406
 20
640.81515853469432
 11
1638.7375007541023
 21
641.37053014688968
  0
LINE
  8
_1-0_
  6
CONTINUOUS
 62
    7
 10
1638.7375007541023
 20
641.37053014688968
 11
1636.5093652438011
 21
641.93360067242349
  0
LINE
  8
_1-0_
  6
CONTINUOUS
 62
    7
 10
1636.5093652438011
 20
641.93360067242349
 11
1634.7330159662311
 21
642.50437011129611
  0
LINE
  8
_1-0_
  6
CONTINUOUS
 62
    7
 10
1634.7330159662311
 20
642.50437011129611
 11
1633.4086278966952
 21
643.08288220733289
  0
LINE
  8
_1-0_
  6
CONTINUOUS
 62
    7
 10
1998.0249642037054
 20
645.79828019307843
 11
1998.0249642037054
 21
645.79832393690424
  0
LINE
  8
_1-0_
  6
CONTINUOUS
 62
    7
 10
1631.5349923505744
 20
688.04965413215075
 11
1999.4333404187528
 21
688.04965413215075
  0
CIRCLE
  8
_1-0_
  6
CONTINUOUS
 62
    7
 10
741.00002421375405
 20
1436.1719168291129
 40
35.000000948151104
  0
CIRCLE
  8
_1-0_
  6
CONTINUOUS
 62
    7
 10
741.00002421375405
 20
1436.1719168291129
 40
22.500000414240773
  0
TEXT
  8
_0-0_
 62
    6
 10
2154.1105410307068
 20
1805.5958745654484
 40
100
 41
1
 50
0
  1
B3-A801
  0
ENDSEC
  0
EOF
