  0
SECTION
  2
HEADER
  9
$ACADVER
  1
AC1009
  9
$INSBASE
 10
0
 20
0
 30
0
  9
$EXTMIN
 10
0
 20
0
  9
$EXTMAX
 10
2970
 20
2100
  9
$LIMMIN
 10
0
 20
0
  9
$LIMMAX
 10
2970
 20
2100
  9
$LTSCALE
 40
10
  0
ENDSEC
  0
SECTION
  2
TABLES
  0
TABLE
  2
LTYPE
 70
     9
  0
LTYPE
  2
CONTINUOUS
 70
    64
  3
実線
 72
    65
 73
     0
 40
0.0
  0
LTYPE
  2
DASHED1
 70
    64
  3
--  --  --  --  --  --  --  --  
 72
    65
 73
     2
 40
2.5
 49
1.25
 49
-1.25
  0
LTYPE
  2
DASHED2
 70
    64
  3
----    ----    ----    ----    
 72
    65
 73
     2
 40
5.0
 49
2.5
 49
-2.5
  0
LTYPE
  2
DASHED3
 70
    64
  3
------  ------  ------  ------  
 72
    65
 73
     2
 40
5.0
 49
3.75
 49
-1.25
  0
LTYPE
  2
CENTER1
 70
    64
  3
----- - ----- - ----- - ----- - 
 72
    65
 73
     4
 40
10.0
 49
6.25
 49
-1.25
 49
1.25
 49
-1.25
  0
LTYPE
  2
CENTER2
 70
    64
  3
----------  --  ----------  --  
 72
    65
 73
     4
 40
20.0
 49
12.5
 49
-2.5
 49
2.5
 49
-2.5
  0
LTYPE
  2
PHANTOM1
 70
    64
  3
--- - - --- - - --- - - --- - - 
 72
    65
 73
     6
 40
10.0
 49
3.25
 49
-1.25
 49
1.25
 49
-1.25
 49
1.25
 49
-1.25
  0
LTYPE
  2
PHANTOM2
 70
    64
  3
--------  -  -  --------  -  -  
 72
    65
 73
     6
 40
20.0
 49
10.0
 49
-2.5
 49
1.25
 49
-2.5
 49
1.25
 49
-2.5
  0
LTYPE
  2
DOT
 70
    64
  3
-   -   -   -   -   -   -   -   
 72
    65
 73
     2
 40
2.5
 49
0.625
 49
-1.875
  0
LTYPE
  2
DUMMY
 70
    64
  3
ダミー
 72
    65
 73
     0
 40
0.0
  0
LTYPE
  2
RAND1
 70
    64
  3
ランダム線1
 72
    65
 73
     4
 40
10.0
 49
1.0
 49
-2.0
 49
3.0
 49
-4.0
  0
LTYPE
  2
RAND2
 70
    64
  3
ランダム線2
 72
    65
 73
     4
 40
14.0
 49
2.0
 49
-3.0
 49
4.0
 49
-5.0
  0
LTYPE
  2
RAND3
 70
    64
  3
ランダム線3
 72
    65
 73
     4
 40
18.0
 49
3.0
 49
-4.0
 49
5.0
 49
-6.0
  0
LTYPE
  2
RAND4
 70
    64
  3
ランダム線4
 72
    65
 73
     4
 40
22.0
 49
4.0
 49
-5.0
 49
6.0
 49
-7.0
  0
LTYPE
  2
RAND5
 70
    64
  3
ランダム線5
 72
    65
 73
     4
 40
26.0
 49
5.0
 49
-6.0
 49
7.0
 49
-8.0
  0
LTYPE
  2
LONG1
 70
    64
  3
----------  --  ----------  --  
 72
    65
 73
     4
 40
40.0
 49
32.5
 49
-2.5
 49
2.5
 49
-2.5
  0
LTYPE
  2
LONG2
 70
    64
  3
--------  -  -  --------  -  -  
 72
    65
 73
     6
 40
40.0
 49
30.0
 49
-2.5
 49
1.25
 49
-2.5
 49
1.25
 49
-2.5
  0
LTYPE
  2
LONG3
 70
    64
  3
+++++++++++++++..+++++++++++++++
 72
    65
 73
     2
 40
40.0
 49
37.5
 49
-2.5
  0
LTYPE
  2
LONG4
 70
    64
  3
+++++++++++++++..+++++++++++++++
 72
    65
 73
     2
 40
80.0
 49
75.0
 49
-5.0
  0
LTYPE
  2
LONG5
 70
    64
  3
----------  --  ----------  --  
 72
    65
 73
     4
 40
60.0
 49
37.5
 49
-7.5
 49
7.5
 49
-7.5
  0
LTYPE
  2
dashed
 70
   64
  3
-------   -------------   ------
 72
   65
 73
    2
 40
7.5
 49
6
 49
-1.5
  0
LTYPE
  2
dashed_spaced
 70
   64
  3
----        --------        ----
 72
   65
 73
    2
 40
12
 49
6
 49
-6
  0
LTYPE
  2
long_dashed_dotted
 70
   64
  3
------------- --- --------------
 72
   65
 73
    4
 40
15.25
 49
12
 49
-1.5
 49
0.25
 49
-1.5
  0
LTYPE
  2
long_dashed_double-dotted
 70
   64
  3
----------- --- --- ------------
 72
   65
 73
    6
 40
17
 49
12
 49
-1.5
 49
0.25
 49
-1.5
 49
0.25
 49
-1.5
  0
LTYPE
  2
long_dashed_triplicate-dotted
 70
   64
  3
--------- --- --- --- ----------
 72
   65
 73
    8
 40
18.75
 49
12
 49
-1.5
 49
0.25
 49
-1.5
 49
0.25
 49
-1.5
 49
0.25
 49
-1.5
  0
LTYPE
  2
dotted
 70
   64
  3
   -       -       -       -    
 72
   65
 73
    2
 40
1.75
 49
0.25
 49
-1.5
  0
LTYPE
  2
chain
 70
   64
  3
-------------- -- --------------
 72
   65
 73
    4
 40
18.5
 49
12
 49
-1.5
 49
3.5
 49
-1.5
  0
LTYPE
  2
chain_double_dash
 70
   64
  3
------------ -- -- -------------
 72
   65
 73
    6
 40
23.5
 49
12
 49
-1.5
 49
3.5
 49
-1.5
 49
3.5
 49
-1.5
  0
LTYPE
  2
dashed_dotted
 70
   64
  3
-----------     -     ----------
 72
   65
 73
    4
 40
9.25
 49
6
 49
-1.5
 49
0.25
 49
-1.5
  0
LTYPE
  2
double-dashed_dotted
 70
   64
  3
------   -----------   -   -----
 72
   65
 73
    6
 40
16.75
 49
6
 49
-1.5
 49
6
 49
-1.5
 49
0.25
 49
-1.5
  0
LTYPE
  2
dashed_double-dotted
 70
   64
  3
---------    -    -    ---------
 72
   65
 73
    6
 40
11
 49
6
 49
-1.5
 49
0.25
 49
-1.5
 49
0.25
 49
-1.5
  0
LTYPE
  2
double-dashed_double-dotted
 70
   64
  3
-----   ---------   -   -   ----
 72
   65
 73
    8
 40
18.5
 49
6
 49
-1.5
 49
6
 49
-1.5
 49
0.25
 49
-1.5
 49
0.25
 49
-1.5
  0
LTYPE
  2
dashed_triplicate-dotted
 70
   64
  3
-------    -    -    -    ------
 72
   65
 73
    8
 40
12.75
 49
6
 49
-1.5
 49
0.25
 49
-1.5
 49
0.25
 49
-1.5
 49
0.25
 49
-1.5
  0
LTYPE
  2
double-dashed_triplicate-dotted
 70
   64
  3
-----  ---------  -  -  -  -----
 72
   65
 73
   10
 40
20.25
 49
6
 49
-1.5
 49
6
 49
-1.5
 49
0.25
 49
-1.5
 49
0.25
 49
-1.5
 49
0.25
 49
-1.5
  0
LTYPE
  2
undefined
 70
   64
  3
--------------------------------
 72
   65
 73
    0
 40
0
  0
LTYPE
  2
_
 70
   64
  3
                                
 72
   65
 73
    0
 40
0
  0
LTYPE
  2
__18
 70
   64
  3
                                
 72
   65
 73
    0
 40
0
  0
LTYPE
  2
__19
 70
   64
  3
                                
 72
   65
 73
    0
 40
0
  0
LTYPE
  2
__20
 70
   64
  3
                                
 72
   65
 73
    0
 40
0
  0
LTYPE
  2
__21
 70
   64
  3
                                
 72
   65
 73
    0
 40
0
  0
LTYPE
  2
__22
 70
   64
  3
                                
 72
   65
 73
    0
 40
0
  0
LTYPE
  2
__23
 70
   64
  3
                                
 72
   65
 73
    0
 40
0
  0
LTYPE
  2
__24
 70
   64
  3
                                
 72
   65
 73
    0
 40
0
  0
LTYPE
  2
__25
 70
   64
  3
                                
 72
   65
 73
    0
 40
0
  0
LTYPE
  2
__26
 70
   64
  3
                                
 72
   65
 73
    0
 40
0
  0
LTYPE
  2
__27
 70
   64
  3
                                
 72
   65
 73
    0
 40
0
  0
LTYPE
  2
__28
 70
   64
  3
                                
 72
   65
 73
    0
 40
0
  0
LTYPE
  2
__29
 70
   64
  3
                                
 72
   65
 73
    0
 40
0
  0
LTYPE
  2
__30
 70
   64
  3
                                
 72
   65
 73
    0
 40
0
  0
LTYPE
  2
__31
 70
   64
  3
                                
 72
   65
 73
    0
 40
0
  0
LTYPE
  2
__32
 70
   64
  3
                                
 72
   65
 73
    0
 40
0
  0
ENDTAB
  0
TABLE
  2
STYLE
  5
3
100
AcDbSymbolTable
 70
     1
  0
STYLE
  5
10
100
AcDbSymbolTableRecord
100
AcDbTextStyleTableRecord
  2
STANDARD
 70
     0
 40
0.0
 41
1.0
 50
0.0
 71
     0
 42
0.2
  3
txt
  4
bigfont.shx
  0
STYLE
  5
26
100
AcDbSymbolTableRecord
100
AcDbTextStyleTableRecord
  2
TATEGAKI
 70
    68
 40
0.0
 41
1.0
 50
0.0
 71
     0
 42
1.0
  3
txt
  4
bigfont.shx
  0
ENDTAB
  0
TABLE
  2
LAYER
 70
    2
  0
LAYER
  2
_0-0_
 70
   64
 62
    7
  6
CONTINUOUS
  0
LAYER
  2
ADD_LINE
 70
   64
 62
    7
  6
CONTINUOUS
  0
ENDTAB
  0
ENDSEC
  0
SECTION
  2
BLOCKS
  0
ENDSEC
  0
SECTION
  2
ENTITIES
  0
LINE
  8
_0-0_
  6
CONTINUOUS
 62
    7
 10
1414.4251987648747
 20
818.98065515466624
 11
1414.4251987648747
 21
825.98071713245054
  0
LINE
  8
_0-0_
  6
CONTINUOUS
 62
    7
 10
1414.4548570787583
 20
825.98071713245054
 11
1404.0454013191134
 21
838.98068225521843
  0
LINE
  8
_0-0_
  6
CONTINUOUS
 62
    7
 10
1458.4425984386312
 20
818.98065515466624
 11
1458.4425984386312
 21
825.98071713245054
  0
LINE
  8
_0-0_
  6
CONTINUOUS
 62
    7
 10
1458.3794323541943
 20
825.98071713245054
 11
1469.0389278220393
 21
838.98068225521843
  0
LINE
  8
_0-0_
  6
CONTINUOUS
 62
    7
 10
1385.9793762442687
 20
818.98065515466624
 11
1414.4548570787583
 21
818.98065515466624
  0
LINE
  8
_0-0_
  6
CONTINUOUS
 62
    7
 10
1458.4425984386312
 20
818.98065515466624
 11
1485.7793400002263
 21
818.98065515466624
  0
LINE
  8
_0-0_
  6
CONTINUOUS
 62
    7
 10
1384.8121159969608
 20
821.31526313693359
 11
1379.4955788984262
 21
824.69604845672961
  0
LINE
  8
_0-0_
  6
CONTINUOUS
 62
    7
 10
1379.4955788984262
 20
824.69604845672961
 11
1374.2238354774975
 21
828.4245097038829
  0
LINE
  8
_0-0_
  6
CONTINUOUS
 62
    7
 10
1374.2238354774975
 20
828.4245097038829
 11
1368.996710758872
 21
832.50047190309033
  0
LINE
  8
_0-0_
  6
CONTINUOUS
 62
    7
 10
1368.996710758872
 20
832.50047190309033
 11
1363.8143797178527
 21
836.92393505435189
  0
LINE
  8
_0-0_
  6
CONTINUOUS
 62
    7
 10
1363.8143797178527
 20
836.92393505435189
 11
1358.6767548667876
 21
841.69507413297083
  0
LINE
  8
_0-0_
  6
CONTINUOUS
 62
    7
 10
1358.6767548667876
 20
841.69507413297083
 11
1353.5839236933291
 21
846.81371416364391
  0
LINE
  8
_0-0_
  6
CONTINUOUS
 62
    7
 10
1353.5839236933291
 20
846.81371416364391
 11
1348.5357112221734
 21
852.27994263402275
  0
LINE
  8
_0-0_
  6
CONTINUOUS
 62
    7
 10
1348.5357112221734
 20
852.27994263402275
 11
1343.5322924286243
 21
858.09375954410734
  0
LINE
  8
_0-0_
  6
CONTINUOUS
 62
    7
 10
1343.5322924286243
 20
858.09375954410734
 11
1339.0070811385815
 21
863.70276786185605
  0
LINE
  8
_0-0_
  6
CONTINUOUS
 62
    7
 10
1339.0070811385815
 20
863.70276786185605
 11
1334.5850177897451
 21
869.52664585187165
  0
LINE
  8
_0-0_
  6
CONTINUOUS
 62
    7
 10
1334.5850177897451
 20
869.52664585187165
 11
1330.2661898697665
 21
875.56521853885124
  0
LINE
  8
_0-0_
  6
CONTINUOUS
 62
    7
 10
1330.2661898697665
 20
875.56521853885124
 11
1326.0505098909946
 21
881.8187483857497
  0
LINE
  8
_0-0_
  6
CONTINUOUS
 62
    7
 10
1326.0505098909946
 20
881.8187483857497
 11
1321.9379778534289
 21
888.28697292961215
  0
LINE
  8
_0-0_
  6
CONTINUOUS
 62
    7
 10
1321.9379778534289
 20
888.28697292961215
 11
1317.9285937570696
 21
894.9700671457415
  0
LINE
  8
_0-0_
  6
CONTINUOUS
 62
    7
 10
1317.9285937570696
 20
894.9700671457415
 11
1314.0224450895685
 21
901.86794354648657
  0
LINE
  8
_0-0_
  6
CONTINUOUS
 62
    7
 10
1314.0224450895685
 20
901.86794354648657
 11
1310.2194443632739
 21
908.98068961949878
  0
LINE
  8
_0-0_
  6
CONTINUOUS
 62
    7
 10
1486.9754711725536
 20
821.2126401216367
 11
1492.314667572846
 21
824.59657499688933
  0
LINE
  8
_0-0_
  6
CONTINUOUS
 62
    7
 10
1492.314667572846
 20
824.59657499688933
 11
1497.6087203449263
 21
828.33081042904655
  0
LINE
  8
_0-0_
  6
CONTINUOUS
 62
    7
 10
1497.6087203449263
 20
828.33081042904655
 11
1502.8576294887939
 21
832.41543390575987
  0
LINE
  8
_0-0_
  6
CONTINUOUS
 62
    7
 10
1502.8576294887939
 20
832.41543390575987
 11
1508.0615699797522
 21
836.85035793937777
  0
LINE
  8
_0-0_
  6
CONTINUOUS
 62
    7
 10
1508.0615699797522
 20
836.85035793937777
 11
1513.2203668424982
 21
841.63567001755166
  0
LINE
  8
_0-0_
  6
CONTINUOUS
 62
    7
 10
1513.2203668424982
 20
841.63567001755166
 11
1518.3341950523345
 21
846.77137014028176
  0
LINE
  8
_0-0_
  6
CONTINUOUS
 62
    7
 10
1518.3341950523345
 20
846.77137014028176
 11
1523.4028796339587
 21
852.25737081991656
  0
LINE
  8
_0-0_
  6
CONTINUOUS
 62
    7
 10
1523.4028796339587
 20
852.25737081991656
 11
1528.4264205873703
 21
858.09375954410734
  0
LINE
  8
_0-0_
  6
CONTINUOUS
 62
    7
 10
1528.4264205873703
 20
858.09375954410734
 11
1532.9516318774131
 21
863.70276786185605
  0
LINE
  8
_0-0_
  6
CONTINUOUS
 62
    7
 10
1532.9516318774131
 20
863.70276786185605
 11
1537.3736077385979
 21
869.52664585187165
  0
LINE
  8
_0-0_
  6
CONTINUOUS
 62
    7
 10
1537.3736077385979
 20
869.52664585187165
 11
1541.6925231462278
 21
875.56521853885124
  0
LINE
  8
_0-0_
  6
CONTINUOUS
 62
    7
 10
1541.6925231462278
 20
875.56521853885124
 11
1545.908203125
 21
881.8187483857497
  0
LINE
  8
_0-0_
  6
CONTINUOUS
 62
    7
 10
1545.908203125
 20
881.8187483857497
 11
1550.020647674914
 21
888.28697292961215
  0
LINE
  8
_0-0_
  6
CONTINUOUS
 62
    7
 10
1550.020647674914
 20
888.28697292961215
 11
1554.0300317712731
 21
894.9700671457415
  0
LINE
  8
_0-0_
  6
CONTINUOUS
 62
    7
 10
1554.0300317712731
 20
894.9700671457415
 11
1557.9361804387745
 21
901.86794354648657
  0
LINE
  8
_0-0_
  6
CONTINUOUS
 62
    7
 10
1557.9361804387745
 20
901.86794354648657
 11
1561.7392686527207
 21
908.98068961949878
  0
LINE
  8
_0-0_
  6
CONTINUOUS
 62
    7
 10
1385.9793762442687
 20
818.98065515466624
 11
1384.7793956152718
 21
821.38070390031146
  0
LINE
  8
_0-0_
  6
CONTINUOUS
 62
    7
 10
1485.8521297263362
 20
818.9661322045049
 11
1487.0522853306361
 21
821.36618095015001
  0
LINE
  8
_0-0_
  6
CONTINUOUS
 62
    7
 10
1468.3115554868484
 20
838.98068225521843
 11
1478.4198787497737
 21
843.43651583756252
  0
LINE
  8
_0-0_
  6
CONTINUOUS
 62
    7
 10
1478.4198787497737
 20
843.43651583756252
 11
1488.4011699426128
 21
849.11927624558848
  0
LINE
  8
_0-0_
  6
CONTINUOUS
 62
    7
 10
1488.4011699426128
 20
849.11927624558848
 11
1498.2554290653657
 21
856.02887599164444
  0
LINE
  8
_0-0_
  6
CONTINUOUS
 62
    7
 10
1498.2554290653657
 20
856.02887599164444
 11
1507.9824811427288
 21
864.16540256338226
  0
LINE
  8
_0-0_
  6
CONTINUOUS
 62
    7
 10
1507.9824811427288
 20
864.16540256338226
 11
1517.582501150006
 21
873.52885596080171
  0
LINE
  8
_0-0_
  6
CONTINUOUS
 62
    7
 10
1517.582501150006
 20
873.52885596080171
 11
1527.0553141118935
 21
884.1192361839029
  0
LINE
  8
_0-0_
  6
CONTINUOUS
 62
    7
 10
1527.0553141118935
 20
884.1192361839029
 11
1536.401095003695
 21
895.93654323268584
  0
LINE
  8
_0-0_
  6
CONTINUOUS
 62
    7
 10
1536.401095003695
 20
895.93654323268584
 11
1545.6198438254103
 21
908.98068961949878
  0
LINE
  8
_0-0_
  6
CONTINUOUS
 62
    7
 10
1326.0448231936421
 20
908.98068961949878
 11
1335.375906159979
 21
895.78615195962914
  0
LINE
  8
_0-0_
  6
CONTINUOUS
 62
    7
 10
1335.375906159979
 20
895.78615195962914
 11
1344.8371707518586
 21
883.8483744146281
  0
LINE
  8
_0-0_
  6
CONTINUOUS
 62
    7
 10
1344.8371707518586
 20
883.8483744146281
 11
1354.4286169692816
 21
873.16735698449565
  0
LINE
  8
_0-0_
  6
CONTINUOUS
 62
    7
 10
1354.4286169692816
 20
873.16735698449565
 11
1364.1502448122471
 21
863.74318715688332
  0
LINE
  8
_0-0_
  6
CONTINUOUS
 62
    7
 10
1364.1502448122471
 20
863.74318715688332
 11
1374.0020542807561
 21
855.5757774441397
  0
LINE
  8
_0-0_
  6
CONTINUOUS
 62
    7
 10
1374.0020542807561
 20
855.5757774441397
 11
1383.9841328624593
 21
848.66521533391642
  0
LINE
  8
_0-0_
  6
CONTINUOUS
 62
    7
 10
1383.9841328624593
 20
848.66521533391642
 11
1394.0963055820539
 21
843.01132585091011
  0
LINE
  8
_0-0_
  6
CONTINUOUS
 62
    7
 10
1394.0963055820539
 20
843.01132585091011
 11
1404.3387474148428
 21
838.61437145807554
  0
LINE
  8
_0-0_
  6
CONTINUOUS
 62
    7
 10
1414.4547695911069
 20
835.53620592507616
 11
1414.4548570787583
 21
835.53620592507616
  0
LINE
  8
_0-0_
  6
CONTINUOUS
 62
    7
 10
1310.4793701761016
 20
908.98068961949878
 11
1561.2852077410489
 21
908.98068961949878
  0
LINE
  8
_0-0_
  6
CONTINUOUS
 62
    7
 10
1414.4251987648747
 20
818.98065515466624
 11
1458.4425984386312
 21
818.98065515466624
  0
LINE
  8
_0-0_
  6
CONTINUOUS
 62
    7
 10
1415.4794249663482
 20
826.98070098994776
 11
1458.4425984386312
 21
826.98070098994776
  0
LINE
  8
_0-0_
  6
CONTINUOUS
 62
    7
 10
1404.4794275585746
 20
838.98068225521843
 11
1470.4793245175629
 21
838.98068225521843
  0
LINE
  8
_0-0_
  6
CONTINUOUS
 62
    7
 10
527.87087503087093
 20
908.98068961949878
 11
877.82957393690424
 21
908.98068961949878
  0
LINE
  8
_0-0_
  6
CONTINUOUS
 62
    7
 10
637.98825753701692
 20
818.98065515466624
 11
680.79998988442435
 21
818.98065515466624
  0
LINE
  8
_0-0_
  6
CONTINUOUS
 62
    7
 10
724.73401382623024
 20
818.98065515466624
 11
767.98830245912757
 21
818.98065515466624
  0
LINE
  8
_0-0_
  6
CONTINUOUS
 62
    7
 10
680.79998988442435
 20
818.98065515466624
 11
680.79998988442435
 21
825.98071713245054
  0
LINE
  8
_0-0_
  6
CONTINUOUS
 62
    7
 10
680.79998988442435
 20
825.98071713245054
 11
670.90001846372388
 21
838.98068225521843
  0
LINE
  8
_0-0_
  6
CONTINUOUS
 62
    7
 10
724.73401382623024
 20
818.98065515466624
 11
724.73401382623024
 21
825.98071713245054
  0
LINE
  8
_0-0_
  6
CONTINUOUS
 62
    7
 10
724.73401382623024
 20
825.98071713245054
 11
734.06076615381426
 21
838.98068225521843
  0
LINE
  8
_0-0_
  6
CONTINUOUS
 62
    7
 10
878.04689326341543
 20
908.98068961949878
 11
864.76434302606162
 21
893.00868148509142
  0
LINE
  8
_0-0_
  6
CONTINUOUS
 62
    7
 10
864.76434302606162
 20
893.00868148509142
 11
851.32309018875173
 21
878.38590791326681
  0
LINE
  8
_0-0_
  6
CONTINUOUS
 62
    7
 10
851.32309018875173
 20
878.38590791326681
 11
837.72322223913704
 21
865.11219392872226
  0
LINE
  8
_0-0_
  6
CONTINUOUS
 62
    7
 10
837.72322223913704
 20
865.11219392872226
 11
823.96473917721778
 21
853.18762701910885
  0
LINE
  8
_0-0_
  6
CONTINUOUS
 62
    7
 10
823.96473917721778
 20
853.18762701910885
 11
810.04746602769058
 21
842.61220718442701
  0
LINE
  8
_0-0_
  6
CONTINUOUS
 62
    7
 10
810.04746602769058
 20
842.61220718442701
 11
795.97166525351031
 21
833.38593442467641
  0
LINE
  8
_0-0_
  6
CONTINUOUS
 62
    7
 10
795.97166525351031
 20
833.38593442467641
 11
781.73716187937373
 21
825.50872125220565
  0
LINE
  8
_0-0_
  6
CONTINUOUS
 62
    7
 10
781.73716187937373
 20
825.50872125220565
 11
767.34395590528095
 21
818.98074264231798
  0
LINE
  8
_0-0_
  6
CONTINUOUS
 62
    7
 10
527.87087503087093
 20
909.23309149429144
 11
541.17634703293731
 21
893.21165283674429
  0
LINE
  8
_0-0_
  6
CONTINUOUS
 62
    7
 10
541.17634703293731
 20
893.21165283674429
 11
554.64104656086931
 21
878.54452302557149
  0
LINE
  8
_0-0_
  6
CONTINUOUS
 62
    7
 10
554.64104656086931
 20
878.54452302557149
 11
568.26506110231844
 21
865.23161457312142
  0
LINE
  8
_0-0_
  6
CONTINUOUS
 62
    7
 10
568.26506110231844
 20
865.23161457312142
 11
582.04830316963341
 21
853.27292747939407
  0
LINE
  8
_0-0_
  6
CONTINUOUS
 62
    7
 10
582.04830316963341
 20
853.27292747939407
 11
595.9908165066397
 21
842.66846174438933
  0
LINE
  8
_0-0_
  6
CONTINUOUS
 62
    7
 10
595.9908165066397
 20
842.66846174438933
 11
610.09260111333776
 21
833.41830485575895
  0
LINE
  8
_0-0_
  6
CONTINUOUS
 62
    7
 10
610.09260111333776
 20
833.41830485575895
 11
624.35361324590133
 21
825.52236932585129
  0
LINE
  8
_0-0_
  6
CONTINUOUS
 62
    7
 10
624.35361324590133
 20
825.52236932585129
 11
638.77389664815655
 21
818.98065515466624
  0
LINE
  8
_0-0_
  6
CONTINUOUS
 62
    7
 10
637.98825753701692
 20
818.98065515466624
 11
637.36569540841231
 21
819.55641138967849
  0
LINE
  8
_0-0_
  6
CONTINUOUS
 62
    7
 10
767.98130344700166
 20
818.9165267060622
 11
768.60981473591335
 21
819.49779466312361
  0
LINE
  8
_0-0_
  6
CONTINUOUS
 62
    7
 10
555.30000355252901
 20
908.98068961949878
 11
528.20000357609445
 21
908.98068961949878
  0
LINE
  8
_0-0_
  6
CONTINUOUS
 62
    7
 10
850.63237517957066
 20
908.98068961949878
 11
878.09999826792125
 21
908.98068961949878
  0
LINE
  8
_0-0_
  6
CONTINUOUS
 62
    7
 10
680.79998988442435
 20
818.98065515466624
 11
725.80000711684056
 21
818.98065515466624
  0
LINE
  8
_0-0_
  6
CONTINUOUS
 62
    7
 10
680.79998988442435
 20
825.98071713245054
 11
724.73401382623024
 21
825.98071713245054
  0
LINE
  8
_0-0_
  6
CONTINUOUS
 62
    7
 10
670.99174926639978
 20
838.86029924665172
 11
665.54686778300504
 21
839.56282508879553
  0
LINE
  8
_0-0_
  6
CONTINUOUS
 62
    7
 10
665.54686778300504
 20
839.56282508879553
 11
660.15867829783076
 21
840.37873492737981
  0
LINE
  8
_0-0_
  6
CONTINUOUS
 62
    7
 10
660.15867829783076
 20
840.37873492737981
 11
654.82718081087671
 21
841.30794127475338
  0
LINE
  8
_0-0_
  6
CONTINUOUS
 62
    7
 10
654.82718081087671
 20
841.30794127475338
 11
649.55237532214301
 21
842.35044413091589
  0
LINE
  8
_0-0_
  6
CONTINUOUS
 62
    7
 10
649.55237532214301
 20
842.35044413091589
 11
644.33421808780383
 21
843.50633098351909
  0
LINE
  8
_0-0_
  6
CONTINUOUS
 62
    7
 10
644.33421808780383
 20
843.50633098351909
 11
639.172752851685
 21
844.77551434491136
  0
LINE
  8
_0-0_
  6
CONTINUOUS
 62
    7
 10
639.172752851685
 20
844.77551434491136
 11
634.06797961378641
 21
846.15799421509246
  0
LINE
  8
_0-0_
  6
CONTINUOUS
 62
    7
 10
634.06797961378641
 20
846.15799421509246
 11
629.01989837410827
 21
847.65377059406296
  0
LINE
  8
_0-0_
  6
CONTINUOUS
 62
    7
 10
629.01989837410827
 20
847.65377059406296
 11
620.65069839300793
 21
850.43404067345114
  0
LINE
  8
_0-0_
  6
CONTINUOUS
 62
    7
 10
620.65069839300793
 20
850.43404067345114
 11
612.73564681123116
 21
853.45752642421644
  0
LINE
  8
_0-0_
  6
CONTINUOUS
 62
    7
 10
612.73564681123116
 20
853.45752642421644
 11
605.27474362877797
 21
856.72431533401073
  0
LINE
  8
_0-0_
  6
CONTINUOUS
 62
    7
 10
605.27474362877797
 20
856.72431533401073
 11
598.26798884564846
 21
860.23440740283388
  0
LINE
  8
_0-0_
  6
CONTINUOUS
 62
    7
 10
598.26798884564846
 20
860.23440740283388
 11
591.71538246184241
 21
863.98771514303439
  0
LINE
  8
_0-0_
  6
CONTINUOUS
 62
    7
 10
591.71538246184241
 20
863.98771514303439
 11
585.61696822118563
 21
867.98441352991517
  0
LINE
  8
_0-0_
  6
CONTINUOUS
 62
    7
 10
585.61696822118563
 20
867.98441352991517
 11
579.97265863602684
 21
872.2242401005218
  0
LINE
  8
_0-0_
  6
CONTINUOUS
 62
    7
 10
579.97265863602684
 20
872.2242401005218
 11
574.78254119401731
 21
876.7074573178088
  0
LINE
  8
_0-0_
  6
CONTINUOUS
 62
    7
 10
574.78254119401731
 20
876.7074573178088
 11
570.90535093918731
 21
880.53023025335949
  0
LINE
  8
_0-0_
  6
CONTINUOUS
 62
    7
 10
570.90535093918731
 20
880.53023025335949
 11
567.44897628843091
 21
884.41336966849667
  0
LINE
  8
_0-0_
  6
CONTINUOUS
 62
    7
 10
567.44897628843091
 20
884.41336966849667
 11
564.41341724174822
 21
888.35687556322011
  0
LINE
  8
_0-0_
  6
CONTINUOUS
 62
    7
 10
564.41341724174822
 20
888.35687556322011
 11
561.79867379913912
 21
892.36083542518168
  0
LINE
  8
_0-0_
  6
CONTINUOUS
 62
    7
 10
561.79867379913912
 20
892.36083542518168
 11
559.60478970442955
 21
896.42524925438124
  0
LINE
  8
_0-0_
  6
CONTINUOUS
 62
    7
 10
559.60478970442955
 20
896.42524925438124
 11
557.83167746996787
 21
900.5500295631673
  0
LINE
  8
_0-0_
  6
CONTINUOUS
 62
    7
 10
557.83167746996787
 20
900.5500295631673
 11
556.47942458340572
 21
904.73517635153985
  0
LINE
  8
_0-0_
  6
CONTINUOUS
 62
    7
 10
556.47942458340572
 20
904.73517635153985
 11
555.54798730091704
 21
908.98068961949878
  0
LINE
  8
_0-0_
  6
CONTINUOUS
 62
    7
 10
733.86133805204986
 20
838.70282147381761
 11
739.48946242166755
 21
839.39992308156366
  0
LINE
  8
_0-0_
  6
CONTINUOUS
 62
    7
 10
739.48946242166755
 20
839.39992308156366
 11
745.05735154317608
 21
840.21758267317955
  0
LINE
  8
_0-0_
  6
CONTINUOUS
 62
    7
 10
745.05735154317608
 20
840.21758267317955
 11
750.56504916040126
 21
841.15571276101366
  0
LINE
  8
_0-0_
  6
CONTINUOUS
 62
    7
 10
750.56504916040126
 20
841.15571276101366
 11
756.01238029804006
 21
842.2144008327175
  0
LINE
  8
_0-0_
  6
CONTINUOUS
 62
    7
 10
756.01238029804006
 20
842.2144008327175
 11
761.39943244374399
 21
843.39347191298782
  0
LINE
  8
_0-0_
  6
CONTINUOUS
 62
    7
 10
761.39943244374399
 20
843.39347191298782
 11
766.72629308516446
 21
844.6931009771281
  0
LINE
  8
_0-0_
  6
CONTINUOUS
 62
    7
 10
766.72629308516446
 20
844.6931009771281
 11
771.99278724699866
 21
846.11320053748636
  0
LINE
  8
_0-0_
  6
CONTINUOUS
 62
    7
 10
771.99278724699866
 20
846.11320053748636
 11
777.1990899045494
 21
847.65377059406296
  0
LINE
  8
_0-0_
  6
CONTINUOUS
 62
    7
 10
777.1990899045494
 20
847.65377059406296
 11
785.56833362947555
 21
850.43404067345114
  0
LINE
  8
_0-0_
  6
CONTINUOUS
 62
    7
 10
785.56833362947555
 20
850.43404067345114
 11
793.4833414674265
 21
853.45752642421644
  0
LINE
  8
_0-0_
  6
CONTINUOUS
 62
    7
 10
793.4833414674265
 20
853.45752642421644
 11
800.94428839370551
 21
856.72431533401073
  0
LINE
  8
_0-0_
  6
CONTINUOUS
 62
    7
 10
800.94428839370551
 20
856.72431533401073
 11
807.9509994330092
 21
860.23440740283388
  0
LINE
  8
_0-0_
  6
CONTINUOUS
 62
    7
 10
807.9509994330092
 20
860.23440740283388
 11
814.50356207298955
 21
863.98771514303439
  0
LINE
  8
_0-0_
  6
CONTINUOUS
 62
    7
 10
814.50356207298955
 20
863.98771514303439
 11
820.60206380129773
 21
867.98441352991517
  0
LINE
  8
_0-0_
  6
CONTINUOUS
 62
    7
 10
820.60206380129773
 20
867.98441352991517
 11
826.24632964263083
 21
872.2242401005218
  0
LINE
  8
_0-0_
  6
CONTINUOUS
 62
    7
 10
826.24632964263083
 20
872.2242401005218
 11
831.43644708464035
 21
876.7074573178088
  0
LINE
  8
_0-0_
  6
CONTINUOUS
 62
    7
 10
831.43644708464035
 20
876.7074573178088
 11
835.31363733947046
 21
880.53023025335949
  0
LINE
  8
_0-0_
  6
CONTINUOUS
 62
    7
 10
835.31363733947046
 20
880.53023025335949
 11
838.77001199022675
 21
884.41336966849667
  0
LINE
  8
_0-0_
  6
CONTINUOUS
 62
    7
 10
838.77001199022675
 20
884.41336966849667
 11
841.80557103690944
 21
888.35687556322011
  0
LINE
  8
_0-0_
  6
CONTINUOUS
 62
    7
 10
841.80557103690944
 20
888.35687556322011
 11
844.42031447951854
 21
892.36083542518168
  0
LINE
  8
_0-0_
  6
CONTINUOUS
 62
    7
 10
844.42031447951854
 20
892.36083542518168
 11
846.61424231805381
 21
896.42524925438124
  0
LINE
  8
_0-0_
  6
CONTINUOUS
 62
    7
 10
846.61424231805381
 20
896.42524925438124
 11
848.38726706486409
 21
900.5500295631673
  0
LINE
  8
_0-0_
  6
CONTINUOUS
 62
    7
 10
848.38726706486409
 20
900.5500295631673
 11
849.73956369525217
 21
904.73517635153985
  0
LINE
  8
_0-0_
  6
CONTINUOUS
 62
    7
 10
849.73956369525217
 20
904.73517635153985
 11
850.67104472156655
 21
908.98068961949878
  0
LINE
  8
_0-0_
  6
CONTINUOUS
 62
    7
 10
671.09739060567608
 20
838.98068225521843
 11
734.06076615381426
 21
838.98068225521843
  0
LINE
  8
_0-0_
  6
CONTINUOUS
 62
    7
 10
551.50002115021334
 20
908.98068961949878
 11
855.50001313787618
 21
908.98068961949878
  0
LINE
  8
_0-0_
  6
CONTINUOUS
 62
    7
 10
877.82985827177185
 20
1444.7748400713945
 11
877.82985827177185
 21
1444.7748400713945
  0
LINE
  8
_0-0_
  6
CONTINUOUS
 62
    7
 10
877.82985827177185
 20
1444.7748400713945
 11
875.17121510149184
 21
1466.4782571278379
  0
LINE
  8
_0-0_
  6
CONTINUOUS
 62
    7
 10
875.17121510149184
 20
1466.4782571278379
 11
867.27606711804242
 21
1487.5222268394803
  0
LINE
  8
_0-0_
  6
CONTINUOUS
 62
    7
 10
867.27606711804242
 20
1487.5222268394803
 11
854.38430439776312
 21
1507.2673388353958
  0
LINE
  8
_0-0_
  6
CONTINUOUS
 62
    7
 10
854.38430439776312
 20
1507.2673388353958
 11
836.88763662736278
 21
1525.1136478790972
  0
LINE
  8
_0-0_
  6
CONTINUOUS
 62
    7
 10
836.88763662736278
 20
1525.1136478790972
 11
815.31769120330398
 21
1540.51890290096
  0
LINE
  8
_0-0_
  6
CONTINUOUS
 62
    7
 10
815.31769120330398
 20
1540.51890290096
 11
790.3298600023777
 21
1553.01502302258
  0
LINE
  8
_0-0_
  6
CONTINUOUS
 62
    7
 10
790.3298600023777
 20
1553.01502302258
 11
762.68338563117152
 21
1562.2223199574034
  0
LINE
  8
_0-0_
  6
CONTINUOUS
 62
    7
 10
762.68338563117152
 20
1562.2223199574034
 11
733.21829222366341
 21
1567.861034647183
  0
LINE
  8
_0-0_
  6
CONTINUOUS
 62
    7
 10
733.21829222366341
 20
1567.861034647183
 11
702.82986173298366
 21
1569.7598375993969
  0
LINE
  8
_0-0_
  6
CONTINUOUS
 62
    7
 10
702.82986173298366
 20
1569.7598375993969
 11
672.44143124230402
 21
1567.861034647183
  0
LINE
  8
_0-0_
  6
CONTINUOUS
 62
    7
 10
672.44143124230402
 20
1567.861034647183
 11
642.9763378347958
 21
1562.2223199574034
  0
LINE
  8
_0-0_
  6
CONTINUOUS
 62
    7
 10
642.9763378347958
 20
1562.2223199574034
 11
615.32986346358962
 21
1553.01502302258
  0
LINE
  8
_0-0_
  6
CONTINUOUS
 62
    7
 10
615.32986346358962
 20
1553.01502302258
 11
590.34203226266345
 21
1540.51890290096
  0
LINE
  8
_0-0_
  6
CONTINUOUS
 62
    7
 10
590.34203226266345
 20
1540.51890290096
 11
568.77208683860465
 21
1525.1136478790972
  0
LINE
  8
_0-0_
  6
CONTINUOUS
 62
    7
 10
568.77208683860465
 20
1525.1136478790972
 11
551.27541906820431
 21
1507.2673388353958
  0
LINE
  8
_0-0_
  6
CONTINUOUS
 62
    7
 10
551.27541906820431
 20
1507.2673388353958
 11
538.38365634792501
 21
1487.5222268394803
  0
LINE
  8
_0-0_
  6
CONTINUOUS
 62
    7
 10
538.38365634792501
 20
1487.5222268394803
 11
530.48850836447559
 21
1466.4782571278381
  0
LINE
  8
_0-0_
  6
CONTINUOUS
 62
    7
 10
530.48850836447559
 20
1466.4782571278381
 11
527.82986519419546
 21
1444.7748400713947
  0
LINE
  8
_0-0_
  6
CONTINUOUS
 62
    7
 10
527.82986519419546
 20
1444.7748400713947
 11
530.48850836447548
 21
1423.0714230149513
  0
LINE
  8
_0-0_
  6
CONTINUOUS
 62
    7
 10
530.48850836447548
 20
1423.0714230149513
 11
538.38365634792478
 21
1402.0274533033089
  0
LINE
  8
_0-0_
  6
CONTINUOUS
 62
    7
 10
538.38365634792478
 20
1402.0274533033089
 11
551.27541906820409
 21
1382.2823413073934
  0
LINE
  8
_0-0_
  6
CONTINUOUS
 62
    7
 10
551.27541906820409
 20
1382.2823413073934
 11
568.77208683860431
 21
1364.4360322636919
  0
LINE
  8
_0-0_
  6
CONTINUOUS
 62
    7
 10
568.77208683860431
 20
1364.4360322636919
 11
590.34203226266311
 21
1349.0307772418291
  0
LINE
  8
_0-0_
  6
CONTINUOUS
 62
    7
 10
590.34203226266311
 20
1349.0307772418291
 11
615.32986346358928
 21
1336.5346571202092
  0
LINE
  8
_0-0_
  6
CONTINUOUS
 62
    7
 10
615.32986346358928
 20
1336.5346571202092
 11
642.97633783479534
 21
1327.3273601853857
  0
LINE
  8
_0-0_
  6
CONTINUOUS
 62
    7
 10
642.97633783479534
 20
1327.3273601853857
 11
672.44143124230357
 21
1321.6886454956061
  0
LINE
  8
_0-0_
  6
CONTINUOUS
 62
    7
 10
672.44143124230357
 20
1321.6886454956061
 11
702.8298617329832
 21
1319.7898425433921
  0
LINE
  8
_0-0_
  6
CONTINUOUS
 62
    7
 10
702.8298617329832
 20
1319.7898425433921
 11
733.21829222366284
 21
1321.6886454956059
  0
LINE
  8
_0-0_
  6
CONTINUOUS
 62
    7
 10
733.21829222366284
 20
1321.6886454956059
 11
762.68338563117095
 21
1327.3273601853853
  0
LINE
  8
_0-0_
  6
CONTINUOUS
 62
    7
 10
762.68338563117095
 20
1327.3273601853853
 11
790.32986000237725
 21
1336.5346571202087
  0
LINE
  8
_0-0_
  6
CONTINUOUS
 62
    7
 10
790.32986000237725
 20
1336.5346571202087
 11
815.31769120330341
 21
1349.0307772418287
  0
LINE
  8
_0-0_
  6
CONTINUOUS
 62
    7
 10
815.31769120330341
 20
1349.0307772418287
 11
836.88763662736233
 21
1364.4360322636912
  0
LINE
  8
_0-0_
  6
CONTINUOUS
 62
    7
 10
836.88763662736233
 20
1364.4360322636912
 11
854.38430439776266
 21
1382.2823413073927
  0
LINE
  8
_0-0_
  6
CONTINUOUS
 62
    7
 10
854.38430439776266
 20
1382.2823413073927
 11
867.27606711804219
 21
1402.0274533033082
  0
LINE
  8
_0-0_
  6
CONTINUOUS
 62
    7
 10
867.27606711804219
 20
1402.0274533033082
 11
875.17121510149173
 21
1423.0714230149506
  0
LINE
  8
_0-0_
  6
CONTINUOUS
 62
    7
 10
875.17121510149173
 20
1423.0714230149506
 11
877.82985827177185
 21
1444.7748400713938
  0
LINE
  8
_0-0_
  6
CONTINUOUS
 62
    7
 10
877.82985827177185
 20
1444.7748400713938
 11
877.82985827177185
 21
1444.7748400713945
  0
LINE
  8
_0-0_
  6
CONTINUOUS
 62
    7
 10
850.63423429216652
 20
1444.4342506438147
 11
850.63423429216652
 21
1444.4342506438147
  0
LINE
  8
_0-0_
  6
CONTINUOUS
 62
    7
 10
850.63423429216652
 20
1444.4342506438147
 11
848.39337781559641
 21
1463.5339443325083
  0
LINE
  8
_0-0_
  6
CONTINUOUS
 62
    7
 10
848.39337781559641
 20
1463.5339443325083
 11
841.73889567599872
 21
1482.0533034933821
  0
LINE
  8
_0-0_
  6
CONTINUOUS
 62
    7
 10
841.73889567599872
 20
1482.0533034933821
 11
830.87298094585435
 21
1499.4296267695813
  0
LINE
  8
_0-0_
  6
CONTINUOUS
 62
    7
 10
830.87298094585435
 20
1499.4296267695813
 11
816.12578894582089
 21
1515.1349433712019
  0
LINE
  8
_0-0_
  6
CONTINUOUS
 62
    7
 10
816.12578894582089
 20
1515.1349433712019
 11
797.94540564238014
 21
1528.6920552005779
  0
LINE
  8
_0-0_
  6
CONTINUOUS
 62
    7
 10
797.94540564238014
 20
1528.6920552005779
 11
776.88423278248911
 21
1539.6890362750028
  0
LINE
  8
_0-0_
  6
CONTINUOUS
 62
    7
 10
776.88423278248911
 20
1539.6890362750028
 11
753.58220344602796
 21
1547.7917488892713
  0
LINE
  8
_0-0_
  6
CONTINUOUS
 62
    7
 10
753.58220344602796
 20
1547.7917488892713
 11
728.7473380029893
 21
1552.7539962207693
  0
LINE
  8
_0-0_
  6
CONTINUOUS
 62
    7
 10
728.7473380029893
 20
1552.7539962207693
 11
703.13423127281158
 21
1554.4250028953477
  0
LINE
  8
_0-0_
  6
CONTINUOUS
 62
    7
 10
703.13423127281158
 20
1554.4250028953477
 11
677.52112454263386
 21
1552.7539962207693
  0
LINE
  8
_0-0_
  6
CONTINUOUS
 62
    7
 10
677.52112454263386
 20
1552.7539962207693
 11
652.68625909959519
 21
1547.7917488892713
  0
LINE
  8
_0-0_
  6
CONTINUOUS
 62
    7
 10
652.68625909959519
 20
1547.7917488892713
 11
629.38422976313416
 21
1539.6890362750028
  0
LINE
  8
_0-0_
  6
CONTINUOUS
 62
    7
 10
629.38422976313416
 20
1539.6890362750028
 11
608.32305690324313
 21
1528.6920552005779
  0
LINE
  8
_0-0_
  6
CONTINUOUS
 62
    7
 10
608.32305690324313
 20
1528.6920552005779
 11
590.14267359980227
 21
1515.1349433712021
  0
LINE
  8
_0-0_
  6
CONTINUOUS
 62
    7
 10
590.14267359980227
 20
1515.1349433712021
 11
575.3954815997688
 21
1499.4296267695813
  0
LINE
  8
_0-0_
  6
CONTINUOUS
 62
    7
 10
575.3954815997688
 20
1499.4296267695813
 11
564.52956686962455
 21
1482.0533034933824
  0
LINE
  8
_0-0_
  6
CONTINUOUS
 62
    7
 10
564.52956686962455
 20
1482.0533034933824
 11
557.87508473002674
 21
1463.5339443325083
  0
LINE
  8
_0-0_
  6
CONTINUOUS
 62
    7
 10
557.87508473002674
 20
1463.5339443325083
 11
555.63422825345663
 21
1444.4342506438149
  0
LINE
  8
_0-0_
  6
CONTINUOUS
 62
    7
 10
555.63422825345663
 20
1444.4342506438149
 11
557.87508473002663
 21
1425.3345569551213
  0
LINE
  8
_0-0_
  6
CONTINUOUS
 62
    7
 10
557.87508473002663
 20
1425.3345569551213
 11
564.52956686962443
 21
1406.8151977942475
  0
LINE
  8
_0-0_
  6
CONTINUOUS
 62
    7
 10
564.52956686962443
 20
1406.8151977942475
 11
575.39548159976857
 21
1389.4388745180484
  0
LINE
  8
_0-0_
  6
CONTINUOUS
 62
    7
 10
575.39548159976857
 20
1389.4388745180484
 11
590.14267359980204
 21
1373.7335579164276
  0
LINE
  8
_0-0_
  6
CONTINUOUS
 62
    7
 10
590.14267359980204
 20
1373.7335579164276
 11
608.32305690324279
 21
1360.1764460870518
  0
LINE
  8
_0-0_
  6
CONTINUOUS
 62
    7
 10
608.32305690324279
 20
1360.1764460870518
 11
629.38422976313382
 21
1349.1794650126269
  0
LINE
  8
_0-0_
  6
CONTINUOUS
 62
    7
 10
629.38422976313382
 20
1349.1794650126269
 11
652.68625909959485
 21
1341.0767523983582
  0
LINE
  8
_0-0_
  6
CONTINUOUS
 62
    7
 10
652.68625909959485
 20
1341.0767523983582
 11
677.52112454263352
 21
1336.1145050668601
  0
LINE
  8
_0-0_
  6
CONTINUOUS
 62
    7
 10
677.52112454263352
 20
1336.1145050668601
 11
703.13423127281112
 21
1334.4434983922818
  0
LINE
  8
_0-0_
  6
CONTINUOUS
 62
    7
 10
703.13423127281112
 20
1334.4434983922818
 11
728.74733800298884
 21
1336.1145050668599
  0
LINE
  8
_0-0_
  6
CONTINUOUS
 62
    7
 10
728.74733800298884
 20
1336.1145050668599
 11
753.58220344602751
 21
1341.0767523983579
  0
LINE
  8
_0-0_
  6
CONTINUOUS
 62
    7
 10
753.58220344602751
 20
1341.0767523983579
 11
776.88423278248865
 21
1349.1794650126265
  0
LINE
  8
_0-0_
  6
CONTINUOUS
 62
    7
 10
776.88423278248865
 20
1349.1794650126265
 11
797.94540564237968
 21
1360.1764460870513
  0
LINE
  8
_0-0_
  6
CONTINUOUS
 62
    7
 10
797.94540564237968
 20
1360.1764460870513
 11
816.12578894582055
 21
1373.7335579164271
  0
LINE
  8
_0-0_
  6
CONTINUOUS
 62
    7
 10
816.12578894582055
 20
1373.7335579164271
 11
830.87298094585412
 21
1389.4388745180479
  0
LINE
  8
_0-0_
  6
CONTINUOUS
 62
    7
 10
830.87298094585412
 20
1389.4388745180479
 11
841.73889567599849
 21
1406.8151977942468
  0
LINE
  8
_0-0_
  6
CONTINUOUS
 62
    7
 10
841.73889567599849
 20
1406.8151977942468
 11
848.3933778155963
 21
1425.3345569551207
  0
LINE
  8
_0-0_
  6
CONTINUOUS
 62
    7
 10
848.3933778155963
 20
1425.3345569551207
 11
850.63423429216652
 21
1444.4342506438143
  0
LINE
  8
_0-0_
  6
CONTINUOUS
 62
    7
 10
850.63423429216652
 20
1444.4342506438143
 11
850.63423429216652
 21
1444.4342506438147
  0
LINE
  8
_0-0_
  6
CONTINUOUS
 62
    7
 10
702.57907837974517
 20
1477.3723016098197
 11
702.57907837974517
 21
1477.3723016098197
  0
LINE
  8
_0-0_
  6
CONTINUOUS
 62
    7
 10
702.57907837974517
 20
1477.3723016098197
 11
697.10933438183827
 21
1476.8785535782413
  0
LINE
  8
_0-0_
  6
CONTINUOUS
 62
    7
 10
697.10933438183827
 20
1476.8785535782413
 11
691.80578578748373
 21
1475.412311767597
  0
LINE
  8
_0-0_
  6
CONTINUOUS
 62
    7
 10
691.80578578748373
 20
1475.412311767597
 11
686.82957823699599
 21
1473.0181271933488
  0
LINE
  8
_0-0_
  6
CONTINUOUS
 62
    7
 10
686.82957823699599
 20
1473.0181271933488
 11
682.33191127871407
 21
1469.76874594227
  0
LINE
  8
_0-0_
  6
CONTINUOUS
 62
    7
 10
682.33191127871407
 20
1469.76874594227
 11
678.44944424723599
 21
1465.7628988194078
  0
LINE
  8
_0-0_
  6
CONTINUOUS
 62
    7
 10
678.44944424723599
 20
1465.7628988194078
 11
675.30014393869021
 21
1461.1223014625341
  0
LINE
  8
_0-0_
  6
CONTINUOUS
 62
    7
 10
675.30014393869021
 20
1461.1223014625341
 11
672.97970024932908
 21
1455.9879560740819
  0
LINE
  8
_0-0_
  6
CONTINUOUS
 62
    7
 10
672.97970024932908
 20
1455.9879560740819
 11
671.55861868645252
 21
1450.5158671405754
  0
LINE
  8
_0-0_
  6
CONTINUOUS
 62
    7
 10
671.55861868645252
 20
1450.5158671405754
 11
671.0800780942468
 21
1444.8723013152485
  0
LINE
  8
_0-0_
  6
CONTINUOUS
 62
    7
 10
671.0800780942468
 20
1444.8723013152485
 11
671.55861868645252
 21
1439.2287354899215
  0
LINE
  8
_0-0_
  6
CONTINUOUS
 62
    7
 10
671.55861868645252
 20
1439.2287354899215
 11
672.97970024932908
 21
1433.756646556415
  0
LINE
  8
_0-0_
  6
CONTINUOUS
 62
    7
 10
672.97970024932908
 20
1433.756646556415
 11
675.30014393869021
 21
1428.6223011679629
  0
LINE
  8
_0-0_
  6
CONTINUOUS
 62
    7
 10
675.30014393869021
 20
1428.6223011679629
 11
678.44944424723599
 21
1423.9817038110891
  0
LINE
  8
_0-0_
  6
CONTINUOUS
 62
    7
 10
678.44944424723599
 20
1423.9817038110891
 11
682.33191127871396
 21
1419.9758566882272
  0
LINE
  8
_0-0_
  6
CONTINUOUS
 62
    7
 10
682.33191127871396
 20
1419.9758566882272
 11
686.82957823699599
 21
1416.7264754371481
  0
LINE
  8
_0-0_
  6
CONTINUOUS
 62
    7
 10
686.82957823699599
 20
1416.7264754371481
 11
691.80578578748373
 21
1414.3322908629
  0
LINE
  8
_0-0_
  6
CONTINUOUS
 62
    7
 10
691.80578578748373
 20
1414.3322908629
 11
697.10933438183815
 21
1412.8660490522557
  0
LINE
  8
_0-0_
  6
CONTINUOUS
 62
    7
 10
697.10933438183815
 20
1412.8660490522557
 11
702.57907837974517
 21
1412.3723010206772
  0
LINE
  8
_0-0_
  6
CONTINUOUS
 62
    7
 10
702.57907837974517
 20
1412.3723010206772
 11
708.04882237765207
 21
1412.8660490522557
  0
LINE
  8
_0-0_
  6
CONTINUOUS
 62
    7
 10
708.04882237765207
 20
1412.8660490522557
 11
713.35237097200661
 21
1414.3322908629
  0
LINE
  8
_0-0_
  6
CONTINUOUS
 62
    7
 10
713.35237097200661
 20
1414.3322908629
 11
718.32857852249435
 21
1416.7264754371481
  0
LINE
  8
_0-0_
  6
CONTINUOUS
 62
    7
 10
718.32857852249435
 20
1416.7264754371481
 11
722.82624548077627
 21
1419.9758566882269
  0
LINE
  8
_0-0_
  6
CONTINUOUS
 62
    7
 10
722.82624548077627
 20
1419.9758566882269
 11
726.70871251225435
 21
1423.9817038110891
  0
LINE
  8
_0-0_
  6
CONTINUOUS
 62
    7
 10
726.70871251225435
 20
1423.9817038110891
 11
729.85801282080001
 21
1428.6223011679629
  0
LINE
  8
_0-0_
  6
CONTINUOUS
 62
    7
 10
729.85801282080001
 20
1428.6223011679629
 11
732.17845651016125
 21
1433.7566465564148
  0
LINE
  8
_0-0_
  6
CONTINUOUS
 62
    7
 10
732.17845651016125
 20
1433.7566465564148
 11
733.59953807303771
 21
1439.2287354899213
  0
LINE
  8
_0-0_
  6
CONTINUOUS
 62
    7
 10
733.59953807303771
 20
1439.2287354899213
 11
734.07807866524354
 21
1444.8723013152485
  0
LINE
  8
_0-0_
  6
CONTINUOUS
 62
    7
 10
734.07807866524354
 20
1444.8723013152485
 11
733.59953807303782
 21
1450.5158671405754
  0
LINE
  8
_0-0_
  6
CONTINUOUS
 62
    7
 10
733.59953807303782
 20
1450.5158671405754
 11
732.17845651016125
 21
1455.9879560740819
  0
LINE
  8
_0-0_
  6
CONTINUOUS
 62
    7
 10
732.17845651016125
 20
1455.9879560740819
 11
729.85801282080013
 21
1461.1223014625341
  0
LINE
  8
_0-0_
  6
CONTINUOUS
 62
    7
 10
729.85801282080013
 20
1461.1223014625341
 11
726.70871251225446
 21
1465.7628988194076
  0
LINE
  8
_0-0_
  6
CONTINUOUS
 62
    7
 10
726.70871251225446
 20
1465.7628988194076
 11
722.82624548077638
 21
1469.7687459422698
  0
LINE
  8
_0-0_
  6
CONTINUOUS
 62
    7
 10
722.82624548077638
 20
1469.7687459422698
 11
718.32857852249447
 21
1473.0181271933488
  0
LINE
  8
_0-0_
  6
CONTINUOUS
 62
    7
 10
718.32857852249447
 20
1473.0181271933488
 11
713.35237097200672
 21
1475.4123117675967
  0
LINE
  8
_0-0_
  6
CONTINUOUS
 62
    7
 10
713.35237097200672
 20
1475.4123117675967
 11
708.04882237765219
 21
1476.8785535782413
  0
LINE
  8
_0-0_
  6
CONTINUOUS
 62
    7
 10
708.04882237765219
 20
1476.8785535782413
 11
702.57907837974528
 21
1477.3723016098197
  0
LINE
  8
_0-0_
  6
CONTINUOUS
 62
    7
 10
702.57907837974528
 20
1477.3723016098197
 11
702.57907837974517
 21
1477.3723016098197
  0
CIRCLE
  8
_0-0_
  6
CONTINUOUS
 62
    7
 10
702.90085796223639
 20
1444.7763273614714
 40
22.000000283524798
  0
ENDSEC
  0
EOF
