  0
SECTION
  2
HEADER
  9
$ACADVER
  1
AC1009
  9
$INSBASE
 10
0
 20
0
 30
0
  9
$EXTMIN
 10
0
 20
0
  9
$EXTMAX
 10
2970
 20
2100
  9
$LIMMIN
 10
0
 20
0
  9
$LIMMAX
 10
2970
 20
2100
  9
$LTSCALE
 40
10
  0
ENDSEC
  0
SECTION
  2
TABLES
  0
TABLE
  2
LTYPE
 70
     9
  0
LTYPE
  2
CONTINUOUS
 70
    64
  3
実線
 72
    65
 73
     0
 40
0.0
  0
LTYPE
  2
DASHED1
 70
    64
  3
--  --  --  --  --  --  --  --  
 72
    65
 73
     2
 40
2.5
 49
1.25
 49
-1.25
  0
LTYPE
  2
DASHED2
 70
    64
  3
----    ----    ----    ----    
 72
    65
 73
     2
 40
5.0
 49
2.5
 49
-2.5
  0
LTYPE
  2
DASHED3
 70
    64
  3
------  ------  ------  ------  
 72
    65
 73
     2
 40
5.0
 49
3.75
 49
-1.25
  0
LTYPE
  2
CENTER1
 70
    64
  3
----- - ----- - ----- - ----- - 
 72
    65
 73
     4
 40
10.0
 49
6.25
 49
-1.25
 49
1.25
 49
-1.25
  0
LTYPE
  2
CENTER2
 70
    64
  3
----------  --  ----------  --  
 72
    65
 73
     4
 40
20.0
 49
12.5
 49
-2.5
 49
2.5
 49
-2.5
  0
LTYPE
  2
PHANTOM1
 70
    64
  3
--- - - --- - - --- - - --- - - 
 72
    65
 73
     6
 40
10.0
 49
3.25
 49
-1.25
 49
1.25
 49
-1.25
 49
1.25
 49
-1.25
  0
LTYPE
  2
PHANTOM2
 70
    64
  3
--------  -  -  --------  -  -  
 72
    65
 73
     6
 40
20.0
 49
10.0
 49
-2.5
 49
1.25
 49
-2.5
 49
1.25
 49
-2.5
  0
LTYPE
  2
DOT
 70
    64
  3
-   -   -   -   -   -   -   -   
 72
    65
 73
     2
 40
2.5
 49
0.625
 49
-1.875
  0
LTYPE
  2
DUMMY
 70
    64
  3
ダミー
 72
    65
 73
     0
 40
0.0
  0
LTYPE
  2
RAND1
 70
    64
  3
ランダム線1
 72
    65
 73
     4
 40
10.0
 49
1.0
 49
-2.0
 49
3.0
 49
-4.0
  0
LTYPE
  2
RAND2
 70
    64
  3
ランダム線2
 72
    65
 73
     4
 40
14.0
 49
2.0
 49
-3.0
 49
4.0
 49
-5.0
  0
LTYPE
  2
RAND3
 70
    64
  3
ランダム線3
 72
    65
 73
     4
 40
18.0
 49
3.0
 49
-4.0
 49
5.0
 49
-6.0
  0
LTYPE
  2
RAND4
 70
    64
  3
ランダム線4
 72
    65
 73
     4
 40
22.0
 49
4.0
 49
-5.0
 49
6.0
 49
-7.0
  0
LTYPE
  2
RAND5
 70
    64
  3
ランダム線5
 72
    65
 73
     4
 40
26.0
 49
5.0
 49
-6.0
 49
7.0
 49
-8.0
  0
LTYPE
  2
LONG1
 70
    64
  3
----------  --  ----------  --  
 72
    65
 73
     4
 40
40.0
 49
32.5
 49
-2.5
 49
2.5
 49
-2.5
  0
LTYPE
  2
LONG2
 70
    64
  3
--------  -  -  --------  -  -  
 72
    65
 73
     6
 40
40.0
 49
30.0
 49
-2.5
 49
1.25
 49
-2.5
 49
1.25
 49
-2.5
  0
LTYPE
  2
LONG3
 70
    64
  3
+++++++++++++++..+++++++++++++++
 72
    65
 73
     2
 40
40.0
 49
37.5
 49
-2.5
  0
LTYPE
  2
LONG4
 70
    64
  3
+++++++++++++++..+++++++++++++++
 72
    65
 73
     2
 40
80.0
 49
75.0
 49
-5.0
  0
LTYPE
  2
LONG5
 70
    64
  3
----------  --  ----------  --  
 72
    65
 73
     4
 40
60.0
 49
37.5
 49
-7.5
 49
7.5
 49
-7.5
  0
LTYPE
  2
dashed
 70
   64
  3
-------   -------------   ------
 72
   65
 73
    2
 40
7.5
 49
6
 49
-1.5
  0
LTYPE
  2
dashed_spaced
 70
   64
  3
----        --------        ----
 72
   65
 73
    2
 40
12
 49
6
 49
-6
  0
LTYPE
  2
long_dashed_dotted
 70
   64
  3
------------- --- --------------
 72
   65
 73
    4
 40
15.25
 49
12
 49
-1.5
 49
0.25
 49
-1.5
  0
LTYPE
  2
long_dashed_double-dotted
 70
   64
  3
----------- --- --- ------------
 72
   65
 73
    6
 40
17
 49
12
 49
-1.5
 49
0.25
 49
-1.5
 49
0.25
 49
-1.5
  0
LTYPE
  2
long_dashed_triplicate-dotted
 70
   64
  3
--------- --- --- --- ----------
 72
   65
 73
    8
 40
18.75
 49
12
 49
-1.5
 49
0.25
 49
-1.5
 49
0.25
 49
-1.5
 49
0.25
 49
-1.5
  0
LTYPE
  2
dotted
 70
   64
  3
   -       -       -       -    
 72
   65
 73
    2
 40
1.75
 49
0.25
 49
-1.5
  0
LTYPE
  2
chain
 70
   64
  3
-------------- -- --------------
 72
   65
 73
    4
 40
18.5
 49
12
 49
-1.5
 49
3.5
 49
-1.5
  0
LTYPE
  2
chain_double_dash
 70
   64
  3
------------ -- -- -------------
 72
   65
 73
    6
 40
23.5
 49
12
 49
-1.5
 49
3.5
 49
-1.5
 49
3.5
 49
-1.5
  0
LTYPE
  2
dashed_dotted
 70
   64
  3
-----------     -     ----------
 72
   65
 73
    4
 40
9.25
 49
6
 49
-1.5
 49
0.25
 49
-1.5
  0
LTYPE
  2
double-dashed_dotted
 70
   64
  3
------   -----------   -   -----
 72
   65
 73
    6
 40
16.75
 49
6
 49
-1.5
 49
6
 49
-1.5
 49
0.25
 49
-1.5
  0
LTYPE
  2
dashed_double-dotted
 70
   64
  3
---------    -    -    ---------
 72
   65
 73
    6
 40
11
 49
6
 49
-1.5
 49
0.25
 49
-1.5
 49
0.25
 49
-1.5
  0
LTYPE
  2
double-dashed_double-dotted
 70
   64
  3
-----   ---------   -   -   ----
 72
   65
 73
    8
 40
18.5
 49
6
 49
-1.5
 49
6
 49
-1.5
 49
0.25
 49
-1.5
 49
0.25
 49
-1.5
  0
LTYPE
  2
dashed_triplicate-dotted
 70
   64
  3
-------    -    -    -    ------
 72
   65
 73
    8
 40
12.75
 49
6
 49
-1.5
 49
0.25
 49
-1.5
 49
0.25
 49
-1.5
 49
0.25
 49
-1.5
  0
LTYPE
  2
double-dashed_triplicate-dotted
 70
   64
  3
-----  ---------  -  -  -  -----
 72
   65
 73
   10
 40
20.25
 49
6
 49
-1.5
 49
6
 49
-1.5
 49
0.25
 49
-1.5
 49
0.25
 49
-1.5
 49
0.25
 49
-1.5
  0
LTYPE
  2
undefined
 70
   64
  3
--------------------------------
 72
   65
 73
    0
 40
0
  0
LTYPE
  2
_
 70
   64
  3
                                
 72
   65
 73
    0
 40
0
  0
LTYPE
  2
__18
 70
   64
  3
                                
 72
   65
 73
    0
 40
0
  0
LTYPE
  2
__19
 70
   64
  3
                                
 72
   65
 73
    0
 40
0
  0
LTYPE
  2
__20
 70
   64
  3
                                
 72
   65
 73
    0
 40
0
  0
LTYPE
  2
__21
 70
   64
  3
                                
 72
   65
 73
    0
 40
0
  0
LTYPE
  2
__22
 70
   64
  3
                                
 72
   65
 73
    0
 40
0
  0
LTYPE
  2
__23
 70
   64
  3
                                
 72
   65
 73
    0
 40
0
  0
LTYPE
  2
__24
 70
   64
  3
                                
 72
   65
 73
    0
 40
0
  0
LTYPE
  2
__25
 70
   64
  3
                                
 72
   65
 73
    0
 40
0
  0
LTYPE
  2
__26
 70
   64
  3
                                
 72
   65
 73
    0
 40
0
  0
LTYPE
  2
__27
 70
   64
  3
                                
 72
   65
 73
    0
 40
0
  0
LTYPE
  2
__28
 70
   64
  3
                                
 72
   65
 73
    0
 40
0
  0
LTYPE
  2
__29
 70
   64
  3
                                
 72
   65
 73
    0
 40
0
  0
LTYPE
  2
__30
 70
   64
  3
                                
 72
   65
 73
    0
 40
0
  0
LTYPE
  2
__31
 70
   64
  3
                                
 72
   65
 73
    0
 40
0
  0
LTYPE
  2
__32
 70
   64
  3
                                
 72
   65
 73
    0
 40
0
  0
ENDTAB
  0
TABLE
  2
STYLE
  5
3
100
AcDbSymbolTable
 70
     1
  0
STYLE
  5
10
100
AcDbSymbolTableRecord
100
AcDbTextStyleTableRecord
  2
STANDARD
 70
     0
 40
0.0
 41
1.0
 50
0.0
 71
     0
 42
0.2
  3
txt
  4
bigfont.shx
  0
STYLE
  5
26
100
AcDbSymbolTableRecord
100
AcDbTextStyleTableRecord
  2
TATEGAKI
 70
    68
 40
0.0
 41
1.0
 50
0.0
 71
     0
 42
1.0
  3
txt
  4
bigfont.shx
  0
ENDTAB
  0
TABLE
  2
LAYER
 70
    4
  0
LAYER
  2
_0-0_
 70
   64
 62
    7
  6
CONTINUOUS
  0
LAYER
  2
_1-0_
 70
   64
 62
    7
  6
CONTINUOUS
  0
LAYER
  2
_1-1_
 70
   64
 62
    7
  6
CONTINUOUS
  0
LAYER
  2
ADD_LINE
 70
   64
 62
    7
  6
CONTINUOUS
  0
ENDTAB
  0
ENDSEC
  0
SECTION
  2
BLOCKS
  0
ENDSEC
  0
SECTION
  2
ENTITIES
  0
CIRCLE
  8
_1-0_
  6
CONTINUOUS
 62
    7
 10
485.00000103099921
 20
1119.5765901072145
 40
23.000000544956748
  0
CIRCLE
  8
_1-0_
  6
CONTINUOUS
 62
    7
 10
485.00000103099921
 20
1119.5765901072145
 40
119.99999856396531
  0
LINE
  8
_1-0_
  6
CONTINUOUS
 62
    7
 10
620.00000898442204
 20
1324.5766054249177
 11
620.00000898442204
 21
1119.5765901072145
  0
LINE
  8
_1-0_
  6
CONTINUOUS
 62
    7
 10
620.00000898442204
 20
1119.5765901072145
 11
617.40600011523622
 21
1093.2393949648588
  0
LINE
  8
_1-0_
  6
CONTINUOUS
 62
    7
 10
617.40600011523622
 20
1093.2393949648588
 11
609.72375317429942
 21
1067.9143444635693
  0
LINE
  8
_1-0_
  6
CONTINUOUS
 62
    7
 10
609.72375317429942
 20
1067.9143444635693
 11
597.2484077541983
 21
1044.5746512394614
  0
LINE
  8
_1-0_
  6
CONTINUOUS
 62
    7
 10
597.2484077541983
 20
1044.5746512394614
 11
580.4593961855619
 21
1024.1171512088258
  0
LINE
  8
_1-0_
  6
CONTINUOUS
 62
    7
 10
580.4593961855619
 20
1024.1171512088258
 11
560.00198364257812
 21
1007.3281833840153
  0
LINE
  8
_1-0_
  6
CONTINUOUS
 62
    7
 10
560.00198364257812
 20
1007.3281833840153
 11
536.66224667464439
 21
994.85288170773993
  0
LINE
  8
_1-0_
  6
CONTINUOUS
 62
    7
 10
536.66224667464439
 20
994.85288170773993
 11
511.33719617335487
 21
987.17059102297742
  0
LINE
  8
_1-0_
  6
CONTINUOUS
 62
    7
 10
511.33719617335487
 20
987.17059102297742
 11
485.00000103099921
 21
984.57658215379161
  0
LINE
  8
_1-0_
  6
CONTINUOUS
 62
    7
 10
485.00000103099921
 20
984.57658215379161
 11
458.66280588864356
 21
987.17059102297742
  0
LINE
  8
_1-0_
  6
CONTINUOUS
 62
    7
 10
458.66280588864356
 20
987.17059102297742
 11
433.33775538735409
 21
994.85288170773993
  0
LINE
  8
_1-0_
  6
CONTINUOUS
 62
    7
 10
433.33775538735409
 20
994.85288170773993
 11
409.9980184194203
 21
1007.3281833840153
  0
LINE
  8
_1-0_
  6
CONTINUOUS
 62
    7
 10
409.9980184194203
 20
1007.3281833840153
 11
389.54060587643653
 21
1024.1171512088258
  0
LINE
  8
_1-0_
  6
CONTINUOUS
 62
    7
 10
389.54060587643653
 20
1024.1171512088258
 11
372.75159430780008
 21
1044.5746512394614
  0
LINE
  8
_1-0_
  6
CONTINUOUS
 62
    7
 10
372.75159430780008
 20
1044.5746512394614
 11
360.27627075961192
 21
1067.9143444635693
  0
LINE
  8
_1-0_
  6
CONTINUOUS
 62
    7
 10
360.27627075961192
 20
1067.9143444635693
 11
352.59398007484936
 21
1093.2393949648588
  0
LINE
  8
_1-0_
  6
CONTINUOUS
 62
    7
 10
352.59398007484936
 20
1093.2393949648588
 11
349.99999307757633
 21
1119.5765901072145
  0
LINE
  8
_1-0_
  6
CONTINUOUS
 62
    7
 10
349.99999307757633
 20
1119.5765901072145
 11
349.99999307757633
 21
1324.5766054249177
  0
LINE
  8
_1-0_
  6
CONTINUOUS
 62
    7
 10
349.99999307757633
 20
1324.5766054249177
 11
620.00000898442204
 21
1324.5766054249177
  0
LINE
  8
_1-1_
  6
CONTINUOUS
 62
    7
 10
620.00000898442204
 20
539.98069704269346
 11
349.99999307757633
 21
539.98069704269346
  0
LINE
  8
_1-1_
  6
CONTINUOUS
 62
    7
 10
349.99999307757633
 20
539.98069704269346
 11
349.99999307757633
 21
661.9806961295227
  0
LINE
  8
_1-1_
  6
CONTINUOUS
 62
    7
 10
349.99999307757633
 20
661.9806961295227
 11
350.05764743996394
 21
662.56594477473072
  0
LINE
  8
_1-1_
  6
CONTINUOUS
 62
    7
 10
350.05764743996394
 20
662.56594477473072
 11
350.22835772009898
 21
663.12875283730989
  0
LINE
  8
_1-1_
  6
CONTINUOUS
 62
    7
 10
350.22835772009898
 20
663.12875283730989
 11
350.50558421602574
 21
663.6474233796697
  0
LINE
  8
_1-1_
  6
CONTINUOUS
 62
    7
 10
350.50558421602574
 20
663.6474233796697
 11
350.87867530616552
 21
664.10200921725118
  0
LINE
  8
_1-1_
  6
CONTINUOUS
 62
    7
 10
350.87867530616552
 20
664.10200921725118
 11
351.33328301565996
 21
664.4751003073909
  0
LINE
  8
_1-1_
  6
CONTINUOUS
 62
    7
 10
351.33328301565996
 20
664.4751003073909
 11
351.85195355801966
 21
664.75234867523068
  0
LINE
  8
_1-1_
  6
CONTINUOUS
 62
    7
 10
351.85195355801966
 20
664.75234867523068
 11
352.41473974868597
 21
664.92303708345275
  0
LINE
  8
_1-1_
  6
CONTINUOUS
 62
    7
 10
352.41473974868597
 20
664.92303708345275
 11
353.00001026580685
 21
664.98069144584042
  0
LINE
  8
_1-1_
  6
CONTINUOUS
 62
    7
 10
353.00001026580685
 20
664.98069144584042
 11
485.00000103099921
 21
664.98069144584042
  0
LINE
  8
_1-1_
  6
CONTINUOUS
 62
    7
 10
485.00000103099921
 20
664.98069144584042
 11
617.00001366810454
 21
664.98069144584042
  0
LINE
  8
_1-1_
  6
CONTINUOUS
 62
    7
 10
617.00001366810454
 20
664.98069144584042
 11
617.58526231331246
 21
664.92303708345275
  0
LINE
  8
_1-1_
  6
CONTINUOUS
 62
    7
 10
617.58526231331246
 20
664.92303708345275
 11
618.14807037589162
 21
664.75234867523068
  0
LINE
  8
_1-1_
  6
CONTINUOUS
 62
    7
 10
618.14807037589162
 20
664.75234867523068
 11
618.66669717442562
 21
664.4751003073909
  0
LINE
  8
_1-1_
  6
CONTINUOUS
 62
    7
 10
618.66669717442562
 20
664.4751003073909
 11
619.12132675583291
 21
664.10200921725118
  0
LINE
  8
_1-1_
  6
CONTINUOUS
 62
    7
 10
619.12132675583291
 20
664.10200921725118
 11
619.49441784597275
 21
663.6474233796697
  0
LINE
  8
_1-1_
  6
CONTINUOUS
 62
    7
 10
619.49441784597275
 20
663.6474233796697
 11
619.7716224699866
 21
663.12875283730989
  0
LINE
  8
_1-1_
  6
CONTINUOUS
 62
    7
 10
619.7716224699866
 20
663.12875283730989
 11
619.94235462203449
 21
662.56594477473072
  0
LINE
  8
_1-1_
  6
CONTINUOUS
 62
    7
 10
619.94235462203449
 20
662.56594477473072
 11
620.00000898442204
 21
661.9806961295227
  0
LINE
  8
_1-1_
  6
CONTINUOUS
 62
    7
 10
620.00000898442204
 20
661.9806961295227
 11
620.00000898442204
 21
539.98069704269346
  0
LINE
  8
_1-1_
  6
CONTINUOUS
 62
    7
 10
444.99999057372094
 20
584.98071427510968
 11
525.00001148827755
 21
584.98071427510968
  0
LINE
  8
_1-0_
  6
CONTINUOUS
 62
    7
 10
461.99997861412953
 20
539.98069704269346
 11
461.99997861412953
 21
574.9807007248337
  0
LINE
  8
_1-0_
  6
CONTINUOUS
 62
    7
 10
507.99997970404308
 20
539.98069704269346
 11
507.99997970404308
 21
574.9807007248337
  0
LINE
  8
_1-1_
  6
CONTINUOUS
 62
    7
 10
1334.9999717211631
 20
664.98069144584042
 11
1334.9999717211631
 21
539.98069704269346
  0
LINE
  8
_1-1_
  6
CONTINUOUS
 62
    7
 10
1334.9999717211631
 20
539.98069704269346
 11
995.00003593768849
 21
539.98069704269346
  0
LINE
  8
_1-1_
  6
CONTINUOUS
 62
    7
 10
995.00003593768849
 20
539.98069704269346
 11
995.00003593768849
 21
661.9806961295227
  0
LINE
  8
_1-1_
  6
CONTINUOUS
 62
    7
 10
995.00003593768849
 20
661.9806961295227
 11
995.05760281242465
 21
662.56594477473072
  0
LINE
  8
_1-1_
  6
CONTINUOUS
 62
    7
 10
995.05760281242465
 20
662.56594477473072
 11
995.22837870829801
 21
663.12875283730989
  0
LINE
  8
_1-1_
  6
CONTINUOUS
 62
    7
 10
995.22837870829801
 20
663.12875283730989
 11
995.5056270761379
 21
663.6474233796697
  0
LINE
  8
_1-1_
  6
CONTINUOUS
 62
    7
 10
995.5056270761379
 20
663.6474233796697
 11
995.87867442245181
 21
664.10200921725118
  0
LINE
  8
_1-1_
  6
CONTINUOUS
 62
    7
 10
995.87867442245181
 20
664.10200921725118
 11
996.33326026003328
 21
664.4751003073909
  0
LINE
  8
_1-1_
  6
CONTINUOUS
 62
    7
 10
996.33326026003328
 20
664.4751003073909
 11
996.8519745462188
 21
664.75234867523068
  0
LINE
  8
_1-1_
  6
CONTINUOUS
 62
    7
 10
996.8519745462188
 20
664.75234867523068
 11
997.41469512114645
 21
664.92303708345275
  0
LINE
  8
_1-1_
  6
CONTINUOUS
 62
    7
 10
997.41469512114645
 20
664.92303708345275
 11
997.9999875101804
 21
664.98069144584042
  0
LINE
  8
_1-1_
  6
CONTINUOUS
 62
    7
 10
997.9999875101804
 20
664.98069144584042
 11
1334.9999717211631
 21
664.98069144584042
  0
LINE
  8
_1-0_
  6
CONTINUOUS
 62
    7
 10
1089.9999896900072
 20
584.98071427510968
 11
1170.0000106045636
 21
584.98071427510968
  0
LINE
  8
_1-1_
  6
CONTINUOUS
 62
    7
 10
1089.9999896900072
 20
584.98071427510968
 11
1170.0000106045636
 21
584.98071427510968
  0
LINE
  8
_1-0_
  6
CONTINUOUS
 62
    7
 10
1106.9999777304158
 20
539.98069704269346
 11
1106.9999777304158
 21
574.9807007248337
  0
LINE
  8
_1-0_
  6
CONTINUOUS
 62
    7
 10
1153.0000225641552
 20
539.98069704269346
 11
1153.0000225641552
 21
574.9807007248337
  0
CIRCLE
  8
_1-0_
  6
CONTINUOUS
 62
    7
 10
400.00001708513054
 20
1279.5766319363272
 40
17.500000474075552
  0
ARC
  8
_1-1_
  6
CONTINUOUS
 62
    7
 10
485.00000103099921
 20
704.98070190311853
 40
126.49110112871442
 50
198.4349365234375
 51
251.56504821777344
  0
ARC
  8
_1-1_
  6
CONTINUOUS
 62
    7
 10
485.00000103099921
 20
704.98070190311853
 40
126.49110112871442
 50
288.4349365234375
 51
341.56504821777344
  0
ARC
  8
_1-0_
  6
CONTINUOUS
 62
    7
 10
452.00000880767931
 20
574.9807007248337
 40
9.9999998803304422
 50
0
 51
90
  0
ARC
  8
_1-0_
  6
CONTINUOUS
 62
    7
 10
517.99999325431918
 20
574.9807007248337
 40
9.9999998803304422
 50
90
 51
180
  0
ARC
  8
_1-0_
  6
CONTINUOUS
 62
    7
 10
1129.9999564034597
 20
704.98070190311853
 40
126.49110112871442
 50
198.4349365234375
 51
251.56504821777344
  0
ARC
  8
_1-0_
  6
CONTINUOUS
 62
    7
 10
1129.9999564034597
 20
704.98070190311853
 40
126.49110112871442
 50
288.4349365234375
 51
341.56504821777344
  0
ARC
  8
_1-0_
  6
CONTINUOUS
 62
    7
 10
1096.9999641801401
 20
574.9807007248337
 40
9.9999998803304422
 50
0
 51
90
  0
ARC
  8
_1-0_
  6
CONTINUOUS
 62
    7
 10
1163.0000361144312
 20
574.9807007248337
 40
9.9999998803304422
 50
90
 51
180
  0
TEXT
  8
_0-0_
 62
    7
 10
2764.4304639308143
 20
252.52514489369048
 40
30
 41
1
 50
0
  1
    
  0
TEXT
  8
_0-0_
 62
    7
 10
2344.4305072327834
 20
252.52514489369048
 40
30
 41
1
 50
0
  1
    
  0
TEXT
  8
_0-0_
 62
    6
 10
1963.0661800193047
 20
1789.9725047225656
 40
100
 41
1
 50
0
  1
 B1-K201-L_
  0
ENDSEC
  0
EOF
