  0
SECTION
  2
HEADER
  9
$ACADVER
  1
AC1009
  9
$INSBASE
 10
0
 20
0
 30
0
  9
$EXTMIN
 10
0
 20
0
  9
$EXTMAX
 10
2970
 20
2100
  9
$LIMMIN
 10
0
 20
0
  9
$LIMMAX
 10
2970
 20
2100
  9
$LTSCALE
 40
10
  0
ENDSEC
  0
SECTION
  2
TABLES
  0
TABLE
  2
LTYPE
 70
     9
  0
LTYPE
  2
CONTINUOUS
 70
    64
  3
実線
 72
    65
 73
     0
 40
0.0
  0
LTYPE
  2
DASHED1
 70
    64
  3
--  --  --  --  --  --  --  --  
 72
    65
 73
     2
 40
2.5
 49
1.25
 49
-1.25
  0
LTYPE
  2
DASHED2
 70
    64
  3
----    ----    ----    ----    
 72
    65
 73
     2
 40
5.0
 49
2.5
 49
-2.5
  0
LTYPE
  2
DASHED3
 70
    64
  3
------  ------  ------  ------  
 72
    65
 73
     2
 40
5.0
 49
3.75
 49
-1.25
  0
LTYPE
  2
CENTER1
 70
    64
  3
----- - ----- - ----- - ----- - 
 72
    65
 73
     4
 40
10.0
 49
6.25
 49
-1.25
 49
1.25
 49
-1.25
  0
LTYPE
  2
CENTER2
 70
    64
  3
----------  --  ----------  --  
 72
    65
 73
     4
 40
20.0
 49
12.5
 49
-2.5
 49
2.5
 49
-2.5
  0
LTYPE
  2
PHANTOM1
 70
    64
  3
--- - - --- - - --- - - --- - - 
 72
    65
 73
     6
 40
10.0
 49
3.25
 49
-1.25
 49
1.25
 49
-1.25
 49
1.25
 49
-1.25
  0
LTYPE
  2
PHANTOM2
 70
    64
  3
--------  -  -  --------  -  -  
 72
    65
 73
     6
 40
20.0
 49
10.0
 49
-2.5
 49
1.25
 49
-2.5
 49
1.25
 49
-2.5
  0
LTYPE
  2
DOT
 70
    64
  3
-   -   -   -   -   -   -   -   
 72
    65
 73
     2
 40
2.5
 49
0.625
 49
-1.875
  0
LTYPE
  2
DUMMY
 70
    64
  3
ダミー
 72
    65
 73
     0
 40
0.0
  0
LTYPE
  2
RAND1
 70
    64
  3
ランダム線1
 72
    65
 73
     4
 40
10.0
 49
1.0
 49
-2.0
 49
3.0
 49
-4.0
  0
LTYPE
  2
RAND2
 70
    64
  3
ランダム線2
 72
    65
 73
     4
 40
14.0
 49
2.0
 49
-3.0
 49
4.0
 49
-5.0
  0
LTYPE
  2
RAND3
 70
    64
  3
ランダム線3
 72
    65
 73
     4
 40
18.0
 49
3.0
 49
-4.0
 49
5.0
 49
-6.0
  0
LTYPE
  2
RAND4
 70
    64
  3
ランダム線4
 72
    65
 73
     4
 40
22.0
 49
4.0
 49
-5.0
 49
6.0
 49
-7.0
  0
LTYPE
  2
RAND5
 70
    64
  3
ランダム線5
 72
    65
 73
     4
 40
26.0
 49
5.0
 49
-6.0
 49
7.0
 49
-8.0
  0
LTYPE
  2
LONG1
 70
    64
  3
----------  --  ----------  --  
 72
    65
 73
     4
 40
40.0
 49
32.5
 49
-2.5
 49
2.5
 49
-2.5
  0
LTYPE
  2
LONG2
 70
    64
  3
--------  -  -  --------  -  -  
 72
    65
 73
     6
 40
40.0
 49
30.0
 49
-2.5
 49
1.25
 49
-2.5
 49
1.25
 49
-2.5
  0
LTYPE
  2
LONG3
 70
    64
  3
+++++++++++++++..+++++++++++++++
 72
    65
 73
     2
 40
40.0
 49
37.5
 49
-2.5
  0
LTYPE
  2
LONG4
 70
    64
  3
+++++++++++++++..+++++++++++++++
 72
    65
 73
     2
 40
80.0
 49
75.0
 49
-5.0
  0
LTYPE
  2
LONG5
 70
    64
  3
----------  --  ----------  --  
 72
    65
 73
     4
 40
60.0
 49
37.5
 49
-7.5
 49
7.5
 49
-7.5
  0
LTYPE
  2
dashed
 70
   64
  3
-------   -------------   ------
 72
   65
 73
    2
 40
7.5
 49
6
 49
-1.5
  0
LTYPE
  2
dashed_spaced
 70
   64
  3
----        --------        ----
 72
   65
 73
    2
 40
12
 49
6
 49
-6
  0
LTYPE
  2
long_dashed_dotted
 70
   64
  3
------------- --- --------------
 72
   65
 73
    4
 40
15.25
 49
12
 49
-1.5
 49
0.25
 49
-1.5
  0
LTYPE
  2
long_dashed_double-dotted
 70
   64
  3
----------- --- --- ------------
 72
   65
 73
    6
 40
17
 49
12
 49
-1.5
 49
0.25
 49
-1.5
 49
0.25
 49
-1.5
  0
LTYPE
  2
long_dashed_triplicate-dotted
 70
   64
  3
--------- --- --- --- ----------
 72
   65
 73
    8
 40
18.75
 49
12
 49
-1.5
 49
0.25
 49
-1.5
 49
0.25
 49
-1.5
 49
0.25
 49
-1.5
  0
LTYPE
  2
dotted
 70
   64
  3
   -       -       -       -    
 72
   65
 73
    2
 40
1.75
 49
0.25
 49
-1.5
  0
LTYPE
  2
chain
 70
   64
  3
-------------- -- --------------
 72
   65
 73
    4
 40
18.5
 49
12
 49
-1.5
 49
3.5
 49
-1.5
  0
LTYPE
  2
chain_double_dash
 70
   64
  3
------------ -- -- -------------
 72
   65
 73
    6
 40
23.5
 49
12
 49
-1.5
 49
3.5
 49
-1.5
 49
3.5
 49
-1.5
  0
LTYPE
  2
dashed_dotted
 70
   64
  3
-----------     -     ----------
 72
   65
 73
    4
 40
9.25
 49
6
 49
-1.5
 49
0.25
 49
-1.5
  0
LTYPE
  2
double-dashed_dotted
 70
   64
  3
------   -----------   -   -----
 72
   65
 73
    6
 40
16.75
 49
6
 49
-1.5
 49
6
 49
-1.5
 49
0.25
 49
-1.5
  0
LTYPE
  2
dashed_double-dotted
 70
   64
  3
---------    -    -    ---------
 72
   65
 73
    6
 40
11
 49
6
 49
-1.5
 49
0.25
 49
-1.5
 49
0.25
 49
-1.5
  0
LTYPE
  2
double-dashed_double-dotted
 70
   64
  3
-----   ---------   -   -   ----
 72
   65
 73
    8
 40
18.5
 49
6
 49
-1.5
 49
6
 49
-1.5
 49
0.25
 49
-1.5
 49
0.25
 49
-1.5
  0
LTYPE
  2
dashed_triplicate-dotted
 70
   64
  3
-------    -    -    -    ------
 72
   65
 73
    8
 40
12.75
 49
6
 49
-1.5
 49
0.25
 49
-1.5
 49
0.25
 49
-1.5
 49
0.25
 49
-1.5
  0
LTYPE
  2
double-dashed_triplicate-dotted
 70
   64
  3
-----  ---------  -  -  -  -----
 72
   65
 73
   10
 40
20.25
 49
6
 49
-1.5
 49
6
 49
-1.5
 49
0.25
 49
-1.5
 49
0.25
 49
-1.5
 49
0.25
 49
-1.5
  0
LTYPE
  2
undefined
 70
   64
  3
--------------------------------
 72
   65
 73
    0
 40
0
  0
LTYPE
  2
_
 70
   64
  3
                                
 72
   65
 73
    0
 40
0
  0
LTYPE
  2
__18
 70
   64
  3
                                
 72
   65
 73
    0
 40
0
  0
LTYPE
  2
__19
 70
   64
  3
                                
 72
   65
 73
    0
 40
0
  0
LTYPE
  2
__20
 70
   64
  3
                                
 72
   65
 73
    0
 40
0
  0
LTYPE
  2
__21
 70
   64
  3
                                
 72
   65
 73
    0
 40
0
  0
LTYPE
  2
__22
 70
   64
  3
                                
 72
   65
 73
    0
 40
0
  0
LTYPE
  2
__23
 70
   64
  3
                                
 72
   65
 73
    0
 40
0
  0
LTYPE
  2
__24
 70
   64
  3
                                
 72
   65
 73
    0
 40
0
  0
LTYPE
  2
__25
 70
   64
  3
                                
 72
   65
 73
    0
 40
0
  0
LTYPE
  2
__26
 70
   64
  3
                                
 72
   65
 73
    0
 40
0
  0
LTYPE
  2
__27
 70
   64
  3
                                
 72
   65
 73
    0
 40
0
  0
LTYPE
  2
__28
 70
   64
  3
                                
 72
   65
 73
    0
 40
0
  0
LTYPE
  2
__29
 70
   64
  3
                                
 72
   65
 73
    0
 40
0
  0
LTYPE
  2
__30
 70
   64
  3
                                
 72
   65
 73
    0
 40
0
  0
LTYPE
  2
__31
 70
   64
  3
                                
 72
   65
 73
    0
 40
0
  0
LTYPE
  2
__32
 70
   64
  3
                                
 72
   65
 73
    0
 40
0
  0
ENDTAB
  0
TABLE
  2
STYLE
  5
3
100
AcDbSymbolTable
 70
     1
  0
STYLE
  5
10
100
AcDbSymbolTableRecord
100
AcDbTextStyleTableRecord
  2
STANDARD
 70
     0
 40
0.0
 41
1.0
 50
0.0
 71
     0
 42
0.2
  3
txt
  4
bigfont.shx
  0
STYLE
  5
26
100
AcDbSymbolTableRecord
100
AcDbTextStyleTableRecord
  2
TATEGAKI
 70
    68
 40
0.0
 41
1.0
 50
0.0
 71
     0
 42
1.0
  3
txt
  4
bigfont.shx
  0
ENDTAB
  0
TABLE
  2
LAYER
 70
    4
  0
LAYER
  2
_0-0_
 70
   64
 62
    7
  6
CONTINUOUS
  0
LAYER
  2
_1-0_
 70
   64
 62
    7
  6
CONTINUOUS
  0
LAYER
  2
_5-1_
 70
   64
 62
    7
  6
CONTINUOUS
  0
LAYER
  2
ADD_LINE
 70
   64
 62
    7
  6
CONTINUOUS
  0
ENDTAB
  0
ENDSEC
  0
SECTION
  2
BLOCKS
  0
ENDSEC
  0
SECTION
  2
ENTITIES
  0
LINE
  8
_1-0_
  6
CONTINUOUS
 62
    7
 10
245.00000390306866
 20
571.49038086526639
 11
702.70593547452836
 21
571.49038086526639
  0
LINE
  8
_1-0_
  6
CONTINUOUS
 62
    7
 10
1103.4374805582997
 20
571.49038086526639
 11
1105.7315817578879
 21
571.49038086526639
  0
LINE
  8
_1-0_
  6
CONTINUOUS
 62
    7
 10
1563.4375789450862
 20
571.49038086526639
 11
1561.1434777454979
 21
571.49038086526639
  0
LINE
  8
_1-0_
  6
CONTINUOUS
 62
    7
 10
1098.4374737831615
 20
566.49041783395421
 11
1098.4374737831615
 21
491.49040369453576
  0
LINE
  8
_1-0_
  6
CONTINUOUS
 62
    7
 10
1568.4374982325726
 20
566.49041783395421
 11
1568.4374982325726
 21
491.49040369453576
  0
LINE
  8
_1-0_
  6
CONTINUOUS
 62
    7
 10
1098.4374737831615
 20
490.99041176578709
 11
1124.6504364602813
 21
490.99041176578709
  0
LINE
  8
_1-0_
  6
CONTINUOUS
 62
    7
 10
1568.4374982325726
 20
490.99041176578709
 11
1542.9191000213032
 21
490.99041176578709
  0
LINE
  8
_1-0_
  6
CONTINUOUS
 62
    7
 10
1308.4374958760029
 20
430.07796548968571
 11
1308.4374958760029
 21
406.49037600484121
  0
LINE
  8
_1-0_
  6
CONTINUOUS
 62
    7
 10
1308.4374958760029
 20
406.49037600484121
 11
1358.4374761397314
 21
406.49037600484121
  0
LINE
  8
_1-0_
  6
CONTINUOUS
 62
    7
 10
1358.4374761397314
 20
406.49037600484121
 11
1358.4374761397314
 21
430.07796548968571
  0
LINE
  8
_1-0_
  6
CONTINUOUS
 62
    7
 10
1308.4374958760029
 20
406.49037600484121
 11
1308.4374958760029
 21
441.20337644599118
  0
LINE
  8
_1-0_
  6
CONTINUOUS
 62
    7
 10
1358.4374761397314
 20
406.49037600484121
 11
1358.4374761397314
 21
441.20337644599118
  0
LINE
  8
_1-0_
  6
CONTINUOUS
 62
    7
 10
1542.1873533035337
 20
548.99039412097113
 11
1533.4375382942583
 21
548.99039412097113
  0
LINE
  8
_1-0_
  6
CONTINUOUS
 62
    7
 10
1533.4375382942583
 20
548.99039412097113
 11
1523.4375247439823
 21
538.99038057069515
  0
LINE
  8
_1-0_
  6
CONTINUOUS
 62
    7
 10
1523.4375247439823
 20
528.0315461029877
 11
1523.4375247439823
 21
538.99038057069515
  0
LINE
  8
_1-0_
  6
CONTINUOUS
 62
    7
 10
1103.4374805582997
 20
571.49038086526639
 11
1561.1434777454979
 21
571.49038086526639
  0
LINE
  8
_1-0_
  6
CONTINUOUS
 62
    7
 10
1139.6504567856955
 20
488.74040434259246
 11
1157.847275899644
 21
488.74040434259246
  0
LINE
  8
_1-0_
  6
CONTINUOUS
 62
    7
 10
1509.0276086284384
 20
488.74040434259246
 11
1527.2245152300388
 21
488.74040434259246
  0
LINE
  8
_1-0_
  6
CONTINUOUS
 62
    7
 10
245.00000390306866
 20
571.49038086526639
 11
247.29403948691811
 21
571.49038086526639
  0
LINE
  8
_1-0_
  6
CONTINUOUS
 62
    7
 10
704.99999293029077
 20
571.49038086526639
 11
702.70593547452836
 21
571.49038086526639
  0
LINE
  8
_1-0_
  6
CONTINUOUS
 62
    7
 10
239.99999712793056
 20
566.49041783395421
 11
239.99999712793056
 21
491.49040369453576
  0
LINE
  8
_1-0_
  6
CONTINUOUS
 62
    7
 10
709.99999970542876
 20
566.49041783395421
 11
709.99999970542876
 21
491.49040369453576
  0
LINE
  8
_1-0_
  6
CONTINUOUS
 62
    7
 10
239.99999712793056
 20
490.99041176578709
 11
266.21293793313754
 21
490.99041176578709
  0
LINE
  8
_1-0_
  6
CONTINUOUS
 62
    7
 10
709.99999970542876
 20
490.99041176578709
 11
684.48155775033365
 21
490.99041176578709
  0
LINE
  8
_1-0_
  6
CONTINUOUS
 62
    7
 10
449.99999734885904
 20
430.07796548968571
 11
449.99999734885904
 21
406.49037600484121
  0
LINE
  8
_1-0_
  6
CONTINUOUS
 62
    7
 10
449.99999734885904
 20
406.49037600484121
 11
500.00002135641324
 21
406.49037600484121
  0
LINE
  8
_1-0_
  6
CONTINUOUS
 62
    7
 10
500.00002135641324
 20
406.49037600484121
 11
500.00002135641324
 21
430.07796548968571
  0
LINE
  8
_1-0_
  6
CONTINUOUS
 62
    7
 10
449.99999734885904
 20
406.49037600484121
 11
449.99999734885904
 21
441.20337644599118
  0
LINE
  8
_1-0_
  6
CONTINUOUS
 62
    7
 10
500.00002135641324
 20
406.49037600484121
 11
500.00002135641324
 21
441.20337644599118
  0
LINE
  8
_1-0_
  6
CONTINUOUS
 62
    7
 10
281.2129363866386
 20
488.74040434259246
 11
299.40982111632593
 21
488.74040434259246
  0
LINE
  8
_1-0_
  6
CONTINUOUS
 62
    7
 10
650.59019758894635
 20
488.74040434259246
 11
668.78706044672072
 21
488.74040434259246
  0
LINE
  8
_5-1_
  6
CONTINUOUS
 62
   18
 10
702.83979158143734
 20
1241.1983363324609
 11
699.35113398724991
 21
1237.606180846461
  0
LINE
  8
_5-1_
  6
CONTINUOUS
 62
   18
 10
702.83979158143734
 20
1241.1983363324609
 11
698.3329526982252
 21
1239.0159568639335
  0
LINE
  8
_5-1_
  6
CONTINUOUS
 62
   18
 10
699.35113398724991
 20
1237.606180846461
 11
698.3329526982252
 21
1239.0159568639335
  0
CIRCLE
  8
_1-0_
  6
CONTINUOUS
 62
    7
 10
474.99998748072329
 20
1257.303063234307
 40
234.99999035279262
  0
CIRCLE
  8
_1-0_
  6
CONTINUOUS
 62
    7
 10
474.99998748072329
 20
1257.303063234307
 40
224.99999867442952
  0
CIRCLE
  8
_1-0_
  6
CONTINUOUS
 62
    7
 10
474.99998748072329
 20
1257.303063234307
 40
25.000001067820662
  0
LINE
  8
_1-0_
  6
CONTINUOUS
 62
    7
 10
489.99998730121894
 20
1457.3029842892208
 11
489.99998730121894
 21
1457.3029842892208
  0
LINE
  8
_1-0_
  6
CONTINUOUS
 62
    7
 10
489.99998730121894
 20
1457.3029842892208
 11
489.77210359912914
 21
1458.6053456061375
  0
LINE
  8
_1-0_
  6
CONTINUOUS
 62
    7
 10
489.77210359912914
 20
1458.6053456061375
 11
489.09537662383303
 21
1459.8681353334664
  0
LINE
  8
_1-0_
  6
CONTINUOUS
 62
    7
 10
489.09537662383303
 20
1459.8681353334664
 11
487.99036838203455
 21
1461.0529842443448
  0
LINE
  8
_1-0_
  6
CONTINUOUS
 62
    7
 10
487.99036838203455
 20
1461.0529842443448
 11
486.49065398999966
 21
1462.1238913041782
  0
LINE
  8
_1-0_
  6
CONTINUOUS
 62
    7
 10
486.49065398999966
 20
1462.1238913041782
 11
484.64180151063823
 21
1463.048317543859
  0
LINE
  8
_1-0_
  6
CONTINUOUS
 62
    7
 10
484.64180151063823
 20
1463.048317543859
 11
482.49998739097111
 21
1463.7981747398765
  0
LINE
  8
_1-0_
  6
CONTINUOUS
 62
    7
 10
482.49998739097111
 20
1463.7981747398765
 11
480.1302895692142
 21
1464.3506788607756
  0
LINE
  8
_1-0_
  6
CONTINUOUS
 62
    7
 10
480.1302895692142
 20
1464.3506788607756
 11
477.60471011455667
 21
1464.6890423484238
  0
LINE
  8
_1-0_
  6
CONTINUOUS
 62
    7
 10
477.60471011455667
 20
1464.6890423484238
 11
474.99998748072329
 21
1464.8029841994687
  0
LINE
  8
_1-0_
  6
CONTINUOUS
 62
    7
 10
474.99998748072329
 20
1464.8029841994687
 11
472.39526484688992
 21
1464.6890423484238
  0
LINE
  8
_1-0_
  6
CONTINUOUS
 62
    7
 10
472.39526484688992
 20
1464.6890423484238
 11
469.86968539223238
 21
1464.3506788607756
  0
LINE
  8
_1-0_
  6
CONTINUOUS
 62
    7
 10
469.86968539223238
 20
1464.3506788607756
 11
467.49998757047547
 21
1463.7981747398765
  0
LINE
  8
_1-0_
  6
CONTINUOUS
 62
    7
 10
467.49998757047547
 20
1463.7981747398765
 11
465.35817345080835
 21
1463.048317543859
  0
LINE
  8
_1-0_
  6
CONTINUOUS
 62
    7
 10
465.35817345080835
 20
1463.048317543859
 11
463.50932097144693
 21
1462.1238913041782
  0
LINE
  8
_1-0_
  6
CONTINUOUS
 62
    7
 10
463.50932097144693
 20
1462.1238913041782
 11
462.00960657941204
 21
1461.0529842443448
  0
LINE
  8
_1-0_
  6
CONTINUOUS
 62
    7
 10
462.00960657941204
 20
1461.0529842443448
 11
460.90459833761355
 21
1459.8681353334664
  0
LINE
  8
_1-0_
  6
CONTINUOUS
 62
    7
 10
460.90459833761355
 20
1459.8681353334664
 11
460.22787136231744
 21
1458.6053456061375
  0
LINE
  8
_1-0_
  6
CONTINUOUS
 62
    7
 10
460.22787136231744
 20
1458.6053456061375
 11
459.99998766022765
 21
1457.3029842892208
  0
LINE
  8
_1-0_
  6
CONTINUOUS
 62
    7
 10
459.99998766022765
 20
1457.3029842892208
 11
460.22787136231744
 21
1456.0006229723042
  0
LINE
  8
_1-0_
  6
CONTINUOUS
 62
    7
 10
460.22787136231744
 20
1456.0006229723042
 11
460.90459833761355
 21
1454.7378332449755
  0
LINE
  8
_1-0_
  6
CONTINUOUS
 62
    7
 10
460.90459833761355
 20
1454.7378332449755
 11
462.00960657941204
 21
1453.5529843340969
  0
LINE
  8
_1-0_
  6
CONTINUOUS
 62
    7
 10
462.00960657941204
 20
1453.5529843340969
 11
463.50932097144693
 21
1452.4820772742635
  0
LINE
  8
_1-0_
  6
CONTINUOUS
 62
    7
 10
463.50932097144693
 20
1452.4820772742635
 11
465.35817345080835
 21
1451.5576510345827
  0
LINE
  8
_1-0_
  6
CONTINUOUS
 62
    7
 10
465.35817345080835
 20
1451.5576510345827
 11
467.49998757047541
 21
1450.8077938385652
  0
LINE
  8
_1-0_
  6
CONTINUOUS
 62
    7
 10
467.49998757047541
 20
1450.8077938385652
 11
469.86968539223233
 21
1450.2552897176661
  0
LINE
  8
_1-0_
  6
CONTINUOUS
 62
    7
 10
469.86968539223233
 20
1450.2552897176661
 11
472.39526484688992
 21
1449.9169262300179
  0
LINE
  8
_1-0_
  6
CONTINUOUS
 62
    7
 10
472.39526484688992
 20
1449.9169262300179
 11
474.99998748072323
 21
1449.802984378973
  0
LINE
  8
_1-0_
  6
CONTINUOUS
 62
    7
 10
474.99998748072323
 20
1449.802984378973
 11
477.60471011455661
 21
1449.9169262300179
  0
LINE
  8
_1-0_
  6
CONTINUOUS
 62
    7
 10
477.60471011455661
 20
1449.9169262300179
 11
480.1302895692142
 21
1450.2552897176661
  0
LINE
  8
_1-0_
  6
CONTINUOUS
 62
    7
 10
480.1302895692142
 20
1450.2552897176661
 11
482.49998739097106
 21
1450.8077938385652
  0
LINE
  8
_1-0_
  6
CONTINUOUS
 62
    7
 10
482.49998739097106
 20
1450.8077938385652
 11
484.64180151063817
 21
1451.5576510345827
  0
LINE
  8
_1-0_
  6
CONTINUOUS
 62
    7
 10
484.64180151063817
 20
1451.5576510345827
 11
486.4906539899996
 21
1452.4820772742632
  0
LINE
  8
_1-0_
  6
CONTINUOUS
 62
    7
 10
486.4906539899996
 20
1452.4820772742632
 11
487.99036838203455
 21
1453.5529843340969
  0
LINE
  8
_1-0_
  6
CONTINUOUS
 62
    7
 10
487.99036838203455
 20
1453.5529843340969
 11
489.09537662383298
 21
1454.7378332449753
  0
LINE
  8
_1-0_
  6
CONTINUOUS
 62
    7
 10
489.09537662383298
 20
1454.7378332449753
 11
489.77210359912914
 21
1456.0006229723042
  0
LINE
  8
_1-0_
  6
CONTINUOUS
 62
    7
 10
489.77210359912914
 20
1456.0006229723042
 11
489.99998730121894
 21
1457.3029842892208
  0
LINE
  8
_1-0_
  6
CONTINUOUS
 62
    7
 10
489.99998730121894
 20
1457.3029842892208
 11
489.99998730121894
 21
1457.3029842892208
  0
LINE
  8
_1-0_
  6
CONTINUOUS
 62
    7
 10
484.99998736105374
 20
1457.3029842892208
 11
484.99998736105374
 21
1457.3029842892208
  0
LINE
  8
_1-0_
  6
CONTINUOUS
 62
    7
 10
484.99998736105374
 20
1457.3029842892208
 11
484.84806489299388
 21
1457.7371047281931
  0
LINE
  8
_1-0_
  6
CONTINUOUS
 62
    7
 10
484.84806489299388
 20
1457.7371047281931
 11
484.39691357612975
 21
1458.1580346373028
  0
LINE
  8
_1-0_
  6
CONTINUOUS
 62
    7
 10
484.39691357612975
 20
1458.1580346373028
 11
483.66024141493079
 21
1458.5529842742621
  0
LINE
  8
_1-0_
  6
CONTINUOUS
 62
    7
 10
483.66024141493079
 20
1458.5529842742621
 11
482.66043182024089
 21
1458.9099532942066
  0
LINE
  8
_1-0_
  6
CONTINUOUS
 62
    7
 10
482.66043182024089
 20
1458.9099532942066
 11
481.4278635006666
 21
1459.2180953741001
  0
LINE
  8
_1-0_
  6
CONTINUOUS
 62
    7
 10
481.4278635006666
 20
1459.2180953741001
 11
479.99998742088849
 21
1459.4680477727727
  0
LINE
  8
_1-0_
  6
CONTINUOUS
 62
    7
 10
479.99998742088849
 20
1459.4680477727727
 11
478.42018887305056
 21
1459.6522158130724
  0
LINE
  8
_1-0_
  6
CONTINUOUS
 62
    7
 10
478.42018887305056
 20
1459.6522158130724
 11
476.73646923661221
 21
1459.7650036422885
  0
LINE
  8
_1-0_
  6
CONTINUOUS
 62
    7
 10
476.73646923661221
 20
1459.7650036422885
 11
474.99998748072329
 21
1459.8029842593035
  0
LINE
  8
_1-0_
  6
CONTINUOUS
 62
    7
 10
474.99998748072329
 20
1459.8029842593035
 11
473.26350572483437
 21
1459.7650036422885
  0
LINE
  8
_1-0_
  6
CONTINUOUS
 62
    7
 10
473.26350572483437
 20
1459.7650036422885
 11
471.57978608839602
 21
1459.6522158130724
  0
LINE
  8
_1-0_
  6
CONTINUOUS
 62
    7
 10
471.57978608839602
 20
1459.6522158130724
 11
469.9999875405581
 21
1459.4680477727727
  0
LINE
  8
_1-0_
  6
CONTINUOUS
 62
    7
 10
469.9999875405581
 20
1459.4680477727727
 11
468.57211146078004
 21
1459.2180953741001
  0
LINE
  8
_1-0_
  6
CONTINUOUS
 62
    7
 10
468.57211146078004
 20
1459.2180953741001
 11
467.3395431412057
 21
1458.9099532942066
  0
LINE
  8
_1-0_
  6
CONTINUOUS
 62
    7
 10
467.3395431412057
 20
1458.9099532942066
 11
466.33973354651579
 21
1458.5529842742621
  0
LINE
  8
_1-0_
  6
CONTINUOUS
 62
    7
 10
466.33973354651579
 20
1458.5529842742621
 11
465.60306138531683
 21
1458.1580346373028
  0
LINE
  8
_1-0_
  6
CONTINUOUS
 62
    7
 10
465.60306138531683
 20
1458.1580346373028
 11
465.15191006845271
 21
1457.7371047281931
  0
LINE
  8
_1-0_
  6
CONTINUOUS
 62
    7
 10
465.15191006845271
 20
1457.7371047281931
 11
464.99998760039284
 21
1457.3029842892208
  0
LINE
  8
_1-0_
  6
CONTINUOUS
 62
    7
 10
464.99998760039284
 20
1457.3029842892208
 11
465.15191006845271
 21
1456.8688638502485
  0
LINE
  8
_1-0_
  6
CONTINUOUS
 62
    7
 10
465.15191006845271
 20
1456.8688638502485
 11
465.60306138531678
 21
1456.4479339411391
  0
LINE
  8
_1-0_
  6
CONTINUOUS
 62
    7
 10
465.60306138531678
 20
1456.4479339411391
 11
466.33973354651579
 21
1456.0529843041795
  0
LINE
  8
_1-0_
  6
CONTINUOUS
 62
    7
 10
466.33973354651579
 20
1456.0529843041795
 11
467.3395431412057
 21
1455.696015284235
  0
LINE
  8
_1-0_
  6
CONTINUOUS
 62
    7
 10
467.3395431412057
 20
1455.696015284235
 11
468.57211146077998
 21
1455.3878732043415
  0
LINE
  8
_1-0_
  6
CONTINUOUS
 62
    7
 10
468.57211146077998
 20
1455.3878732043415
 11
469.99998754055804
 21
1455.137920805669
  0
LINE
  8
_1-0_
  6
CONTINUOUS
 62
    7
 10
469.99998754055804
 20
1455.137920805669
 11
471.57978608839596
 21
1454.9537527653692
  0
LINE
  8
_1-0_
  6
CONTINUOUS
 62
    7
 10
471.57978608839596
 20
1454.9537527653692
 11
473.26350572483437
 21
1454.8409649361531
  0
LINE
  8
_1-0_
  6
CONTINUOUS
 62
    7
 10
473.26350572483437
 20
1454.8409649361531
 11
474.99998748072323
 21
1454.8029843191382
  0
LINE
  8
_1-0_
  6
CONTINUOUS
 62
    7
 10
474.99998748072323
 20
1454.8029843191382
 11
476.73646923661215
 21
1454.8409649361531
  0
LINE
  8
_1-0_
  6
CONTINUOUS
 62
    7
 10
476.73646923661215
 20
1454.8409649361531
 11
478.42018887305056
 21
1454.9537527653692
  0
LINE
  8
_1-0_
  6
CONTINUOUS
 62
    7
 10
478.42018887305056
 20
1454.9537527653692
 11
479.99998742088849
 21
1455.137920805669
  0
LINE
  8
_1-0_
  6
CONTINUOUS
 62
    7
 10
479.99998742088849
 20
1455.137920805669
 11
481.42786350066655
 21
1455.3878732043415
  0
LINE
  8
_1-0_
  6
CONTINUOUS
 62
    7
 10
481.42786350066655
 20
1455.3878732043415
 11
482.66043182024083
 21
1455.696015284235
  0
LINE
  8
_1-0_
  6
CONTINUOUS
 62
    7
 10
482.66043182024083
 20
1455.696015284235
 11
483.66024141493079
 21
1456.0529843041795
  0
LINE
  8
_1-0_
  6
CONTINUOUS
 62
    7
 10
483.66024141493079
 20
1456.0529843041795
 11
484.39691357612975
 21
1456.4479339411389
  0
LINE
  8
_1-0_
  6
CONTINUOUS
 62
    7
 10
484.39691357612975
 20
1456.4479339411389
 11
484.84806489299388
 21
1456.8688638502485
  0
LINE
  8
_1-0_
  6
CONTINUOUS
 62
    7
 10
484.84806489299388
 20
1456.8688638502485
 11
484.99998736105374
 21
1457.3029842892208
  0
LINE
  8
_1-0_
  6
CONTINUOUS
 62
    7
 10
484.99998736105374
 20
1457.3029842892208
 11
484.99998736105374
 21
1457.3029842892208
  0
ARC
  8
_1-0_
  6
CONTINUOUS
 62
    7
 10
1333.4375297516929
 20
716.87302961312662
 40
267.88266163535098
 50
213.44175720214844
 51
262.76423645019531
  0
ARC
  8
_1-0_
  6
CONTINUOUS
 62
    7
 10
1333.4375297516929
 20
716.87302961312662
 40
287.88264499207719
 50
274.98188781738281
 51
307.59684753417969
  0
ARC
  8
_1-0_
  6
CONTINUOUS
 62
    7
 10
1333.4375297516929
 20
716.87302961312662
 40
287.88264499207719
 50
232.41506958007812
 51
265.01809692382812
  0
ARC
  8
_1-0_
  6
CONTINUOUS
 62
    7
 10
1333.4375297516929
 20
736.69650663280106
 40
322.88264867421736
 50
274.44070434570312
 51
310.45008850097656
  0
ARC
  8
_1-0_
  6
CONTINUOUS
 62
    7
 10
1103.4374805582997
 20
566.49041783395421
 40
4.9999999401652211
 50
90
 51
180
  0
ARC
  8
_1-0_
  6
CONTINUOUS
 62
    7
 10
1105.7315817578879
 20
566.49041783395421
 40
4.9999999401652211
 50
33.441757202148438
 51
90
  0
ARC
  8
_1-0_
  6
CONTINUOUS
 62
    7
 10
1563.4375789450862
 20
566.49041783395421
 40
4.9999999401652211
 50
0
 51
90
  0
ARC
  8
_1-0_
  6
CONTINUOUS
 62
    7
 10
1561.1434777454979
 20
566.49041783395421
 40
4.9999999401652211
 50
90
 51
146.5582275390625
  0
LINE
  8
_1-0_
  6
CONTINUOUS
 62
    7
 10
489.99998730121894
 20
539.61779826396219
 11
489.99998730121894
 21
539.61779826396219
  0
LINE
  8
_1-0_
  6
CONTINUOUS
 62
    7
 10
489.99998730121894
 20
539.61779826396219
 11
489.77210359912914
 21
541.78831363473557
  0
LINE
  8
_1-0_
  6
CONTINUOUS
 62
    7
 10
489.77210359912914
 20
541.78831363473557
 11
489.09537662383303
 21
543.89287899430167
  0
LINE
  8
_1-0_
  6
CONTINUOUS
 62
    7
 10
489.09537662383303
 20
543.89287899430167
 11
487.99036838203455
 21
545.86754818917166
  0
LINE
  8
_1-0_
  6
CONTINUOUS
 62
    7
 10
487.99036838203455
 20
545.86754818917166
 11
486.49065398999966
 21
547.65232189509027
  0
LINE
  8
_1-0_
  6
CONTINUOUS
 62
    7
 10
486.49065398999966
 20
547.65232189509027
 11
484.64180151063823
 21
549.19297066614217
  0
LINE
  8
_1-0_
  6
CONTINUOUS
 62
    7
 10
484.64180151063823
 20
549.19297066614217
 11
482.49998739097111
 21
550.44268266902486
  0
LINE
  8
_1-0_
  6
CONTINUOUS
 62
    7
 10
482.49998739097111
 20
550.44268266902486
 11
480.1302895692142
 21
551.36348603691556
  0
LINE
  8
_1-0_
  6
CONTINUOUS
 62
    7
 10
480.1302895692142
 20
551.36348603691556
 11
477.60471011455667
 21
551.92740262542975
  0
LINE
  8
_1-0_
  6
CONTINUOUS
 62
    7
 10
477.60471011455667
 20
551.92740262542975
 11
474.99998748072329
 21
552.11729811438124
  0
LINE
  8
_1-0_
  6
CONTINUOUS
 62
    7
 10
474.99998748072329
 20
552.11729811438124
 11
472.39526484688992
 21
551.92740262542975
  0
LINE
  8
_1-0_
  6
CONTINUOUS
 62
    7
 10
472.39526484688992
 20
551.92740262542975
 11
469.86968539223238
 21
551.36348603691556
  0
LINE
  8
_1-0_
  6
CONTINUOUS
 62
    7
 10
469.86968539223238
 20
551.36348603691556
 11
467.49998757047547
 21
550.44268266902486
  0
LINE
  8
_1-0_
  6
CONTINUOUS
 62
    7
 10
467.49998757047547
 20
550.44268266902486
 11
465.35817345080835
 21
549.19297066614217
  0
LINE
  8
_1-0_
  6
CONTINUOUS
 62
    7
 10
465.35817345080835
 20
549.19297066614217
 11
463.50932097144693
 21
547.65232189509027
  0
LINE
  8
_1-0_
  6
CONTINUOUS
 62
    7
 10
463.50932097144693
 20
547.65232189509027
 11
462.00960657941204
 21
545.86754818917166
  0
LINE
  8
_1-0_
  6
CONTINUOUS
 62
    7
 10
462.00960657941204
 20
545.86754818917166
 11
460.90459833761355
 21
543.89287899430167
  0
LINE
  8
_1-0_
  6
CONTINUOUS
 62
    7
 10
460.90459833761355
 20
543.89287899430167
 11
460.22787136231744
 21
541.78831363473557
  0
LINE
  8
_1-0_
  6
CONTINUOUS
 62
    7
 10
460.22787136231744
 20
541.78831363473557
 11
459.99998766022765
 21
539.61779826396219
  0
LINE
  8
_1-0_
  6
CONTINUOUS
 62
    7
 10
459.99998766022765
 20
539.61779826396219
 11
460.22787136231744
 21
537.44728289318891
  0
LINE
  8
_1-0_
  6
CONTINUOUS
 62
    7
 10
460.22787136231744
 20
537.44728289318891
 11
460.90459833761355
 21
535.3427175336227
  0
LINE
  8
_1-0_
  6
CONTINUOUS
 62
    7
 10
460.90459833761355
 20
535.3427175336227
 11
462.00960657941204
 21
533.36804833875271
  0
LINE
  8
_1-0_
  6
CONTINUOUS
 62
    7
 10
462.00960657941204
 20
533.36804833875271
 11
463.50932097144693
 21
531.5832746328341
  0
LINE
  8
_1-0_
  6
CONTINUOUS
 62
    7
 10
463.50932097144693
 20
531.5832746328341
 11
465.35817345080835
 21
530.0426258617822
  0
LINE
  8
_1-0_
  6
CONTINUOUS
 62
    7
 10
465.35817345080835
 20
530.0426258617822
 11
467.49998757047541
 21
528.79291385889951
  0
LINE
  8
_1-0_
  6
CONTINUOUS
 62
    7
 10
467.49998757047541
 20
528.79291385889951
 11
469.86968539223233
 21
527.87211049100881
  0
LINE
  8
_1-0_
  6
CONTINUOUS
 62
    7
 10
469.86968539223233
 20
527.87211049100881
 11
472.39526484688992
 21
527.30819390249462
  0
LINE
  8
_1-0_
  6
CONTINUOUS
 62
    7
 10
472.39526484688992
 20
527.30819390249462
 11
474.99998748072323
 21
527.11829841354313
  0
LINE
  8
_1-0_
  6
CONTINUOUS
 62
    7
 10
474.99998748072323
 20
527.11829841354313
 11
477.60471011455661
 21
527.30819390249462
  0
LINE
  8
_1-0_
  6
CONTINUOUS
 62
    7
 10
477.60471011455661
 20
527.30819390249462
 11
480.1302895692142
 21
527.87211049100881
  0
LINE
  8
_1-0_
  6
CONTINUOUS
 62
    7
 10
480.1302895692142
 20
527.87211049100881
 11
482.49998739097106
 21
528.79291385889951
  0
LINE
  8
_1-0_
  6
CONTINUOUS
 62
    7
 10
482.49998739097106
 20
528.79291385889951
 11
484.64180151063817
 21
530.0426258617822
  0
LINE
  8
_1-0_
  6
CONTINUOUS
 62
    7
 10
484.64180151063817
 20
530.0426258617822
 11
486.4906539899996
 21
531.58327463283399
  0
LINE
  8
_1-0_
  6
CONTINUOUS
 62
    7
 10
486.4906539899996
 20
531.58327463283399
 11
487.99036838203455
 21
533.3680483387526
  0
LINE
  8
_1-0_
  6
CONTINUOUS
 62
    7
 10
487.99036838203455
 20
533.3680483387526
 11
489.09537662383298
 21
535.34271753362259
  0
LINE
  8
_1-0_
  6
CONTINUOUS
 62
    7
 10
489.09537662383298
 20
535.34271753362259
 11
489.77210359912914
 21
537.4472828931888
  0
LINE
  8
_1-0_
  6
CONTINUOUS
 62
    7
 10
489.77210359912914
 20
537.4472828931888
 11
489.99998730121894
 21
539.61779826396207
  0
LINE
  8
_1-0_
  6
CONTINUOUS
 62
    7
 10
489.99998730121894
 20
539.61779826396207
 11
489.99998730121894
 21
539.61779826396219
  0
LINE
  8
_1-0_
  6
CONTINUOUS
 62
    7
 10
484.99998736105374
 20
539.61779826396219
 11
484.99998736105374
 21
539.61779826396219
  0
LINE
  8
_1-0_
  6
CONTINUOUS
 62
    7
 10
484.99998736105374
 20
539.61779826396219
 11
484.84806489299388
 21
540.92015958087882
  0
LINE
  8
_1-0_
  6
CONTINUOUS
 62
    7
 10
484.84806489299388
 20
540.92015958087882
 11
484.39691357612975
 21
542.18294930820764
  0
LINE
  8
_1-0_
  6
CONTINUOUS
 62
    7
 10
484.39691357612975
 20
542.18294930820764
 11
483.66024141493079
 21
543.36779821908613
  0
LINE
  8
_1-0_
  6
CONTINUOUS
 62
    7
 10
483.66024141493079
 20
543.36779821908613
 11
482.66043182024089
 21
544.43870527891966
  0
LINE
  8
_1-0_
  6
CONTINUOUS
 62
    7
 10
482.66043182024089
 20
544.43870527891966
 11
481.4278635006666
 21
545.36313151860043
  0
LINE
  8
_1-0_
  6
CONTINUOUS
 62
    7
 10
481.4278635006666
 20
545.36313151860043
 11
479.99998742088849
 21
546.11298871461781
  0
LINE
  8
_1-0_
  6
CONTINUOUS
 62
    7
 10
479.99998742088849
 20
546.11298871461781
 11
478.42018887305056
 21
546.66549283551706
  0
LINE
  8
_1-0_
  6
CONTINUOUS
 62
    7
 10
478.42018887305056
 20
546.66549283551706
 11
476.73646923661221
 21
547.00385632316511
  0
LINE
  8
_1-0_
  6
CONTINUOUS
 62
    7
 10
476.73646923661221
 20
547.00385632316511
 11
474.99998748072329
 21
547.11779817421007
  0
LINE
  8
_1-0_
  6
CONTINUOUS
 62
    7
 10
474.99998748072329
 20
547.11779817421007
 11
473.26350572483437
 21
547.00385632316511
  0
LINE
  8
_1-0_
  6
CONTINUOUS
 62
    7
 10
473.26350572483437
 20
547.00385632316511
 11
471.57978608839602
 21
546.66549283551706
  0
LINE
  8
_1-0_
  6
CONTINUOUS
 62
    7
 10
471.57978608839602
 20
546.66549283551706
 11
469.9999875405581
 21
546.11298871461781
  0
LINE
  8
_1-0_
  6
CONTINUOUS
 62
    7
 10
469.9999875405581
 20
546.11298871461781
 11
468.57211146078004
 21
545.36313151860043
  0
LINE
  8
_1-0_
  6
CONTINUOUS
 62
    7
 10
468.57211146078004
 20
545.36313151860043
 11
467.3395431412057
 21
544.43870527891966
  0
LINE
  8
_1-0_
  6
CONTINUOUS
 62
    7
 10
467.3395431412057
 20
544.43870527891966
 11
466.33973354651579
 21
543.36779821908613
  0
LINE
  8
_1-0_
  6
CONTINUOUS
 62
    7
 10
466.33973354651579
 20
543.36779821908613
 11
465.60306138531683
 21
542.18294930820764
  0
LINE
  8
_1-0_
  6
CONTINUOUS
 62
    7
 10
465.60306138531683
 20
542.18294930820764
 11
465.15191006845271
 21
540.92015958087882
  0
LINE
  8
_1-0_
  6
CONTINUOUS
 62
    7
 10
465.15191006845271
 20
540.92015958087882
 11
464.99998760039284
 21
539.61779826396219
  0
LINE
  8
_1-0_
  6
CONTINUOUS
 62
    7
 10
464.99998760039284
 20
539.61779826396219
 11
465.15191006845271
 21
538.31543694704555
  0
LINE
  8
_1-0_
  6
CONTINUOUS
 62
    7
 10
465.15191006845271
 20
538.31543694704555
 11
465.60306138531678
 21
537.05264721971673
  0
LINE
  8
_1-0_
  6
CONTINUOUS
 62
    7
 10
465.60306138531678
 20
537.05264721971673
 11
466.33973354651579
 21
535.86779830883825
  0
LINE
  8
_1-0_
  6
CONTINUOUS
 62
    7
 10
466.33973354651579
 20
535.86779830883825
 11
467.3395431412057
 21
534.79689124900472
  0
LINE
  8
_1-0_
  6
CONTINUOUS
 62
    7
 10
467.3395431412057
 20
534.79689124900472
 11
468.57211146077998
 21
533.87246500932406
  0
LINE
  8
_1-0_
  6
CONTINUOUS
 62
    7
 10
468.57211146077998
 20
533.87246500932406
 11
469.99998754055804
 21
533.12260781330656
  0
LINE
  8
_1-0_
  6
CONTINUOUS
 62
    7
 10
469.99998754055804
 20
533.12260781330656
 11
471.57978608839596
 21
532.57010369240732
  0
LINE
  8
_1-0_
  6
CONTINUOUS
 62
    7
 10
471.57978608839596
 20
532.57010369240732
 11
473.26350572483437
 21
532.23174020475926
  0
LINE
  8
_1-0_
  6
CONTINUOUS
 62
    7
 10
473.26350572483437
 20
532.23174020475926
 11
474.99998748072323
 21
532.11779835371431
  0
LINE
  8
_1-0_
  6
CONTINUOUS
 62
    7
 10
474.99998748072323
 20
532.11779835371431
 11
476.73646923661215
 21
532.23174020475926
  0
LINE
  8
_1-0_
  6
CONTINUOUS
 62
    7
 10
476.73646923661215
 20
532.23174020475926
 11
478.42018887305056
 21
532.57010369240732
  0
LINE
  8
_1-0_
  6
CONTINUOUS
 62
    7
 10
478.42018887305056
 20
532.57010369240732
 11
479.99998742088849
 21
533.12260781330656
  0
LINE
  8
_1-0_
  6
CONTINUOUS
 62
    7
 10
479.99998742088849
 20
533.12260781330656
 11
481.42786350066655
 21
533.87246500932395
  0
LINE
  8
_1-0_
  6
CONTINUOUS
 62
    7
 10
481.42786350066655
 20
533.87246500932395
 11
482.66043182024083
 21
534.79689124900472
  0
LINE
  8
_1-0_
  6
CONTINUOUS
 62
    7
 10
482.66043182024083
 20
534.79689124900472
 11
483.66024141493079
 21
535.86779830883825
  0
LINE
  8
_1-0_
  6
CONTINUOUS
 62
    7
 10
483.66024141493079
 20
535.86779830883825
 11
484.39691357612975
 21
537.05264721971673
  0
LINE
  8
_1-0_
  6
CONTINUOUS
 62
    7
 10
484.39691357612975
 20
537.05264721971673
 11
484.84806489299388
 21
538.31543694704544
  0
LINE
  8
_1-0_
  6
CONTINUOUS
 62
    7
 10
484.84806489299388
 20
538.31543694704544
 11
484.99998736105374
 21
539.61779826396219
  0
LINE
  8
_1-0_
  6
CONTINUOUS
 62
    7
 10
484.99998736105374
 20
539.61779826396219
 11
484.99998736105374
 21
539.61779826396219
  0
LINE
  8
_1-0_
  6
CONTINUOUS
 62
    7
 10
489.99998730121894
 20
539.61779826396219
 11
489.99998730121894
 21
539.61779826396219
  0
LINE
  8
_1-0_
  6
CONTINUOUS
 62
    7
 10
489.99998730121894
 20
539.61779826396219
 11
489.77210359912914
 21
541.78831363473557
  0
LINE
  8
_1-0_
  6
CONTINUOUS
 62
    7
 10
489.77210359912914
 20
541.78831363473557
 11
489.09537662383303
 21
543.89287899430167
  0
LINE
  8
_1-0_
  6
CONTINUOUS
 62
    7
 10
489.09537662383303
 20
543.89287899430167
 11
487.99036838203455
 21
545.86754818917166
  0
LINE
  8
_1-0_
  6
CONTINUOUS
 62
    7
 10
487.99036838203455
 20
545.86754818917166
 11
486.49065398999966
 21
547.65232189509027
  0
LINE
  8
_1-0_
  6
CONTINUOUS
 62
    7
 10
486.49065398999966
 20
547.65232189509027
 11
484.64180151063823
 21
549.19297066614217
  0
LINE
  8
_1-0_
  6
CONTINUOUS
 62
    7
 10
484.64180151063823
 20
549.19297066614217
 11
482.49998739097111
 21
550.44268266902486
  0
LINE
  8
_1-0_
  6
CONTINUOUS
 62
    7
 10
482.49998739097111
 20
550.44268266902486
 11
480.1302895692142
 21
551.36348603691556
  0
LINE
  8
_1-0_
  6
CONTINUOUS
 62
    7
 10
480.1302895692142
 20
551.36348603691556
 11
477.60471011455667
 21
551.92740262542975
  0
LINE
  8
_1-0_
  6
CONTINUOUS
 62
    7
 10
477.60471011455667
 20
551.92740262542975
 11
474.99998748072329
 21
552.11729811438124
  0
LINE
  8
_1-0_
  6
CONTINUOUS
 62
    7
 10
474.99998748072329
 20
552.11729811438124
 11
472.39526484688992
 21
551.92740262542975
  0
LINE
  8
_1-0_
  6
CONTINUOUS
 62
    7
 10
472.39526484688992
 20
551.92740262542975
 11
469.86968539223238
 21
551.36348603691556
  0
LINE
  8
_1-0_
  6
CONTINUOUS
 62
    7
 10
469.86968539223238
 20
551.36348603691556
 11
467.49998757047547
 21
550.44268266902486
  0
LINE
  8
_1-0_
  6
CONTINUOUS
 62
    7
 10
467.49998757047547
 20
550.44268266902486
 11
465.35817345080835
 21
549.19297066614217
  0
LINE
  8
_1-0_
  6
CONTINUOUS
 62
    7
 10
465.35817345080835
 20
549.19297066614217
 11
463.50932097144693
 21
547.65232189509027
  0
LINE
  8
_1-0_
  6
CONTINUOUS
 62
    7
 10
463.50932097144693
 20
547.65232189509027
 11
462.00960657941204
 21
545.86754818917166
  0
LINE
  8
_1-0_
  6
CONTINUOUS
 62
    7
 10
462.00960657941204
 20
545.86754818917166
 11
460.90459833761355
 21
543.89287899430167
  0
LINE
  8
_1-0_
  6
CONTINUOUS
 62
    7
 10
460.90459833761355
 20
543.89287899430167
 11
460.22787136231744
 21
541.78831363473557
  0
LINE
  8
_1-0_
  6
CONTINUOUS
 62
    7
 10
460.22787136231744
 20
541.78831363473557
 11
459.99998766022765
 21
539.61779826396219
  0
LINE
  8
_1-0_
  6
CONTINUOUS
 62
    7
 10
459.99998766022765
 20
539.61779826396219
 11
460.22787136231744
 21
537.44728289318891
  0
LINE
  8
_1-0_
  6
CONTINUOUS
 62
    7
 10
460.22787136231744
 20
537.44728289318891
 11
460.90459833761355
 21
535.3427175336227
  0
LINE
  8
_1-0_
  6
CONTINUOUS
 62
    7
 10
460.90459833761355
 20
535.3427175336227
 11
462.00960657941204
 21
533.36804833875271
  0
LINE
  8
_1-0_
  6
CONTINUOUS
 62
    7
 10
462.00960657941204
 20
533.36804833875271
 11
463.50932097144693
 21
531.5832746328341
  0
LINE
  8
_1-0_
  6
CONTINUOUS
 62
    7
 10
463.50932097144693
 20
531.5832746328341
 11
465.35817345080835
 21
530.0426258617822
  0
LINE
  8
_1-0_
  6
CONTINUOUS
 62
    7
 10
465.35817345080835
 20
530.0426258617822
 11
467.49998757047541
 21
528.79291385889951
  0
LINE
  8
_1-0_
  6
CONTINUOUS
 62
    7
 10
467.49998757047541
 20
528.79291385889951
 11
469.86968539223233
 21
527.87211049100881
  0
LINE
  8
_1-0_
  6
CONTINUOUS
 62
    7
 10
469.86968539223233
 20
527.87211049100881
 11
472.39526484688992
 21
527.30819390249462
  0
LINE
  8
_1-0_
  6
CONTINUOUS
 62
    7
 10
472.39526484688992
 20
527.30819390249462
 11
474.99998748072323
 21
527.11829841354313
  0
LINE
  8
_1-0_
  6
CONTINUOUS
 62
    7
 10
474.99998748072323
 20
527.11829841354313
 11
477.60471011455661
 21
527.30819390249462
  0
LINE
  8
_1-0_
  6
CONTINUOUS
 62
    7
 10
477.60471011455661
 20
527.30819390249462
 11
480.1302895692142
 21
527.87211049100881
  0
LINE
  8
_1-0_
  6
CONTINUOUS
 62
    7
 10
480.1302895692142
 20
527.87211049100881
 11
482.49998739097106
 21
528.79291385889951
  0
LINE
  8
_1-0_
  6
CONTINUOUS
 62
    7
 10
482.49998739097106
 20
528.79291385889951
 11
484.64180151063817
 21
530.0426258617822
  0
LINE
  8
_1-0_
  6
CONTINUOUS
 62
    7
 10
484.64180151063817
 20
530.0426258617822
 11
486.4906539899996
 21
531.58327463283399
  0
LINE
  8
_1-0_
  6
CONTINUOUS
 62
    7
 10
486.4906539899996
 20
531.58327463283399
 11
487.99036838203455
 21
533.3680483387526
  0
LINE
  8
_1-0_
  6
CONTINUOUS
 62
    7
 10
487.99036838203455
 20
533.3680483387526
 11
489.09537662383298
 21
535.34271753362259
  0
LINE
  8
_1-0_
  6
CONTINUOUS
 62
    7
 10
489.09537662383298
 20
535.34271753362259
 11
489.77210359912914
 21
537.4472828931888
  0
LINE
  8
_1-0_
  6
CONTINUOUS
 62
    7
 10
489.77210359912914
 20
537.4472828931888
 11
489.99998730121894
 21
539.61779826396207
  0
LINE
  8
_1-0_
  6
CONTINUOUS
 62
    7
 10
489.99998730121894
 20
539.61779826396207
 11
489.99998730121894
 21
539.61779826396219
  0
ARC
  8
_1-0_
  6
CONTINUOUS
 62
    7
 10
1131.7444601758566
 20
487.15889006507899
 40
8.0626029236436345
 50
11.312026977539063
 51
151.62643432617187
  0
ARC
  8
_1-0_
  6
CONTINUOUS
 62
    7
 10
1535.5823855602603
 20
486.30697905787167
 40
8.7049434129795973
 50
32.561782836914062
 51
163.76687622070312
  0
ARC
  8
_1-0_
  6
CONTINUOUS
 62
    7
 10
474.99998748072329
 20
716.87302961312662
 40
267.88266163535098
 50
213.44175720214844
 51
262.76423645019531
  0
ARC
  8
_1-0_
  6
CONTINUOUS
 62
    7
 10
474.99998748072329
 20
716.87302961312662
 40
287.88264499207719
 50
274.98188781738281
 51
307.59684753417969
  0
ARC
  8
_1-0_
  6
CONTINUOUS
 62
    7
 10
474.99998748072329
 20
716.87302961312662
 40
287.88264499207719
 50
232.41506958007812
 51
265.01809692382812
  0
ARC
  8
_1-0_
  6
CONTINUOUS
 62
    7
 10
245.00000390306866
 20
566.49041783395421
 40
4.9999999401652211
 50
90
 51
180
  0
ARC
  8
_1-0_
  6
CONTINUOUS
 62
    7
 10
247.29403948691811
 20
566.49041783395421
 40
4.9999999401652211
 50
33.441757202148438
 51
90
  0
ARC
  8
_1-0_
  6
CONTINUOUS
 62
    7
 10
704.99999293029077
 20
566.49041783395421
 40
4.9999999401652211
 50
0
 51
90
  0
ARC
  8
_1-0_
  6
CONTINUOUS
 62
    7
 10
702.70593547452836
 20
566.49041783395421
 40
4.9999999401652211
 50
90
 51
146.5582275390625
  0
ARC
  8
_1-0_
  6
CONTINUOUS
 62
    7
 10
273.30696164871267
 20
487.15889006507899
 40
8.0626029236436345
 50
11.312026977539063
 51
151.62643432617187
  0
ARC
  8
_1-0_
  6
CONTINUOUS
 62
    7
 10
677.14493077694215
 20
486.30697905787167
 40
8.7049434129795973
 50
32.561782836914062
 51
163.76687622070312
  0
ARC
  8
_1-0_
  6
CONTINUOUS
 62
    7
 10
1298.4374823257269
 20
441.20337644599118
 40
9.9999998803304422
 50
0
 51
82.764236450195313
  0
ARC
  8
_1-0_
  6
CONTINUOUS
 62
    7
 10
1333.4375297516929
 20
716.87302961312662
 40
267.88266163535098
 50
262.76423645019531
 51
277.23574829101563
  0
ARC
  8
_1-0_
  6
CONTINUOUS
 62
    7
 10
1368.4374896900072
 20
441.20337644599118
 40
9.9999998803304422
 50
97.235748291015625
 51
180
  0
ARC
  8
_1-0_
  6
CONTINUOUS
 62
    7
 10
1333.4375297516929
 20
716.87302961312662
 40
267.88266163535098
 50
277.23574829101563
 51
326.5582275390625
  0
ARC
  8
_1-0_
  6
CONTINUOUS
 62
    7
 10
439.99998379858312
 20
441.20337644599118
 40
9.9999998803304422
 50
0
 51
82.764236450195313
  0
ARC
  8
_1-0_
  6
CONTINUOUS
 62
    7
 10
474.99998748072329
 20
716.87302961312662
 40
267.88266163535098
 50
262.76423645019531
 51
277.23574829101563
  0
ARC
  8
_1-0_
  6
CONTINUOUS
 62
    7
 10
509.99999116286347
 20
441.20337644599118
 40
9.9999998803304422
 50
97.235748291015625
 51
180
  0
ARC
  8
_1-0_
  6
CONTINUOUS
 62
    7
 10
474.99998748072329
 20
716.87302961312662
 40
267.88266163535098
 50
277.23574829101563
 51
326.5582275390625
  0
TEXT
  8
_0-0_
 62
    6
 10
2155.1546186645974
 20
1790.7079259217014
 40
100
 41
1
 50
0
  1
B1-G402
  0
ENDSEC
  0
EOF
