  0
SECTION
  2
HEADER
  9
$ACADVER
  1
AC1009
  9
$INSBASE
 10
0
 20
0
 30
0
  9
$EXTMIN
 10
0
 20
0
  9
$EXTMAX
 10
2970
 20
2100
  9
$LIMMIN
 10
0
 20
0
  9
$LIMMAX
 10
2970
 20
2100
  9
$LTSCALE
 40
10
  0
ENDSEC
  0
SECTION
  2
TABLES
  0
TABLE
  2
LTYPE
 70
     9
  0
LTYPE
  2
CONTINUOUS
 70
    64
  3
実線
 72
    65
 73
     0
 40
0.0
  0
LTYPE
  2
DASHED1
 70
    64
  3
--  --  --  --  --  --  --  --  
 72
    65
 73
     2
 40
2.5
 49
1.25
 49
-1.25
  0
LTYPE
  2
DASHED2
 70
    64
  3
----    ----    ----    ----    
 72
    65
 73
     2
 40
5.0
 49
2.5
 49
-2.5
  0
LTYPE
  2
DASHED3
 70
    64
  3
------  ------  ------  ------  
 72
    65
 73
     2
 40
5.0
 49
3.75
 49
-1.25
  0
LTYPE
  2
CENTER1
 70
    64
  3
----- - ----- - ----- - ----- - 
 72
    65
 73
     4
 40
10.0
 49
6.25
 49
-1.25
 49
1.25
 49
-1.25
  0
LTYPE
  2
CENTER2
 70
    64
  3
----------  --  ----------  --  
 72
    65
 73
     4
 40
20.0
 49
12.5
 49
-2.5
 49
2.5
 49
-2.5
  0
LTYPE
  2
PHANTOM1
 70
    64
  3
--- - - --- - - --- - - --- - - 
 72
    65
 73
     6
 40
10.0
 49
3.25
 49
-1.25
 49
1.25
 49
-1.25
 49
1.25
 49
-1.25
  0
LTYPE
  2
PHANTOM2
 70
    64
  3
--------  -  -  --------  -  -  
 72
    65
 73
     6
 40
20.0
 49
10.0
 49
-2.5
 49
1.25
 49
-2.5
 49
1.25
 49
-2.5
  0
LTYPE
  2
DOT
 70
    64
  3
-   -   -   -   -   -   -   -   
 72
    65
 73
     2
 40
2.5
 49
0.625
 49
-1.875
  0
LTYPE
  2
DUMMY
 70
    64
  3
ダミー
 72
    65
 73
     0
 40
0.0
  0
LTYPE
  2
RAND1
 70
    64
  3
ランダム線1
 72
    65
 73
     4
 40
10.0
 49
1.0
 49
-2.0
 49
3.0
 49
-4.0
  0
LTYPE
  2
RAND2
 70
    64
  3
ランダム線2
 72
    65
 73
     4
 40
14.0
 49
2.0
 49
-3.0
 49
4.0
 49
-5.0
  0
LTYPE
  2
RAND3
 70
    64
  3
ランダム線3
 72
    65
 73
     4
 40
18.0
 49
3.0
 49
-4.0
 49
5.0
 49
-6.0
  0
LTYPE
  2
RAND4
 70
    64
  3
ランダム線4
 72
    65
 73
     4
 40
22.0
 49
4.0
 49
-5.0
 49
6.0
 49
-7.0
  0
LTYPE
  2
RAND5
 70
    64
  3
ランダム線5
 72
    65
 73
     4
 40
26.0
 49
5.0
 49
-6.0
 49
7.0
 49
-8.0
  0
LTYPE
  2
LONG1
 70
    64
  3
----------  --  ----------  --  
 72
    65
 73
     4
 40
40.0
 49
32.5
 49
-2.5
 49
2.5
 49
-2.5
  0
LTYPE
  2
LONG2
 70
    64
  3
--------  -  -  --------  -  -  
 72
    65
 73
     6
 40
40.0
 49
30.0
 49
-2.5
 49
1.25
 49
-2.5
 49
1.25
 49
-2.5
  0
LTYPE
  2
LONG3
 70
    64
  3
+++++++++++++++..+++++++++++++++
 72
    65
 73
     2
 40
40.0
 49
37.5
 49
-2.5
  0
LTYPE
  2
LONG4
 70
    64
  3
+++++++++++++++..+++++++++++++++
 72
    65
 73
     2
 40
80.0
 49
75.0
 49
-5.0
  0
LTYPE
  2
LONG5
 70
    64
  3
----------  --  ----------  --  
 72
    65
 73
     4
 40
60.0
 49
37.5
 49
-7.5
 49
7.5
 49
-7.5
  0
LTYPE
  2
dashed
 70
   64
  3
-------   -------------   ------
 72
   65
 73
    2
 40
7.5
 49
6
 49
-1.5
  0
LTYPE
  2
dashed_spaced
 70
   64
  3
----        --------        ----
 72
   65
 73
    2
 40
12
 49
6
 49
-6
  0
LTYPE
  2
long_dashed_dotted
 70
   64
  3
------------- --- --------------
 72
   65
 73
    4
 40
15.25
 49
12
 49
-1.5
 49
0.25
 49
-1.5
  0
LTYPE
  2
long_dashed_double-dotted
 70
   64
  3
----------- --- --- ------------
 72
   65
 73
    6
 40
17
 49
12
 49
-1.5
 49
0.25
 49
-1.5
 49
0.25
 49
-1.5
  0
LTYPE
  2
long_dashed_triplicate-dotted
 70
   64
  3
--------- --- --- --- ----------
 72
   65
 73
    8
 40
18.75
 49
12
 49
-1.5
 49
0.25
 49
-1.5
 49
0.25
 49
-1.5
 49
0.25
 49
-1.5
  0
LTYPE
  2
dotted
 70
   64
  3
   -       -       -       -    
 72
   65
 73
    2
 40
1.75
 49
0.25
 49
-1.5
  0
LTYPE
  2
chain
 70
   64
  3
-------------- -- --------------
 72
   65
 73
    4
 40
18.5
 49
12
 49
-1.5
 49
3.5
 49
-1.5
  0
LTYPE
  2
chain_double_dash
 70
   64
  3
------------ -- -- -------------
 72
   65
 73
    6
 40
23.5
 49
12
 49
-1.5
 49
3.5
 49
-1.5
 49
3.5
 49
-1.5
  0
LTYPE
  2
dashed_dotted
 70
   64
  3
-----------     -     ----------
 72
   65
 73
    4
 40
9.25
 49
6
 49
-1.5
 49
0.25
 49
-1.5
  0
LTYPE
  2
double-dashed_dotted
 70
   64
  3
------   -----------   -   -----
 72
   65
 73
    6
 40
16.75
 49
6
 49
-1.5
 49
6
 49
-1.5
 49
0.25
 49
-1.5
  0
LTYPE
  2
dashed_double-dotted
 70
   64
  3
---------    -    -    ---------
 72
   65
 73
    6
 40
11
 49
6
 49
-1.5
 49
0.25
 49
-1.5
 49
0.25
 49
-1.5
  0
LTYPE
  2
double-dashed_double-dotted
 70
   64
  3
-----   ---------   -   -   ----
 72
   65
 73
    8
 40
18.5
 49
6
 49
-1.5
 49
6
 49
-1.5
 49
0.25
 49
-1.5
 49
0.25
 49
-1.5
  0
LTYPE
  2
dashed_triplicate-dotted
 70
   64
  3
-------    -    -    -    ------
 72
   65
 73
    8
 40
12.75
 49
6
 49
-1.5
 49
0.25
 49
-1.5
 49
0.25
 49
-1.5
 49
0.25
 49
-1.5
  0
LTYPE
  2
double-dashed_triplicate-dotted
 70
   64
  3
-----  ---------  -  -  -  -----
 72
   65
 73
   10
 40
20.25
 49
6
 49
-1.5
 49
6
 49
-1.5
 49
0.25
 49
-1.5
 49
0.25
 49
-1.5
 49
0.25
 49
-1.5
  0
LTYPE
  2
undefined
 70
   64
  3
--------------------------------
 72
   65
 73
    0
 40
0
  0
LTYPE
  2
_
 70
   64
  3
                                
 72
   65
 73
    0
 40
0
  0
LTYPE
  2
__18
 70
   64
  3
                                
 72
   65
 73
    0
 40
0
  0
LTYPE
  2
__19
 70
   64
  3
                                
 72
   65
 73
    0
 40
0
  0
LTYPE
  2
__20
 70
   64
  3
                                
 72
   65
 73
    0
 40
0
  0
LTYPE
  2
__21
 70
   64
  3
                                
 72
   65
 73
    0
 40
0
  0
LTYPE
  2
__22
 70
   64
  3
                                
 72
   65
 73
    0
 40
0
  0
LTYPE
  2
__23
 70
   64
  3
                                
 72
   65
 73
    0
 40
0
  0
LTYPE
  2
__24
 70
   64
  3
                                
 72
   65
 73
    0
 40
0
  0
LTYPE
  2
__25
 70
   64
  3
                                
 72
   65
 73
    0
 40
0
  0
LTYPE
  2
__26
 70
   64
  3
                                
 72
   65
 73
    0
 40
0
  0
LTYPE
  2
__27
 70
   64
  3
                                
 72
   65
 73
    0
 40
0
  0
LTYPE
  2
__28
 70
   64
  3
                                
 72
   65
 73
    0
 40
0
  0
LTYPE
  2
__29
 70
   64
  3
                                
 72
   65
 73
    0
 40
0
  0
LTYPE
  2
__30
 70
   64
  3
                                
 72
   65
 73
    0
 40
0
  0
LTYPE
  2
__31
 70
   64
  3
                                
 72
   65
 73
    0
 40
0
  0
LTYPE
  2
__32
 70
   64
  3
                                
 72
   65
 73
    0
 40
0
  0
ENDTAB
  0
TABLE
  2
STYLE
  5
3
100
AcDbSymbolTable
 70
     1
  0
STYLE
  5
10
100
AcDbSymbolTableRecord
100
AcDbTextStyleTableRecord
  2
STANDARD
 70
     0
 40
0.0
 41
1.0
 50
0.0
 71
     0
 42
0.2
  3
txt
  4
bigfont.shx
  0
STYLE
  5
26
100
AcDbSymbolTableRecord
100
AcDbTextStyleTableRecord
  2
TATEGAKI
 70
    68
 40
0.0
 41
1.0
 50
0.0
 71
     0
 42
1.0
  3
txt
  4
bigfont.shx
  0
ENDTAB
  0
TABLE
  2
LAYER
 70
    3
  0
LAYER
  2
_0-0_
 70
   64
 62
    7
  6
CONTINUOUS
  0
LAYER
  2
_0-1_
 70
   64
 62
    7
  6
CONTINUOUS
  0
LAYER
  2
ADD_LINE
 70
   64
 62
    7
  6
CONTINUOUS
  0
ENDTAB
  0
ENDSEC
  0
SECTION
  2
BLOCKS
  0
ENDSEC
  0
SECTION
  2
ENTITIES
  0
LINE
  8
_0-0_
  6
CONTINUOUS
 62
    7
 10
600.84791220293084
 20
1764.6327562958115
 11
586.70579578885713
 21
1750.4907273693893
  0
LINE
  8
_0-0_
  6
CONTINUOUS
 62
    7
 10
600.84791220293084
 20
1750.4907273693893
 11
586.70579578885713
 21
1764.6327562958115
  0
LINE
  8
_0-1_
  6
CONTINUOUS
 62
    7
 10
1107.3654136510429
 20
1047.4039144037311
 11
1618.347453702831
 21
1047.4039144037311
  0
LINE
  8
_0-1_
  6
CONTINUOUS
 62
    7
 10
1618.347453702831
 20
1047.4039144037311
 11
1618.347453702831
 21
832.4038855357519
  0
LINE
  8
_0-1_
  6
CONTINUOUS
 62
    7
 10
1618.347453702831
 20
832.4038855357519
 11
1233.3474569431141
 21
837.40389231089
  0
LINE
  8
_0-1_
  6
CONTINUOUS
 62
    7
 10
1233.3474569431141
 20
837.40389231089
 11
1233.3474569431141
 21
847.09901139542865
  0
LINE
  8
_0-1_
  6
CONTINUOUS
 62
    7
 10
1233.3474569431141
 20
847.09901139542865
 11
1208.3474230674242
 21
847.40390586116587
  0
LINE
  8
_0-1_
  6
CONTINUOUS
 62
    7
 10
1115.8474289588485
 20
1047.4039144037311
 11
1107.3654136510429
 21
1047.4039144037311
  0
LINE
  8
_0-1_
  6
CONTINUOUS
 62
    7
 10
272.92234406047811
 20
1042.4039076285933
 11
889.53944614955344
 21
1042.4039076285933
  0
LINE
  8
_0-1_
  6
CONTINUOUS
 62
    7
 10
804.03951401876202
 20
832.4038855357519
 11
355.03947865548741
 21
832.4038855357519
  0
LINE
  8
_0-1_
  6
CONTINUOUS
 62
    7
 10
807.03946559125382
 20
835.40392459589543
 11
807.03946559125382
 21
842.40389908602788
  0
LINE
  8
_0-1_
  6
CONTINUOUS
 62
    7
 10
842.60083378972229
 20
1042.4039076285933
 11
886.15664861377138
 21
1042.4039076285933
  0
LINE
  8
_0-1_
  6
CONTINUOUS
 62
    7
 10
327.03949320730544
 20
842.40389908602788
 11
349.03948802285214
 21
842.40389908602788
  0
LINE
  8
_0-1_
  6
CONTINUOUS
 62
    7
 10
349.03948802285214
 20
842.40389908602788
 11
349.62475853997307
 21
842.34624472364032
  0
LINE
  8
_0-1_
  6
CONTINUOUS
 62
    7
 10
349.62475853997307
 20
842.34624472364032
 11
350.18754473063939
 21
842.17555631541825
  0
LINE
  8
_0-1_
  6
CONTINUOUS
 62
    7
 10
350.18754473063939
 20
842.17555631541825
 11
350.70619340108635
 21
841.89830794757859
  0
LINE
  8
_0-1_
  6
CONTINUOUS
 62
    7
 10
350.70619340108635
 20
841.89830794757859
 11
351.16080111058068
 21
841.52526060126456
  0
LINE
  8
_0-1_
  6
CONTINUOUS
 62
    7
 10
351.16080111058068
 20
841.52526060126456
 11
351.53389220072029
 21
841.07058727603157
  0
LINE
  8
_0-1_
  6
CONTINUOUS
 62
    7
 10
351.53389220072029
 20
841.07058727603157
 11
351.81111869664733
 21
840.55196047749757
  0
LINE
  8
_0-1_
  6
CONTINUOUS
 62
    7
 10
351.81111869664733
 20
840.55196047749757
 11
351.98185084869493
 21
839.98915241491829
  0
LINE
  8
_0-1_
  6
CONTINUOUS
 62
    7
 10
351.98185084869493
 20
839.98915241491829
 11
352.03948333916969
 21
839.40394751353608
  0
LINE
  8
_0-1_
  6
CONTINUOUS
 62
    7
 10
352.03948333916969
 20
839.40394751353608
 11
352.03948333916969
 21
837.40389231089
  0
LINE
  8
_0-1_
  6
CONTINUOUS
 62
    7
 10
352.03948333916969
 20
837.40389231089
 11
352.03948333916969
 21
835.40392459589543
  0
LINE
  8
_0-1_
  6
CONTINUOUS
 62
    7
 10
352.03948333916969
 20
835.40392459589543
 11
352.0971377015573
 21
834.81863220686148
  0
LINE
  8
_0-1_
  6
CONTINUOUS
 62
    7
 10
352.0971377015573
 20
834.81863220686148
 11
352.26784798169234
 21
834.25582414428231
  0
LINE
  8
_0-1_
  6
CONTINUOUS
 62
    7
 10
352.26784798169234
 20
834.25582414428231
 11
352.5450744776191
 21
833.73719734574831
  0
LINE
  8
_0-1_
  6
CONTINUOUS
 62
    7
 10
352.5450744776191
 20
833.73719734574831
 11
352.91816556775899
 21
833.28261150816684
  0
LINE
  8
_0-1_
  6
CONTINUOUS
 62
    7
 10
352.91816556775899
 20
833.28261150816684
 11
353.37277327725332
 21
832.90947667420141
  0
LINE
  8
_0-1_
  6
CONTINUOUS
 62
    7
 10
353.37277327725332
 20
832.90947667420141
 11
353.89144381961302
 21
832.63222830636153
  0
LINE
  8
_0-1_
  6
CONTINUOUS
 62
    7
 10
353.89144381961302
 20
832.63222830636153
 11
354.45420813836648
 21
832.46153989813956
  0
LINE
  8
_0-1_
  6
CONTINUOUS
 62
    7
 10
354.45420813836648
 20
832.46153989813956
 11
355.03947865548741
 21
832.4038855357519
  0
LINE
  8
_0-1_
  6
CONTINUOUS
 62
    7
 10
355.03947865548741
 20
832.4038855357519
 11
579.5395072730812
 21
832.4038855357519
  0
LINE
  8
_0-1_
  6
CONTINUOUS
 62
    7
 10
579.5395072730812
 20
832.4038855357519
 11
804.03951401876202
 21
832.4038855357519
  0
LINE
  8
_0-1_
  6
CONTINUOUS
 62
    7
 10
804.03951401876202
 20
832.4038855357519
 11
804.62471892014435
 21
832.46153989813956
  0
LINE
  8
_0-1_
  6
CONTINUOUS
 62
    7
 10
804.62471892014435
 20
832.46153989813956
 11
805.18752698272351
 21
832.63222830636153
  0
LINE
  8
_0-1_
  6
CONTINUOUS
 62
    7
 10
805.18752698272351
 20
832.63222830636153
 11
805.70624126890903
 21
832.90947667420141
  0
LINE
  8
_0-1_
  6
CONTINUOUS
 62
    7
 10
805.70624126890903
 20
832.90947667420141
 11
806.1608271064905
 21
833.28261150816684
  0
LINE
  8
_0-1_
  6
CONTINUOUS
 62
    7
 10
806.1608271064905
 20
833.28261150816684
 11
806.53387445280441
 21
833.73719734574831
  0
LINE
  8
_0-1_
  6
CONTINUOUS
 62
    7
 10
806.53387445280441
 20
833.73719734574831
 11
806.81112282064419
 21
834.25582414428231
  0
LINE
  8
_0-1_
  6
CONTINUOUS
 62
    7
 10
806.81112282064419
 20
834.25582414428231
 11
806.98181122886626
 21
834.81863220686148
  0
LINE
  8
_0-1_
  6
CONTINUOUS
 62
    7
 10
806.98181122886626
 20
834.81863220686148
 11
807.03946559125382
 21
835.40392459589543
  0
LINE
  8
_0-1_
  6
CONTINUOUS
 62
    7
 10
807.03946559125382
 20
835.40392459589543
 11
807.03946559125382
 21
837.40389231089
  0
LINE
  8
_0-1_
  6
CONTINUOUS
 62
    7
 10
807.03946559125382
 20
837.40389231089
 11
807.03946559125382
 21
839.40394751353608
  0
LINE
  8
_0-1_
  6
CONTINUOUS
 62
    7
 10
807.03946559125382
 20
839.40394751353608
 11
807.09711995364148
 21
839.98915241491829
  0
LINE
  8
_0-1_
  6
CONTINUOUS
 62
    7
 10
807.09711995364148
 20
839.98915241491829
 11
807.26780836186344
 21
840.55196047749757
  0
LINE
  8
_0-1_
  6
CONTINUOUS
 62
    7
 10
807.26780836186344
 20
840.55196047749757
 11
807.54505672970322
 21
841.07058727603157
  0
LINE
  8
_0-1_
  6
CONTINUOUS
 62
    7
 10
807.54505672970322
 20
841.07058727603157
 11
807.91819156366887
 21
841.52526060126456
  0
LINE
  8
_0-1_
  6
CONTINUOUS
 62
    7
 10
807.91819156366887
 20
841.52526060126456
 11
808.37277740125035
 21
841.89830794757859
  0
LINE
  8
_0-1_
  6
CONTINUOUS
 62
    7
 10
808.37277740125035
 20
841.89830794757859
 11
808.89140419978435
 21
842.17555631541825
  0
LINE
  8
_0-1_
  6
CONTINUOUS
 62
    7
 10
808.89140419978435
 20
842.17555631541825
 11
809.45421226236351
 21
842.34624472364032
  0
LINE
  8
_0-1_
  6
CONTINUOUS
 62
    7
 10
809.45421226236351
 20
842.34624472364032
 11
810.03950465139724
 21
842.40389908602788
  0
LINE
  8
_0-1_
  6
CONTINUOUS
 62
    7
 10
810.03950465139724
 20
842.40389908602788
 11
832.03949946694388
 21
842.40389908602788
  0
LINE
  8
_0-1_
  6
CONTINUOUS
 62
    7
 10
295.71985443586539
 20
1327.1585409981865
 11
290.10979626629808
 21
1380.7949454996117
  0
LINE
  8
_0-1_
  6
CONTINUOUS
 62
    7
 10
290.10979626629808
 20
1380.7949454996117
 11
286.11893768015977
 21
1434.5760545767412
  0
LINE
  8
_0-1_
  6
CONTINUOUS
 62
    7
 10
286.11893768015977
 20
1434.5760545767412
 11
283.75090941499093
 21
1488.4529626323447
  0
LINE
  8
_0-1_
  6
CONTINUOUS
 62
    7
 10
283.75090941499093
 20
1488.4529626323447
 11
283.00785491825536
 21
1542.376851556844
  0
LINE
  8
_0-1_
  6
CONTINUOUS
 62
    7
 10
283.00785491825536
 20
1542.376851556844
 11
283.89047409116529
 21
1596.2986407777055
  0
LINE
  8
_0-1_
  6
CONTINUOUS
 62
    7
 10
283.89047409116529
 20
1596.2986407777055
 11
286.39793580103105
 21
1650.1693372100476
  0
LINE
  8
_0-1_
  6
CONTINUOUS
 62
    7
 10
286.39793580103105
 20
1650.1693372100476
 11
290.52798724082436
 21
1703.9399477689881
  0
LINE
  8
_0-1_
  6
CONTINUOUS
 62
    7
 10
290.52798724082436
 20
1703.9399477689881
 11
296.27684456961492
 21
1757.5618293202522
  0
LINE
  8
_0-1_
  6
CONTINUOUS
 62
    7
 10
296.27684456961492
 20
1757.5618293202522
 11
891.27686342217294
 21
1757.5618293202522
  0
LINE
  8
_0-1_
  6
CONTINUOUS
 62
    7
 10
891.27686342217294
 20
1757.5618293202522
 11
897.02567700713757
 21
1703.9399477689881
  0
LINE
  8
_0-1_
  6
CONTINUOUS
 62
    7
 10
897.02567700713757
 20
1703.9399477689881
 11
901.15579406266966
 21
1650.1693372100476
  0
LINE
  8
_0-1_
  6
CONTINUOUS
 62
    7
 10
901.15579406266966
 20
1650.1693372100476
 11
903.66319015679665
 21
1596.2986407777055
  0
LINE
  8
_0-1_
  6
CONTINUOUS
 62
    7
 10
903.66319015679665
 20
1596.2986407777055
 11
904.54585307353238
 21
1542.376851556844
  0
LINE
  8
_0-1_
  6
CONTINUOUS
 62
    7
 10
904.54585307353238
 20
1542.376851556844
 11
903.80282044870967
 21
1488.4529626323447
  0
LINE
  8
_0-1_
  6
CONTINUOUS
 62
    7
 10
903.80282044870967
 20
1488.4529626323447
 11
901.43479218354082
 21
1434.5760545767412
  0
LINE
  8
_0-1_
  6
CONTINUOUS
 62
    7
 10
901.43479218354082
 20
1434.5760545767412
 11
897.44386798166386
 21
1380.7949454996117
  0
LINE
  8
_0-1_
  6
CONTINUOUS
 62
    7
 10
897.44386798166386
 20
1380.7949454996117
 11
891.83380981209655
 21
1327.1585409981865
  0
LINE
  8
_0-1_
  6
CONTINUOUS
 62
    7
 10
891.83380981209655
 20
1327.1585409981865
 11
891.61876516452617
 21
1326.1418469992384
  0
LINE
  8
_0-1_
  6
CONTINUOUS
 62
    7
 10
891.61876516452617
 20
1326.1418469992384
 11
891.2993477486275
 21
1325.1529740734909
  0
LINE
  8
_0-1_
  6
CONTINUOUS
 62
    7
 10
891.2993477486275
 20
1325.1529740734909
 11
890.87905707046332
 21
1324.2025957144365
  0
LINE
  8
_0-1_
  6
CONTINUOUS
 62
    7
 10
890.87905707046332
 20
1324.2025957144365
 11
890.36235500026396
 21
1323.3009479773091
  0
LINE
  8
_0-1_
  6
CONTINUOUS
 62
    7
 10
890.36235500026396
 20
1323.3009479773091
 11
889.7548407477301
 21
1322.4578294790849
  0
LINE
  8
_0-1_
  6
CONTINUOUS
 62
    7
 10
889.7548407477301
 20
1322.4578294790849
 11
889.06316337438159
 21
1321.6823389355277
  0
LINE
  8
_0-1_
  6
CONTINUOUS
 62
    7
 10
889.06316337438159
 20
1321.6823389355277
 11
888.29475933060223
 21
1320.9827001858862
  0
LINE
  8
_0-1_
  6
CONTINUOUS
 62
    7
 10
888.29475933060223
 20
1320.9827001858862
 11
887.45793994329142
 21
1320.3666996311497
  0
LINE
  8
_0-1_
  6
CONTINUOUS
 62
    7
 10
887.45793994329142
 20
1320.3666996311497
 11
818.45152983794333
 21
1286.7586682293863
  0
LINE
  8
_0-1_
  6
CONTINUOUS
 62
    7
 10
818.45152983794333
 20
1286.7586682293863
 11
745.68323820254045
 21
1262.34278940326
  0
LINE
  8
_0-1_
  6
CONTINUOUS
 62
    7
 10
745.68323820254045
 20
1262.34278940326
 11
670.37128684143295
 21
1247.5278054609262
  0
LINE
  8
_0-1_
  6
CONTINUOUS
 62
    7
 10
670.37128684143295
 20
1247.5278054609262
 11
593.77685399589382
 21
1242.561743894599
  0
LINE
  8
_0-1_
  6
CONTINUOUS
 62
    7
 10
593.77685399589382
 20
1242.561743894599
 11
517.1824211503548
 21
1247.5278054609262
  0
LINE
  8
_0-1_
  6
CONTINUOUS
 62
    7
 10
517.1824211503548
 20
1247.5278054609262
 11
441.87046978924712
 21
1262.34278940326
  0
LINE
  8
_0-1_
  6
CONTINUOUS
 62
    7
 10
441.87046978924712
 20
1262.34278940326
 11
369.10213441001861
 21
1286.7586682293863
  0
LINE
  8
_0-1_
  6
CONTINUOUS
 62
    7
 10
369.10213441001861
 20
1286.7586682293863
 11
300.09578992040917
 21
1320.3666996311497
  0
LINE
  8
_0-1_
  6
CONTINUOUS
 62
    7
 10
300.09578992040917
 20
1320.3666996311497
 11
299.22550650637118
 21
1321.0102587961321
  0
LINE
  8
_0-1_
  6
CONTINUOUS
 62
    7
 10
299.22550650637118
 20
1321.0102587961321
 11
298.4298719310392
 21
1321.7441052175398
  0
LINE
  8
_0-1_
  6
CONTINUOUS
 62
    7
 10
298.4298719310392
 20
1321.7441052175398
 11
297.71822550121885
 21
1322.5595776178661
  0
LINE
  8
_0-1_
  6
CONTINUOUS
 62
    7
 10
297.71822550121885
 20
1322.5595776178661
 11
297.09887854380952
 21
1323.4473148183931
  0
LINE
  8
_0-1_
  6
CONTINUOUS
 62
    7
 10
297.09887854380952
 20
1323.4473148183931
 11
296.57909253389221
 21
1324.3967308132803
  0
LINE
  8
_0-1_
  6
CONTINUOUS
 62
    7
 10
296.57909253389221
 20
1324.3967308132803
 11
296.1649916070769
 21
1325.3967146707778
  0
LINE
  8
_0-1_
  6
CONTINUOUS
 62
    7
 10
296.1649916070769
 20
1325.3967146707778
 11
295.86136571228735
 21
1326.4357180208774
  0
LINE
  8
_0-1_
  6
CONTINUOUS
 62
    7
 10
295.86136571228735
 20
1326.4357180208774
 11
295.67182371515105
 21
1327.5013176170555
  0
LINE
  8
_0-1_
  6
CONTINUOUS
 62
    7
 10
361.50284763468733
 20
1618.3766745784567
 11
826.05088222901327
 21
1618.3766745784567
  0
LINE
  8
_0-1_
  6
CONTINUOUS
 62
    7
 10
341.94430509589353
 20
1602.5561075689247
 11
338.36641009710007
 21
1566.0790061214254
  0
LINE
  8
_0-1_
  6
CONTINUOUS
 62
    7
 10
338.36641009710007
 20
1566.0790061214254
 11
335.81599195031117
 21
1530.6293596540177
  0
LINE
  8
_0-1_
  6
CONTINUOUS
 62
    7
 10
335.81599195031117
 20
1530.6293596540177
 11
334.29305065552694
 21
1496.2071681667019
  0
LINE
  8
_0-1_
  6
CONTINUOUS
 62
    7
 10
334.29305065552694
 20
1496.2071681667019
 11
333.79758621274732
 21
1462.8123441718258
  0
LINE
  8
_0-1_
  6
CONTINUOUS
 62
    7
 10
333.79758621274732
 20
1462.8123441718258
 11
334.3295986219722
 21
1430.4451501323447
  0
LINE
  8
_0-1_
  6
CONTINUOUS
 62
    7
 10
334.3295986219722
 20
1430.4451501323447
 11
335.88908788320168
 21
1399.1054110729556
  0
LINE
  8
_0-1_
  6
CONTINUOUS
 62
    7
 10
335.88908788320168
 20
1399.1054110729556
 11
338.47605399643584
 21
1368.7931269936578
  0
LINE
  8
_0-1_
  6
CONTINUOUS
 62
    7
 10
338.47605399643584
 20
1368.7931269936578
 11
342.0904750897617
 21
1339.508297894452
  0
LINE
  8
_0-1_
  6
CONTINUOUS
 62
    7
 10
845.6095341273716
 20
1602.5550577171061
 11
849.18847897798389
 21
1566.0648331218704
  0
LINE
  8
_0-1_
  6
CONTINUOUS
 62
    7
 10
849.18847897798389
 20
1566.0648331218704
 11
851.73926894729198
 21
1530.6027634079392
  0
LINE
  8
_0-1_
  6
CONTINUOUS
 62
    7
 10
851.73926894729198
 20
1530.6027634079392
 11
853.26181654764412
 21
1496.168848575312
  0
LINE
  8
_0-1_
  6
CONTINUOUS
 62
    7
 10
853.26181654764412
 20
1496.168848575312
 11
853.75612177904043
 21
1462.7632635992925
  0
LINE
  8
_0-1_
  6
CONTINUOUS
 62
    7
 10
853.75612177904043
 20
1462.7632635992925
 11
853.22218464148079
 21
1430.3859209922289
  0
LINE
  8
_0-1_
  6
CONTINUOUS
 62
    7
 10
853.22218464148079
 20
1430.3859209922289
 11
851.66000513496544
 21
1399.0367332664696
  0
LINE
  8
_0-1_
  6
CONTINUOUS
 62
    7
 10
851.66000513496544
 20
1399.0367332664696
 11
849.06958325949404
 21
1368.715787909666
  0
LINE
  8
_0-1_
  6
CONTINUOUS
 62
    7
 10
849.06958325949404
 20
1368.715787909666
 11
845.45100650271843
 21
1339.4230849218184
  0
LINE
  8
_0-1_
  6
CONTINUOUS
 62
    7
 10
356.96510373855642
 20
1322.2259872024122
 11
416.21152266572335
 21
1298.7061569037123
  0
LINE
  8
_0-1_
  6
CONTINUOUS
 62
    7
 10
416.21152266572335
 20
1298.7061569037123
 11
475.45794159289028
 21
1281.9119398198072
  0
LINE
  8
_0-1_
  6
CONTINUOUS
 62
    7
 10
475.45794159289028
 20
1281.9119398198072
 11
534.70436052005721
 21
1271.8432484630453
  0
LINE
  8
_0-1_
  6
CONTINUOUS
 62
    7
 10
534.70436052005721
 20
1271.8432484630453
 11
593.95073570339832
 21
1268.5002578087294
  0
LINE
  8
_0-1_
  6
CONTINUOUS
 62
    7
 10
593.95073570339832
 20
1268.5002578087294
 11
653.19715463056525
 21
1271.8827928815567
  0
LINE
  8
_0-1_
  6
CONTINUOUS
 62
    7
 10
653.19715463056525
 20
1271.8827928815567
 11
712.44357355773218
 21
1281.9908536815274
  0
LINE
  8
_0-1_
  6
CONTINUOUS
 62
    7
 10
712.44357355773218
 20
1281.9908536815274
 11
771.68999248489911
 21
1298.8246151839442
  0
LINE
  8
_0-1_
  6
CONTINUOUS
 62
    7
 10
771.68999248489911
 20
1298.8246151839442
 11
830.93636766824022
 21
1322.3839899011559
  0
LINE
  8
_0-1_
  6
CONTINUOUS
 62
    7
 10
393.77684545332852
 20
1608.3766610281807
 11
793.77686253845923
 21
1608.3766610281807
  0
LINE
  8
_0-1_
  6
CONTINUOUS
 62
    7
 10
372.7684794245539
 20
1397.546731072503
 11
431.5989383123096
 21
1372.8887739144695
  0
LINE
  8
_0-1_
  6
CONTINUOUS
 62
    7
 10
431.5989383123096
 20
1372.8887739144695
 11
486.2178291409171
 21
1356.5368069092738
  0
LINE
  8
_0-1_
  6
CONTINUOUS
 62
    7
 10
486.2178291409171
 20
1356.5368069092738
 11
540.1791190364645
 21
1346.843787528373
  0
LINE
  8
_0-1_
  6
CONTINUOUS
 62
    7
 10
540.1791190364645
 20
1346.843787528373
 11
593.77685399589382
 21
1343.6344780056631
  0
LINE
  8
_0-1_
  6
CONTINUOUS
 62
    7
 10
593.77685399589382
 20
1343.6344780056631
 11
647.37458895532313
 21
1346.843787528373
  0
LINE
  8
_0-1_
  6
CONTINUOUS
 62
    7
 10
647.37458895532313
 20
1346.843787528373
 11
701.33587885087059
 21
1356.5368069092738
  0
LINE
  8
_0-1_
  6
CONTINUOUS
 62
    7
 10
701.33587885087059
 20
1356.5368069092738
 11
755.95481342330402
 21
1372.8887739144695
  0
LINE
  8
_0-1_
  6
CONTINUOUS
 62
    7
 10
755.95481342330402
 20
1372.8887739144695
 11
814.78527231105954
 21
1397.546731072503
  0
LINE
  8
_0-0_
  6
CONTINUOUS
 62
    7
 10
819.5395262729246
 20
842.40389908602788
 11
327.03949320730544
 21
842.40389908602788
  0
LINE
  8
_0-0_
  6
CONTINUOUS
 62
    7
 10
1233.3474569431141
 20
846.5159061976841
 11
1618.347453702831
 21
841.51589942254623
  0
ARC
  8
_0-1_
  6
CONTINUOUS
 62
    7
 10
1652.0078027202353
 20
1207.8880254090061
 40
571.64960839113212
 50
196.70806884765625
 51
219.09463500976563
  0
ARC
  8
_0-1_
  6
CONTINUOUS
 62
    7
 10
1107.3654136510429
 20
1044.4038753435877
 40
3.0000001007985881
 50
90
 51
196.70806884765625
  0
ARC
  8
_0-1_
  6
CONTINUOUS
 62
    7
 10
251.84923716953818
 20
1117.4742618398775
 40
642.09379056245666
 50
334.63418579101563
 51
352.98333740234375
  0
ARC
  8
_0-1_
  6
CONTINUOUS
 62
    7
 10
907.22971176088538
 20
1117.4742618398775
 40
642.09379056245666
 50
187.01664733886719
 51
205.36579895019531
  0
ARC
  8
_0-1_
  6
CONTINUOUS
 62
    7
 10
886.15664861377138
 20
1039.4038685684498
 40
3.0000001007985881
 50
352.98333740234375
 51
89.999999999999986
  0
ARC
  8
_0-1_
  6
CONTINUOUS
 62
    7
 10
272.92234406047811
 20
1039.4038685684498
 40
3.0000001007985881
 50
90
 51
187.01664733886722
  0
CIRCLE
  8
_0-1_
  6
CONTINUOUS
 62
    7
 10
593.77685399589382
 20
1678.3767558801128
 40
17.500000474075552
  0
CIRCLE
  8
_0-1_
  6
CONTINUOUS
 62
    7
 10
593.77685399589382
 20
1533.3766468887623
 40
23.000000544956748
  0
ARC
  8
_0-1_
  6
CONTINUOUS
 62
    7
 10
975.6537165697016
 20
1443.9332963508989
 40
604.6670981447669
 50
164.21923828125
 51
184.39971923828125
  0
ARC
  8
_0-1_
  6
CONTINUOUS
 62
    7
 10
-229.32654737965947
 20
1399.9668144903585
 40
1044.1146411674824
 50
359.86701965332026
 51
11.513824462890597
  0
ARC
  8
_0-1_
  6
CONTINUOUS
 62
    7
 10
369.68541458306618
 20
1348.1114835996887
 40
28.800409972437556
 50
197.3807373046875
 51
243.79151916503906
  0
ARC
  8
_0-1_
  6
CONTINUOUS
 62
    7
 10
817.9923071548285
 20
1348.1114835996887
 40
28.800409972437556
 50
296.20846557617187
 51
342.61924743652344
  0
ARC
  8
_0-1_
  6
CONTINUOUS
 62
    7
 10
826.05088222901327
 20
1598.376647477905
 40
19.999999760660884
 50
6.8988342285156241
 51
90
  0
ARC
  8
_0-1_
  6
CONTINUOUS
 62
    7
 10
361.50284763468733
 20
1598.376647477905
 40
19.999999760660884
 50
90
 51
173.10115051269534
  0
TEXT
  8
_0-0_
 62
    6
 10
2000.5661935695809
 20
1784.0835359197786
 40
100
 41
1
 50
0
  1
 B1-C601-1
  0
ENDSEC
  0
EOF
