  0
SECTION
  2
HEADER
  9
$ACADVER
  1
AC1009
  9
$INSBASE
 10
0
 20
0
 30
0
  9
$EXTMIN
 10
0
 20
0
  9
$EXTMAX
 10
2970
 20
2100
  9
$LIMMIN
 10
0
 20
0
  9
$LIMMAX
 10
2970
 20
2100
  9
$LTSCALE
 40
10
  0
ENDSEC
  0
SECTION
  2
TABLES
  0
TABLE
  2
LTYPE
 70
     9
  0
LTYPE
  2
CONTINUOUS
 70
    64
  3
実線
 72
    65
 73
     0
 40
0.0
  0
LTYPE
  2
DASHED1
 70
    64
  3
--  --  --  --  --  --  --  --  
 72
    65
 73
     2
 40
2.5
 49
1.25
 49
-1.25
  0
LTYPE
  2
DASHED2
 70
    64
  3
----    ----    ----    ----    
 72
    65
 73
     2
 40
5.0
 49
2.5
 49
-2.5
  0
LTYPE
  2
DASHED3
 70
    64
  3
------  ------  ------  ------  
 72
    65
 73
     2
 40
5.0
 49
3.75
 49
-1.25
  0
LTYPE
  2
CENTER1
 70
    64
  3
----- - ----- - ----- - ----- - 
 72
    65
 73
     4
 40
10.0
 49
6.25
 49
-1.25
 49
1.25
 49
-1.25
  0
LTYPE
  2
CENTER2
 70
    64
  3
----------  --  ----------  --  
 72
    65
 73
     4
 40
20.0
 49
12.5
 49
-2.5
 49
2.5
 49
-2.5
  0
LTYPE
  2
PHANTOM1
 70
    64
  3
--- - - --- - - --- - - --- - - 
 72
    65
 73
     6
 40
10.0
 49
3.25
 49
-1.25
 49
1.25
 49
-1.25
 49
1.25
 49
-1.25
  0
LTYPE
  2
PHANTOM2
 70
    64
  3
--------  -  -  --------  -  -  
 72
    65
 73
     6
 40
20.0
 49
10.0
 49
-2.5
 49
1.25
 49
-2.5
 49
1.25
 49
-2.5
  0
LTYPE
  2
DOT
 70
    64
  3
-   -   -   -   -   -   -   -   
 72
    65
 73
     2
 40
2.5
 49
0.625
 49
-1.875
  0
LTYPE
  2
DUMMY
 70
    64
  3
ダミー
 72
    65
 73
     0
 40
0.0
  0
LTYPE
  2
RAND1
 70
    64
  3
ランダム線1
 72
    65
 73
     4
 40
10.0
 49
1.0
 49
-2.0
 49
3.0
 49
-4.0
  0
LTYPE
  2
RAND2
 70
    64
  3
ランダム線2
 72
    65
 73
     4
 40
14.0
 49
2.0
 49
-3.0
 49
4.0
 49
-5.0
  0
LTYPE
  2
RAND3
 70
    64
  3
ランダム線3
 72
    65
 73
     4
 40
18.0
 49
3.0
 49
-4.0
 49
5.0
 49
-6.0
  0
LTYPE
  2
RAND4
 70
    64
  3
ランダム線4
 72
    65
 73
     4
 40
22.0
 49
4.0
 49
-5.0
 49
6.0
 49
-7.0
  0
LTYPE
  2
RAND5
 70
    64
  3
ランダム線5
 72
    65
 73
     4
 40
26.0
 49
5.0
 49
-6.0
 49
7.0
 49
-8.0
  0
LTYPE
  2
LONG1
 70
    64
  3
----------  --  ----------  --  
 72
    65
 73
     4
 40
40.0
 49
32.5
 49
-2.5
 49
2.5
 49
-2.5
  0
LTYPE
  2
LONG2
 70
    64
  3
--------  -  -  --------  -  -  
 72
    65
 73
     6
 40
40.0
 49
30.0
 49
-2.5
 49
1.25
 49
-2.5
 49
1.25
 49
-2.5
  0
LTYPE
  2
LONG3
 70
    64
  3
+++++++++++++++..+++++++++++++++
 72
    65
 73
     2
 40
40.0
 49
37.5
 49
-2.5
  0
LTYPE
  2
LONG4
 70
    64
  3
+++++++++++++++..+++++++++++++++
 72
    65
 73
     2
 40
80.0
 49
75.0
 49
-5.0
  0
LTYPE
  2
LONG5
 70
    64
  3
----------  --  ----------  --  
 72
    65
 73
     4
 40
60.0
 49
37.5
 49
-7.5
 49
7.5
 49
-7.5
  0
LTYPE
  2
dashed
 70
   64
  3
-------   -------------   ------
 72
   65
 73
    2
 40
7.5
 49
6
 49
-1.5
  0
LTYPE
  2
dashed_spaced
 70
   64
  3
----        --------        ----
 72
   65
 73
    2
 40
12
 49
6
 49
-6
  0
LTYPE
  2
long_dashed_dotted
 70
   64
  3
------------- --- --------------
 72
   65
 73
    4
 40
15.25
 49
12
 49
-1.5
 49
0.25
 49
-1.5
  0
LTYPE
  2
long_dashed_double-dotted
 70
   64
  3
----------- --- --- ------------
 72
   65
 73
    6
 40
17
 49
12
 49
-1.5
 49
0.25
 49
-1.5
 49
0.25
 49
-1.5
  0
LTYPE
  2
long_dashed_triplicate-dotted
 70
   64
  3
--------- --- --- --- ----------
 72
   65
 73
    8
 40
18.75
 49
12
 49
-1.5
 49
0.25
 49
-1.5
 49
0.25
 49
-1.5
 49
0.25
 49
-1.5
  0
LTYPE
  2
dotted
 70
   64
  3
   -       -       -       -    
 72
   65
 73
    2
 40
1.75
 49
0.25
 49
-1.5
  0
LTYPE
  2
chain
 70
   64
  3
-------------- -- --------------
 72
   65
 73
    4
 40
18.5
 49
12
 49
-1.5
 49
3.5
 49
-1.5
  0
LTYPE
  2
chain_double_dash
 70
   64
  3
------------ -- -- -------------
 72
   65
 73
    6
 40
23.5
 49
12
 49
-1.5
 49
3.5
 49
-1.5
 49
3.5
 49
-1.5
  0
LTYPE
  2
dashed_dotted
 70
   64
  3
-----------     -     ----------
 72
   65
 73
    4
 40
9.25
 49
6
 49
-1.5
 49
0.25
 49
-1.5
  0
LTYPE
  2
double-dashed_dotted
 70
   64
  3
------   -----------   -   -----
 72
   65
 73
    6
 40
16.75
 49
6
 49
-1.5
 49
6
 49
-1.5
 49
0.25
 49
-1.5
  0
LTYPE
  2
dashed_double-dotted
 70
   64
  3
---------    -    -    ---------
 72
   65
 73
    6
 40
11
 49
6
 49
-1.5
 49
0.25
 49
-1.5
 49
0.25
 49
-1.5
  0
LTYPE
  2
double-dashed_double-dotted
 70
   64
  3
-----   ---------   -   -   ----
 72
   65
 73
    8
 40
18.5
 49
6
 49
-1.5
 49
6
 49
-1.5
 49
0.25
 49
-1.5
 49
0.25
 49
-1.5
  0
LTYPE
  2
dashed_triplicate-dotted
 70
   64
  3
-------    -    -    -    ------
 72
   65
 73
    8
 40
12.75
 49
6
 49
-1.5
 49
0.25
 49
-1.5
 49
0.25
 49
-1.5
 49
0.25
 49
-1.5
  0
LTYPE
  2
double-dashed_triplicate-dotted
 70
   64
  3
-----  ---------  -  -  -  -----
 72
   65
 73
   10
 40
20.25
 49
6
 49
-1.5
 49
6
 49
-1.5
 49
0.25
 49
-1.5
 49
0.25
 49
-1.5
 49
0.25
 49
-1.5
  0
LTYPE
  2
undefined
 70
   64
  3
--------------------------------
 72
   65
 73
    0
 40
0
  0
LTYPE
  2
_
 70
   64
  3
                                
 72
   65
 73
    0
 40
0
  0
LTYPE
  2
__18
 70
   64
  3
                                
 72
   65
 73
    0
 40
0
  0
LTYPE
  2
__19
 70
   64
  3
                                
 72
   65
 73
    0
 40
0
  0
LTYPE
  2
__20
 70
   64
  3
                                
 72
   65
 73
    0
 40
0
  0
LTYPE
  2
__21
 70
   64
  3
                                
 72
   65
 73
    0
 40
0
  0
LTYPE
  2
__22
 70
   64
  3
                                
 72
   65
 73
    0
 40
0
  0
LTYPE
  2
__23
 70
   64
  3
                                
 72
   65
 73
    0
 40
0
  0
LTYPE
  2
__24
 70
   64
  3
                                
 72
   65
 73
    0
 40
0
  0
LTYPE
  2
__25
 70
   64
  3
                                
 72
   65
 73
    0
 40
0
  0
LTYPE
  2
__26
 70
   64
  3
                                
 72
   65
 73
    0
 40
0
  0
LTYPE
  2
__27
 70
   64
  3
                                
 72
   65
 73
    0
 40
0
  0
LTYPE
  2
__28
 70
   64
  3
                                
 72
   65
 73
    0
 40
0
  0
LTYPE
  2
__29
 70
   64
  3
                                
 72
   65
 73
    0
 40
0
  0
LTYPE
  2
__30
 70
   64
  3
                                
 72
   65
 73
    0
 40
0
  0
LTYPE
  2
__31
 70
   64
  3
                                
 72
   65
 73
    0
 40
0
  0
LTYPE
  2
__32
 70
   64
  3
                                
 72
   65
 73
    0
 40
0
  0
ENDTAB
  0
TABLE
  2
STYLE
  5
3
100
AcDbSymbolTable
 70
     1
  0
STYLE
  5
10
100
AcDbSymbolTableRecord
100
AcDbTextStyleTableRecord
  2
STANDARD
 70
     0
 40
0.0
 41
1.0
 50
0.0
 71
     0
 42
0.2
  3
txt
  4
bigfont.shx
  0
STYLE
  5
26
100
AcDbSymbolTableRecord
100
AcDbTextStyleTableRecord
  2
TATEGAKI
 70
    68
 40
0.0
 41
1.0
 50
0.0
 71
     0
 42
1.0
  3
txt
  4
bigfont.shx
  0
ENDTAB
  0
TABLE
  2
LAYER
 70
    3
  0
LAYER
  2
_0-0_
 70
   64
 62
    7
  6
CONTINUOUS
  0
LAYER
  2
_1-0_
 70
   64
 62
    7
  6
CONTINUOUS
  0
LAYER
  2
ADD_LINE
 70
   64
 62
    7
  6
CONTINUOUS
  0
ENDTAB
  0
ENDSEC
  0
SECTION
  2
BLOCKS
  0
ENDSEC
  0
SECTION
  2
ENTITIES
  0
LINE
  8
_0-0_
  6
CONTINUOUS
 62
    7
 10
873.89105483832043
 20
1257.9029660611538
 11
873.89105483832043
 21
1257.802967675404
  0
LINE
  8
_0-0_
  6
CONTINUOUS
 62
    7
 10
873.89105483832043
 20
1257.802967675404
 11
873.96926879882812
 21
1257.802967675404
  0
LINE
  8
_0-0_
  6
CONTINUOUS
 62
    7
 10
873.89105483832043
 20
1270.5770396818066
 11
873.89105483832043
 21
1387.7440021765278
  0
LINE
  8
_0-0_
  6
CONTINUOUS
 62
    7
 10
873.89105483832043
 20
1387.7440021765278
 11
873.79499339689141
 21
1388.7194894915842
  0
LINE
  8
_0-0_
  6
CONTINUOUS
 62
    7
 10
873.79499339689141
 20
1388.7194894915842
 11
873.51048355397108
 21
1389.6574446041152
  0
LINE
  8
_0-0_
  6
CONTINUOUS
 62
    7
 10
873.51048355397108
 20
1389.6574446041152
 11
873.0484612660058
 21
1390.5218226016718
  0
LINE
  8
_0-0_
  6
CONTINUOUS
 62
    7
 10
873.0484612660058
 20
1390.5218226016718
 11
872.42659903861386
 21
1391.2795531519591
  0
LINE
  8
_0-0_
  6
CONTINUOUS
 62
    7
 10
872.42659903861386
 20
1391.2795531519591
 11
871.66895597597795
 21
1391.9013278916996
  0
LINE
  8
_0-0_
  6
CONTINUOUS
 62
    7
 10
871.66895597597795
 20
1391.9013278916996
 11
870.80449049076969
 21
1392.3634376673162
  0
LINE
  8
_0-0_
  6
CONTINUOUS
 62
    7
 10
870.80449049076969
 20
1392.3634376673162
 11
869.86653537823884
 21
1392.6479475102369
  0
LINE
  8
_0-0_
  6
CONTINUOUS
 62
    7
 10
869.86653537823884
 20
1392.6479475102369
 11
868.89104806318244
 21
1392.7440089516656
  0
LINE
  8
_0-0_
  6
CONTINUOUS
 62
    7
 10
868.89104806318244
 20
1392.7440089516656
 11
548.89109563643399
 21
1392.7440089516656
  0
LINE
  8
_0-0_
  6
CONTINUOUS
 62
    7
 10
548.89109563643399
 20
1392.7440089516656
 11
547.91560832137759
 21
1392.6479475102369
  0
LINE
  8
_0-0_
  6
CONTINUOUS
 62
    7
 10
547.91560832137759
 20
1392.6479475102369
 11
546.97765320884673
 21
1392.3634376673162
  0
LINE
  8
_0-0_
  6
CONTINUOUS
 62
    7
 10
546.97765320884673
 20
1392.3634376673162
 11
546.11323146746429
 21
1391.9013278916996
  0
LINE
  8
_0-0_
  6
CONTINUOUS
 62
    7
 10
546.11323146746429
 20
1391.9013278916996
 11
545.3555446610028
 21
1391.2795531519591
  0
LINE
  8
_0-0_
  6
CONTINUOUS
 62
    7
 10
545.3555446610028
 20
1391.2795531519591
 11
544.73372617743644
 21
1390.5218226016718
  0
LINE
  8
_0-0_
  6
CONTINUOUS
 62
    7
 10
544.73372617743644
 20
1390.5218226016718
 11
544.27166014564534
 21
1389.6574446041152
  0
LINE
  8
_0-0_
  6
CONTINUOUS
 62
    7
 10
544.27166014564534
 20
1389.6574446041152
 11
543.98715030272479
 21
1388.7194894915842
  0
LINE
  8
_0-0_
  6
CONTINUOUS
 62
    7
 10
543.98715030272479
 20
1388.7194894915842
 11
543.89108886129611
 21
1387.7440021765278
  0
LINE
  8
_0-0_
  6
CONTINUOUS
 62
    7
 10
543.89108886129611
 20
1387.7440021765278
 11
543.89108886129611
 21
1266.1837597703382
  0
LINE
  8
_0-0_
  6
CONTINUOUS
 62
    7
 10
880.46951382316684
 20
1249.4864790043775
 11
882.74340537524131
 21
1246.3320242392049
  0
LINE
  8
_0-0_
  6
CONTINUOUS
 62
    7
 10
882.74340537524131
 20
1246.3320242392049
 11
884.97092847198132
 21
1243.1281389508927
  0
LINE
  8
_0-0_
  6
CONTINUOUS
 62
    7
 10
884.97092847198132
 20
1243.1281389508927
 11
887.15190813808363
 21
1239.8748231394411
  0
LINE
  8
_0-0_
  6
CONTINUOUS
 62
    7
 10
887.15190813808363
 20
1239.8748231394411
 11
889.28651934885136
 21
1236.5721642925012
  0
LINE
  8
_0-0_
  6
CONTINUOUS
 62
    7
 10
889.28651934885136
 20
1236.5721642925012
 11
891.37467461663323
 21
1233.2200749224216
  0
LINE
  8
_0-0_
  6
CONTINUOUS
 62
    7
 10
891.37467461663323
 20
1233.2200749224216
 11
893.41637394142879
 21
1229.8185550292026
  0
LINE
  8
_0-0_
  6
CONTINUOUS
 62
    7
 10
893.41637394142879
 20
1229.8185550292026
 11
895.41170481089
 21
1226.3676921004953
  0
LINE
  8
_0-0_
  6
CONTINUOUS
 62
    7
 10
895.41170481089
 20
1226.3676921004953
 11
897.36049224971339
 21
1222.8673986486485
  0
LINE
  8
_0-0_
  6
CONTINUOUS
 62
    7
 10
897.36049224971339
 20
1222.8673986486485
 11
904.19012828223026
 21
1209.4030490713228
  0
LINE
  8
_0-0_
  6
CONTINUOUS
 62
    7
 10
904.19012828223026
 20
1209.4030490713228
 11
910.10901786185605
 21
1195.6807858971554
  0
LINE
  8
_0-0_
  6
CONTINUOUS
 62
    7
 10
910.10901786185605
 20
1195.6807858971554
 11
915.11742345154516
 21
1181.7006091261462
  0
LINE
  8
_0-0_
  6
CONTINUOUS
 62
    7
 10
915.11742345154516
 20
1181.7006091261462
 11
919.21517007599459
 21
1167.4626062459467
  0
LINE
  8
_0-0_
  6
CONTINUOUS
 62
    7
 10
919.21517007599459
 20
1167.4626062459467
 11
922.40225773520456
 21
1152.9667772565567
  0
LINE
  8
_0-0_
  6
CONTINUOUS
 62
    7
 10
922.40225773520456
 20
1152.9667772565567
 11
924.67877391682623
 21
1138.2129471826736
  0
LINE
  8
_0-0_
  6
CONTINUOUS
 62
    7
 10
924.67877391682623
 20
1138.2129471826736
 11
926.04471862085984
 21
1123.2013784872518
  0
LINE
  8
_0-0_
  6
CONTINUOUS
 62
    7
 10
926.04471862085984
 20
1123.2013784872518
 11
926.50000435965399
 21
1107.9318087073366
  0
LINE
  8
_0-0_
  6
CONTINUOUS
 62
    7
 10
926.50000435965399
 20
1107.9318087073366
 11
926.04471862085984
 21
1092.6623264150728
  0
LINE
  8
_0-0_
  6
CONTINUOUS
 62
    7
 10
926.04471862085984
 20
1092.6623264150728
 11
924.67877391682623
 21
1077.6506702319994
  0
LINE
  8
_0-0_
  6
CONTINUOUS
 62
    7
 10
924.67877391682623
 20
1077.6506702319994
 11
922.40225773520456
 21
1062.8969276457678
  0
LINE
  8
_0-0_
  6
CONTINUOUS
 62
    7
 10
922.40225773520456
 20
1062.8969276457678
 11
919.21517007599459
 21
1048.4010986563781
  0
LINE
  8
_0-0_
  6
CONTINUOUS
 62
    7
 10
919.21517007599459
 20
1048.4010986563781
 11
915.11742345154516
 21
1034.1630957761786
  0
LINE
  8
_0-0_
  6
CONTINUOUS
 62
    7
 10
915.11742345154516
 20
1034.1630957761786
 11
910.10901786185605
 21
1020.1829190051693
  0
LINE
  8
_0-0_
  6
CONTINUOUS
 62
    7
 10
910.10901786185605
 20
1020.1829190051693
 11
904.19012828223026
 21
1006.4606558310018
  0
LINE
  8
_0-0_
  6
CONTINUOUS
 62
    7
 10
904.19012828223026
 20
1006.4606558310018
 11
897.36049224971339
 21
992.99630625367615
  0
LINE
  8
_0-0_
  6
CONTINUOUS
 62
    7
 10
897.36049224971339
 20
992.99630625367615
 11
889.74233001355492
 21
980.01313876001063
  0
LINE
  8
_0-0_
  6
CONTINUOUS
 62
    7
 10
889.74233001355492
 20
980.01313876001063
 11
881.45759936004993
 21
967.73450932447508
  0
LINE
  8
_0-0_
  6
CONTINUOUS
 62
    7
 10
881.45759936004993
 20
967.73450932447508
 11
872.50612531389504
 21
956.16033045941788
  0
LINE
  8
_0-0_
  6
CONTINUOUS
 62
    7
 10
872.50612531389504
 20
956.16033045941788
 11
862.88817033804526
 21
945.29077714014238
  0
LINE
  8
_0-0_
  6
CONTINUOUS
 62
    7
 10
862.88817033804526
 20
945.29077714014238
 11
852.60355945719709
 21
935.12567439134511
  0
LINE
  8
_0-0_
  6
CONTINUOUS
 62
    7
 10
852.60355945719709
 20
935.12567439134511
 11
841.65229267135089
 21
925.66510970067782
  0
LINE
  8
_0-0_
  6
CONTINUOUS
 62
    7
 10
841.65229267135089
 20
925.66510970067782
 11
830.03445746815805
 21
916.90917055579223
  0
LINE
  8
_0-0_
  6
CONTINUOUS
 62
    7
 10
830.03445746815805
 20
916.90917055579223
 11
817.74996635996683
 21
908.85768198138499
  0
LINE
  8
_0-0_
  6
CONTINUOUS
 62
    7
 10
817.74996635996683
 20
908.85768198138499
 11
805.01027700063344
 21
901.63960077587706
  0
LINE
  8
_0-0_
  6
CONTINUOUS
 62
    7
 10
805.01027700063344
 20
901.63960077587706
 11
792.02649709340687
 21
895.38397122534082
  0
LINE
  8
_0-0_
  6
CONTINUOUS
 62
    7
 10
792.02649709340687
 20
895.38397122534082
 11
778.79871412593889
 21
890.09079332977649
  0
LINE
  8
_0-0_
  6
CONTINUOUS
 62
    7
 10
778.79871412593889
 20
890.09079332977649
 11
765.32701558588087
 21
885.75997960153234
  0
LINE
  8
_0-0_
  6
CONTINUOUS
 62
    7
 10
765.32701558588087
 20
885.75997960153234
 11
751.61122649793003
 21
882.39153004060836
  0
LINE
  8
_0-0_
  6
CONTINUOUS
 62
    7
 10
751.61122649793003
 20
882.39153004060836
 11
737.65152183738905
 21
879.9855321346563
  0
LINE
  8
_0-0_
  6
CONTINUOUS
 62
    7
 10
737.65152183738905
 20
879.9855321346563
 11
723.44772662895525
 21
878.54198588367592
  0
LINE
  8
_0-0_
  6
CONTINUOUS
 62
    7
 10
723.44772662895525
 20
878.54198588367592
 11
709.00001584793142
 21
878.06080380001572
  0
LINE
  8
_0-0_
  6
CONTINUOUS
 62
    7
 10
709.00001584793142
 20
878.06080380001572
 11
694.55226132308189
 21
878.54198588367592
  0
LINE
  8
_0-0_
  6
CONTINUOUS
 62
    7
 10
694.55226132308189
 20
878.54198588367592
 11
680.34850985847379
 21
879.9855321346563
  0
LINE
  8
_0-0_
  6
CONTINUOUS
 62
    7
 10
680.34850985847379
 20
879.9855321346563
 11
666.38876145410723
 21
882.39153004060836
  0
LINE
  8
_0-0_
  6
CONTINUOUS
 62
    7
 10
666.38876145410723
 20
882.39153004060836
 11
652.67301610998197
 21
885.75997960153234
  0
LINE
  8
_0-0_
  6
CONTINUOUS
 62
    7
 10
652.67301610998197
 20
885.75997960153234
 11
639.20127382609837
 21
890.09079332977649
  0
LINE
  8
_0-0_
  6
CONTINUOUS
 62
    7
 10
639.20127382609837
 20
890.09079332977649
 11
625.97353460245608
 21
895.38397122534082
  0
LINE
  8
_0-0_
  6
CONTINUOUS
 62
    7
 10
625.97353460245608
 20
895.38397122534082
 11
612.98975469522952
 21
901.63960077587706
  0
LINE
  8
_0-0_
  6
CONTINUOUS
 62
    7
 10
612.98975469522952
 20
901.63960077587706
 11
600.2500215920702
 21
908.85768198138499
  0
LINE
  8
_0-0_
  6
CONTINUOUS
 62
    7
 10
600.2500215920702
 20
908.85768198138499
 11
587.96553048387921
 21
916.90917055579223
  0
LINE
  8
_0-0_
  6
CONTINUOUS
 62
    7
 10
587.96553048387921
 20
916.90917055579223
 11
576.34769528068637
 21
925.66510970067782
  0
LINE
  8
_0-0_
  6
CONTINUOUS
 62
    7
 10
576.34769528068637
 20
925.66510970067782
 11
565.39647223866587
 21
935.12567439134511
  0
LINE
  8
_0-0_
  6
CONTINUOUS
 62
    7
 10
565.39647223866587
 20
935.12567439134511
 11
555.1118613578177
 21
945.29077714014238
  0
LINE
  8
_0-0_
  6
CONTINUOUS
 62
    7
 10
555.1118613578177
 20
945.29077714014238
 11
545.49381889431629
 21
956.16033045941788
  0
LINE
  8
_0-0_
  6
CONTINUOUS
 62
    7
 10
545.49381889431629
 20
956.16033045941788
 11
536.54243233581292
 21
967.73450932447508
  0
LINE
  8
_0-0_
  6
CONTINUOUS
 62
    7
 10
536.54243233581292
 20
967.73450932447508
 11
528.25765793848223
 21
980.01313876001063
  0
LINE
  8
_0-0_
  6
CONTINUOUS
 62
    7
 10
528.25765793848223
 20
980.01313876001063
 11
520.63949570232376
 21
992.99630625367615
  0
LINE
  8
_0-0_
  6
CONTINUOUS
 62
    7
 10
520.63949570232376
 20
992.99630625367615
 11
513.80990341363258
 21
1006.4606558310018
  0
LINE
  8
_0-0_
  6
CONTINUOUS
 62
    7
 10
513.80990341363258
 20
1006.4606558310018
 11
507.89097009018121
 21
1020.1829190051693
  0
LINE
  8
_0-0_
  6
CONTINUOUS
 62
    7
 10
507.89097009018121
 20
1020.1829190051693
 11
502.88260824431774
 21
1034.1630957761786
  0
LINE
  8
_0-0_
  6
CONTINUOUS
 62
    7
 10
502.88260824431774
 20
1034.1630957761786
 11
498.78486161986825
 21
1048.4010986563781
  0
LINE
  8
_0-0_
  6
CONTINUOUS
 62
    7
 10
498.78486161986825
 20
1048.4010986563781
 11
495.5977302168327
 21
1062.8969276457678
  0
LINE
  8
_0-0_
  6
CONTINUOUS
 62
    7
 10
495.5977302168327
 20
1062.8969276457678
 11
493.32121403521086
 21
1077.6506702319994
  0
LINE
  8
_0-0_
  6
CONTINUOUS
 62
    7
 10
493.32121403521086
 20
1077.6506702319994
 11
491.95531307500289
 21
1092.6623264150728
  0
LINE
  8
_0-0_
  6
CONTINUOUS
 62
    7
 10
491.95531307500289
 20
1092.6623264150728
 11
491.4999835923831
 21
1107.9318087073366
  0
LINE
  8
_0-0_
  6
CONTINUOUS
 62
    7
 10
491.4999835923831
 20
1107.9318087073366
 11
491.95531307500289
 21
1123.2013784872518
  0
LINE
  8
_0-0_
  6
CONTINUOUS
 62
    7
 10
491.95531307500289
 20
1123.2013784872518
 11
493.32121403521086
 21
1138.2129471826736
  0
LINE
  8
_0-0_
  6
CONTINUOUS
 62
    7
 10
493.32121403521086
 20
1138.2129471826736
 11
495.5977302168327
 21
1152.9667772565567
  0
LINE
  8
_0-0_
  6
CONTINUOUS
 62
    7
 10
495.5977302168327
 20
1152.9667772565567
 11
498.78486161986825
 21
1167.4626062459467
  0
LINE
  8
_0-0_
  6
CONTINUOUS
 62
    7
 10
498.78486161986825
 20
1167.4626062459467
 11
502.88260824431774
 21
1181.7006091261462
  0
LINE
  8
_0-0_
  6
CONTINUOUS
 62
    7
 10
502.88260824431774
 20
1181.7006091261462
 11
507.89097009018121
 21
1195.6807858971554
  0
LINE
  8
_0-0_
  6
CONTINUOUS
 62
    7
 10
507.89097009018121
 20
1195.6807858971554
 11
513.80990341363258
 21
1209.4030490713228
  0
LINE
  8
_0-0_
  6
CONTINUOUS
 62
    7
 10
513.80990341363258
 20
1209.4030490713228
 11
520.63949570232376
 21
1222.8673986486485
  0
LINE
  8
_0-0_
  6
CONTINUOUS
 62
    7
 10
520.63949570232376
 20
1222.8673986486485
 11
522.63058342068348
 21
1226.4420566043336
  0
LINE
  8
_0-0_
  6
CONTINUOUS
 62
    7
 10
522.63058342068348
 20
1226.4420566043336
 11
524.67057673627346
 21
1229.965709259151
  0
LINE
  8
_0-0_
  6
CONTINUOUS
 62
    7
 10
524.67057673627346
 20
1229.965709259151
 11
526.75947564909347
 21
1233.4383566131003
  0
LINE
  8
_0-0_
  6
CONTINUOUS
 62
    7
 10
526.75947564909347
 20
1233.4383566131003
 11
528.89719267149212
 21
1236.860086153833
  0
LINE
  8
_0-0_
  6
CONTINUOUS
 62
    7
 10
528.89719267149212
 20
1236.860086153833
 11
531.08385903494695
 21
1240.2307229060464
  0
LINE
  8
_0-0_
  6
CONTINUOUS
 62
    7
 10
531.08385903494695
 20
1240.2307229060464
 11
533.31934350798019
 21
1243.5505293326949
  0
LINE
  8
_0-0_
  6
CONTINUOUS
 62
    7
 10
533.31934350798019
 20
1243.5505293326949
 11
535.60373357824369
 21
1246.8192429708238
  0
LINE
  8
_0-0_
  6
CONTINUOUS
 62
    7
 10
535.60373357824369
 20
1246.8192429708238
 11
537.93702924573745
 21
1250.0369513080846
  0
LINE
  8
_0-0_
  6
CONTINUOUS
 62
    7
 10
842.75463708119037
 20
1255.4392263051625
 11
847.46068534703784
 21
1250.4354575610068
  0
LINE
  8
_0-0_
  6
CONTINUOUS
 62
    7
 10
847.46068534703784
 20
1250.4354575610068
 11
851.99858234655892
 21
1245.2521641558201
  0
LINE
  8
_0-0_
  6
CONTINUOUS
 62
    7
 10
851.99858234655892
 20
1245.2521641558201
 11
856.36841556740535
 21
1239.8893460896024
  0
LINE
  8
_0-0_
  6
CONTINUOUS
 62
    7
 10
856.36841556740535
 20
1239.8893460896024
 11
860.57001003427388
 21
1234.3469158747021
  0
LINE
  8
_0-0_
  6
CONTINUOUS
 62
    7
 10
860.57001003427388
 20
1234.3469158747021
 11
864.60345323481602
 21
1228.6250484864222
  0
LINE
  8
_0-0_
  6
CONTINUOUS
 62
    7
 10
864.60345323481602
 20
1228.6250484864222
 11
868.4688326566835
 21
1222.7235689494601
  0
LINE
  8
_0-0_
  6
CONTINUOUS
 62
    7
 10
868.4688326566835
 20
1222.7235689494601
 11
872.16597332457309
 21
1216.6426522391182
  0
LINE
  8
_0-0_
  6
CONTINUOUS
 62
    7
 10
872.16597332457309
 20
1216.6426522391182
 11
875.69496272613628
 21
1210.3821233800938
  0
LINE
  8
_0-0_
  6
CONTINUOUS
 62
    7
 10
875.69496272613628
 20
1210.3821233800938
 11
881.7395720610748
 21
1198.3820546271718
  0
LINE
  8
_0-0_
  6
CONTINUOUS
 62
    7
 10
881.7395720610748
 20
1198.3820546271718
 11
886.97815766205645
 21
1186.1522433012149
  0
LINE
  8
_0-0_
  6
CONTINUOUS
 62
    7
 10
886.97815766205645
 20
1186.1522433012149
 11
891.41080701673343
 21
1173.6925144269198
  0
LINE
  8
_0-0_
  6
CONTINUOUS
 62
    7
 10
891.41080701673343
 20
1173.6925144269198
 11
895.03760761275714
 21
1161.0029554919386
  0
LINE
  8
_0-0_
  6
CONTINUOUS
 62
    7
 10
895.03760761275714
 20
1161.0029554919386
 11
897.85838447482422
 21
1148.0836539839224
  0
LINE
  8
_0-0_
  6
CONTINUOUS
 62
    7
 10
897.85838447482422
 20
1148.0836539839224
 11
899.8732250905864
 21
1134.9344349275684
  0
LINE
  8
_0-0_
  6
CONTINUOUS
 62
    7
 10
899.8732250905864
 20
1134.9344349275684
 11
901.08212946004392
 21
1121.5553858105279
  0
LINE
  8
_0-0_
  6
CONTINUOUS
 62
    7
 10
901.08212946004392
 20
1121.5553858105279
 11
901.48509758319631
 21
1107.9465941204526
  0
LINE
  8
_0-0_
  6
CONTINUOUS
 62
    7
 10
901.48509758319631
 20
1107.9465941204526
 11
901.08212946004392
 21
1094.3377149427258
  0
LINE
  8
_0-0_
  6
CONTINUOUS
 62
    7
 10
901.08212946004392
 20
1094.3377149427258
 11
899.8732250905864
 21
1080.958753313337
  0
LINE
  8
_0-0_
  6
CONTINUOUS
 62
    7
 10
899.8732250905864
 20
1080.958753313337
 11
897.85838447482422
 21
1067.8095342569829
  0
LINE
  8
_0-0_
  6
CONTINUOUS
 62
    7
 10
897.85838447482422
 20
1067.8095342569829
 11
895.03760761275714
 21
1054.8901452613152
  0
LINE
  8
_0-0_
  6
CONTINUOUS
 62
    7
 10
895.03760761275714
 20
1054.8901452613152
 11
891.41080701673343
 21
1042.2006738139855
  0
LINE
  8
_0-0_
  6
CONTINUOUS
 62
    7
 10
891.41080701673343
 20
1042.2006738139855
 11
886.97815766205645
 21
1029.7409449396905
  0
LINE
  8
_0-0_
  6
CONTINUOUS
 62
    7
 10
886.97815766205645
 20
1029.7409449396905
 11
881.7395720610748
 21
1017.511046126082
  0
LINE
  8
_0-0_
  6
CONTINUOUS
 62
    7
 10
881.7395720610748
 20
1017.511046126082
 11
875.69496272613628
 21
1005.5110648608115
  0
LINE
  8
_0-0_
  6
CONTINUOUS
 62
    7
 10
875.69496272613628
 20
1005.5110648608115
 11
868.95246439458776
 21
993.93986057590791
  0
LINE
  8
_0-0_
  6
CONTINUOUS
 62
    7
 10
868.95246439458776
 20
993.93986057590791
 11
861.61994934082031
 21
982.99655516635494
  0
LINE
  8
_0-0_
  6
CONTINUOUS
 62
    7
 10
861.61994934082031
 20
982.99655516635494
 11
853.69741756483393
 21
972.68123611980411
  0
LINE
  8
_0-0_
  6
CONTINUOUS
 62
    7
 10
853.69741756483393
 20
972.68123611980411
 11
845.18495655428023
 21
962.99381594860404
  0
LINE
  8
_0-0_
  6
CONTINUOUS
 62
    7
 10
845.18495655428023
 20
962.99381594860404
 11
836.08247882150761
 21
953.93420716510309
  0
LINE
  8
_0-0_
  6
CONTINUOUS
 62
    7
 10
836.08247882150761
 20
953.93420716510309
 11
826.38998436651627
 21
945.50258474460429
  0
LINE
  8
_0-0_
  6
CONTINUOUS
 62
    7
 10
826.38998436651627
 20
945.50258474460429
 11
816.10756067695763
 21
937.69886119945625
  0
LINE
  8
_0-0_
  6
CONTINUOUS
 62
    7
 10
816.10756067695763
 20
937.69886119945625
 11
805.23512026518006
 21
930.52303652965873
  0
LINE
  8
_0-0_
  6
CONTINUOUS
 62
    7
 10
805.23512026518006
 20
930.52303652965873
 11
793.95971173025009
 21
924.08998202172938
  0
LINE
  8
_0-0_
  6
CONTINUOUS
 62
    7
 10
793.95971173025009
 20
924.08998202172938
 11
782.46829618358231
 21
918.51474393748856
  0
LINE
  8
_0-0_
  6
CONTINUOUS
 62
    7
 10
782.46829618358231
 20
918.51474393748856
 11
770.7609611128288
 21
913.79714730163323
  0
LINE
  8
_0-0_
  6
CONTINUOUS
 62
    7
 10
770.7609611128288
 20
913.79714730163323
 11
758.83770651798909
 21
909.93736708946676
  0
LINE
  8
_0-0_
  6
CONTINUOUS
 62
    7
 10
758.83770651798909
 20
909.93736708946676
 11
746.6984449114118
 21
906.93531581333696
  0
LINE
  8
_0-0_
  6
CONTINUOUS
 62
    7
 10
746.6984449114118
 20
906.93531581333696
 11
734.34326378074843
 21
904.79099347324438
  0
LINE
  8
_0-0_
  6
CONTINUOUS
 62
    7
 10
734.34326378074843
 20
904.79099347324438
 11
721.7721631259991
 21
903.50440006918893
  0
LINE
  8
_0-0_
  6
CONTINUOUS
 62
    7
 10
721.7721631259991
 20
903.50440006918893
 11
708.985099203338
 21
903.07553560117026
  0
LINE
  8
_0-0_
  6
CONTINUOUS
 62
    7
 10
708.985099203338
 20
903.07553560117026
 11
696.19803528067678
 21
903.50440006918893
  0
LINE
  8
_0-0_
  6
CONTINUOUS
 62
    7
 10
696.19803528067678
 20
903.50440006918893
 11
683.62689088210175
 21
904.79099347324438
  0
LINE
  8
_0-0_
  6
CONTINUOUS
 62
    7
 10
683.62689088210175
 20
904.79099347324438
 11
671.27170975143838
 21
906.93531581333696
  0
LINE
  8
_0-0_
  6
CONTINUOUS
 62
    7
 10
671.27170975143838
 20
906.93531581333696
 11
659.1324918886869
 21
909.93736708946676
  0
LINE
  8
_0-0_
  6
CONTINUOUS
 62
    7
 10
659.1324918886869
 20
909.93736708946676
 11
647.20919355002138
 21
913.79714730163323
  0
LINE
  8
_0-0_
  6
CONTINUOUS
 62
    7
 10
647.20919355002138
 20
913.79714730163323
 11
635.50190222309368
 21
918.51474393748856
  0
LINE
  8
_0-0_
  6
CONTINUOUS
 62
    7
 10
635.50190222309368
 20
918.51474393748856
 11
624.01053042025183
 21
924.08998202172938
  0
LINE
  8
_0-0_
  6
CONTINUOUS
 62
    7
 10
624.01053042025183
 20
924.08998202172938
 11
612.73507814149593
 21
930.52303652965873
  0
LINE
  8
_0-0_
  6
CONTINUOUS
 62
    7
 10
612.73507814149593
 20
930.52303652965873
 11
601.86263772971847
 21
937.69886119945625
  0
LINE
  8
_0-0_
  6
CONTINUOUS
 62
    7
 10
601.86263772971847
 20
937.69886119945625
 11
591.58017029633379
 21
945.50258474460429
  0
LINE
  8
_0-0_
  6
CONTINUOUS
 62
    7
 10
591.58017029633379
 20
945.50258474460429
 11
581.88771958516838
 21
953.93420716510309
  0
LINE
  8
_0-0_
  6
CONTINUOUS
 62
    7
 10
581.88771958516838
 20
953.93420716510309
 11
572.78524185239576
 21
962.99381594860404
  0
LINE
  8
_0-0_
  6
CONTINUOUS
 62
    7
 10
572.78524185239576
 20
962.99381594860404
 11
564.27273709801625
 21
972.68123611980411
  0
LINE
  8
_0-0_
  6
CONTINUOUS
 62
    7
 10
564.27273709801625
 20
972.68123611980411
 11
556.35024906585568
 21
982.99655516635494
  0
LINE
  8
_0-0_
  6
CONTINUOUS
 62
    7
 10
556.35024906585568
 20
982.99655516635494
 11
549.01773401208834
 21
993.93986057590791
  0
LINE
  8
_0-0_
  6
CONTINUOUS
 62
    7
 10
549.01773401208834
 20
993.93986057590791
 11
542.27519193671378
 21
1005.5110648608115
  0
LINE
  8
_0-0_
  6
CONTINUOUS
 62
    7
 10
542.27519193671378
 20
1005.5110648608115
 11
536.23062634560131
 21
1017.511046126082
  0
LINE
  8
_0-0_
  6
CONTINUOUS
 62
    7
 10
536.23062634560131
 20
1017.511046126082
 11
530.99204074461932
 21
1029.7409449396905
  0
LINE
  8
_0-0_
  6
CONTINUOUS
 62
    7
 10
530.99204074461932
 20
1029.7409449396905
 11
526.55934764611675
 21
1042.2006738139855
  0
LINE
  8
_0-0_
  6
CONTINUOUS
 62
    7
 10
526.55934764611675
 20
1042.2006738139855
 11
522.93263453774466
 21
1054.8901452613152
  0
LINE
  8
_0-0_
  6
CONTINUOUS
 62
    7
 10
522.93263453774466
 20
1054.8901452613152
 11
520.11181393185188
 21
1067.8095342569829
  0
LINE
  8
_0-0_
  6
CONTINUOUS
 62
    7
 10
520.11181393185188
 20
1067.8095342569829
 11
518.09697331608959
 21
1080.958753313337
  0
LINE
  8
_0-0_
  6
CONTINUOUS
 62
    7
 10
518.09697331608959
 20
1080.958753313337
 11
516.88806894663219
 21
1094.3377149427258
  0
LINE
  8
_0-0_
  6
CONTINUOUS
 62
    7
 10
516.88806894663219
 20
1094.3377149427258
 11
516.48510082347968
 21
1107.9465941204526
  0
LINE
  8
_0-0_
  6
CONTINUOUS
 62
    7
 10
516.48510082347968
 20
1107.9465941204526
 11
516.88806894663219
 21
1121.5553858105279
  0
LINE
  8
_0-0_
  6
CONTINUOUS
 62
    7
 10
516.88806894663219
 20
1121.5553858105279
 11
518.09697331608959
 21
1134.9344349275684
  0
LINE
  8
_0-0_
  6
CONTINUOUS
 62
    7
 10
518.09697331608959
 20
1134.9344349275684
 11
520.11181393185188
 21
1148.0836539839224
  0
LINE
  8
_0-0_
  6
CONTINUOUS
 62
    7
 10
520.11181393185188
 20
1148.0836539839224
 11
522.93263453774466
 21
1161.0029554919386
  0
LINE
  8
_0-0_
  6
CONTINUOUS
 62
    7
 10
522.93263453774466
 20
1161.0029554919386
 11
526.55934764611675
 21
1173.6925144269198
  0
LINE
  8
_0-0_
  6
CONTINUOUS
 62
    7
 10
526.55934764611675
 20
1173.6925144269198
 11
530.99204074461932
 21
1186.1522433012149
  0
LINE
  8
_0-0_
  6
CONTINUOUS
 62
    7
 10
530.99204074461932
 20
1186.1522433012149
 11
536.23062634560131
 21
1198.3820546271718
  0
LINE
  8
_0-0_
  6
CONTINUOUS
 62
    7
 10
536.23062634560131
 20
1198.3820546271718
 11
542.27519193671378
 21
1210.3821233800938
  0
LINE
  8
_0-0_
  6
CONTINUOUS
 62
    7
 10
542.27519193671378
 20
1210.3821233800938
 11
545.76888007086666
 21
1216.5821107842287
  0
LINE
  8
_0-0_
  6
CONTINUOUS
 62
    7
 10
545.76888007086666
 20
1216.5821107842287
 11
549.4279636103214
 21
1222.6065979593047
  0
LINE
  8
_0-0_
  6
CONTINUOUS
 62
    7
 10
549.4279636103214
 20
1222.6065979593047
 11
553.25248629890348
 21
1228.4555849053224
  0
LINE
  8
_0-0_
  6
CONTINUOUS
 62
    7
 10
553.25248629890348
 20
1228.4555849053224
 11
557.24236064896161
 21
1234.129159109933
  0
LINE
  8
_0-0_
  6
CONTINUOUS
 62
    7
 10
557.24236064896161
 20
1234.129159109933
 11
561.39767414814719
 21
1239.6272330854849
  0
LINE
  8
_0-0_
  6
CONTINUOUS
 62
    7
 10
561.39767414814719
 20
1239.6272330854849
 11
565.71833930880871
 21
1244.9498068319783
  0
LINE
  8
_0-0_
  6
CONTINUOUS
 62
    7
 10
565.71833930880871
 20
1244.9498068319783
 11
570.20444361859768
 21
1250.0969678370648
  0
LINE
  8
_0-0_
  6
CONTINUOUS
 62
    7
 10
570.20444361859768
 20
1250.0969678370648
 11
574.8559433336884
 21
1255.0687161007443
  0
LINE
  8
_0-0_
  6
CONTINUOUS
 62
    7
 10
836.28081332762713
 20
1257.8176656008686
 11
581.05063773490292
 21
1257.8176656008686
  0
LINE
  8
_0-0_
  6
CONTINUOUS
 62
    7
 10
536.00127746699854
 20
1247.1816168236455
 11
535.20002181005282
 21
1246.1028940797312
  0
LINE
  8
_0-0_
  6
CONTINUOUS
 62
    7
 10
873.89105483832043
 20
1257.9029660611538
 11
873.96926879882812
 21
1257.802967675404
  0
LINE
  8
_0-0_
  6
CONTINUOUS
 62
    7
 10
880.46820150839312
 20
1249.4877038314994
 11
882.37508236211227
 21
1247.0479356920396
  0
LINE
  8
_0-0_
  6
CONTINUOUS
 62
    7
 10
836.28081332762713
 20
1257.8176656008686
 11
807.69999736064176
 21
1257.8176656008686
  0
LINE
  8
_0-0_
  6
CONTINUOUS
 62
    7
 10
836.99217542257998
 20
1239.7248693046422
 11
837.91263300479602
 21
1238.7097500834225
  0
LINE
  8
_0-0_
  6
CONTINUOUS
 62
    7
 10
837.91263300479602
 20
1238.7097500834225
 11
839.0232012538836
 21
1237.4613887831051
  0
LINE
  8
_0-0_
  6
CONTINUOUS
 62
    7
 10
839.0232012538836
 20
1237.4613887831051
 11
840.12309600947901
 21
1236.2012166498248
  0
LINE
  8
_0-0_
  6
CONTINUOUS
 62
    7
 10
840.12309600947901
 20
1236.2012166498248
 11
841.21240475923389
 21
1234.9292336835824
  0
LINE
  8
_0-0_
  6
CONTINUOUS
 62
    7
 10
841.21240475923389
 20
1234.9292336835824
 11
842.29112750314823
 21
1233.6454398843771
  0
LINE
  8
_0-0_
  6
CONTINUOUS
 62
    7
 10
842.29112750314823
 20
1233.6454398843771
 11
843.35917675357064
 21
1232.3497477645578
  0
LINE
  8
_0-0_
  6
CONTINUOUS
 62
    7
 10
843.35917675357064
 20
1232.3497477645578
 11
844.41672748580402
 21
1231.0421573241244
  0
LINE
  8
_0-0_
  6
CONTINUOUS
 62
    7
 10
844.41672748580402
 20
1231.0421573241244
 11
845.46360472454523
 21
1229.7225810754253
  0
LINE
  8
_0-0_
  6
CONTINUOUS
 62
    7
 10
845.46360472454523
 20
1229.7225810754253
 11
846.49998344509754
 21
1228.3910190184604
  0
LINE
  8
_0-0_
  6
CONTINUOUS
 62
    7
 10
846.49998344509754
 20
1228.3910190184604
 11
847.52586364746094
 21
1227.0474711532297
  0
LINE
  8
_0-0_
  6
CONTINUOUS
 62
    7
 10
847.52586364746094
 20
1227.0474711532297
 11
848.54115784398368
 21
1225.6919374797335
  0
LINE
  8
_0-0_
  6
CONTINUOUS
 62
    7
 10
848.54115784398368
 20
1225.6919374797335
 11
849.54595352231763
 21
1224.3242430226683
  0
LINE
  8
_0-0_
  6
CONTINUOUS
 62
    7
 10
849.54595352231763
 20
1224.3242430226683
 11
850.54016319481093
 21
1222.9444752696859
  0
LINE
  8
_0-0_
  6
CONTINUOUS
 62
    7
 10
850.54016319481093
 20
1222.9444752696859
 11
851.52396183676706
 21
1221.5525467331345
  0
LINE
  8
_0-0_
  6
CONTINUOUS
 62
    7
 10
851.52396183676706
 20
1221.5525467331345
 11
852.49717447288253
 21
1220.1484574130143
  0
LINE
  8
_0-0_
  6
CONTINUOUS
 62
    7
 10
852.49717447288253
 20
1220.1484574130143
 11
853.45988859080887
 21
1218.7322073093251
  0
LINE
  8
_0-0_
  6
CONTINUOUS
 62
    7
 10
853.45988859080887
 20
1218.7322073093251
 11
854.41210419054653
 21
1217.3036214467641
  0
LINE
  8
_0-0_
  6
CONTINUOUS
 62
    7
 10
854.41210419054653
 20
1217.3036214467641
 11
855.35390875974667
 21
1215.8627873129826
  0
LINE
  8
_0-0_
  6
CONTINUOUS
 62
    7
 10
855.35390875974667
 20
1215.8627873129826
 11
856.28512732310639
 21
1214.4097049079805
  0
LINE
  8
_0-0_
  6
CONTINUOUS
 62
    7
 10
856.28512732310639
 20
1214.4097049079805
 11
857.20593485592872
 21
1212.944199256455
  0
LINE
  8
_0-0_
  6
CONTINUOUS
 62
    7
 10
857.20593485592872
 20
1212.944199256455
 11
858.1161563829105
 21
1211.4663578460575
  0
LINE
  8
_0-0_
  6
CONTINUOUS
 62
    7
 10
858.1161563829105
 20
1211.4663578460575
 11
859.01596687935489
 21
1209.9760931891362
  0
LINE
  8
_0-0_
  6
CONTINUOUS
 62
    7
 10
859.01596687935489
 20
1209.9760931891362
 11
859.90527885761037
 21
1208.4734052856916
  0
LINE
  8
_0-0_
  6
CONTINUOUS
 62
    7
 10
859.90527885761037
 20
1208.4734052856916
 11
860.7840048300252
 21
1206.9582941357232
  0
LINE
  8
_0-0_
  6
CONTINUOUS
 62
    7
 10
860.7840048300252
 20
1206.9582941357232
 11
861.65231977190285
 21
1205.4306722515798
  0
LINE
  8
_0-0_
  6
CONTINUOUS
 62
    7
 10
861.65231977190285
 20
1205.4306722515798
 11
862.49815038732572
 21
1203.9118866202452
  0
LINE
  8
_0-0_
  6
CONTINUOUS
 62
    7
 10
862.49815038732572
 20
1203.9118866202452
 11
863.98937740841416
 21
1201.1573379104202
  0
LINE
  8
_0-0_
  6
CONTINUOUS
 62
    7
 10
863.98937740841416
 20
1201.1573379104202
 11
865.42111282643202
 21
1198.4127627928744
  0
LINE
  8
_0-0_
  6
CONTINUOUS
 62
    7
 10
865.42111282643202
 20
1198.4127627928744
 11
866.80499249903846
 21
1195.6568142806241
  0
LINE
  8
_0-0_
  6
CONTINUOUS
 62
    7
 10
866.80499249903846
 20
1195.6568142806241
 11
868.14110391388522
 21
1192.8893173983658
  0
LINE
  8
_0-0_
  6
CONTINUOUS
 62
    7
 10
868.14110391388522
 20
1192.8893173983658
 11
869.42970953392705
 21
1190.1102721460998
  0
LINE
  8
_0-0_
  6
CONTINUOUS
 62
    7
 10
869.42970953392705
 20
1190.1102721460998
 11
870.67080935916374
 21
1187.3194160608709
  0
LINE
  8
_0-0_
  6
CONTINUOUS
 62
    7
 10
870.67080935916374
 20
1187.3194160608709
 11
871.86457836489876
 21
1184.5167491426798
  0
LINE
  8
_0-0_
  6
CONTINUOUS
 62
    7
 10
871.86457836489876
 20
1184.5167491426798
 11
873.01101655113189
 21
1181.7020089285713
  0
LINE
  8
_0-0_
  6
CONTINUOUS
 62
    7
 10
873.01101655113189
 20
1181.7020089285713
 11
874.11029889316626
 21
1178.875107930894
  0
LINE
  8
_0-0_
  6
CONTINUOUS
 62
    7
 10
874.11029889316626
 20
1178.875107930894
 11
875.16251287865362
 21
1176.0359586619961
  0
LINE
  8
_0-0_
  6
CONTINUOUS
 62
    7
 10
875.16251287865362
 20
1176.0359586619961
 11
876.16765850759384
 21
1173.1843861465748
  0
LINE
  8
_0-0_
  6
CONTINUOUS
 62
    7
 10
876.16765850759384
 20
1173.1843861465748
 11
877.12591075528985
 21
1170.3201279216751
  0
LINE
  8
_0-0_
  6
CONTINUOUS
 62
    7
 10
877.12591075528985
 20
1170.3201279216751
 11
878.03735710939372
 21
1167.4430964996454
  0
LINE
  8
_0-0_
  6
CONTINUOUS
 62
    7
 10
878.03735710939372
 20
1167.4430964996454
 11
878.90199756990523
 21
1164.5531169051828
  0
LINE
  8
_0-0_
  6
CONTINUOUS
 62
    7
 10
878.90199756990523
 20
1164.5531169051828
 11
879.71983213682415
 21
1161.6501016506356
  0
LINE
  8
_0-0_
  6
CONTINUOUS
 62
    7
 10
879.71983213682415
 20
1161.6501016506356
 11
880.49103578545419
 21
1158.733788273049
  0
LINE
  8
_0-0_
  6
CONTINUOUS
 62
    7
 10
880.49103578545419
 20
1158.733788273049
 11
881.21560851579466
 21
1155.80400179712
  0
LINE
  8
_0-0_
  6
CONTINUOUS
 62
    7
 10
881.21560851579466
 20
1155.80400179712
 11
881.89346284019439
 21
1152.8605672475453
  0
LINE
  8
_0-0_
  6
CONTINUOUS
 62
    7
 10
881.89346284019439
 20
1152.8605672475453
 11
882.52477373395641
 21
1149.9033096490218
  0
LINE
  8
_0-0_
  6
CONTINUOUS
 62
    7
 10
882.52477373395641
 20
1149.9033096490218
 11
883.10954119708083
 21
1146.9321415138982
  0
LINE
  8
_0-0_
  6
CONTINUOUS
 62
    7
 10
883.10954119708083
 20
1146.9321415138982
 11
883.6475902542644
 21
1143.9468003792192
  0
LINE
  8
_0-0_
  6
CONTINUOUS
 62
    7
 10
883.6475902542644
 20
1143.9468003792192
 11
884.139183368462
 21
1140.947111269682
  0
LINE
  8
_0-0_
  6
CONTINUOUS
 62
    7
 10
884.139183368462
 20
1140.947111269682
 11
884.58405807671852
 21
1137.932986697635
  0
LINE
  8
_0-0_
  6
CONTINUOUS
 62
    7
 10
884.58405807671852
 20
1137.932986697635
 11
884.98230186668593
 21
1134.9041642001237
  0
LINE
  8
_0-0_
  6
CONTINUOUS
 62
    7
 10
884.98230186668593
 20
1134.9041642001237
 11
885.33391473836423
 21
1131.8605562894961
  0
LINE
  8
_0-0_
  6
CONTINUOUS
 62
    7
 10
885.33391473836423
 20
1131.8605562894961
 11
885.63880920410156
 21
1128.8019879904491
  0
LINE
  8
_0-0_
  6
CONTINUOUS
 62
    7
 10
885.63880920410156
 20
1128.8019879904491
 11
885.89698526389816
 21
1125.7281968400284
  0
LINE
  8
_0-0_
  6
CONTINUOUS
 62
    7
 10
885.89698526389816
 20
1125.7281968400284
 11
886.10835543010228
 21
1122.6391828382336
  0
LINE
  8
_0-0_
  6
CONTINUOUS
 62
    7
 10
886.10835543010228
 20
1122.6391828382336
 11
886.27291970271403
 21
1119.5347710097617
  0
LINE
  8
_0-0_
  6
CONTINUOUS
 62
    7
 10
886.27291970271403
 20
1119.5347710097617
 11
886.39050310643017
 21
1116.414698891658
  0
LINE
  8
_0-0_
  6
CONTINUOUS
 62
    7
 10
886.39050310643017
 20
1116.414698891658
 11
886.46110564125081
 21
1113.2789664839224
  0
LINE
  8
_0-0_
  6
CONTINUOUS
 62
    7
 10
886.46110564125081
 20
1113.2789664839224
 11
886.48472730717594
 21
1110.1276612742067
  0
LINE
  8
_0-0_
  6
CONTINUOUS
 62
    7
 10
886.48472730717594
 20
1110.1276612742067
 11
886.46110564125081
 21
1106.9763560644908
  0
LINE
  8
_0-0_
  6
CONTINUOUS
 62
    7
 10
886.46110564125081
 20
1106.9763560644908
 11
886.39050310643017
 21
1103.8406236567553
  0
LINE
  8
_0-0_
  6
CONTINUOUS
 62
    7
 10
886.39050310643017
 20
1103.8406236567553
 11
886.27291970271403
 21
1100.7206390263032
  0
LINE
  8
_0-0_
  6
CONTINUOUS
 62
    7
 10
886.27291970271403
 20
1100.7206390263032
 11
886.10835543010228
 21
1097.6161397101796
  0
LINE
  8
_0-0_
  6
CONTINUOUS
 62
    7
 10
886.10835543010228
 20
1097.6161397101796
 11
885.89698526389816
 21
1094.5271257083848
  0
LINE
  8
_0-0_
  6
CONTINUOUS
 62
    7
 10
885.89698526389816
 20
1094.5271257083848
 11
885.63880920410156
 21
1091.4534220456155
  0
LINE
  8
_0-0_
  6
CONTINUOUS
 62
    7
 10
885.63880920410156
 20
1091.4534220456155
 11
885.33391473836423
 21
1088.3947662589171
  0
LINE
  8
_0-0_
  6
CONTINUOUS
 62
    7
 10
885.33391473836423
 20
1088.3947662589171
 11
884.98230186668593
 21
1085.3511583482896
  0
LINE
  8
_0-0_
  6
CONTINUOUS
 62
    7
 10
884.98230186668593
 20
1085.3511583482896
 11
884.58405807671852
 21
1082.3223358507782
  0
LINE
  8
_0-0_
  6
CONTINUOUS
 62
    7
 10
884.58405807671852
 20
1082.3223358507782
 11
884.139183368462
 21
1079.3082112787311
  0
LINE
  8
_0-0_
  6
CONTINUOUS
 62
    7
 10
884.139183368462
 20
1079.3082112787311
 11
883.6475902542644
 21
1076.308522169194
  0
LINE
  8
_0-0_
  6
CONTINUOUS
 62
    7
 10
883.6475902542644
 20
1076.308522169194
 11
883.10954119708083
 21
1073.3231810345151
  0
LINE
  8
_0-0_
  6
CONTINUOUS
 62
    7
 10
883.10954119708083
 20
1073.3231810345151
 11
882.52477373395641
 21
1070.3520128993914
  0
LINE
  8
_0-0_
  6
CONTINUOUS
 62
    7
 10
882.52477373395641
 20
1070.3520128993914
 11
881.89346284019439
 21
1067.3948427885196
  0
LINE
  8
_0-0_
  6
CONTINUOUS
 62
    7
 10
881.89346284019439
 20
1067.3948427885196
 11
881.21560851579466
 21
1064.4514082389449
  0
LINE
  8
_0-0_
  6
CONTINUOUS
 62
    7
 10
881.21560851579466
 20
1064.4514082389449
 11
880.49103578545419
 21
1061.5216217630157
  0
LINE
  8
_0-0_
  6
CONTINUOUS
 62
    7
 10
880.49103578545419
 20
1061.5216217630157
 11
879.71983213682415
 21
1058.6053083854292
  0
LINE
  8
_0-0_
  6
CONTINUOUS
 62
    7
 10
879.71983213682415
 20
1058.6053083854292
 11
878.90199756990523
 21
1055.7022056432304
  0
LINE
  8
_0-0_
  6
CONTINUOUS
 62
    7
 10
878.90199756990523
 20
1055.7022056432304
 11
878.03735710939372
 21
1052.8122260487678
  0
LINE
  8
_0-0_
  6
CONTINUOUS
 62
    7
 10
878.03735710939372
 20
1052.8122260487678
 11
877.12591075528985
 21
1049.9352821143898
  0
LINE
  8
_0-0_
  6
CONTINUOUS
 62
    7
 10
877.12591075528985
 20
1049.9352821143898
 11
876.16765850759384
 21
1047.0710238894899
  0
LINE
  8
_0-0_
  6
CONTINUOUS
 62
    7
 10
876.16765850759384
 20
1047.0710238894899
 11
875.16251287865362
 21
1044.2193638864171
  0
LINE
  8
_0-0_
  6
CONTINUOUS
 62
    7
 10
875.16251287865362
 20
1044.2193638864171
 11
874.11029889316626
 21
1041.3802146175192
  0
LINE
  8
_0-0_
  6
CONTINUOUS
 62
    7
 10
874.11029889316626
 20
1041.3802146175192
 11
873.01101655113189
 21
1038.5534011074933
  0
LINE
  8
_0-0_
  6
CONTINUOUS
 62
    7
 10
873.01101655113189
 20
1038.5534011074933
 11
871.86457836489876
 21
1035.738660893385
  0
LINE
  8
_0-0_
  6
CONTINUOUS
 62
    7
 10
871.86457836489876
 20
1035.738660893385
 11
870.67080935916374
 21
1032.9359064875421
  0
LINE
  8
_0-0_
  6
CONTINUOUS
 62
    7
 10
870.67080935916374
 20
1032.9359064875421
 11
869.42970953392705
 21
1030.1451378899651
  0
LINE
  8
_0-0_
  6
CONTINUOUS
 62
    7
 10
869.42970953392705
 20
1030.1451378899651
 11
868.14110391388522
 21
1027.3660051500474
  0
LINE
  8
_0-0_
  6
CONTINUOUS
 62
    7
 10
868.14110391388522
 20
1027.3660051500474
 11
866.80499249903846
 21
1024.5985082677892
  0
LINE
  8
_0-0_
  6
CONTINUOUS
 62
    7
 10
866.80499249903846
 20
1024.5985082677892
 11
865.42111282643202
 21
1021.8425597555388
  0
LINE
  8
_0-0_
  6
CONTINUOUS
 62
    7
 10
865.42111282643202
 20
1021.8425597555388
 11
863.98937740841416
 21
1019.097984637993
  0
LINE
  8
_0-0_
  6
CONTINUOUS
 62
    7
 10
863.98937740841416
 20
1019.097984637993
 11
862.50978624498521
 21
1016.3649578904552
  0
LINE
  8
_0-0_
  6
CONTINUOUS
 62
    7
 10
862.50978624498521
 20
1016.3649578904552
 11
860.98977578652864
 21
1013.6569526112678
  0
LINE
  8
_0-0_
  6
CONTINUOUS
 62
    7
 10
860.98977578652864
 20
1013.6569526112678
 11
859.43695745873174
 21
1010.9876168740761
  0
LINE
  8
_0-0_
  6
CONTINUOUS
 62
    7
 10
859.43695745873174
 20
1010.9876168740761
 11
857.85141874924591
 21
1008.356863191229
  0
LINE
  8
_0-0_
  6
CONTINUOUS
 62
    7
 10
857.85141874924591
 20
1008.356863191229
 11
856.23315965807114
 21
1005.7646040750745
  0
LINE
  8
_0-0_
  6
CONTINUOUS
 62
    7
 10
856.23315965807114
 20
1005.7646040750745
 11
854.58209269755582
 21
1003.2106645503098
  0
LINE
  8
_0-0_
  6
CONTINUOUS
 62
    7
 10
854.58209269755582
 20
1003.2106645503098
 11
852.89839284300342
 21
1000.6948696416316
  0
LINE
  8
_0-0_
  6
CONTINUOUS
 62
    7
 10
852.89839284300342
 20
1000.6948696416316
 11
851.18197260676197
 21
998.21713186138834
  0
LINE
  8
_0-0_
  6
CONTINUOUS
 62
    7
 10
851.18197260676197
 20
998.21713186138834
 11
849.43274450118008
 21
995.77710125897374
  0
LINE
  8
_0-0_
  6
CONTINUOUS
 62
    7
 10
849.43274450118008
 20
995.77710125897374
 11
847.65070852625786
 21
993.37460285908469
  0
LINE
  8
_0-0_
  6
CONTINUOUS
 62
    7
 10
847.65070852625786
 20
993.37460285908469
 11
845.83586468199496
 21
991.00963666172095
  0
LINE
  8
_0-0_
  6
CONTINUOUS
 62
    7
 10
845.83586468199496
 20
991.00963666172095
 11
843.98812548074022
 21
988.68185271627658
  0
LINE
  8
_0-0_
  6
CONTINUOUS
 62
    7
 10
843.98812548074022
 20
988.68185271627658
 11
842.10740343484179
 21
986.39107604744811
  0
LINE
  8
_0-0_
  6
CONTINUOUS
 62
    7
 10
842.10740343484179
 20
986.39107604744811
 11
840.19361105664814
 21
984.13730665523576
  0
LINE
  8
_0-0_
  6
CONTINUOUS
 62
    7
 10
840.19361105664814
 20
984.13730665523576
 11
838.24674834615939
 21
981.92010710138152
  0
LINE
  8
_0-0_
  6
CONTINUOUS
 62
    7
 10
838.24674834615939
 20
981.92010710138152
 11
836.26655284042056
 21
979.73947738588538
  0
LINE
  8
_0-0_
  6
CONTINUOUS
 62
    7
 10
836.26655284042056
 20
979.73947738588538
 11
834.2531120270836
 21
977.59515504579281
  0
LINE
  8
_0-0_
  6
CONTINUOUS
 62
    7
 10
834.2531120270836
 20
977.59515504579281
 11
832.20616344319342
 21
975.48696510580044
  0
LINE
  8
_0-0_
  6
CONTINUOUS
 62
    7
 10
832.20616344319342
 20
975.48696510580044
 11
830.12561960109861
 21
973.41482007825687
  0
LINE
  8
_0-0_
  6
CONTINUOUS
 62
    7
 10
830.12561960109861
 20
973.41482007825687
 11
828.01130552549603
 21
971.37854498785885
  0
LINE
  8
_0-0_
  6
CONTINUOUS
 62
    7
 10
828.01130552549603
 20
971.37854498785885
 11
825.86322121638591
 21
969.37796485930335
  0
LINE
  8
_0-0_
  6
CONTINUOUS
 62
    7
 10
825.86322121638591
 20
969.37796485930335
 11
823.68101672316141
 21
967.41290471728701
  0
LINE
  8
_0-0_
  6
CONTINUOUS
 62
    7
 10
823.68101672316141
 20
967.41290471728701
 11
821.46469204582309
 21
965.48327707415842
  0
LINE
  8
_0-0_
  6
CONTINUOUS
 62
    7
 10
821.46469204582309
 20
965.48327707415842
 11
819.21398472141573
 21
963.58890695461423
  0
LINE
  8
_0-0_
  6
CONTINUOUS
 62
    7
 10
819.21398472141573
 20
963.58890695461423
 11
816.92871977463653
 21
961.72970687100315
  0
LINE
  8
_0-0_
  6
CONTINUOUS
 62
    7
 10
816.92871977463653
 20
961.72970687100315
 11
814.60872223018214
 21
959.90558933567354
  0
LINE
  8
_0-0_
  6
CONTINUOUS
 62
    7
 10
814.60872223018214
 20
959.90558933567354
 11
812.25390460040114
 21
958.11637937332205
  0
LINE
  8
_0-0_
  6
CONTINUOUS
 62
    7
 10
812.25390460040114
 20
958.11637937332205
 11
809.86400442233867
 21
956.36207698394878
  0
LINE
  8
_0-0_
  6
CONTINUOUS
 62
    7
 10
809.86400442233867
 20
956.36207698394878
 11
807.43884672069169
 21
954.64259467990234
  0
LINE
  8
_0-0_
  6
CONTINUOUS
 62
    7
 10
807.43884672069169
 20
954.64259467990234
 11
804.97825652015706
 21
952.95775748587948
  0
LINE
  8
_0-0_
  6
CONTINUOUS
 62
    7
 10
804.97825652015706
 20
952.95775748587948
 11
802.48197135778003
 21
951.30756540187986
  0
LINE
  8
_0-0_
  6
CONTINUOUS
 62
    7
 10
802.48197135778003
 20
951.30756540187986
 11
799.94990374590895
 21
949.69201842790403
  0
LINE
  8
_0-0_
  6
CONTINUOUS
 62
    7
 10
799.94990374590895
 20
949.69201842790403
 11
797.38205368454385
 21
948.11111656395155
  0
LINE
  8
_0-0_
  6
CONTINUOUS
 62
    7
 10
797.38205368454385
 20
948.11111656395155
 11
794.7913693461179
 21
946.5729086739675
  0
LINE
  8
_0-0_
  6
CONTINUOUS
 62
    7
 10
794.7913693461179
 20
946.5729086739675
 11
792.19106136601863
 21
945.08509367129045
  0
LINE
  8
_0-0_
  6
CONTINUOUS
 62
    7
 10
792.19106136601863
 20
945.08509367129045
 11
789.58121723189777
 21
943.6476715559204
  0
LINE
  8
_0-0_
  6
CONTINUOUS
 62
    7
 10
789.58121723189777
 20
943.6476715559204
 11
786.96166196845206
 21
942.26046735255409
  0
LINE
  8
_0-0_
  6
CONTINUOUS
 62
    7
 10
786.96166196845206
 20
942.26046735255409
 11
784.33248306333326
 21
940.92339357354012
  0
LINE
  8
_0-0_
  6
CONTINUOUS
 62
    7
 10
784.33248306333326
 20
940.92339357354012
 11
781.69333056593484
 21
939.63610026827178
  0
LINE
  8
_0-0_
  6
CONTINUOUS
 62
    7
 10
781.69333056593484
 20
939.63610026827178
 11
779.04420447625716
 21
938.39858743674972
  0
LINE
  8
_0-0_
  6
CONTINUOUS
 62
    7
 10
779.04420447625716
 20
938.39858743674972
 11
776.38492981899662
 21
937.210505128367
  0
LINE
  8
_0-0_
  6
CONTINUOUS
 62
    7
 10
776.38492981899662
 20
937.210505128367
 11
773.71533161885031
 21
936.07194083077559
  0
LINE
  8
_0-0_
  6
CONTINUOUS
 62
    7
 10
773.71533161885031
 20
936.07194083077559
 11
771.03523490051498
 21
934.98254459336908
  0
LINE
  8
_0-0_
  6
CONTINUOUS
 62
    7
 10
771.03523490051498
 20
934.98254459336908
 11
768.34455217633933
 21
933.94222892849598
  0
LINE
  8
_0-0_
  6
CONTINUOUS
 62
    7
 10
768.34455217633933
 20
933.94222892849598
 11
765.64293349571676
 21
932.95090634850453
  0
LINE
  8
_0-0_
  6
CONTINUOUS
 62
    7
 10
765.64293349571676
 20
932.95090634850453
 11
762.93037885864715
 21
932.0083143904402
  0
LINE
  8
_0-0_
  6
CONTINUOUS
 62
    7
 10
762.93037885864715
 20
932.0083143904402
 11
760.20645082687315
 21
931.11454054195451
  0
LINE
  8
_0-0_
  6
CONTINUOUS
 62
    7
 10
760.20645082687315
 20
931.11454054195451
 11
757.47106191274281
 21
930.26923485244095
  0
LINE
  8
_0-0_
  6
CONTINUOUS
 62
    7
 10
757.47106191274281
 20
930.26923485244095
 11
754.72403714095299
 21
929.47248480955136
  0
LINE
  8
_0-0_
  6
CONTINUOUS
 62
    7
 10
754.72403714095299
 20
929.47248480955136
 11
751.96502656089751
 21
928.7241154379825
  0
LINE
  8
_0-0_
  6
CONTINUOUS
 62
    7
 10
751.96502656089751
 20
928.7241154379825
 11
749.19385519727314
 21
928.02412673773449
  0
LINE
  8
_0-0_
  6
CONTINUOUS
 62
    7
 10
749.19385519727314
 20
928.02412673773449
 11
746.41026058712509
 21
927.37234373350384
  0
LINE
  8
_0-0_
  6
CONTINUOUS
 62
    7
 10
746.41026058712509
 20
927.37234373350384
 11
743.61406775515047
 21
926.76876642529112
  0
LINE
  8
_0-0_
  6
CONTINUOUS
 62
    7
 10
743.61406775515047
 20
926.76876642529112
 11
740.80492675074265
 21
926.21339481309565
  0
LINE
  8
_0-0_
  6
CONTINUOUS
 62
    7
 10
740.80492675074265
 20
926.21339481309565
 11
737.98266259859884
 21
925.70622889691788
  0
LINE
  8
_0-0_
  6
CONTINUOUS
 62
    7
 10
737.98266259859884
 20
925.70622889691788
 11
735.14701283576403
 21
925.24709370145456
  0
LINE
  8
_0-0_
  6
CONTINUOUS
 62
    7
 10
735.14701283576403
 20
925.24709370145456
 11
732.29771499928358
 21
924.83616420200883
  0
LINE
  8
_0-0_
  6
CONTINUOUS
 62
    7
 10
732.29771499928358
 20
924.83616420200883
 11
729.43455037002855
 21
924.47344039858069
  0
LINE
  8
_0-0_
  6
CONTINUOUS
 62
    7
 10
729.43455037002855
 20
924.47344039858069
 11
726.55730022886996
 21
924.15883480351852
  0
LINE
  8
_0-0_
  6
CONTINUOUS
 62
    7
 10
726.55730022886996
 20
924.15883480351852
 11
723.66570211285318
 21
923.89243490447393
  0
LINE
  8
_0-0_
  6
CONTINUOUS
 62
    7
 10
723.66570211285318
 20
923.89243490447393
 11
720.75949355902355
 21
923.67432818909856
  0
LINE
  8
_0-0_
  6
CONTINUOUS
 62
    7
 10
720.75949355902355
 20
923.67432818909856
 11
717.83854333590352
 21
923.50451465739241
  0
LINE
  8
_0-0_
  6
CONTINUOUS
 62
    7
 10
717.83854333590352
 20
923.50451465739241
 11
714.90258898053855
 21
923.38316928465838
  0
LINE
  8
_0-0_
  6
CONTINUOUS
 62
    7
 10
714.90258898053855
 20
923.38316928465838
 11
711.95141177379935
 21
923.31020458324531
  0
LINE
  8
_0-0_
  6
CONTINUOUS
 62
    7
 10
711.95141177379935
 20
923.31020458324531
 11
708.985099203338
 21
923.2858830161075
  0
LINE
  8
_0-0_
  6
CONTINUOUS
 62
    7
 10
708.985099203338
 20
923.2858830161075
 11
706.01878663287653
 21
923.31020458324531
  0
LINE
  8
_0-0_
  6
CONTINUOUS
 62
    7
 10
706.01878663287653
 20
923.31020458324531
 11
703.06760942613755
 21
923.38316928465838
  0
LINE
  8
_0-0_
  6
CONTINUOUS
 62
    7
 10
703.06760942613755
 20
923.38316928465838
 11
700.13165507077247
 21
923.50451465739241
  0
LINE
  8
_0-0_
  6
CONTINUOUS
 62
    7
 10
700.13165507077247
 20
923.50451465739241
 11
697.21066110382662
 21
923.67432818909856
  0
LINE
  8
_0-0_
  6
CONTINUOUS
 62
    7
 10
697.21066110382662
 20
923.67432818909856
 11
694.30449629382269
 21
923.89243490447393
  0
LINE
  8
_0-0_
  6
CONTINUOUS
 62
    7
 10
694.30449629382269
 20
923.89243490447393
 11
691.41289817780603
 21
924.15883480351852
  0
LINE
  8
_0-0_
  6
CONTINUOUS
 62
    7
 10
691.41289817780603
 20
924.15883480351852
 11
688.53560429282174
 21
924.47344039858069
  0
LINE
  8
_0-0_
  6
CONTINUOUS
 62
    7
 10
688.53560429282174
 20
924.47344039858069
 11
685.67243966356659
 21
924.83616420200883
  0
LINE
  8
_0-0_
  6
CONTINUOUS
 62
    7
 10
685.67243966356659
 20
924.83616420200883
 11
682.82318557091207
 21
925.24709370145456
  0
LINE
  8
_0-0_
  6
CONTINUOUS
 62
    7
 10
682.82318557091207
 20
925.24709370145456
 11
679.98749206425134
 21
925.70622889691788
  0
LINE
  8
_0-0_
  6
CONTINUOUS
 62
    7
 10
679.98749206425134
 20
925.70622889691788
 11
677.16522791210753
 21
926.21339481309565
  0
LINE
  8
_0-0_
  6
CONTINUOUS
 62
    7
 10
677.16522791210753
 20
926.21339481309565
 11
674.35613065152552
 21
926.76876642529112
  0
LINE
  8
_0-0_
  6
CONTINUOUS
 62
    7
 10
674.35613065152552
 20
926.76876642529112
 11
671.55989407572508
 21
927.37234373350384
  0
LINE
  8
_0-0_
  6
CONTINUOUS
 62
    7
 10
671.55989407572508
 20
927.37234373350384
 11
668.77629946557704
 21
928.02412673773449
  0
LINE
  8
_0-0_
  6
CONTINUOUS
 62
    7
 10
668.77629946557704
 20
928.02412673773449
 11
666.00517184577848
 21
928.7241154379825
  0
LINE
  8
_0-0_
  6
CONTINUOUS
 62
    7
 10
666.00517184577848
 20
928.7241154379825
 11
663.246161265723
 21
929.47248480955136
  0
LINE
  8
_0-0_
  6
CONTINUOUS
 62
    7
 10
663.246161265723
 20
929.47248480955136
 11
660.49909275010748
 21
930.26923485244095
  0
LINE
  8
_0-0_
  6
CONTINUOUS
 62
    7
 10
660.49909275010748
 20
930.26923485244095
 11
657.76374757980284
 21
931.11454054195451
  0
LINE
  8
_0-0_
  6
CONTINUOUS
 62
    7
 10
657.76374757980284
 20
931.11454054195451
 11
655.03986329185454
 21
932.0083143904402
  0
LINE
  8
_0-0_
  6
CONTINUOUS
 62
    7
 10
655.03986329185454
 20
932.0083143904402
 11
652.32722116713353
 21
932.95090634850453
  0
LINE
  8
_0-0_
  6
CONTINUOUS
 62
    7
 10
652.32722116713353
 20
932.95090634850453
 11
649.62564623033677
 21
933.94222892849598
  0
LINE
  8
_0-0_
  6
CONTINUOUS
 62
    7
 10
649.62564623033677
 20
933.94222892849598
 11
646.9349197623352
 21
934.98254459336908
  0
LINE
  8
_0-0_
  6
CONTINUOUS
 62
    7
 10
646.9349197623352
 20
934.98254459336908
 11
644.25486678782579
 21
936.07194083077559
  0
LINE
  8
_0-0_
  6
CONTINUOUS
 62
    7
 10
644.25486678782579
 20
936.07194083077559
 11
641.58526858767937
 21
937.210505128367
  0
LINE
  8
_0-0_
  6
CONTINUOUS
 62
    7
 10
641.58526858767937
 20
937.210505128367
 11
638.92599393041894
 21
938.39858743674972
  0
LINE
  8
_0-0_
  6
CONTINUOUS
 62
    7
 10
638.92599393041894
 20
938.39858743674972
 11
636.27686784074115
 21
939.63610026827178
  0
LINE
  8
_0-0_
  6
CONTINUOUS
 62
    7
 10
636.27686784074115
 20
939.63610026827178
 11
633.63775908716866
 21
940.92339357354012
  0
LINE
  8
_0-0_
  6
CONTINUOUS
 62
    7
 10
633.63775908716866
 20
940.92339357354012
 11
631.008492694398
 21
942.26046735255409
  0
LINE
  8
_0-0_
  6
CONTINUOUS
 62
    7
 10
631.008492694398
 20
942.26046735255409
 11
628.38898117477822
 21
943.6476715559204
  0
LINE
  8
_0-0_
  6
CONTINUOUS
 62
    7
 10
628.38898117477822
 20
943.6476715559204
 11
625.77909329683166
 21
945.08509367129045
  0
LINE
  8
_0-0_
  6
CONTINUOUS
 62
    7
 10
625.77909329683166
 20
945.08509367129045
 11
623.1787853167325
 21
946.5729086739675
  0
LINE
  8
_0-0_
  6
CONTINUOUS
 62
    7
 10
623.1787853167325
 20
946.5729086739675
 11
620.58814472213214
 21
948.11111656395155
  0
LINE
  8
_0-0_
  6
CONTINUOUS
 62
    7
 10
620.58814472213214
 20
948.11111656395155
 11
618.02025091694134
 21
949.69201842790403
  0
LINE
  8
_0-0_
  6
CONTINUOUS
 62
    7
 10
618.02025091694134
 20
949.69201842790403
 11
615.48818330507015
 21
951.30756540187986
  0
LINE
  8
_0-0_
  6
CONTINUOUS
 62
    7
 10
615.48818330507015
 20
951.30756540187986
 11
612.99194188651882
 21
952.95775748587948
  0
LINE
  8
_0-0_
  6
CONTINUOUS
 62
    7
 10
612.99194188651882
 20
952.95775748587948
 11
610.53130794215849
 21
954.64259467990234
  0
LINE
  8
_0-0_
  6
CONTINUOUS
 62
    7
 10
610.53130794215849
 20
954.64259467990234
 11
608.1061502405114
 21
956.36207698394878
  0
LINE
  8
_0-0_
  6
CONTINUOUS
 62
    7
 10
608.1061502405114
 20
956.36207698394878
 11
605.71625006244915
 21
958.11637937332205
  0
LINE
  8
_0-0_
  6
CONTINUOUS
 62
    7
 10
605.71625006244915
 20
958.11637937332205
 11
603.36143243266804
 21
959.90558933567354
  0
LINE
  8
_0-0_
  6
CONTINUOUS
 62
    7
 10
603.36143243266804
 20
959.90558933567354
 11
601.04147863203946
 21
961.72970687100315
  0
LINE
  8
_0-0_
  6
CONTINUOUS
 62
    7
 10
601.04147863203946
 20
961.72970687100315
 11
598.75625742908596
 21
963.58890695461423
  0
LINE
  8
_0-0_
  6
CONTINUOUS
 62
    7
 10
598.75625742908596
 20
963.58890695461423
 11
596.50550636085302
 21
965.48327707415842
  0
LINE
  8
_0-0_
  6
CONTINUOUS
 62
    7
 10
596.50550636085302
 20
965.48327707415842
 11
594.28918168351458
 21
967.41290471728701
  0
LINE
  8
_0-0_
  6
CONTINUOUS
 62
    7
 10
594.28918168351458
 20
967.41290471728701
 11
592.10697719029008
 21
969.37796485930335
  0
LINE
  8
_0-0_
  6
CONTINUOUS
 62
    7
 10
592.10697719029008
 20
969.37796485930335
 11
589.95884913735404
 21
971.37854498785885
  0
LINE
  8
_0-0_
  6
CONTINUOUS
 62
    7
 10
589.95884913735404
 20
971.37854498785885
 11
587.84457880557738
 21
973.41482007825687
  0
LINE
  8
_0-0_
  6
CONTINUOUS
 62
    7
 10
587.84457880557738
 20
973.41482007825687
 11
585.76403496348257
 21
975.48696510580044
  0
LINE
  8
_0-0_
  6
CONTINUOUS
 62
    7
 10
585.76403496348257
 20
975.48696510580044
 11
583.7170863795925
 21
977.59515504579281
  0
LINE
  8
_0-0_
  6
CONTINUOUS
 62
    7
 10
583.7170863795925
 20
977.59515504579281
 11
581.70360182242962
 21
979.73947738588538
  0
LINE
  8
_0-0_
  6
CONTINUOUS
 62
    7
 10
581.70360182242962
 20
979.73947738588538
 11
579.72345006051671
 21
981.92010710138152
  0
LINE
  8
_0-0_
  6
CONTINUOUS
 62
    7
 10
579.72345006051671
 20
981.92010710138152
 11
577.77654360620204
 21
984.13730665523576
  0
LINE
  8
_0-0_
  6
CONTINUOUS
 62
    7
 10
577.77654360620204
 20
984.13730665523576
 11
575.86279497183432
 21
986.39107604744811
  0
LINE
  8
_0-0_
  6
CONTINUOUS
 62
    7
 10
575.86279497183432
 20
986.39107604744811
 11
573.98207292593588
 21
988.68185271627658
  0
LINE
  8
_0-0_
  6
CONTINUOUS
 62
    7
 10
573.98207292593588
 20
988.68185271627658
 11
572.13428998085521
 21
991.00963666172095
  0
LINE
  8
_0-0_
  6
CONTINUOUS
 62
    7
 10
572.13428998085521
 20
991.00963666172095
 11
570.31944613659243
 21
993.37460285908469
  0
LINE
  8
_0-0_
  6
CONTINUOUS
 62
    7
 10
570.31944613659243
 20
993.37460285908469
 11
568.53745390549591
 21
995.77710125897374
  0
LINE
  8
_0-0_
  6
CONTINUOUS
 62
    7
 10
568.53745390549591
 20
995.77710125897374
 11
566.7882257999139
 21
998.21713186138834
  0
LINE
  8
_0-0_
  6
CONTINUOUS
 62
    7
 10
566.7882257999139
 20
998.21713186138834
 11
565.07176181984676
 21
1000.6948696416316
  0
LINE
  8
_0-0_
  6
CONTINUOUS
 62
    7
 10
565.07176181984676
 20
1000.6948696416316
 11
563.38806196529436
 21
1003.2106645503098
  0
LINE
  8
_0-0_
  6
CONTINUOUS
 62
    7
 10
563.38806196529436
 20
1003.2106645503098
 11
561.73708249243066
 21
1005.7646040750745
  0
LINE
  8
_0-0_
  6
CONTINUOUS
 62
    7
 10
561.73708249243066
 20
1005.7646040750745
 11
560.11877965743008
 21
1008.356863191229
  0
LINE
  8
_0-0_
  6
CONTINUOUS
 62
    7
 10
560.11877965743008
 20
1008.356863191229
 11
558.53324094794425
 21
1010.9876168740761
  0
LINE
  8
_0-0_
  6
CONTINUOUS
 62
    7
 10
558.53324094794425
 20
1010.9876168740761
 11
556.98037887632154
 21
1013.6569526112678
  0
LINE
  8
_0-0_
  6
CONTINUOUS
 62
    7
 10
556.98037887632154
 20
1013.6569526112678
 11
555.46041216169078
 21
1016.3649578904552
  0
LINE
  8
_0-0_
  6
CONTINUOUS
 62
    7
 10
555.46041216169078
 20
1016.3649578904552
 11
553.98082099826183
 21
1019.097984637993
  0
LINE
  8
_0-0_
  6
CONTINUOUS
 62
    7
 10
553.98082099826183
 20
1019.097984637993
 11
552.54912932406978
 21
1021.8425597555388
  0
LINE
  8
_0-0_
  6
CONTINUOUS
 62
    7
 10
552.54912932406978
 20
1021.8425597555388
 11
551.16520590763741
 21
1024.5985082677892
  0
LINE
  8
_0-0_
  6
CONTINUOUS
 62
    7
 10
551.16520590763741
 20
1024.5985082677892
 11
549.82905074896496
 21
1027.3660051500474
  0
LINE
  8
_0-0_
  6
CONTINUOUS
 62
    7
 10
549.82905074896496
 20
1027.3660051500474
 11
548.54044512892312
 21
1030.1451378899651
  0
LINE
  8
_0-0_
  6
CONTINUOUS
 62
    7
 10
548.54044512892312
 20
1030.1451378899651
 11
547.29934530368632
 21
1032.9359064875421
  0
LINE
  8
_0-0_
  6
CONTINUOUS
 62
    7
 10
547.29934530368632
 20
1032.9359064875421
 11
546.10562004177723
 21
1035.738660893385
  0
LINE
  8
_0-0_
  6
CONTINUOUS
 62
    7
 10
546.10562004177723
 20
1035.738660893385
 11
544.9591818555441
 21
1038.5534011074933
  0
LINE
  8
_0-0_
  6
CONTINUOUS
 62
    7
 10
544.9591818555441
 20
1038.5534011074933
 11
543.85989951350984
 21
1041.3802146175192
  0
LINE
  8
_0-0_
  6
CONTINUOUS
 62
    7
 10
543.85989951350984
 20
1041.3802146175192
 11
542.80772927184807
 21
1044.2193638864171
  0
LINE
  8
_0-0_
  6
CONTINUOUS
 62
    7
 10
542.80772927184807
 20
1044.2193638864171
 11
541.80253989908226
 21
1047.0710238894899
  0
LINE
  8
_0-0_
  6
CONTINUOUS
 62
    7
 10
541.80253989908226
 20
1047.0710238894899
 11
540.84424390756021
 21
1049.9352821143898
  0
LINE
  8
_0-0_
  6
CONTINUOUS
 62
    7
 10
540.84424390756021
 20
1049.9352821143898
 11
539.93284129728204
 21
1052.8122260487678
  0
LINE
  8
_0-0_
  6
CONTINUOUS
 62
    7
 10
539.93284129728204
 20
1052.8122260487678
 11
539.06820083677076
 21
1055.7022056432304
  0
LINE
  8
_0-0_
  6
CONTINUOUS
 62
    7
 10
539.06820083677076
 20
1055.7022056432304
 11
538.25032252602591
 21
1058.6053083854292
  0
LINE
  8
_0-0_
  6
CONTINUOUS
 62
    7
 10
538.25032252602591
 20
1058.6053083854292
 11
537.4791188773961
 21
1061.5216217630157
  0
LINE
  8
_0-0_
  6
CONTINUOUS
 62
    7
 10
537.4791188773961
 20
1061.5216217630157
 11
536.75458989088133
 21
1064.4514082389449
  0
LINE
  8
_0-0_
  6
CONTINUOUS
 62
    7
 10
536.75458989088133
 20
1064.4514082389449
 11
536.07669182265579
 21
1067.3948427885196
  0
LINE
  8
_0-0_
  6
CONTINUOUS
 62
    7
 10
536.07669182265579
 20
1067.3948427885196
 11
535.44538092889388
 21
1070.3520128993914
  0
LINE
  8
_0-0_
  6
CONTINUOUS
 62
    7
 10
535.44538092889388
 20
1070.3520128993914
 11
534.86065720959516
 21
1073.3231810345151
  0
LINE
  8
_0-0_
  6
CONTINUOUS
 62
    7
 10
534.86065720959516
 20
1073.3231810345151
 11
534.32256440858578
 21
1076.308522169194
  0
LINE
  8
_0-0_
  6
CONTINUOUS
 62
    7
 10
534.32256440858578
 20
1076.308522169194
 11
533.83105878203992
 21
1079.3082112787311
  0
LINE
  8
_0-0_
  6
CONTINUOUS
 62
    7
 10
533.83105878203992
 20
1079.3082112787311
 11
533.38614032995736
 21
1082.3223358507782
  0
LINE
  8
_0-0_
  6
CONTINUOUS
 62
    7
 10
533.38614032995736
 20
1082.3223358507782
 11
532.98785279616425
 21
1085.3511583482896
  0
LINE
  8
_0-0_
  6
CONTINUOUS
 62
    7
 10
532.98785279616425
 20
1085.3511583482896
 11
532.63623992448606
 21
1088.3947662589171
  0
LINE
  8
_0-0_
  6
CONTINUOUS
 62
    7
 10
532.63623992448606
 20
1088.3947662589171
 11
532.33134545874861
 21
1091.4534220456155
  0
LINE
  8
_0-0_
  6
CONTINUOUS
 62
    7
 10
532.33134545874861
 20
1091.4534220456155
 11
532.07316939895213
 21
1094.5271257083848
  0
LINE
  8
_0-0_
  6
CONTINUOUS
 62
    7
 10
532.07316939895213
 20
1094.5271257083848
 11
531.86179923274813
 21
1097.6161397101796
  0
LINE
  8
_0-0_
  6
CONTINUOUS
 62
    7
 10
531.86179923274813
 20
1097.6161397101796
 11
531.69727870396196
 21
1100.7206390263032
  0
LINE
  8
_0-0_
  6
CONTINUOUS
 62
    7
 10
531.69727870396196
 20
1100.7206390263032
 11
531.57969530024593
 21
1103.8406236567553
  0
LINE
  8
_0-0_
  6
CONTINUOUS
 62
    7
 10
531.57969530024593
 20
1103.8406236567553
 11
531.50904902159937
 21
1106.9763560644908
  0
LINE
  8
_0-0_
  6
CONTINUOUS
 62
    7
 10
531.50904902159937
 20
1106.9763560644908
 11
531.48551484332586
 21
1110.1276612742067
  0
LINE
  8
_0-0_
  6
CONTINUOUS
 62
    7
 10
531.48551484332586
 20
1110.1276612742067
 11
531.50904902159937
 21
1113.2789664839224
  0
LINE
  8
_0-0_
  6
CONTINUOUS
 62
    7
 10
531.50904902159937
 20
1113.2789664839224
 11
531.57969530024593
 21
1116.414698891658
  0
LINE
  8
_0-0_
  6
CONTINUOUS
 62
    7
 10
531.57969530024593
 20
1116.414698891658
 11
531.69727870396196
 21
1119.5347710097617
  0
LINE
  8
_0-0_
  6
CONTINUOUS
 62
    7
 10
531.69727870396196
 20
1119.5347710097617
 11
531.86179923274813
 21
1122.6391828382336
  0
LINE
  8
_0-0_
  6
CONTINUOUS
 62
    7
 10
531.86179923274813
 20
1122.6391828382336
 11
532.07316939895213
 21
1125.7281968400284
  0
LINE
  8
_0-0_
  6
CONTINUOUS
 62
    7
 10
532.07316939895213
 20
1125.7281968400284
 11
532.33134545874861
 21
1128.8019879904491
  0
LINE
  8
_0-0_
  6
CONTINUOUS
 62
    7
 10
532.33134545874861
 20
1128.8019879904491
 11
532.63623992448606
 21
1131.8605562894961
  0
LINE
  8
_0-0_
  6
CONTINUOUS
 62
    7
 10
532.63623992448606
 20
1131.8605562894961
 11
532.98785279616425
 21
1134.9041642001237
  0
LINE
  8
_0-0_
  6
CONTINUOUS
 62
    7
 10
532.98785279616425
 20
1134.9041642001237
 11
533.38614032995736
 21
1137.932986697635
  0
LINE
  8
_0-0_
  6
CONTINUOUS
 62
    7
 10
533.38614032995736
 20
1137.932986697635
 11
533.83105878203992
 21
1140.947111269682
  0
LINE
  8
_0-0_
  6
CONTINUOUS
 62
    7
 10
533.83105878203992
 20
1140.947111269682
 11
534.32256440858578
 21
1143.9468003792192
  0
LINE
  8
_0-0_
  6
CONTINUOUS
 62
    7
 10
534.32256440858578
 20
1143.9468003792192
 11
534.86065720959516
 21
1146.9321415138982
  0
LINE
  8
_0-0_
  6
CONTINUOUS
 62
    7
 10
534.86065720959516
 20
1146.9321415138982
 11
535.44538092889388
 21
1149.9033096490218
  0
LINE
  8
_0-0_
  6
CONTINUOUS
 62
    7
 10
535.44538092889388
 20
1149.9033096490218
 11
536.07669182265579
 21
1152.8605672475453
  0
LINE
  8
_0-0_
  6
CONTINUOUS
 62
    7
 10
536.07669182265579
 20
1152.8605672475453
 11
536.75458989088133
 21
1155.80400179712
  0
LINE
  8
_0-0_
  6
CONTINUOUS
 62
    7
 10
536.75458989088133
 20
1155.80400179712
 11
537.4791188773961
 21
1158.733788273049
  0
LINE
  8
_0-0_
  6
CONTINUOUS
 62
    7
 10
537.4791188773961
 20
1158.733788273049
 11
538.25032252602591
 21
1161.6501016506356
  0
LINE
  8
_0-0_
  6
CONTINUOUS
 62
    7
 10
538.25032252602591
 20
1161.6501016506356
 11
539.06820083677076
 21
1164.5531169051828
  0
LINE
  8
_0-0_
  6
CONTINUOUS
 62
    7
 10
539.06820083677076
 20
1164.5531169051828
 11
539.93284129728204
 21
1167.4430964996454
  0
LINE
  8
_0-0_
  6
CONTINUOUS
 62
    7
 10
539.93284129728204
 20
1167.4430964996454
 11
540.84424390756021
 21
1170.3201279216751
  0
LINE
  8
_0-0_
  6
CONTINUOUS
 62
    7
 10
540.84424390756021
 20
1170.3201279216751
 11
541.80253989908226
 21
1173.1843861465748
  0
LINE
  8
_0-0_
  6
CONTINUOUS
 62
    7
 10
541.80253989908226
 20
1173.1843861465748
 11
542.80772927184807
 21
1176.0359586619961
  0
LINE
  8
_0-0_
  6
CONTINUOUS
 62
    7
 10
542.80772927184807
 20
1176.0359586619961
 11
543.85989951350984
 21
1178.875107930894
  0
LINE
  8
_0-0_
  6
CONTINUOUS
 62
    7
 10
543.85989951350984
 20
1178.875107930894
 11
544.9591818555441
 21
1181.7020089285713
  0
LINE
  8
_0-0_
  6
CONTINUOUS
 62
    7
 10
544.9591818555441
 20
1181.7020089285713
 11
546.10562004177723
 21
1184.5167491426798
  0
LINE
  8
_0-0_
  6
CONTINUOUS
 62
    7
 10
546.10562004177723
 20
1184.5167491426798
 11
547.29934530368632
 21
1187.3194160608709
  0
LINE
  8
_0-0_
  6
CONTINUOUS
 62
    7
 10
547.29934530368632
 20
1187.3194160608709
 11
548.54044512892312
 21
1190.1102721460998
  0
LINE
  8
_0-0_
  6
CONTINUOUS
 62
    7
 10
548.54044512892312
 20
1190.1102721460998
 11
549.82905074896496
 21
1192.8893173983658
  0
LINE
  8
_0-0_
  6
CONTINUOUS
 62
    7
 10
549.82905074896496
 20
1192.8893173983658
 11
551.16520590763741
 21
1195.6568142806241
  0
LINE
  8
_0-0_
  6
CONTINUOUS
 62
    7
 10
551.16520590763741
 20
1195.6568142806241
 11
552.54912932406978
 21
1198.4127627928744
  0
LINE
  8
_0-0_
  6
CONTINUOUS
 62
    7
 10
552.54912932406978
 20
1198.4127627928744
 11
553.98082099826183
 21
1201.1573379104202
  0
LINE
  8
_0-0_
  6
CONTINUOUS
 62
    7
 10
553.98082099826183
 20
1201.1573379104202
 11
555.47301038351748
 21
1203.9137238609285
  0
LINE
  8
_0-0_
  6
CONTINUOUS
 62
    7
 10
555.47301038351748
 20
1203.9137238609285
 11
556.26018052855966
 21
1205.3280492362828
  0
LINE
  8
_0-0_
  6
CONTINUOUS
 62
    7
 10
556.26018052855966
 20
1205.3280492362828
 11
557.06948504945012
 21
1206.7547978581608
  0
LINE
  8
_0-0_
  6
CONTINUOUS
 62
    7
 10
557.06948504945012
 20
1206.7547978581608
 11
557.8879320299302
 21
1208.1706105235921
  0
LINE
  8
_0-0_
  6
CONTINUOUS
 62
    7
 10
557.8879320299302
 20
1208.1706105235921
 11
558.71556521382558
 21
1209.5755747202279
  0
LINE
  8
_0-0_
  6
CONTINUOUS
 62
    7
 10
558.71556521382558
 20
1209.5755747202279
 11
559.55238460113628
 21
1210.9698654233719
  0
LINE
  8
_0-0_
  6
CONTINUOUS
 62
    7
 10
559.55238460113628
 20
1210.9698654233719
 11
560.39834644803682
 21
1212.3533076577205
  0
LINE
  8
_0-0_
  6
CONTINUOUS
 62
    7
 10
560.39834644803682
 20
1212.3533076577205
 11
561.25353824217791
 21
1213.7259889109255
  0
LINE
  8
_0-0_
  6
CONTINUOUS
 62
    7
 10
561.25353824217791
 20
1213.7259889109255
 11
562.11782875208314
 21
1215.0879966706382
  0
LINE
  8
_0-0_
  6
CONTINUOUS
 62
    7
 10
562.11782875208314
 20
1215.0879966706382
 11
562.99134920922938
 21
1216.4393309368588
  0
LINE
  8
_0-0_
  6
CONTINUOUS
 62
    7
 10
562.99134920922938
 20
1216.4393309368588
 11
563.87405586979094
 21
1217.779904221936
  0
LINE
  8
_0-0_
  6
CONTINUOUS
 62
    7
 10
563.87405586979094
 20
1217.779904221936
 11
564.7659049899421
 21
1219.1098915011726
  0
LINE
  8
_0-0_
  6
CONTINUOUS
 62
    7
 10
564.7659049899421
 20
1219.1098915011726
 11
565.66694031350858
 21
1220.4292927745687
  0
LINE
  8
_0-0_
  6
CONTINUOUS
 62
    7
 10
565.66694031350858
 20
1220.4292927745687
 11
566.57716184049036
 21
1221.7381080421242
  0
LINE
  8
_0-0_
  6
CONTINUOUS
 62
    7
 10
566.57716184049036
 20
1221.7381080421242
 11
567.49656957088746
 21
1223.036337303839
  0
LINE
  8
_0-0_
  6
CONTINUOUS
 62
    7
 10
567.49656957088746
 20
1223.036337303839
 11
568.42516350469987
 21
1224.3239805597134
  0
LINE
  8
_0-0_
  6
CONTINUOUS
 62
    7
 10
568.42516350469987
 20
1224.3239805597134
 11
569.36298738575351
 21
1225.6012127850506
  0
LINE
  8
_0-0_
  6
CONTINUOUS
 62
    7
 10
569.36298738575351
 20
1225.6012127850506
 11
570.30999747022236
 21
1226.8679464921988
  0
LINE
  8
_0-0_
  6
CONTINUOUS
 62
    7
 10
570.30999747022236
 20
1226.8679464921988
 11
571.26619375810662
 21
1228.124181681158
  0
LINE
  8
_0-0_
  6
CONTINUOUS
 62
    7
 10
571.26619375810662
 20
1228.124181681158
 11
572.23161999323202
 21
1229.3700058395798
  0
LINE
  8
_0-0_
  6
CONTINUOUS
 62
    7
 10
572.23161999323202
 20
1229.3700058395798
 11
573.2062761755983
 21
1230.6054189674642
  0
LINE
  8
_0-0_
  6
CONTINUOUS
 62
    7
 10
573.2062761755983
 20
1230.6054189674642
 11
574.19020604903164
 21
1231.8305085524628
  0
LINE
  8
_0-0_
  6
CONTINUOUS
 62
    7
 10
574.19020604903164
 20
1231.8305085524628
 11
575.1833221258803
 21
1233.045187106924
  0
LINE
  8
_0-0_
  6
CONTINUOUS
 62
    7
 10
575.1833221258803
 20
1233.045187106924
 11
576.18575563762181
 21
1234.2495421184994
  0
LINE
  8
_0-0_
  6
CONTINUOUS
 62
    7
 10
576.18575563762181
 20
1234.2495421184994
 11
577.19741909660434
 21
1235.4436610748407
  0
LINE
  8
_0-0_
  6
CONTINUOUS
 62
    7
 10
577.19741909660434
 20
1235.4436610748407
 11
578.21839999047938
 21
1236.6275439759479
  0
LINE
  8
_0-0_
  6
CONTINUOUS
 62
    7
 10
578.21839999047938
 20
1236.6275439759479
 11
579.2486983192473
 21
1237.8011033341691
  0
LINE
  8
_0-0_
  6
CONTINUOUS
 62
    7
 10
579.2486983192473
 20
1237.8011033341691
 11
580.28827033908215
 21
1238.9645141248075
  0
LINE
  8
_0-0_
  6
CONTINUOUS
 62
    7
 10
580.28827033908215
 20
1238.9645141248075
 11
580.71013579497458
 21
1239.4282861658044
  0
LINE
  8
_0-0_
  6
CONTINUOUS
 62
    7
 10
829.82186247483185
 20
1242.8473035893385
 11
709.00001584793142
 21
1242.8473035893385
  0
LINE
  8
_0-0_
  6
CONTINUOUS
 62
    7
 10
590.46024086852776
 20
1242.835667731679
 11
827.50973881901916
 21
1242.835667731679
  0
LINE
  8
_0-0_
  6
CONTINUOUS
 62
    7
 10
579.00001466964659
 20
1255.6029157012586
 11
583.69998254370955
 21
1244.1029263647365
  0
LINE
  8
_0-0_
  6
CONTINUOUS
 62
    7
 10
839.40001056921517
 20
1254.4029350722617
 11
834.60000056557669
 21
1244.2029247504863
  0
LINE
  8
_1-0_
  6
CONTINUOUS
 62
    7
 10
732.01749205129022
 20
440.80207058821861
 11
921.37165319965607
 21
440.80207058821861
  0
LINE
  8
_1-0_
  6
CONTINUOUS
 62
    7
 10
921.37165319965607
 20
440.80207058821861
 11
926.37157248714243
 21
590.80209886705552
  0
LINE
  8
_1-0_
  6
CONTINUOUS
 62
    7
 10
926.37157248714243
 20
590.80209886705552
 11
491.37159546369759
 21
590.80209886705552
  0
LINE
  8
_1-0_
  6
CONTINUOUS
 62
    7
 10
491.37159546369759
 20
590.80209886705552
 11
496.37160223883541
 21
440.80207058821861
  0
LINE
  8
_1-0_
  6
CONTINUOUS
 62
    7
 10
496.37160223883541
 20
440.80207058821861
 11
686.02654593331465
 21
440.80207058821861
  0
LINE
  8
_1-0_
  6
CONTINUOUS
 62
    7
 10
686.02654593331465
 20
440.25999709906267
 11
601.43954744670384
 21
440.25999709906267
  0
LINE
  8
_1-0_
  6
CONTINUOUS
 62
    7
 10
601.43954744670384
 20
440.25999709906267
 11
601.43954744670384
 21
438.25998564024223
  0
LINE
  8
_1-0_
  6
CONTINUOUS
 62
    7
 10
601.43954744670384
 20
438.25998564024223
 11
686.02654593331465
 21
438.25998564024223
  0
LINE
  8
_1-0_
  6
CONTINUOUS
 62
    7
 10
732.01749205129022
 20
440.25999709906267
 11
816.43957631468311
 21
440.25999709906267
  0
LINE
  8
_1-0_
  6
CONTINUOUS
 62
    7
 10
816.43957631468311
 20
440.25999709906267
 11
816.43957631468311
 21
438.25998564024223
  0
LINE
  8
_1-0_
  6
CONTINUOUS
 62
    7
 10
816.43957631468311
 20
438.25998564024223
 11
732.01749205129022
 21
438.25998564024223
  0
LINE
  8
_1-0_
  6
CONTINUOUS
 62
    7
 10
732.01749205129022
 20
438.2578421927787
 11
746.51568320727256
 21
438.2578421927787
  0
LINE
  8
_1-0_
  6
CONTINUOUS
 62
    7
 10
746.51568320727256
 20
438.2578421927787
 11
744.01563607587775
 21
413.25780831708869
  0
LINE
  8
_1-0_
  6
CONTINUOUS
 62
    7
 10
744.01563607587775
 20
413.25780831708869
 11
732.01749205129022
 21
413.25780831708869
  0
LINE
  8
_1-0_
  6
CONTINUOUS
 62
    7
 10
686.02654593331465
 20
438.2578421927787
 11
671.51562532402841
 21
438.2578421927787
  0
LINE
  8
_1-0_
  6
CONTINUOUS
 62
    7
 10
671.51562532402841
 20
438.2578421927787
 11
674.01562871159729
 21
413.25780831708869
  0
LINE
  8
_1-0_
  6
CONTINUOUS
 62
    7
 10
674.01562871159729
 20
413.25780831708869
 11
686.02654593331465
 21
413.25780831708869
  0
LINE
  8
_1-0_
  6
CONTINUOUS
 62
    7
 10
732.01749205129022
 20
440.25999709906267
 11
816.43957631468311
 21
440.25999709906267
  0
LINE
  8
_1-0_
  6
CONTINUOUS
 62
    7
 10
816.43957631468311
 20
440.25999709906267
 11
816.43957631468311
 21
438.25998564024223
  0
LINE
  8
_1-0_
  6
CONTINUOUS
 62
    7
 10
816.43957631468311
 20
438.25998564024223
 11
732.01749205129022
 21
438.25998564024223
  0
LINE
  8
_1-0_
  6
CONTINUOUS
 62
    7
 10
686.02654593331465
 20
440.25999709906267
 11
601.43954744670384
 21
440.25999709906267
  0
LINE
  8
_1-0_
  6
CONTINUOUS
 62
    7
 10
601.43954744670384
 20
440.25999709906267
 11
601.43954744670384
 21
438.25998564024223
  0
LINE
  8
_1-0_
  6
CONTINUOUS
 62
    7
 10
601.43954744670384
 20
438.25998564024223
 11
686.02654593331465
 21
438.25998564024223
  0
LINE
  8
_1-0_
  6
CONTINUOUS
 62
    7
 10
517.1462887502546
 20
589.13055979607191
 11
532.14630907566857
 21
469.30917820875243
  0
LINE
  8
_1-0_
  6
CONTINUOUS
 62
    7
 10
531.58914396661589
 20
470.42350842685772
 11
673.51861136300215
 21
460.49217268306779
  0
LINE
  8
_1-0_
  6
CONTINUOUS
 62
    7
 10
744.49996771499457
 20
460.4235386204075
 11
886.08560864069273
 21
470.42350842685772
  0
LINE
  8
_1-0_
  6
CONTINUOUS
 62
    7
 10
886.64273000591959
 20
469.30917820875243
 11
901.64275033133367
 21
589.30916583676128
  0
LINE
  8
_1-0_
  6
CONTINUOUS
 62
    7
 10
686.02654593331465
 20
453.27072320297418
 11
686.02654593331465
 21
413.25780831708869
  0
LINE
  8
_1-0_
  6
CONTINUOUS
 62
    7
 10
732.01749205129022
 20
453.78733778552197
 11
732.01749205129022
 21
413.25780831708869
  0
LINE
  8
_1-0_
  6
CONTINUOUS
 62
    7
 10
743.51170720280822
 20
460.4235386204075
 11
732.01749205129022
 21
453.78733778552197
  0
LINE
  8
_1-0_
  6
CONTINUOUS
 62
    7
 10
673.51861136300215
 20
460.49217268306779
 11
686.02654593331465
 21
453.27072320297418
  0
LINE
  8
_1-0_
  6
CONTINUOUS
 62
    7
 10
746.60002130339035
 20
460.57183018982636
 11
743.37391415157822
 21
460.34396860130045
  0
LINE
  8
_1-0_
  6
CONTINUOUS
 62
    7
 10
738.88728491587983
 20
1722.9807602576766
 11
746.50002291764065
 21
1722.9807602576766
  0
LINE
  8
_1-0_
  6
CONTINUOUS
 62
    7
 10
746.50002291764065
 20
1722.9807602576766
 11
743.99997578624595
 21
1697.980638894335
  0
LINE
  8
_1-0_
  6
CONTINUOUS
 62
    7
 10
743.99997578624595
 20
1697.980638894335
 11
674.0000121657913
 21
1697.980638894335
  0
LINE
  8
_1-0_
  6
CONTINUOUS
 62
    7
 10
674.0000121657913
 20
1697.980638894335
 11
671.5000087782222
 21
1722.9807602576766
  0
LINE
  8
_1-0_
  6
CONTINUOUS
 62
    7
 10
671.5000087782222
 20
1722.9807602576766
 11
678.88724735804954
 21
1722.9807602576766
  0
LINE
  8
_1-0_
  6
CONTINUOUS
 62
    7
 10
736.29231368252658
 20
1699.232412213064
 11
738.88728491587983
 21
1699.232412213064
  0
LINE
  8
_1-0_
  6
CONTINUOUS
 62
    7
 10
738.88728491587983
 20
1699.232412213064
 11
738.88728491587983
 21
1773.3463514173352
  0
LINE
  8
_1-0_
  6
CONTINUOUS
 62
    7
 10
681.29228289983439
 20
1699.232412213064
 11
678.88724735804954
 21
1699.232412213064
  0
LINE
  8
_1-0_
  6
CONTINUOUS
 62
    7
 10
678.88724735804954
 20
1699.232412213064
 11
678.88724735804954
 21
1773.3505508246108
  0
LINE
  8
_1-0_
  6
CONTINUOUS
 62
    7
 10
736.29231368252658
 20
1773.4616601421103
 11
736.29231368252658
 21
1698.7447560431874
  0
LINE
  8
_1-0_
  6
CONTINUOUS
 62
    7
 10
736.29231368252658
 20
1698.7447560431874
 11
681.29228289983439
 21
1698.7447560431874
  0
LINE
  8
_1-0_
  6
CONTINUOUS
 62
    7
 10
681.29228289983439
 20
1698.7447560431874
 11
681.29228289983439
 21
1773.457635710138
  0
LINE
  8
_1-0_
  6
CONTINUOUS
 62
    7
 10
593.83236491081789
 20
1753.01999537641
 11
593.80008196738686
 21
1753.1445777922522
  0
LINE
  8
_1-0_
  6
CONTINUOUS
 62
    7
 10
593.80008196738686
 20
1753.1445777922522
 11
593.77208591888302
 21
1753.2693351833975
  0
LINE
  8
_1-0_
  6
CONTINUOUS
 62
    7
 10
593.77208591888302
 20
1753.2693351833975
 11
593.74842050913219
 21
1753.3946175004526
  0
LINE
  8
_1-0_
  6
CONTINUOUS
 62
    7
 10
593.74842050913219
 20
1753.3946175004526
 11
593.72904199430832
 21
1753.5202497681134
  0
LINE
  8
_1-0_
  6
CONTINUOUS
 62
    7
 10
593.72904199430832
 20
1753.5202497681134
 11
593.71395037441175
 21
1753.6462319863808
  0
LINE
  8
_1-0_
  6
CONTINUOUS
 62
    7
 10
593.71395037441175
 20
1753.6462319863808
 11
593.70318939326808
 21
1753.7727391305577
  0
LINE
  8
_1-0_
  6
CONTINUOUS
 62
    7
 10
593.70318939326808
 20
1753.7727391305577
 11
593.69671530705148
 21
1753.8994212500374
  0
LINE
  8
_1-0_
  6
CONTINUOUS
 62
    7
 10
593.69671530705148
 20
1753.8994212500374
 11
593.694571859588
 21
1754.0266282954269
  0
LINE
  8
_1-0_
  6
CONTINUOUS
 62
    7
 10
593.694571859588
 20
1754.0266282954269
 11
593.93560033967583
 21
1755.3552157722384
  0
LINE
  8
_1-0_
  6
CONTINUOUS
 62
    7
 10
593.93560033967583
 20
1755.3552157722384
 11
594.65872952376549
 21
1756.6612314349436
  0
LINE
  8
_1-0_
  6
CONTINUOUS
 62
    7
 10
594.65872952376549
 20
1756.6612314349436
 11
595.86391566803081
 21
1757.9450252341487
  0
LINE
  8
_1-0_
  6
CONTINUOUS
 62
    7
 10
595.86391566803081
 20
1757.9450252341487
 11
597.55115877247226
 21
1759.2062472192474
  0
LINE
  8
_1-0_
  6
CONTINUOUS
 62
    7
 10
597.55115877247226
 20
1759.2062472192474
 11
599.72050258091508
 21
1760.4448973902402
  0
LINE
  8
_1-0_
  6
CONTINUOUS
 62
    7
 10
599.72050258091508
 20
1760.4448973902402
 11
602.37190334953402
 21
1761.661325697733
  0
LINE
  8
_1-0_
  6
CONTINUOUS
 62
    7
 10
602.37190334953402
 20
1761.661325697733
 11
605.50536107832852
 21
1762.8551821911196
  0
LINE
  8
_1-0_
  6
CONTINUOUS
 62
    7
 10
605.50536107832852
 20
1762.8551821911196
 11
609.12091951112484
 21
1764.0266418457031
  0
LINE
  8
_1-0_
  6
CONTINUOUS
 62
    7
 10
609.12091951112484
 20
1764.0266418457031
 11
613.15396901723489
 21
1765.1562824028338
  0
LINE
  8
_1-0_
  6
CONTINUOUS
 62
    7
 10
613.15396901723489
 20
1765.1562824028338
 11
617.53989996597113
 21
1766.2245066285593
  0
LINE
  8
_1-0_
  6
CONTINUOUS
 62
    7
 10
617.53989996597113
 20
1766.2245066285593
 11
622.27875610115905
 21
1767.2316644734858
  0
LINE
  8
_1-0_
  6
CONTINUOUS
 62
    7
 10
622.27875610115905
 20
1767.2316644734858
 11
627.37049367897293
 21
1768.1772310117035
  0
LINE
  8
_1-0_
  6
CONTINUOUS
 62
    7
 10
627.37049367897293
 20
1768.1772310117035
 11
632.81515644323861
 21
1769.0617311691224
  0
LINE
  8
_1-0_
  6
CONTINUOUS
 62
    7
 10
632.81515644323861
 20
1769.0617311691224
 11
638.61270065013048
 21
1769.8848149951359
  0
LINE
  8
_1-0_
  6
CONTINUOUS
 62
    7
 10
638.61270065013048
 20
1769.8848149951359
 11
644.76317004347391
 21
1770.6466574650472
  0
LINE
  8
_1-0_
  6
CONTINUOUS
 62
    7
 10
644.76317004347391
 20
1770.6466574650472
 11
651.26652087944353
 21
1771.3472585788563
  0
LINE
  8
_1-0_
  6
CONTINUOUS
 62
    7
 10
651.26652087944353
 20
1771.3472585788563
 11
658.01090019550099
 21
1771.9752449418588
  0
LINE
  8
_1-0_
  6
CONTINUOUS
 62
    7
 10
658.01090019550099
 20
1771.9752449418588
 11
664.88449877293408
 21
1772.5194181346524
  0
LINE
  8
_1-0_
  6
CONTINUOUS
 62
    7
 10
664.88449877293408
 20
1772.5194181346524
 11
671.88722912409139
 21
1772.9799531325409
  0
LINE
  8
_1-0_
  6
CONTINUOUS
 62
    7
 10
671.88722912409139
 20
1772.9799531325409
 11
679.01913499279829
 21
1773.356849935524
  0
LINE
  8
_1-0_
  6
CONTINUOUS
 62
    7
 10
679.01913499279829
 20
1773.356849935524
 11
686.28021637905522
 21
1773.649933568299
  0
LINE
  8
_1-0_
  6
CONTINUOUS
 62
    7
 10
686.28021637905522
 20
1773.649933568299
 11
693.67047328286185
 21
1773.8592040308652
  0
LINE
  8
_1-0_
  6
CONTINUOUS
 62
    7
 10
693.67047328286185
 20
1773.8592040308652
 11
701.18986196039259
 21
1773.9848362985265
  0
LINE
  8
_1-0_
  6
CONTINUOUS
 62
    7
 10
701.18986196039259
 20
1773.9848362985265
 11
708.83846989929907
 21
1774.0266553959791
  0
LINE
  8
_1-0_
  6
CONTINUOUS
 62
    7
 10
708.83846989929907
 20
1774.0266553959791
 11
716.48707783820544
 21
1773.9848362985265
  0
LINE
  8
_1-0_
  6
CONTINUOUS
 62
    7
 10
716.48707783820544
 20
1773.9848362985265
 11
724.00651025956199
 21
1773.8592040308652
  0
LINE
  8
_1-0_
  6
CONTINUOUS
 62
    7
 10
724.00651025956199
 20
1773.8592040308652
 11
731.39672341954292
 21
1773.649933568299
  0
LINE
  8
_1-0_
  6
CONTINUOUS
 62
    7
 10
731.39672341954292
 20
1773.649933568299
 11
738.65780480579974
 21
1773.356849935524
  0
LINE
  8
_1-0_
  6
CONTINUOUS
 62
    7
 10
738.65780480579974
 20
1773.356849935524
 11
745.78971067450675
 21
1772.9799531325409
  0
LINE
  8
_1-0_
  6
CONTINUOUS
 62
    7
 10
745.78971067450675
 20
1772.9799531325409
 11
752.79248476948976
 21
1772.5194181346524
  0
LINE
  8
_1-0_
  6
CONTINUOUS
 62
    7
 10
752.79248476948976
 20
1772.5194181346524
 11
759.66603960309715
 21
1771.9752449418588
  0
LINE
  8
_1-0_
  6
CONTINUOUS
 62
    7
 10
759.66603960309715
 20
1771.9752449418588
 11
766.41046266298031
 21
1771.3472585788563
  0
LINE
  8
_1-0_
  6
CONTINUOUS
 62
    7
 10
766.41046266298031
 20
1771.3472585788563
 11
772.91376975512412
 21
1770.6466574650472
  0
LINE
  8
_1-0_
  6
CONTINUOUS
 62
    7
 10
772.91376975512412
 20
1770.6466574650472
 11
779.06423914846755
 21
1769.8848149951359
  0
LINE
  8
_1-0_
  6
CONTINUOUS
 62
    7
 10
779.06423914846755
 20
1769.8848149951359
 11
784.86178335535942
 21
1769.0617311691224
  0
LINE
  8
_1-0_
  6
CONTINUOUS
 62
    7
 10
784.86178335535942
 20
1769.0617311691224
 11
790.30648986345091
 21
1768.1772310117035
  0
LINE
  8
_1-0_
  6
CONTINUOUS
 62
    7
 10
790.30648986345091
 20
1768.1772310117035
 11
795.39818369743898
 21
1767.2316644734858
  0
LINE
  8
_1-0_
  6
CONTINUOUS
 62
    7
 10
795.39818369743898
 20
1767.2316644734858
 11
800.13703983262701
 21
1766.2245066285593
  0
LINE
  8
_1-0_
  6
CONTINUOUS
 62
    7
 10
800.13703983262701
 20
1766.2245066285593
 11
804.52297078136314
 21
1765.1562824028338
  0
LINE
  8
_1-0_
  6
CONTINUOUS
 62
    7
 10
804.52297078136314
 20
1765.1562824028338
 11
808.556064031299
 21
1764.0266418457031
  0
LINE
  8
_1-0_
  6
CONTINUOUS
 62
    7
 10
808.556064031299
 20
1764.0266418457031
 11
812.17157872026951
 21
1762.8551821911196
  0
LINE
  8
_1-0_
  6
CONTINUOUS
 62
    7
 10
812.17157872026951
 20
1762.8551821911196
 11
815.30503644906412
 21
1761.661325697733
  0
LINE
  8
_1-0_
  6
CONTINUOUS
 62
    7
 10
815.30503644906412
 20
1761.661325697733
 11
817.95643721768283
 21
1760.4448973902402
  0
LINE
  8
_1-0_
  6
CONTINUOUS
 62
    7
 10
817.95643721768283
 20
1760.4448973902402
 11
820.12578102612576
 21
1759.2062472192474
  0
LINE
  8
_1-0_
  6
CONTINUOUS
 62
    7
 10
820.12578102612576
 20
1759.2062472192474
 11
821.8130678743928
 21
1757.9450252341487
  0
LINE
  8
_1-0_
  6
CONTINUOUS
 62
    7
 10
821.8130678743928
 20
1757.9450252341487
 11
823.01821027483254
 21
1756.6612314349436
  0
LINE
  8
_1-0_
  6
CONTINUOUS
 62
    7
 10
823.01821027483254
 20
1756.6612314349436
 11
823.74138320274801
 21
1755.3552157722384
  0
LINE
  8
_1-0_
  6
CONTINUOUS
 62
    7
 10
823.74138320274801
 20
1755.3552157722384
 11
823.98241168283573
 21
1754.0266282954269
  0
LINE
  8
_1-0_
  6
CONTINUOUS
 62
    7
 10
823.98241168283573
 20
1754.0266282954269
 11
823.9800495162433
 21
1753.8953968180654
  0
LINE
  8
_1-0_
  6
CONTINUOUS
 62
    7
 10
823.9800495162433
 20
1753.8953968180654
 11
823.97305050411728
 21
1753.7639903654003
  0
LINE
  8
_1-0_
  6
CONTINUOUS
 62
    7
 10
823.97305050411728
 20
1753.7639903654003
 11
823.9613271588064
 21
1753.6327588880383
  0
LINE
  8
_1-0_
  6
CONTINUOUS
 62
    7
 10
823.9613271588064
 20
1753.6327588880383
 11
823.94487948031031
 21
1753.5015274106765
  0
LINE
  8
_1-0_
  6
CONTINUOUS
 62
    7
 10
823.94487948031031
 20
1753.5015274106765
 11
823.92379495628097
 21
1753.3702959333145
  0
LINE
  8
_1-0_
  6
CONTINUOUS
 62
    7
 10
823.92379495628097
 20
1753.3702959333145
 11
823.89798609906632
 21
1753.2390644559528
  0
LINE
  8
_1-0_
  6
CONTINUOUS
 62
    7
 10
823.89798609906632
 20
1753.2390644559528
 11
823.86754039631842
 21
1753.107832978591
  0
LINE
  8
_1-0_
  6
CONTINUOUS
 62
    7
 10
823.86754039631842
 20
1753.107832978591
 11
823.83237036038554
 21
1752.9767764765322
  0
LINE
  8
_1-0_
  6
CONTINUOUS
 62
    7
 10
823.83237036038554
 20
1752.9767764765322
 11
823.83237036038554
 21
1730.1584221681571
  0
LINE
  8
_1-0_
  6
CONTINUOUS
 62
    7
 10
823.83237036038554
 20
1730.1584221681571
 11
823.92843180181433
 21
1729.1829348531007
  0
LINE
  8
_1-0_
  6
CONTINUOUS
 62
    7
 10
823.92843180181433
 20
1729.1829348531007
 11
824.21294164473477
 21
1728.2448922529181
  0
LINE
  8
_1-0_
  6
CONTINUOUS
 62
    7
 10
824.21294164473477
 20
1728.2448922529181
 11
824.67505142035168
 21
1727.3805142553615
  0
LINE
  8
_1-0_
  6
CONTINUOUS
 62
    7
 10
824.67505142035168
 20
1727.3805142553615
 11
825.29682616009211
 21
1726.6228711927258
  0
LINE
  8
_1-0_
  6
CONTINUOUS
 62
    7
 10
825.29682616009211
 20
1726.6228711927258
 11
826.05455671037942
 21
1726.0010089653338
  0
LINE
  8
_1-0_
  6
CONTINUOUS
 62
    7
 10
826.05455671037942
 20
1726.0010089653338
 11
826.91893470793616
 21
1725.5390741650199
  0
LINE
  8
_1-0_
  6
CONTINUOUS
 62
    7
 10
826.91893470793616
 20
1725.5390741650199
 11
827.85688982046713
 21
1725.2543893467964
  0
LINE
  8
_1-0_
  6
CONTINUOUS
 62
    7
 10
827.85688982046713
 20
1725.2543893467964
 11
828.83237713552353
 21
1725.1583279053675
  0
LINE
  8
_1-0_
  6
CONTINUOUS
 62
    7
 10
828.83237713552353
 20
1725.1583279053675
 11
846.48423566781412
 21
1725.1583279053675
  0
LINE
  8
_1-0_
  6
CONTINUOUS
 62
    7
 10
846.48423566781412
 20
1725.1583279053675
 11
864.21868254319122
 21
1725.1583279053675
  0
LINE
  8
_1-0_
  6
CONTINUOUS
 62
    7
 10
864.21868254319122
 20
1725.1583279053675
 11
865.18393380301336
 21
1725.252464618462
  0
LINE
  8
_1-0_
  6
CONTINUOUS
 62
    7
 10
865.18393380301336
 20
1725.252464618462
 11
866.11279019978053
 21
1725.5310253010753
  0
LINE
  8
_1-0_
  6
CONTINUOUS
 62
    7
 10
866.11279019978053
 20
1725.5310253010753
 11
866.97051913581754
 21
1725.9836864103222
  0
LINE
  8
_1-0_
  6
CONTINUOUS
 62
    7
 10
866.97051913581754
 20
1725.9836864103222
 11
867.72466269239032
 21
1726.5934753417969
  0
LINE
  8
_1-0_
  6
CONTINUOUS
 62
    7
 10
867.72466269239032
 20
1726.5934753417969
 11
868.34687487038866
 21
1727.3374703307868
  0
LINE
  8
_1-0_
  6
CONTINUOUS
 62
    7
 10
868.34687487038866
 20
1727.3374703307868
 11
868.81379646684206
 21
1728.1873253781823
  0
LINE
  8
_1-0_
  6
CONTINUOUS
 62
    7
 10
868.81379646684206
 20
1728.1873253781823
 11
869.1078424637841
 21
1729.1115449294159
  0
LINE
  8
_1-0_
  6
CONTINUOUS
 62
    7
 10
869.1078424637841
 20
1729.1115449294159
 11
869.21798941711654
 21
1730.0751339238582
  0
LINE
  8
_1-0_
  6
CONTINUOUS
 62
    7
 10
869.21798941711654
 20
1730.0751339238582
 11
870.38603705328853
 21
1800.158342044786
  0
LINE
  8
_1-0_
  6
CONTINUOUS
 62
    7
 10
870.38603705328853
 20
1800.158342044786
 11
871.55128508461019
 21
1870.0751486524191
  0
LINE
  8
_1-0_
  6
CONTINUOUS
 62
    7
 10
871.55128508461019
 20
1870.0751486524191
 11
871.46965910569122
 21
1871.0621843374834
  0
LINE
  8
_1-0_
  6
CONTINUOUS
 62
    7
 10
871.46965910569122
 20
1871.0621843374834
 11
871.19494787974702
 21
1872.0138750113115
  0
LINE
  8
_1-0_
  6
CONTINUOUS
 62
    7
 10
871.19494787974702
 20
1872.0138750113115
 11
870.73808736322462
 21
1872.8927759590294
  0
LINE
  8
_1-0_
  6
CONTINUOUS
 62
    7
 10
870.73808736322462
 20
1872.8927759590294
 11
870.11692503704523
 21
1873.6644170459172
  0
LINE
  8
_1-0_
  6
CONTINUOUS
 62
    7
 10
870.11692503704523
 20
1873.6644170459172
 11
869.35578246834655
 21
1874.2983525692264
  0
LINE
  8
_1-0_
  6
CONTINUOUS
 62
    7
 10
869.35578246834655
 20
1874.2983525692264
 11
868.48466792161855
 21
1874.7697360359102
  0
LINE
  8
_1-0_
  6
CONTINUOUS
 62
    7
 10
868.48466792161855
 20
1874.7697360359102
 11
867.53770158097552
 21
1875.0601950391379
  0
LINE
  8
_1-0_
  6
CONTINUOUS
 62
    7
 10
867.53770158097552
 20
1875.0601950391379
 11
866.55197821068487
 21
1875.1583561842044
  0
LINE
  8
_1-0_
  6
CONTINUOUS
 62
    7
 10
866.55197821068487
 20
1875.1583561842044
 11
709.13605914612981
 21
1875.1583561842044
  0
LINE
  8
_1-0_
  6
CONTINUOUS
 62
    7
 10
709.13605914612981
 20
1875.1583561842044
 11
551.72005259392336
 21
1875.1583561842044
  0
LINE
  8
_1-0_
  6
CONTINUOUS
 62
    7
 10
551.72005259392336
 20
1875.1583561842044
 11
550.73441671128433
 21
1875.0601950391379
  0
LINE
  8
_1-0_
  6
CONTINUOUS
 62
    7
 10
550.73441671128433
 20
1875.0601950391379
 11
549.78740662681548
 21
1874.7697360359102
  0
LINE
  8
_1-0_
  6
CONTINUOUS
 62
    7
 10
549.78740662681548
 20
1874.7697360359102
 11
548.91629208008749
 21
1874.2983525692264
  0
LINE
  8
_1-0_
  6
CONTINUOUS
 62
    7
 10
548.91629208008749
 20
1874.2983525692264
 11
548.1551932552145
 21
1873.6644170459172
  0
LINE
  8
_1-0_
  6
CONTINUOUS
 62
    7
 10
548.1551932552145
 20
1873.6644170459172
 11
547.53403092903511
 21
1872.8927759590294
  0
LINE
  8
_1-0_
  6
CONTINUOUS
 62
    7
 10
547.53403092903511
 20
1872.8927759590294
 11
547.07712666868701
 21
1872.0138750113115
  0
LINE
  8
_1-0_
  6
CONTINUOUS
 62
    7
 10
547.07712666868701
 20
1872.0138750113115
 11
546.80245918656863
 21
1871.0621843374834
  0
LINE
  8
_1-0_
  6
CONTINUOUS
 62
    7
 10
546.80245918656863
 20
1871.0621843374834
 11
546.72074571999804
 21
1870.0751486524191
  0
LINE
  8
_1-0_
  6
CONTINUOUS
 62
    7
 10
546.72074571999804
 20
1870.0751486524191
 11
547.8860374951455
 21
1800.158342044786
  0
LINE
  8
_1-0_
  6
CONTINUOUS
 62
    7
 10
547.8860374951455
 20
1800.158342044786
 11
549.05408513131749
 21
1730.0751339238582
  0
LINE
  8
_1-0_
  6
CONTINUOUS
 62
    7
 10
549.05408513131749
 20
1730.0751339238582
 11
549.16423208464971
 21
1729.1115449294159
  0
LINE
  8
_1-0_
  6
CONTINUOUS
 62
    7
 10
549.16423208464971
 20
1729.1115449294159
 11
549.45827808159197
 21
1728.1873253781823
  0
LINE
  8
_1-0_
  6
CONTINUOUS
 62
    7
 10
549.45827808159197
 20
1728.1873253781823
 11
549.92519967804537
 21
1727.3374703307868
  0
LINE
  8
_1-0_
  6
CONTINUOUS
 62
    7
 10
549.92519967804537
 20
1727.3374703307868
 11
550.54745559986941
 21
1726.5934753417969
  0
LINE
  8
_1-0_
  6
CONTINUOUS
 62
    7
 10
550.54745559986941
 20
1726.5934753417969
 11
551.30159915644231
 21
1725.9836864103222
  0
LINE
  8
_1-0_
  6
CONTINUOUS
 62
    7
 10
551.30159915644231
 20
1725.9836864103222
 11
552.15924060482757
 21
1725.5310253010753
  0
LINE
  8
_1-0_
  6
CONTINUOUS
 62
    7
 10
552.15924060482757
 20
1725.5310253010753
 11
553.08818448924649
 21
1725.252464618462
  0
LINE
  8
_1-0_
  6
CONTINUOUS
 62
    7
 10
553.08818448924649
 20
1725.252464618462
 11
554.05339200524281
 21
1725.1583279053675
  0
LINE
  8
_1-0_
  6
CONTINUOUS
 62
    7
 10
554.05339200524281
 20
1725.1583279053675
 11
571.48421298583025
 21
1725.1583279053675
  0
LINE
  8
_1-0_
  6
CONTINUOUS
 62
    7
 10
571.48421298583025
 20
1725.1583279053675
 11
588.8323581356799
 21
1725.1583279053675
  0
LINE
  8
_1-0_
  6
CONTINUOUS
 62
    7
 10
588.8323581356799
 20
1725.1583279053675
 11
589.80784545073629
 21
1725.2543893467964
  0
LINE
  8
_1-0_
  6
CONTINUOUS
 62
    7
 10
589.80784545073629
 20
1725.2543893467964
 11
590.74580056326727
 21
1725.5390741650199
  0
LINE
  8
_1-0_
  6
CONTINUOUS
 62
    7
 10
590.74580056326727
 20
1725.5390741650199
 11
591.6102223046496
 21
1726.0010089653338
  0
LINE
  8
_1-0_
  6
CONTINUOUS
 62
    7
 10
591.6102223046496
 20
1726.0010089653338
 11
592.36790911111132
 21
1726.6228711927258
  0
LINE
  8
_1-0_
  6
CONTINUOUS
 62
    7
 10
592.36790911111132
 20
1726.6228711927258
 11
592.98972759467745
 21
1727.3805142553615
  0
LINE
  8
_1-0_
  6
CONTINUOUS
 62
    7
 10
592.98972759467745
 20
1727.3805142553615
 11
593.45179362646854
 21
1728.2448922529181
  0
LINE
  8
_1-0_
  6
CONTINUOUS
 62
    7
 10
593.45179362646854
 20
1728.2448922529181
 11
593.7363034693891
 21
1729.1829348531007
  0
LINE
  8
_1-0_
  6
CONTINUOUS
 62
    7
 10
593.7363034693891
 20
1729.1829348531007
 11
593.83236491081789
 21
1730.1584221681571
  0
LINE
  8
_1-0_
  6
CONTINUOUS
 62
    7
 10
593.83236491081789
 20
1730.1584221681571
 11
593.83236491081789
 21
1753.01999537641
  0
LINE
  8
_1-0_
  6
CONTINUOUS
 62
    7
 10
704.00000907279355
 20
1789.0097906046392
 11
702.96621123796263
 21
1789.0026166172102
  0
LINE
  8
_1-0_
  6
CONTINUOUS
 62
    7
 10
702.96621123796263
 20
1789.0026166172102
 11
701.02424783596189
 21
1788.983894259773
  0
LINE
  8
_1-0_
  6
CONTINUOUS
 62
    7
 10
701.02424783596189
 20
1788.983894259773
 11
699.08998334729984
 21
1788.9597476679385
  0
LINE
  8
_1-0_
  6
CONTINUOUS
 62
    7
 10
699.08998334729984
 20
1788.9597476679385
 11
697.16346151580206
 21
1788.9303518170095
  0
LINE
  8
_1-0_
  6
CONTINUOUS
 62
    7
 10
697.16346151580206
 20
1788.9303518170095
 11
695.24463859764296
 21
1788.8955317316827
  0
LINE
  8
_1-0_
  6
CONTINUOUS
 62
    7
 10
695.24463859764296
 20
1788.8955317316827
 11
693.33351459282244
 21
1788.8554623872617
  0
LINE
  8
_1-0_
  6
CONTINUOUS
 62
    7
 10
693.33351459282244
 20
1788.8554623872617
 11
691.43013324516619
 21
1788.809968808443
  0
LINE
  8
_1-0_
  6
CONTINUOUS
 62
    7
 10
691.43013324516619
 20
1788.809968808443
 11
689.5344070670227
 21
1788.7590509952265
  0
LINE
  8
_1-0_
  6
CONTINUOUS
 62
    7
 10
689.5344070670227
 20
1788.7590509952265
 11
687.64642354604359
 21
1788.7027089476123
  0
LINE
  8
_1-0_
  6
CONTINUOUS
 62
    7
 10
687.64642354604359
 20
1788.7027089476123
 11
685.76609519457725
 21
1788.6411176409038
  0
LINE
  8
_1-0_
  6
CONTINUOUS
 62
    7
 10
685.76609519457725
 20
1788.6411176409038
 11
683.89346575644936
 21
1788.5741020997978
  0
LINE
  8
_1-0_
  6
CONTINUOUS
 62
    7
 10
683.89346575644936
 20
1788.5741020997978
 11
682.02853523166016
 21
1788.5016623242941
  0
LINE
  8
_1-0_
  6
CONTINUOUS
 62
    7
 10
682.02853523166016
 20
1788.5016623242941
 11
680.17130362020953
 21
1788.4237983143928
  0
LINE
  8
_1-0_
  6
CONTINUOUS
 62
    7
 10
680.17130362020953
 20
1788.4237983143928
 11
678.32172717827166
 21
1788.3405100700938
  0
LINE
  8
_1-0_
  6
CONTINUOUS
 62
    7
 10
678.32172717827166
 20
1788.3405100700938
 11
676.47980590584655
 21
1788.2519725667003
  0
LINE
  8
_1-0_
  6
CONTINUOUS
 62
    7
 10
676.47980590584655
 20
1788.2519725667003
 11
674.64558354676001
 21
1788.158010828909
  0
LINE
  8
_1-0_
  6
CONTINUOUS
 62
    7
 10
674.64558354676001
 20
1788.158010828909
 11
672.81901635718611
 21
1788.0586248567204
  0
LINE
  8
_1-0_
  6
CONTINUOUS
 62
    7
 10
672.81901635718611
 20
1788.0586248567204
 11
671.00010433712509
 21
1787.9538146501341
  0
LINE
  8
_1-0_
  6
CONTINUOUS
 62
    7
 10
671.00010433712509
 20
1787.9538146501341
 11
669.18889123040276
 21
1787.8435802091503
  0
LINE
  8
_1-0_
  6
CONTINUOUS
 62
    7
 10
669.18889123040276
 20
1787.8435802091503
 11
667.38528954936726
 21
1787.7279215337685
  0
LINE
  8
_1-0_
  6
CONTINUOUS
 62
    7
 10
667.38528954936726
 20
1787.7279215337685
 11
665.58938678167033
 21
1787.6068386239895
  0
LINE
  8
_1-0_
  6
CONTINUOUS
 62
    7
 10
665.58938678167033
 20
1787.6068386239895
 11
663.80109543966046
 21
1787.4803314798125
  0
LINE
  8
_1-0_
  6
CONTINUOUS
 62
    7
 10
663.80109543966046
 20
1787.4803314798125
 11
662.02045926716335
 21
1787.348400101238
  0
LINE
  8
_1-0_
  6
CONTINUOUS
 62
    7
 10
662.02045926716335
 20
1787.348400101238
 11
660.24743452035318
 21
1787.211044488266
  0
LINE
  8
_1-0_
  6
CONTINUOUS
 62
    7
 10
660.24743452035318
 20
1787.211044488266
 11
658.48210868688159
 21
1787.0682646408964
  0
LINE
  8
_1-0_
  6
CONTINUOUS
 62
    7
 10
658.48210868688159
 20
1787.0682646408964
 11
656.72435053527124
 21
1786.919885583826
  0
LINE
  8
_1-0_
  6
CONTINUOUS
 62
    7
 10
656.72435053527124
 20
1786.919885583826
 11
654.97429129699935
 21
1786.7662572676611
  0
LINE
  8
_1-0_
  6
CONTINUOUS
 62
    7
 10
654.97429129699935
 20
1786.7662572676611
 11
653.23179974058871
 21
1786.607029741795
  0
LINE
  8
_1-0_
  6
CONTINUOUS
 62
    7
 10
653.23179974058871
 20
1786.607029741795
 11
651.49696335369083
 21
1786.442377981532
  0
LINE
  8
_1-0_
  6
CONTINUOUS
 62
    7
 10
651.49696335369083
 20
1786.442377981532
 11
649.7696509048285
 21
1786.2723019868711
  0
LINE
  8
_1-0_
  6
CONTINUOUS
 62
    7
 10
649.7696509048285
 20
1786.2723019868711
 11
648.05651145552122
 21
1786.0973266837218
  0
LINE
  8
_1-0_
  6
CONTINUOUS
 62
    7
 10
648.05651145552122
 20
1786.0973266837218
 11
646.36406283581107
 21
1785.9183269486002
  0
LINE
  8
_1-0_
  6
CONTINUOUS
 62
    7
 10
646.36406283581107
 20
1785.9183269486002
 11
644.6922613018728
 21
1785.7349528309001
  0
LINE
  8
_1-0_
  6
CONTINUOUS
 62
    7
 10
644.6922613018728
 20
1785.7349528309001
 11
643.04093187840283
 21
1785.5475542812271
  0
LINE
  8
_1-0_
  6
CONTINUOUS
 62
    7
 10
643.04093187840283
 20
1785.5475542812271
 11
641.41011830922719
 21
1785.3557813489758
  0
LINE
  8
_1-0_
  6
CONTINUOUS
 62
    7
 10
641.41011830922719
 20
1785.3557813489758
 11
639.79973310669402
 21
1785.1596340341457
  0
LINE
  8
_1-0_
  6
CONTINUOUS
 62
    7
 10
639.79973310669402
 20
1785.1596340341457
 11
638.20968878315227
 21
1784.9592873120398
  0
LINE
  8
_1-0_
  6
CONTINUOUS
 62
    7
 10
638.20968878315227
 20
1784.9592873120398
 11
636.63994159477556
 21
1784.7545662073553
  0
LINE
  8
_1-0_
  6
CONTINUOUS
 62
    7
 10
636.63994159477556
 20
1784.7545662073553
 11
635.09044779773831
 21
1784.545470720092
  0
LINE
  8
_1-0_
  6
CONTINUOUS
 62
    7
 10
635.09044779773831
 20
1784.545470720092
 11
633.56107616056329
 21
1784.3320008502501
  0
LINE
  8
_1-0_
  6
CONTINUOUS
 62
    7
 10
633.56107616056329
 20
1784.3320008502501
 11
632.05173919559911
 21
1784.1141565978296
  0
LINE
  8
_1-0_
  6
CONTINUOUS
 62
    7
 10
632.05173919559911
 20
1784.1141565978296
 11
630.56243690284521
 21
1783.8915880122238
  0
LINE
  8
_1-0_
  6
CONTINUOUS
 62
    7
 10
630.56243690284521
 20
1783.8915880122238
 11
629.09299430699889
 21
1783.6646450440394
  0
LINE
  8
_1-0_
  6
CONTINUOUS
 62
    7
 10
629.09299430699889
 20
1783.6646450440394
 11
627.64336766423412
 21
1783.4331527179731
  0
LINE
  8
_1-0_
  6
CONTINUOUS
 62
    7
 10
627.64336766423412
 20
1783.4331527179731
 11
626.21346948689938
 21
1783.1969360587218
  0
LINE
  8
_1-0_
  6
CONTINUOUS
 62
    7
 10
626.21346948689938
 20
1783.1969360587218
 11
624.80316854351736
 21
1782.9559950662856
  0
LINE
  8
_1-0_
  6
CONTINUOUS
 62
    7
 10
624.80316854351736
 20
1782.9559950662856
 11
623.41237734643641
 21
1782.7103297406641
  0
LINE
  8
_1-0_
  6
CONTINUOUS
 62
    7
 10
623.41237734643641
 20
1782.7103297406641
 11
622.04096466417934
 21
1782.4599400818577
  0
LINE
  8
_1-0_
  6
CONTINUOUS
 62
    7
 10
622.04096466417934
 20
1782.4599400818577
 11
620.6888430090944
 21
1782.2044761392599
  0
LINE
  8
_1-0_
  6
CONTINUOUS
 62
    7
 10
620.6888430090944
 20
1782.2044761392599
 11
619.35588114970437
 21
1781.944112888174
  0
LINE
  8
_1-0_
  6
CONTINUOUS
 62
    7
 10
619.35588114970437
 20
1781.944112888174
 11
618.04194785453183
 21
1781.678675353297
  0
LINE
  8
_1-0_
  6
CONTINUOUS
 62
    7
 10
618.04194785453183
 20
1781.678675353297
 11
616.74686814827339
 21
1781.4081635346283
  0
LINE
  8
_1-0_
  6
CONTINUOUS
 62
    7
 10
616.74686814827339
 20
1781.4081635346283
 11
615.4705545432779
 21
1781.132227481562
  0
LINE
  8
_1-0_
  6
CONTINUOUS
 62
    7
 10
615.4705545432779
 20
1781.132227481562
 11
614.21278832041617
 21
1780.8510421694016
  0
LINE
  8
_1-0_
  6
CONTINUOUS
 62
    7
 10
614.21278832041617
 20
1780.8510421694016
 11
612.97348199203668
 21
1780.5642576475402
  0
LINE
  8
_1-0_
  6
CONTINUOUS
 62
    7
 10
612.97348199203668
 20
1780.5642576475402
 11
611.75241683901049
 21
1780.272048891281
  0
LINE
  8
_1-0_
  6
CONTINUOUS
 62
    7
 10
611.75241683901049
 20
1780.272048891281
 11
610.54946162986016
 21
1779.9738909747148
  0
LINE
  8
_1-0_
  6
CONTINUOUS
 62
    7
 10
610.54946162986016
 20
1779.9738909747148
 11
609.36435390163115
 21
1779.6697838978416
  0
LINE
  8
_1-0_
  6
CONTINUOUS
 62
    7
 10
609.36435390163115
 20
1779.6697838978416
 11
608.19696242284579
 21
1779.3597276606613
  0
LINE
  8
_1-0_
  6
CONTINUOUS
 62
    7
 10
608.19696242284579
 20
1779.3597276606613
 11
607.04702473054977
 21
1779.0431973372645
  0
LINE
  8
_1-0_
  6
CONTINUOUS
 62
    7
 10
607.04702473054977
 20
1779.0431973372645
 11
605.9143658494396
 21
1778.7203679029544
  0
LINE
  8
_1-0_
  6
CONTINUOUS
 62
    7
 10
605.9143658494396
 20
1778.7203679029544
 11
604.79859208508344
 21
1778.3905394565184
  0
LINE
  8
_1-0_
  6
CONTINUOUS
 62
    7
 10
604.79859208508344
 20
1778.3905394565184
 11
603.70237181085417
 21
1778.0547618497753
  0
LINE
  8
_1-0_
  6
CONTINUOUS
 62
    7
 10
603.70237181085417
 20
1778.0547618497753
 11
602.62815468099575
 21
1777.7132100580279
  0
LINE
  8
_1-0_
  6
CONTINUOUS
 62
    7
 10
602.62815468099575
 20
1777.7132100580279
 11
601.57510956281851
 21
1777.3653591553675
  0
LINE
  8
_1-0_
  6
CONTINUOUS
 62
    7
 10
601.57510956281851
 20
1777.3653591553675
 11
600.5426240427613
 21
1777.0106842158841
  0
LINE
  8
_1-0_
  6
CONTINUOUS
 62
    7
 10
600.5426240427613
 20
1777.0106842158841
 11
599.52982324430832
 21
1776.6484853383656
  0
LINE
  8
_1-0_
  6
CONTINUOUS
 62
    7
 10
599.52982324430832
 20
1776.6484853383656
 11
598.53587603476967
 21
1776.2777126709925
  0
LINE
  8
_1-0_
  6
CONTINUOUS
 62
    7
 10
598.53587603476967
 20
1776.2777126709925
 11
597.55982004997804
 21
1775.8976663125527
  0
LINE
  8
_1-0_
  6
CONTINUOUS
 62
    7
 10
597.55982004997804
 20
1775.8976663125527
 11
596.60073666959192
 21
1775.5071214359239
  0
LINE
  8
_1-0_
  6
CONTINUOUS
 62
    7
 10
596.60073666959192
 20
1775.5071214359239
 11
595.65740106648923
 21
1775.1048532139839
  0
LINE
  8
_1-0_
  6
CONTINUOUS
 62
    7
 10
595.65740106648923
 20
1775.1048532139839
 11
594.72871964502519
 21
1774.6892868690047
  0
LINE
  8
_1-0_
  6
CONTINUOUS
 62
    7
 10
594.72871964502519
 20
1774.6892868690047
 11
593.81333634660052
 21
1774.2584976726516
  0
LINE
  8
_1-0_
  6
CONTINUOUS
 62
    7
 10
593.81333634660052
 20
1774.2584976726516
 11
592.90989511261569
 21
1773.810735871893
  0
LINE
  8
_1-0_
  6
CONTINUOUS
 62
    7
 10
592.90989511261569
 20
1773.810735871893
 11
592.0170398844715
 21
1773.3432018618785
  0
LINE
  8
_1-0_
  6
CONTINUOUS
 62
    7
 10
592.0170398844715
 20
1773.3432018618785
 11
591.13319588443937
 21
1772.8532710130607
  0
LINE
  8
_1-0_
  6
CONTINUOUS
 62
    7
 10
591.13319588443937
 20
1772.8532710130607
 11
590.25696331009442
 21
1772.3374438193773
  0
LINE
  8
_1-0_
  6
CONTINUOUS
 62
    7
 10
590.25696331009442
 20
1772.3374438193773
 11
589.38685487135956
 21
1771.7916958488554
  0
LINE
  8
_1-0_
  6
CONTINUOUS
 62
    7
 10
589.38685487135956
 20
1771.7916958488554
 11
588.52160199728701
 21
1771.2114777436127
  0
LINE
  8
_1-0_
  6
CONTINUOUS
 62
    7
 10
588.52160199728701
 20
1771.2114777436127
 11
587.66019857988397
 21
1770.591190293949
  0
LINE
  8
_1-0_
  6
CONTINUOUS
 62
    7
 10
587.66019857988397
 20
1770.591190293949
 11
586.80216343706638
 21
1769.9245343889506
  0
LINE
  8
_1-0_
  6
CONTINUOUS
 62
    7
 10
586.80216343706638
 20
1769.9245343889506
 11
585.94767154413762
 21
1769.204336041189
  0
LINE
  8
_1-0_
  6
CONTINUOUS
 62
    7
 10
585.94767154413762
 20
1769.204336041189
 11
585.09794772821965
 21
1768.4225463867187
  0
LINE
  8
_1-0_
  6
CONTINUOUS
 62
    7
 10
585.09794772821965
 20
1768.4225463867187
 11
584.25579159416293
 21
1767.570066709776
  0
LINE
  8
_1-0_
  6
CONTINUOUS
 62
    7
 10
584.25579159416293
 20
1767.570066709776
 11
583.42601496280395
 21
1766.6377982945974
  0
LINE
  8
_1-0_
  6
CONTINUOUS
 62
    7
 10
583.42601496280395
 20
1766.6377982945974
 11
582.615966796875
 21
1765.6161174995098
  0
LINE
  8
_1-0_
  6
CONTINUOUS
 62
    7
 10
582.615966796875
 20
1765.6161174995098
 11
581.83614561456511
 21
1764.4966255099616
  0
LINE
  8
_1-0_
  6
CONTINUOUS
 62
    7
 10
581.83614561456511
 20
1764.4966255099616
 11
581.10059318395201
 21
1763.2728482397365
  0
LINE
  8
_1-0_
  6
CONTINUOUS
 62
    7
 10
581.10059318395201
 20
1763.2728482397365
 11
580.42667580387297
 21
1761.9419860839844
  0
LINE
  8
_1-0_
  6
CONTINUOUS
 62
    7
 10
580.42667580387297
 20
1761.9419860839844
 11
579.83464686566799
 21
1760.5070136228583
  0
LINE
  8
_1-0_
  6
CONTINUOUS
 62
    7
 10
579.83464686566799
 20
1760.5070136228583
 11
579.34585335632073
 21
1758.9773795227284
  0
LINE
  8
_1-0_
  6
CONTINUOUS
 62
    7
 10
579.34585335632073
 20
1758.9773795227284
 11
578.98059241099702
 21
1757.3702313633039
  0
LINE
  8
_1-0_
  6
CONTINUOUS
 62
    7
 10
578.98059241099702
 20
1757.3702313633039
 11
578.75522422054109
 21
1755.7104156376313
  0
LINE
  8
_1-0_
  6
CONTINUOUS
 62
    7
 10
578.75522422054109
 20
1755.7104156376313
 11
578.6931517317488
 21
1754.3328350759382
  0
LINE
  8
_1-0_
  6
CONTINUOUS
 62
    7
 10
578.6931517317488
 20
1754.3328350759382
 11
578.69512020390914
 21
1753.8679256954708
  0
LINE
  8
_1-0_
  6
CONTINUOUS
 62
    7
 10
578.69512020390914
 20
1753.8679256954708
 11
578.69713241989541
 21
1753.7090481202113
  0
LINE
  8
_1-0_
  6
CONTINUOUS
 62
    7
 10
578.69713241989541
 20
1753.7090481202113
 11
578.70050069448098
 21
1753.5501705449519
  0
LINE
  8
_1-0_
  6
CONTINUOUS
 62
    7
 10
578.70050069448098
 20
1753.5501705449519
 11
578.70522502766619
 21
1753.3911179943893
  0
LINE
  8
_1-0_
  6
CONTINUOUS
 62
    7
 10
578.70522502766619
 20
1753.3911179943893
 11
578.71126167562466
 21
1753.2318904685237
  0
LINE
  8
_1-0_
  6
CONTINUOUS
 62
    7
 10
578.71126167562466
 20
1753.2318904685237
 11
578.71869812600858
 21
1753.0728379179614
  0
LINE
  8
_1-0_
  6
CONTINUOUS
 62
    7
 10
578.71869812600858
 20
1753.0728379179614
 11
578.72749063499191
 21
1752.9136103920953
  0
LINE
  8
_1-0_
  6
CONTINUOUS
 62
    7
 10
578.72749063499191
 20
1752.9136103920953
 11
578.73763920257443
 21
1752.7545578415329
  0
LINE
  8
_1-0_
  6
CONTINUOUS
 62
    7
 10
578.73763920257443
 20
1752.7545578415329
 11
578.74914382875659
 21
1752.5955052909703
  0
LINE
  8
_1-0_
  6
CONTINUOUS
 62
    7
 10
578.74914382875659
 20
1752.5955052909703
 11
578.76200451353793
 21
1752.4364527404077
  0
LINE
  8
_1-0_
  6
CONTINUOUS
 62
    7
 10
578.76200451353793
 20
1752.4364527404077
 11
578.77622125691892
 21
1752.2775751651484
  0
LINE
  8
_1-0_
  6
CONTINUOUS
 62
    7
 10
578.77622125691892
 20
1752.2775751651484
 11
578.79179405889909
 21
1752.1188725651919
  0
LINE
  8
_1-0_
  6
CONTINUOUS
 62
    7
 10
578.79179405889909
 20
1752.1188725651919
 11
578.80872291947878
 21
1751.9601699652358
  0
LINE
  8
_1-0_
  6
CONTINUOUS
 62
    7
 10
578.80872291947878
 20
1751.9601699652358
 11
578.82696409483196
 21
1751.801817315886
  0
LINE
  8
_1-0_
  6
CONTINUOUS
 62
    7
 10
578.82696409483196
 20
1751.801817315886
 11
578.8465613287849
 21
1751.6436396418389
  0
LINE
  8
_1-0_
  6
CONTINUOUS
 62
    7
 10
578.8465613287849
 20
1751.6436396418389
 11
578.86751462133691
 21
1751.4856369430954
  0
LINE
  8
_1-0_
  6
CONTINUOUS
 62
    7
 10
578.86751462133691
 20
1751.4856369430954
 11
578.88978022866263
 21
1751.3279841949579
  0
LINE
  8
_1-0_
  6
CONTINUOUS
 62
    7
 10
578.88978022866263
 20
1751.3279841949579
 11
578.91335815076195
 21
1751.1705064221237
  0
LINE
  8
_1-0_
  6
CONTINUOUS
 62
    7
 10
578.91335815076195
 20
1751.1705064221237
 11
578.9382921314608
 21
1751.013553575199
  0
LINE
  8
_1-0_
  6
CONTINUOUS
 62
    7
 10
578.9382921314608
 20
1751.013553575199
 11
578.96449468310732
 21
1750.8567757035776
  0
LINE
  8
_1-0_
  6
CONTINUOUS
 62
    7
 10
578.96449468310732
 20
1750.8567757035776
 11
578.99200954952767
 21
1750.7005227578652
  0
LINE
  8
_1-0_
  6
CONTINUOUS
 62
    7
 10
578.99200954952767
 20
1750.7005227578652
 11
579.02083673072127
 21
1750.5444447874561
  0
LINE
  8
_1-0_
  6
CONTINUOUS
 62
    7
 10
579.02083673072127
 20
1750.5444447874561
 11
579.05093248286312
 21
1750.3890667182598
  0
LINE
  8
_1-0_
  6
CONTINUOUS
 62
    7
 10
579.05093248286312
 20
1750.3890667182598
 11
579.08229680595241
 21
1750.2338636243664
  0
LINE
  8
_1-0_
  6
CONTINUOUS
 62
    7
 10
579.08229680595241
 20
1750.2338636243664
 11
579.11492969998994
 21
1750.0793604316857
  0
LINE
  8
_1-0_
  6
CONTINUOUS
 62
    7
 10
579.11492969998994
 20
1750.0793604316857
 11
579.14878742114922
 21
1749.9252071896115
  0
LINE
  8
_1-0_
  6
CONTINUOUS
 62
    7
 10
579.14878742114922
 20
1749.9252071896115
 11
579.18386996943059
 21
1749.7717538487495
  0
LINE
  8
_1-0_
  6
CONTINUOUS
 62
    7
 10
579.18386996943059
 20
1749.7717538487495
 11
579.22022108865974
 21
1749.6186504584941
  0
LINE
  8
_1-0_
  6
CONTINUOUS
 62
    7
 10
579.22022108865974
 20
1749.6186504584941
 11
579.25775329118528
 21
1749.4662469694513
  0
LINE
  8
_1-0_
  6
CONTINUOUS
 62
    7
 10
579.25775329118528
 20
1749.4662469694513
 11
579.29651032083279
 21
1749.314368406318
  0
LINE
  8
_1-0_
  6
CONTINUOUS
 62
    7
 10
579.29651032083279
 20
1749.314368406318
 11
579.33640468995077
 21
1749.163189744397
  0
LINE
  8
_1-0_
  6
CONTINUOUS
 62
    7
 10
579.33640468995077
 20
1749.163189744397
 11
578.83238832922973
 21
1751.0107539703486
  0
LINE
  8
_1-0_
  6
CONTINUOUS
 62
    7
 10
578.83238832922973
 20
1751.0107539703486
 11
578.83238832922973
 21
1740.1584357184331
  0
LINE
  8
_1-0_
  6
CONTINUOUS
 62
    7
 10
578.83238832922973
 20
1740.1584357184331
 11
563.88814138169448
 21
1740.1584357184331
  0
LINE
  8
_1-0_
  6
CONTINUOUS
 62
    7
 10
563.88814138169448
 20
1740.1584357184331
 11
562.29144799663288
 21
1835.9581140937951
  0
LINE
  8
_1-0_
  6
CONTINUOUS
 62
    7
 10
713.99997887924371
 20
1789.0075159256983
 11
714.71077230446122
 21
1789.0026166172102
  0
LINE
  8
_1-0_
  6
CONTINUOUS
 62
    7
 10
714.71077230446122
 20
1789.0026166172102
 11
716.65273570646195
 21
1788.983894259773
  0
LINE
  8
_1-0_
  6
CONTINUOUS
 62
    7
 10
716.65273570646195
 20
1788.983894259773
 11
718.58695645129819
 21
1788.9597476679385
  0
LINE
  8
_1-0_
  6
CONTINUOUS
 62
    7
 10
718.58695645129819
 20
1788.9597476679385
 11
720.51347828279586
 21
1788.9303518170095
  0
LINE
  8
_1-0_
  6
CONTINUOUS
 62
    7
 10
720.51347828279586
 20
1788.9303518170095
 11
722.43230120095507
 21
1788.8955317316827
  0
LINE
  8
_1-0_
  6
CONTINUOUS
 62
    7
 10
722.43230120095507
 20
1788.8955317316827
 11
724.34342520577559
 21
1788.8554623872617
  0
LINE
  8
_1-0_
  6
CONTINUOUS
 62
    7
 10
724.34342520577559
 20
1788.8554623872617
 11
726.24680655343184
 21
1788.809968808443
  0
LINE
  8
_1-0_
  6
CONTINUOUS
 62
    7
 10
726.24680655343184
 20
1788.809968808443
 11
728.14253273157533
 21
1788.7590509952265
  0
LINE
  8
_1-0_
  6
CONTINUOUS
 62
    7
 10
728.14253273157533
 20
1788.7590509952265
 11
730.03055999638025
 21
1788.7027089476123
  0
LINE
  8
_1-0_
  6
CONTINUOUS
 62
    7
 10
730.03055999638025
 20
1788.7027089476123
 11
731.91084460402078
 21
1788.6411176409038
  0
LINE
  8
_1-0_
  6
CONTINUOUS
 62
    7
 10
731.91084460402078
 20
1788.6411176409038
 11
733.78347404214867
 21
1788.5741020997978
  0
LINE
  8
_1-0_
  6
CONTINUOUS
 62
    7
 10
733.78347404214867
 20
1788.5741020997978
 11
735.64840456693787
 21
1788.5016623242941
  0
LINE
  8
_1-0_
  6
CONTINUOUS
 62
    7
 10
735.64840456693787
 20
1788.5016623242941
 11
737.50567992221431
 21
1788.4237983143928
  0
LINE
  8
_1-0_
  6
CONTINUOUS
 62
    7
 10
737.50567992221431
 20
1788.4237983143928
 11
739.35525636415218
 21
1788.3405100700938
  0
LINE
  8
_1-0_
  6
CONTINUOUS
 62
    7
 10
739.35525636415218
 20
1788.3405100700938
 11
741.19713389275148
 21
1788.2519725667003
  0
LINE
  8
_1-0_
  6
CONTINUOUS
 62
    7
 10
741.19713389275148
 20
1788.2519725667003
 11
743.03139999566383
 21
1788.158010828909
  0
LINE
  8
_1-0_
  6
CONTINUOUS
 62
    7
 10
743.03139999566383
 20
1788.158010828909
 11
744.85796718523761
 21
1788.0586248567204
  0
LINE
  8
_1-0_
  6
CONTINUOUS
 62
    7
 10
744.85796718523761
 20
1788.0586248567204
 11
746.67683546147282
 21
1787.9538146501341
  0
LINE
  8
_1-0_
  6
CONTINUOUS
 62
    7
 10
746.67683546147282
 20
1787.9538146501341
 11
748.48809231202108
 21
1787.8435802091503
  0
LINE
  8
_1-0_
  6
CONTINUOUS
 62
    7
 10
748.48809231202108
 20
1787.8435802091503
 11
750.29165024923077
 21
1787.7279215337685
  0
LINE
  8
_1-0_
  6
CONTINUOUS
 62
    7
 10
750.29165024923077
 20
1787.7279215337685
 11
752.08759676075351
 21
1787.6068386239895
  0
LINE
  8
_1-0_
  6
CONTINUOUS
 62
    7
 10
752.08759676075351
 20
1787.6068386239895
 11
753.87584435893757
 21
1787.4803314798125
  0
LINE
  8
_1-0_
  6
CONTINUOUS
 62
    7
 10
753.87584435893757
 20
1787.4803314798125
 11
755.6564805314348
 21
1787.348400101238
  0
LINE
  8
_1-0_
  6
CONTINUOUS
 62
    7
 10
755.6564805314348
 20
1787.348400101238
 11
757.42950527824496
 21
1787.211044488266
  0
LINE
  8
_1-0_
  6
CONTINUOUS
 62
    7
 10
757.42950527824496
 20
1787.211044488266
 11
759.19483111171644
 21
1787.0682646408964
  0
LINE
  8
_1-0_
  6
CONTINUOUS
 62
    7
 10
759.19483111171644
 20
1787.0682646408964
 11
760.95254551950109
 21
1786.919885583826
  0
LINE
  8
_1-0_
  6
CONTINUOUS
 62
    7
 10
760.95254551950109
 20
1786.919885583826
 11
762.70264850159856
 21
1786.7662572676611
  0
LINE
  8
_1-0_
  6
CONTINUOUS
 62
    7
 10
762.70264850159856
 20
1786.7662572676611
 11
764.4451400580092
 21
1786.607029741795
  0
LINE
  8
_1-0_
  6
CONTINUOUS
 62
    7
 10
764.4451400580092
 20
1786.607029741795
 11
766.1800201887329
 21
1786.442377981532
  0
LINE
  8
_1-0_
  6
CONTINUOUS
 62
    7
 10
766.1800201887329
 20
1786.442377981532
 11
767.90728889376953
 21
1786.2723019868711
  0
LINE
  8
_1-0_
  6
CONTINUOUS
 62
    7
 10
767.90728889376953
 20
1786.2723019868711
 11
769.62047208690262
 21
1786.0973266837218
  0
LINE
  8
_1-0_
  6
CONTINUOUS
 62
    7
 10
769.62047208690262
 20
1786.0973266837218
 11
771.31283321896103
 21
1785.9183269486002
  0
LINE
  8
_1-0_
  6
CONTINUOUS
 62
    7
 10
771.31283321896103
 20
1785.9183269486002
 11
772.98472224055104
 21
1785.7349528309001
  0
LINE
  8
_1-0_
  6
CONTINUOUS
 62
    7
 10
772.98472224055104
 20
1785.7349528309001
 11
774.63605166402101
 21
1785.5475542812271
  0
LINE
  8
_1-0_
  6
CONTINUOUS
 62
    7
 10
774.63605166402101
 20
1785.5475542812271
 11
776.26682148937095
 21
1785.3557813489758
  0
LINE
  8
_1-0_
  6
CONTINUOUS
 62
    7
 10
776.26682148937095
 20
1785.3557813489758
 11
777.87720669190389
 21
1785.1596340341457
  0
LINE
  8
_1-0_
  6
CONTINUOUS
 62
    7
 10
777.87720669190389
 20
1785.1596340341457
 11
779.46729475927168
 21
1784.9592873120398
  0
LINE
  8
_1-0_
  6
CONTINUOUS
 62
    7
 10
779.46729475927168
 20
1784.9592873120398
 11
781.03699820382246
 21
1784.7545662073553
  0
LINE
  8
_1-0_
  6
CONTINUOUS
 62
    7
 10
781.03699820382246
 20
1784.7545662073553
 11
782.58649200085972
 21
1784.545470720092
  0
LINE
  8
_1-0_
  6
CONTINUOUS
 62
    7
 10
782.58649200085972
 20
1784.545470720092
 11
784.11586363803463
 21
1784.3320008502501
  0
LINE
  8
_1-0_
  6
CONTINUOUS
 62
    7
 10
784.11586363803463
 20
1784.3320008502501
 11
785.62520060299903
 21
1784.1141565978296
  0
LINE
  8
_1-0_
  6
CONTINUOUS
 62
    7
 10
785.62520060299903
 20
1784.1141565978296
 11
787.11450289575282
 21
1783.8915880122238
  0
LINE
  8
_1-0_
  6
CONTINUOUS
 62
    7
 10
787.11450289575282
 20
1783.8915880122238
 11
788.58394549159925
 21
1783.6646450440394
  0
LINE
  8
_1-0_
  6
CONTINUOUS
 62
    7
 10
788.58394549159925
 20
1783.6646450440394
 11
790.03361587818983
 21
1783.4331527179731
  0
LINE
  8
_1-0_
  6
CONTINUOUS
 62
    7
 10
790.03361587818983
 20
1783.4331527179731
 11
791.46351405552446
 21
1783.1969360587218
  0
LINE
  8
_1-0_
  6
CONTINUOUS
 62
    7
 10
791.46351405552446
 20
1783.1969360587218
 11
792.8738149989066
 21
1782.9559950662856
  0
LINE
  8
_1-0_
  6
CONTINUOUS
 62
    7
 10
792.8738149989066
 20
1782.9559950662856
 11
794.26460619598743
 21
1782.7103297406641
  0
LINE
  8
_1-0_
  6
CONTINUOUS
 62
    7
 10
794.26460619598743
 20
1782.7103297406641
 11
795.63597513441869
 21
1782.4599400818577
  0
LINE
  8
_1-0_
  6
CONTINUOUS
 62
    7
 10
795.63597513441869
 20
1782.4599400818577
 11
796.98809678950352
 21
1782.2044761392599
  0
LINE
  8
_1-0_
  6
CONTINUOUS
 62
    7
 10
796.98809678950352
 20
1782.2044761392599
 11
798.32105864889377
 21
1781.944112888174
  0
LINE
  8
_1-0_
  6
CONTINUOUS
 62
    7
 10
798.32105864889377
 20
1781.944112888174
 11
799.63503568789201
 21
1781.678675353297
  0
LINE
  8
_1-0_
  6
CONTINUOUS
 62
    7
 10
799.63503568789201
 20
1781.678675353297
 11
800.93011539415045
 21
1781.4081635346283
  0
LINE
  8
_1-0_
  6
CONTINUOUS
 62
    7
 10
800.93011539415045
 20
1781.4081635346283
 11
802.20638525532013
 21
1781.132227481562
  0
LINE
  8
_1-0_
  6
CONTINUOUS
 62
    7
 10
802.20638525532013
 20
1781.132227481562
 11
803.46410773435605
 21
1780.8510421694016
  0
LINE
  8
_1-0_
  6
CONTINUOUS
 62
    7
 10
803.46410773435605
 20
1780.8510421694016
 11
804.70345780656146
 21
1780.5642576475402
  0
LINE
  8
_1-0_
  6
CONTINUOUS
 62
    7
 10
804.70345780656146
 20
1780.5642576475402
 11
805.92452295958765
 21
1780.272048891281
  0
LINE
  8
_1-0_
  6
CONTINUOUS
 62
    7
 10
805.92452295958765
 20
1780.272048891281
 11
807.12747816873787
 21
1779.9738909747148
  0
LINE
  8
_1-0_
  6
CONTINUOUS
 62
    7
 10
807.12747816873787
 20
1779.9738909747148
 11
808.31258589696688
 21
1779.6697838978416
  0
LINE
  8
_1-0_
  6
CONTINUOUS
 62
    7
 10
808.31258589696688
 20
1779.6697838978416
 11
809.48002111957794
 21
1779.3597276606613
  0
LINE
  8
_1-0_
  6
CONTINUOUS
 62
    7
 10
809.48002111957794
 20
1779.3597276606613
 11
810.62995881187408
 21
1779.0431973372645
  0
LINE
  8
_1-0_
  6
CONTINUOUS
 62
    7
 10
810.62995881187408
 20
1779.0431973372645
 11
811.76257394915842
 21
1778.7203679029544
  0
LINE
  8
_1-0_
  6
CONTINUOUS
 62
    7
 10
811.76257394915842
 20
1778.7203679029544
 11
812.8783914573404
 21
1778.3905394565184
  0
LINE
  8
_1-0_
  6
CONTINUOUS
 62
    7
 10
812.8783914573404
 20
1778.3905394565184
 11
813.97461173156967
 21
1778.0547618497753
  0
LINE
  8
_1-0_
  6
CONTINUOUS
 62
    7
 10
813.97461173156967
 20
1778.0547618497753
 11
815.04878511760228
 21
1777.7132100580279
  0
LINE
  8
_1-0_
  6
CONTINUOUS
 62
    7
 10
815.04878511760228
 20
1777.7132100580279
 11
816.10187397960533
 21
1777.3653591553675
  0
LINE
  8
_1-0_
  6
CONTINUOUS
 62
    7
 10
816.10187397960533
 20
1777.3653591553675
 11
817.13431575583672
 21
1777.0106842158841
  0
LINE
  8
_1-0_
  6
CONTINUOUS
 62
    7
 10
817.13431575583672
 20
1777.0106842158841
 11
818.14716029811552
 21
1776.6484853383656
  0
LINE
  8
_1-0_
  6
CONTINUOUS
 62
    7
 10
818.14716029811552
 20
1776.6484853383656
 11
819.14110750765406
 21
1776.2777126709925
  0
LINE
  8
_1-0_
  6
CONTINUOUS
 62
    7
 10
819.14110750765406
 20
1776.2777126709925
 11
820.11711974861998
 21
1775.8976663125527
  0
LINE
  8
_1-0_
  6
CONTINUOUS
 62
    7
 10
820.11711974861998
 20
1775.8976663125527
 11
821.07624687283192
 21
1775.5071214359239
  0
LINE
  8
_1-0_
  6
CONTINUOUS
 62
    7
 10
821.07624687283192
 20
1775.5071214359239
 11
822.0195387321088
 21
1775.1048532139839
  0
LINE
  8
_1-0_
  6
CONTINUOUS
 62
    7
 10
822.0195387321088
 20
1775.1048532139839
 11
822.94822015357283
 21
1774.6892868690047
  0
LINE
  8
_1-0_
  6
CONTINUOUS
 62
    7
 10
822.94822015357283
 20
1774.6892868690047
 11
823.86360345199762
 21
1774.2584976726516
  0
LINE
  8
_1-0_
  6
CONTINUOUS
 62
    7
 10
823.86360345199762
 20
1774.2584976726516
 11
824.76700094215653
 21
1773.810735871893
  0
LINE
  8
_1-0_
  6
CONTINUOUS
 62
    7
 10
824.76700094215653
 20
1773.810735871893
 11
825.65989991412653
 21
1773.3432018618785
  0
LINE
  8
_1-0_
  6
CONTINUOUS
 62
    7
 10
825.65989991412653
 20
1773.3432018618785
 11
826.54378765798447
 21
1772.8532710130607
  0
LINE
  8
_1-0_
  6
CONTINUOUS
 62
    7
 10
826.54378765798447
 20
1772.8532710130607
 11
827.41997648850372
 21
1772.3374438193773
  0
LINE
  8
_1-0_
  6
CONTINUOUS
 62
    7
 10
827.41997648850372
 20
1772.3374438193773
 11
828.29012867106428
 21
1771.7916958488554
  0
LINE
  8
_1-0_
  6
CONTINUOUS
 62
    7
 10
828.29012867106428
 20
1771.7916958488554
 11
829.15538154513672
 21
1771.2114777436127
  0
LINE
  8
_1-0_
  6
CONTINUOUS
 62
    7
 10
829.15538154513672
 20
1771.2114777436127
 11
830.01669747488836
 21
1770.591190293949
  0
LINE
  8
_1-0_
  6
CONTINUOUS
 62
    7
 10
830.01669747488836
 20
1770.591190293949
 11
830.87477636153164
 21
1769.9245343889506
  0
LINE
  8
_1-0_
  6
CONTINUOUS
 62
    7
 10
830.87477636153164
 20
1769.9245343889506
 11
831.72926825446041
 21
1769.204336041189
  0
LINE
  8
_1-0_
  6
CONTINUOUS
 62
    7
 10
831.72926825446041
 20
1769.204336041189
 11
832.57903581420419
 21
1768.4225463867187
  0
LINE
  8
_1-0_
  6
CONTINUOUS
 62
    7
 10
832.57903581420419
 20
1768.4225463867187
 11
833.42119194826091
 21
1767.570066709776
  0
LINE
  8
_1-0_
  6
CONTINUOUS
 62
    7
 10
833.42119194826091
 20
1767.570066709776
 11
834.25092483579419
 21
1766.6377982945974
  0
LINE
  8
_1-0_
  6
CONTINUOUS
 62
    7
 10
834.25092483579419
 20
1766.6377982945974
 11
835.06097300172314
 21
1765.6161174995098
  0
LINE
  8
_1-0_
  6
CONTINUOUS
 62
    7
 10
835.06097300172314
 20
1765.6161174995098
 11
835.84083792785873
 21
1764.4966255099616
  0
LINE
  8
_1-0_
  6
CONTINUOUS
 62
    7
 10
835.84083792785873
 20
1764.4966255099616
 11
836.57634661464613
 21
1763.2728482397365
  0
LINE
  8
_1-0_
  6
CONTINUOUS
 62
    7
 10
836.57634661464613
 20
1763.2728482397365
 11
837.25026399472495
 21
1761.9419860839844
  0
LINE
  8
_1-0_
  6
CONTINUOUS
 62
    7
 10
837.25026399472495
 20
1761.9419860839844
 11
837.84229293293015
 21
1760.5070136228583
  0
LINE
  8
_1-0_
  6
CONTINUOUS
 62
    7
 10
837.84229293293015
 20
1760.5070136228583
 11
838.33108644227718
 21
1758.9773795227284
  0
LINE
  8
_1-0_
  6
CONTINUOUS
 62
    7
 10
838.33108644227718
 20
1758.9773795227284
 11
838.69634738760101
 21
1757.3702313633039
  0
LINE
  8
_1-0_
  6
CONTINUOUS
 62
    7
 10
838.69634738760101
 20
1757.3702313633039
 11
838.92171557805705
 21
1755.7104156376313
  0
LINE
  8
_1-0_
  6
CONTINUOUS
 62
    7
 10
838.92171557805705
 20
1755.7104156376313
 11
838.98391929832655
 21
1754.3310853229063
  0
LINE
  8
_1-0_
  6
CONTINUOUS
 62
    7
 10
838.98391929832655
 20
1754.3310853229063
 11
838.98181959468889
 21
1753.860051806829
  0
LINE
  8
_1-0_
  6
CONTINUOUS
 62
    7
 10
838.98181959468889
 20
1753.860051806829
 11
838.97954491574797
 21
1753.6933003429281
  0
LINE
  8
_1-0_
  6
CONTINUOUS
 62
    7
 10
838.97954491574797
 20
1753.6933003429281
 11
838.97587043438182
 21
1753.5267238543297
  0
LINE
  8
_1-0_
  6
CONTINUOUS
 62
    7
 10
838.97587043438182
 20
1753.5267238543297
 11
838.97062117528719
 21
1753.360322341035
  0
LINE
  8
_1-0_
  6
CONTINUOUS
 62
    7
 10
838.97062117528719
 20
1753.360322341035
 11
838.96397211376768
 21
1753.1939208277402
  0
LINE
  8
_1-0_
  6
CONTINUOUS
 62
    7
 10
838.96397211376768
 20
1753.1939208277402
 11
838.9558357621712
 21
1753.0275193144457
  0
LINE
  8
_1-0_
  6
CONTINUOUS
 62
    7
 10
838.9558357621712
 20
1753.0275193144457
 11
838.94612463284648
 21
1752.8614677517569
  0
LINE
  8
_1-0_
  6
CONTINUOUS
 62
    7
 10
838.94612463284648
 20
1752.8614677517569
 11
838.93510118874804
 21
1752.6955911643718
  0
LINE
  8
_1-0_
  6
CONTINUOUS
 62
    7
 10
838.93510118874804
 20
1752.6955911643718
 11
838.92250296692123
 21
1752.5300645275925
  0
LINE
  8
_1-0_
  6
CONTINUOUS
 62
    7
 10
838.92250296692123
 20
1752.5300645275925
 11
838.90850494266931
 21
1752.3647128661164
  0
LINE
  8
_1-0_
  6
CONTINUOUS
 62
    7
 10
838.90850494266931
 20
1752.3647128661164
 11
838.89301962834065
 21
1752.1995361799438
  0
LINE
  8
_1-0_
  6
CONTINUOUS
 62
    7
 10
838.89301962834065
 20
1752.1995361799438
 11
838.87613451158677
 21
1752.0348844196803
  0
LINE
  8
_1-0_
  6
CONTINUOUS
 62
    7
 10
838.87613451158677
 20
1752.0348844196803
 11
838.85776210475615
 21
1751.8705826100233
  0
LINE
  8
_1-0_
  6
CONTINUOUS
 62
    7
 10
838.85776210475615
 20
1751.8705826100233
 11
838.83798989550019
 21
1751.7066307509729
  0
LINE
  8
_1-0_
  6
CONTINUOUS
 62
    7
 10
838.83798989550019
 20
1751.7066307509729
 11
838.81681788381911
 21
1751.5430288425282
  0
LINE
  8
_1-0_
  6
CONTINUOUS
 62
    7
 10
838.81681788381911
 20
1751.5430288425282
 11
838.79424606971293
 21
1751.3799518599933
  0
LINE
  8
_1-0_
  6
CONTINUOUS
 62
    7
 10
838.79424606971293
 20
1751.3799518599933
 11
838.77027445318151
 21
1751.2172248280647
  0
LINE
  8
_1-0_
  6
CONTINUOUS
 62
    7
 10
838.77027445318151
 20
1751.2172248280647
 11
838.74490303422488
 21
1751.0551976973486
  0
LINE
  8
_1-0_
  6
CONTINUOUS
 62
    7
 10
838.74490303422488
 20
1751.0551976973486
 11
838.71821930049464
 21
1750.8935205172386
  0
LINE
  8
_1-0_
  6
CONTINUOUS
 62
    7
 10
838.71821930049464
 20
1750.8935205172386
 11
838.6902232519908
 21
1750.7325432383413
  0
LINE
  8
_1-0_
  6
CONTINUOUS
 62
    7
 10
838.6902232519908
 20
1750.7325432383413
 11
838.66082740106185
 21
1750.5720908853536
  0
LINE
  8
_1-0_
  6
CONTINUOUS
 62
    7
 10
838.66082740106185
 20
1750.5720908853536
 11
838.63011923535907
 21
1750.4121634582752
  0
LINE
  8
_1-0_
  6
CONTINUOUS
 62
    7
 10
838.63011923535907
 20
1750.4121634582752
 11
838.59809875488281
 21
1750.2529359324099
  0
LINE
  8
_1-0_
  6
CONTINUOUS
 62
    7
 10
838.59809875488281
 20
1750.2529359324099
 11
838.56485344728435
 21
1750.0944083077566
  0
LINE
  8
_1-0_
  6
CONTINUOUS
 62
    7
 10
838.56485344728435
 20
1750.0944083077566
 11
838.5302958249124
 21
1749.9365805843161
  0
LINE
  8
_1-0_
  6
CONTINUOUS
 62
    7
 10
838.5302958249124
 20
1749.9365805843161
 11
838.49442588776697
 21
1749.7794527620883
  0
LINE
  8
_1-0_
  6
CONTINUOUS
 62
    7
 10
838.49442588776697
 20
1749.7794527620883
 11
838.45741861115084
 21
1749.6228498657697
  0
LINE
  8
_1-0_
  6
CONTINUOUS
 62
    7
 10
838.45741861115084
 20
1749.6228498657697
 11
838.41918650741275
 21
1749.4671218459669
  0
LINE
  8
_1-0_
  6
CONTINUOUS
 62
    7
 10
838.41918650741275
 20
1749.4671218459669
 11
838.37964208890116
 21
1749.3122687026801
  0
LINE
  8
_1-0_
  6
CONTINUOUS
 62
    7
 10
838.37964208890116
 20
1749.3122687026801
 11
838.33904781857041
 21
1749.1581154606056
  0
LINE
  8
_1-0_
  6
CONTINUOUS
 62
    7
 10
838.33904781857041
 20
1749.1581154606056
 11
838.2972287211179
 21
1749.0046621197439
  0
LINE
  8
_1-0_
  6
CONTINUOUS
 62
    7
 10
838.2972287211179
 20
1749.0046621197439
 11
838.8323906857994
 21
1750.905593813156
  0
LINE
  8
_1-0_
  6
CONTINUOUS
 62
    7
 10
838.8323906857994
 20
1750.905593813156
 11
838.8323906857994
 21
1740.1584357184331
  0
LINE
  8
_1-0_
  6
CONTINUOUS
 62
    7
 10
838.8323906857994
 20
1740.1584357184331
 11
854.38393316673955
 21
1740.1584357184331
  0
LINE
  8
_1-0_
  6
CONTINUOUS
 62
    7
 10
854.38393316673955
 20
1740.1584357184331
 11
855.98058280797534
 21
1835.9581140937951
  0
LINE
  8
_1-0_
  6
CONTINUOUS
 62
    7
 10
562.29302277436113
 20
1835.8636274300945
 11
581.95976566623983
 21
1855.8608549257963
  0
LINE
  8
_1-0_
  6
CONTINUOUS
 62
    7
 10
581.95976566623983
 20
1855.8608549257963
 11
704.00000907279355
 21
1855.8608549257963
  0
LINE
  8
_1-0_
  6
CONTINUOUS
 62
    7
 10
713.99997887924371
 20
1855.8608549257963
 11
836.31230888219409
 21
1855.8608549257963
  0
LINE
  8
_1-0_
  6
CONTINUOUS
 62
    7
 10
836.31230888219409
 20
1855.8608549257963
 11
855.97900803024697
 21
1835.8636274300945
  0
LINE
  8
_1-0_
  6
CONTINUOUS
 62
    7
 10
1561.302180345454
 20
440.85758150314268
 11
1830.6201425206245
 21
440.85758150314268
  0
LINE
  8
_1-0_
  6
CONTINUOUS
 62
    7
 10
1830.6201425206245
 20
440.85758150314268
 11
1830.6201425206245
 21
590.85756603815378
  0
LINE
  8
_1-0_
  6
CONTINUOUS
 62
    7
 10
1830.6201425206245
 20
590.85756603815378
 11
1310.6200503198334
 21
590.85756603815378
  0
LINE
  8
_1-0_
  6
CONTINUOUS
 62
    7
 10
1310.6200503198334
 20
590.85756603815378
 11
1320.6200638701098
 21
440.85758150314268
  0
LINE
  8
_1-0_
  6
CONTINUOUS
 62
    7
 10
1320.6200638701098
 20
440.85758150314268
 11
1515.4485023527991
 21
440.85758150314268
  0
LINE
  8
_1-0_
  6
CONTINUOUS
 62
    7
 10
1440.9505798457672
 20
438.8196878911906
 11
1515.4485023527991
 21
439.38988866032781
  0
LINE
  8
_1-0_
  6
CONTINUOUS
 62
    7
 10
1561.302180345454
 20
439.74088911844495
 11
1707.1999126419596
 21
440.85758150314268
  0
LINE
  8
_1-0_
  6
CONTINUOUS
 62
    7
 10
1515.4485023527991
 20
439.02152190337301
 11
1500.9505736597716
 21
439.02152190337301
  0
LINE
  8
_1-0_
  6
CONTINUOUS
 62
    7
 10
1500.9505736597716
 20
439.02152190337301
 11
1503.4506207911663
 21
414.02153177150888
  0
LINE
  8
_1-0_
  6
CONTINUOUS
 62
    7
 10
1503.4506207911663
 20
414.02153177150888
 11
1515.4485023527991
 21
414.02153177150888
  0
LINE
  8
_1-0_
  6
CONTINUOUS
 62
    7
 10
1561.302180345454
 20
439.02152190337301
 11
1575.9505877991899
 21
439.02152190337301
  0
LINE
  8
_1-0_
  6
CONTINUOUS
 62
    7
 10
1575.9505877991899
 20
439.02152190337301
 11
1573.4505406677952
 21
414.02153177150888
  0
LINE
  8
_1-0_
  6
CONTINUOUS
 62
    7
 10
1573.4505406677952
 20
414.02153177150888
 11
1561.302180345454
 21
414.02153177150888
  0
LINE
  8
_1-0_
  6
CONTINUOUS
 62
    7
 10
1700.6201413423398
 20
440.80723235966155
 11
1726.9999429710124
 21
440.85758150314268
  0
LINE
  8
_1-0_
  6
CONTINUOUS
 62
    7
 10
1573.4505406677952
 20
414.02153177150888
 11
1687.5773072703005
 21
429.04141179383032
  0
LINE
  8
_1-0_
  6
CONTINUOUS
 62
    7
 10
1440.9505798457672
 20
438.8196878911906
 11
1440.9505798457672
 21
440.95447407726158
  0
LINE
  8
_1-0_
  6
CONTINUOUS
 62
    7
 10
704.00000907279355
 20
1855.8608549257963
 11
704.00000907279355
 21
1789.0097906046392
  0
LINE
  8
_1-0_
  6
CONTINUOUS
 62
    7
 10
713.99997887924371
 20
1789.0075159256983
 11
713.99997887924371
 21
1855.8608549257963
  0
LINE
  8
_1-0_
  6
CONTINUOUS
 62
    7
 10
699.00000229765533
 20
1855.8608549257963
 11
699.00000229765533
 21
1788.9585228408166
  0
LINE
  8
_1-0_
  6
CONTINUOUS
 62
    7
 10
718.9999856543817
 20
1855.8608549257963
 11
718.9999856543817
 21
1788.9534485570252
  0
LINE
  8
_1-0_
  6
CONTINUOUS
 62
    7
 10
634.00000170851297
 20
1875.1583561842044
 11
634.00000170851297
 21
1874.9807562515082
  0
LINE
  8
_1-0_
  6
CONTINUOUS
 62
    7
 10
634.00000170851297
 20
1769.2391561265158
 11
634.00000170851297
 21
1769.2388061759093
  0
LINE
  8
_1-0_
  6
CONTINUOUS
 62
    7
 10
784.00002998734988
 20
1875.1583561842044
 11
784.00002998734988
 21
1874.9807562515082
  0
LINE
  8
_1-0_
  6
CONTINUOUS
 62
    7
 10
784.00002998734988
 20
1769.1913878687558
 11
784.00002998734988
 21
1769.1910379181495
  0
LINE
  8
_1-0_
  6
CONTINUOUS
 62
    7
 10
593.83236491081789
 20
1723.4110245281204
 11
678.88724735804954
 21
1723.4110245281204
  0
LINE
  8
_1-0_
  6
CONTINUOUS
 62
    7
 10
738.88728491587983
 20
1723.4110245281204
 11
823.83237036038554
 21
1723.4110245281204
  0
LINE
  8
_1-0_
  6
CONTINUOUS
 62
    7
 10
593.83236491081789
 20
1725.1583279053675
 11
593.83236491081789
 21
1723.4110245281204
  0
LINE
  8
_1-0_
  6
CONTINUOUS
 62
    7
 10
823.83237036038554
 20
1725.9807118301685
 11
823.83237036038554
 21
1723.4110245281204
  0
LINE
  8
_1-0_
  6
CONTINUOUS
 62
    7
 10
593.24016099730966
 20
1726.6505172906232
 11
634.98528764054583
 21
1726.6505172906232
  0
LINE
  8
_1-0_
  6
CONTINUOUS
 62
    7
 10
779.06563895089278
 20
1726.6505172906232
 11
823.2401664468772
 21
1726.6505172906232
  0
LINE
  8
_1-0_
  6
CONTINUOUS
 62
    7
 10
644.11637383538323
 20
1732.4659964660877
 11
678.88724735804954
 21
1732.4659964660877
  0
LINE
  8
_1-0_
  6
CONTINUOUS
 62
    7
 10
738.88728491587983
 20
1732.4659964660877
 11
771.58789439551151
 21
1732.4659964660877
  0
LINE
  8
_1-0_
  6
CONTINUOUS
 62
    7
 10
639.78621626452593
 20
1729.9661243099963
 11
639.3154014675772
 21
1729.1505644220183
  0
LINE
  8
_1-0_
  6
CONTINUOUS
 62
    7
 10
775.09133740281504
 20
1729.9661243099963
 11
775.56219594358936
 21
1729.1505644220183
  0
LINE
  8
_1-0_
  6
CONTINUOUS
 62
    7
 10
1573.4465162358229
 20
461.153666816623
 11
1680.4108437792215
 21
471.15363662307323
  0
LINE
  8
_1-0_
  6
CONTINUOUS
 62
    7
 10
1680.4108437792215
 20
471.15363662307323
 11
1695.4109515922869
 21
591.15366799490789
  0
LINE
  8
_1-0_
  6
CONTINUOUS
 62
    7
 10
1503.4465963591938
 20
461.153666816623
 11
1355.7278085951639
 21
471.15363662307323
  0
LINE
  8
_1-0_
  6
CONTINUOUS
 62
    7
 10
1355.7278085951639
 20
471.15363662307323
 11
1335.7278689822635
 21
591.15366799490789
  0
LINE
  8
_1-0_
  6
CONTINUOUS
 62
    7
 10
1503.4465963591938
 20
461.153666816623
 11
1515.4485023527991
 21
454.22425111748532
  0
LINE
  8
_1-0_
  6
CONTINUOUS
 62
    7
 10
1573.4465162358229
 20
461.153666816623
 11
1561.095359537132
 21
454.02267956825756
  0
LINE
  8
_1-0_
  6
CONTINUOUS
 62
    7
 10
1515.4485023527991
 20
454.22425111748532
 11
1515.4485023527991
 21
414.02153177150888
  0
LINE
  8
_1-0_
  6
CONTINUOUS
 62
    7
 10
1561.302180345454
 20
454.14214395648258
 11
1561.302180345454
 21
414.02153177150888
  0
LINE
  8
_1-0_
  6
CONTINUOUS
 62
    7
 10
1503.4465963591938
 20
461.153666816623
 11
1355.7278085951639
 21
471.15363662307323
  0
LINE
  8
_1-0_
  6
CONTINUOUS
 62
    7
 10
1503.4465963591938
 20
461.153666816623
 11
1515.4485023527991
 21
454.22425111748532
  0
LINE
  8
_1-0_
  6
CONTINUOUS
 62
    7
 10
1515.4485023527991
 20
454.22425111748532
 11
1515.4485023527991
 21
414.02153177150888
  0
ARC
  8
_0-0_
  6
CONTINUOUS
 62
    7
 10
503.89107840401778
 20
1271.0339876859805
 40
39.999999521321769
 50
323.39402770996094
 51
0
  0
ARC
  8
_0-0_
  6
CONTINUOUS
 62
    7
 10
913.87588618805034
 20
1271.4878736223493
 40
39.999999521321769
 50
179.99998474121094
 51
218.01033020019531
  0
ARC
  8
_0-0_
  6
CONTINUOUS
 62
    7
 10
836.28081332762713
 20
1247.8176520505926
 40
9.9999998803304422
 50
45.271362304687493
 51
89.999984741210923
  0
ARC
  8
_0-0_
  6
CONTINUOUS
 62
    7
 10
581.77101105796783
 20
1247.8436358831102
 40
9.9999998803304422
 50
89.999984741210937
 51
134.73722839355472
  0
CIRCLE
  8
_0-0_
  6
CONTINUOUS
 62
    7
 10
709.00001584793142
 20
1327.8176729651491
 40
18.499999368512952
  0
ARC
  8
_0-0_
  6
CONTINUOUS
 62
    7
 10
590.40245527466277
 20
1227.835647406265
 40
14.999999820495663
 50
90
 51
138.72093200683594
  0
ARC
  8
_0-0_
  6
CONTINUOUS
 62
    7
 10
827.61393661204454
 20
1227.8611938005249
 40
14.999999820495663
 50
41.656600952148438
 51
90
  0
CIRCLE
  8
_0-0_
  6
CONTINUOUS
 62
    7
 10
709.00001584793142
 20
1102.4636555086231
 40
35.000000948151104
  0
CIRCLE
  8
_0-0_
  6
CONTINUOUS
 62
    7
 10
709.00001584793142
 20
1102.4636555086231
 40
23.000000544956748
  0
CIRCLE
  8
_0-0_
  6
CONTINUOUS
 62
    7
 10
709.51028757574011
 20
550.92715200770317
 40
11.000000141762399
  0
ARC
  8
_0-0_
  6
CONTINUOUS
 62
    7
 10
1828.796374935901
 20
586.93470722920188
 40
4.0000000204819051
 50
0
 51
90
  0
ARC
  8
_1-0_
  6
CONTINUOUS
 62
    7
 10
1685.620033529274
 20
443.91317522203599
 40
14.999999820495663
 50
277.4974365234375
 51
348.24626159667969
  0
CIRCLE
  8
_1-0_
  6
CONTINUOUS
 62
    7
 10
634.00000170851297
 20
1824.9806885001281
 40
19.999999760660884
  0
CIRCLE
  8
_1-0_
  6
CONTINUOUS
 62
    7
 10
634.01067520200513
 20
1825.0128839559077
 40
17.500000474075552
  0
CIRCLE
  8
_1-0_
  6
CONTINUOUS
 62
    7
 10
634.00000170851297
 20
1824.9806885001281
 40
9.9999998803304422
  0
CIRCLE
  8
_1-0_
  6
CONTINUOUS
 62
    7
 10
634.00000170851297
 20
1824.9806885001281
 40
7.4999999102478316
  0
CIRCLE
  8
_1-0_
  6
CONTINUOUS
 62
    7
 10
784.00002998734988
 20
1824.9806885001281
 40
19.999999760660884
  0
CIRCLE
  8
_1-0_
  6
CONTINUOUS
 62
    7
 10
784.01070348084204
 20
1825.0128839559077
 40
17.500000474075552
  0
CIRCLE
  8
_1-0_
  6
CONTINUOUS
 62
    7
 10
784.00002998734988
 20
1824.9806885001281
 40
9.9999998803304422
  0
CIRCLE
  8
_1-0_
  6
CONTINUOUS
 62
    7
 10
784.00002998734988
 20
1824.9806885001281
 40
7.4999999102478316
  0
ARC
  8
_1-0_
  6
CONTINUOUS
 62
    7
 10
634.98524389672002
 20
1731.650611553413
 40
4.9999999401652211
 50
270
 51
330
  0
ARC
  8
_1-0_
  6
CONTINUOUS
 62
    7
 10
644.11637383538323
 20
1727.4660771786014
 40
4.9999999401652211
 50
90
 51
149.99999999999997
  0
ARC
  8
_1-0_
  6
CONTINUOUS
 62
    7
 10
770.76122357578345
 20
1727.5005473133219
 40
4.9999999401652211
 50
29.999984741210937
 51
90
  0
ARC
  8
_1-0_
  6
CONTINUOUS
 62
    7
 10
779.92669241768965
 20
1731.6161414186925
 40
4.9999999401652211
 50
209.99998474121094
 51
270
  0
LINE
  8
_1-0_
  6
CONTINUOUS
 62
    7
 10
719.87696460775419
 20
1252.8269325167976
 11
719.87696460775419
 21
1252.8269325167976
  0
LINE
  8
_1-0_
  6
CONTINUOUS
 62
    7
 10
719.87696460775419
 20
1252.8269325167976
 11
719.70984988873477
 21
1253.2609140480156
  0
LINE
  8
_1-0_
  6
CONTINUOUS
 62
    7
 10
719.70984988873477
 20
1253.2609140480156
 11
719.21358342784993
 21
1253.681709270013
  0
LINE
  8
_1-0_
  6
CONTINUOUS
 62
    7
 10
719.21358342784993
 20
1253.681709270013
 11
718.40324403039051
 21
1254.0765325329019
  0
LINE
  8
_1-0_
  6
CONTINUOUS
 62
    7
 10
718.40324403039051
 20
1254.0765325329019
 11
717.3034534488969
 21
1254.4333873316293
  0
LINE
  8
_1-0_
  6
CONTINUOUS
 62
    7
 10
717.3034534488969
 20
1254.4333873316293
 11
715.94762826366684
 21
1254.7414308137136
  0
LINE
  8
_1-0_
  6
CONTINUOUS
 62
    7
 10
715.94762826366684
 20
1254.7414308137136
 11
714.37696453687306
 21
1254.9913032338291
  0
LINE
  8
_1-0_
  6
CONTINUOUS
 62
    7
 10
714.37696453687306
 20
1254.9913032338291
 11
712.63918609105974
 21
1255.1754123449318
  0
LINE
  8
_1-0_
  6
CONTINUOUS
 62
    7
 10
712.63918609105974
 20
1255.1754123449318
 11
710.78709444494484
 21
1255.2881640848448
  0
LINE
  8
_1-0_
  6
CONTINUOUS
 62
    7
 10
710.78709444494484
 20
1255.2881640848448
 11
708.87696446599182
 21
1255.3261325490059
  0
LINE
  8
_1-0_
  6
CONTINUOUS
 62
    7
 10
708.87696446599182
 20
1255.3261325490059
 11
706.9668344870388
 21
1255.2881640848448
  0
LINE
  8
_1-0_
  6
CONTINUOUS
 62
    7
 10
706.9668344870388
 20
1255.2881640848448
 11
705.1147428409239
 21
1255.1754123449318
  0
LINE
  8
_1-0_
  6
CONTINUOUS
 62
    7
 10
705.1147428409239
 20
1255.1754123449318
 11
703.37696439511058
 21
1254.9913032338291
  0
LINE
  8
_1-0_
  6
CONTINUOUS
 62
    7
 10
703.37696439511058
 20
1254.9913032338291
 11
701.80630066831679
 21
1254.7414308137136
  0
LINE
  8
_1-0_
  6
CONTINUOUS
 62
    7
 10
701.80630066831679
 20
1254.7414308137136
 11
700.45047548308673
 21
1254.4333873316293
  0
LINE
  8
_1-0_
  6
CONTINUOUS
 62
    7
 10
700.45047548308673
 20
1254.4333873316293
 11
699.35068490159313
 21
1254.0765325329019
  0
LINE
  8
_1-0_
  6
CONTINUOUS
 62
    7
 10
699.35068490159313
 20
1254.0765325329019
 11
698.54034550413371
 21
1253.681709270013
  0
LINE
  8
_1-0_
  6
CONTINUOUS
 62
    7
 10
698.54034550413371
 20
1253.681709270013
 11
698.04407904324887
 21
1253.2609140480156
  0
LINE
  8
_1-0_
  6
CONTINUOUS
 62
    7
 10
698.04407904324887
 20
1253.2609140480156
 11
697.87696432422945
 21
1252.8269325167976
  0
LINE
  8
_1-0_
  6
CONTINUOUS
 62
    7
 10
697.87696432422945
 20
1252.8269325167976
 11
698.04407904324887
 21
1252.3929509855795
  0
LINE
  8
_1-0_
  6
CONTINUOUS
 62
    7
 10
698.04407904324887
 20
1252.3929509855795
 11
698.54034550413371
 21
1251.9721557635821
  0
LINE
  8
_1-0_
  6
CONTINUOUS
 62
    7
 10
698.54034550413371
 20
1251.9721557635821
 11
699.35068490159313
 21
1251.5773325006933
  0
LINE
  8
_1-0_
  6
CONTINUOUS
 62
    7
 10
699.35068490159313
 20
1251.5773325006933
 11
700.45047548308673
 21
1251.2204777019658
  0
LINE
  8
_1-0_
  6
CONTINUOUS
 62
    7
 10
700.45047548308673
 20
1251.2204777019658
 11
701.80630066831679
 21
1250.9124342198816
  0
LINE
  8
_1-0_
  6
CONTINUOUS
 62
    7
 10
701.80630066831679
 20
1250.9124342198816
 11
703.37696439511058
 21
1250.6625617997663
  0
LINE
  8
_1-0_
  6
CONTINUOUS
 62
    7
 10
703.37696439511058
 20
1250.6625617997663
 11
705.1147428409239
 21
1250.4784526886633
  0
LINE
  8
_1-0_
  6
CONTINUOUS
 62
    7
 10
705.1147428409239
 20
1250.4784526886633
 11
706.9668344870388
 21
1250.3657009487504
  0
LINE
  8
_1-0_
  6
CONTINUOUS
 62
    7
 10
706.9668344870388
 20
1250.3657009487504
 11
708.87696446599182
 21
1250.3277324845892
  0
LINE
  8
_1-0_
  6
CONTINUOUS
 62
    7
 10
708.87696446599182
 20
1250.3277324845892
 11
710.78709444494484
 21
1250.3657009487504
  0
LINE
  8
_1-0_
  6
CONTINUOUS
 62
    7
 10
710.78709444494484
 20
1250.3657009487504
 11
712.63918609105974
 21
1250.4784526886633
  0
LINE
  8
_1-0_
  6
CONTINUOUS
 62
    7
 10
712.63918609105974
 20
1250.4784526886633
 11
714.37696453687295
 21
1250.6625617997661
  0
LINE
  8
_1-0_
  6
CONTINUOUS
 62
    7
 10
714.37696453687295
 20
1250.6625617997661
 11
715.94762826366684
 21
1250.9124342198816
  0
LINE
  8
_1-0_
  6
CONTINUOUS
 62
    7
 10
715.94762826366684
 20
1250.9124342198816
 11
717.3034534488969
 21
1251.2204777019658
  0
LINE
  8
_1-0_
  6
CONTINUOUS
 62
    7
 10
717.3034534488969
 20
1251.2204777019658
 11
718.40324403039051
 21
1251.5773325006933
  0
LINE
  8
_1-0_
  6
CONTINUOUS
 62
    7
 10
718.40324403039051
 20
1251.5773325006933
 11
719.21358342784993
 21
1251.9721557635821
  0
LINE
  8
_1-0_
  6
CONTINUOUS
 62
    7
 10
719.21358342784993
 20
1251.9721557635821
 11
719.70984988873477
 21
1252.3929509855795
  0
LINE
  8
_1-0_
  6
CONTINUOUS
 62
    7
 10
719.70984988873477
 20
1252.3929509855795
 11
719.87696460775419
 21
1252.8269325167976
  0
LINE
  8
_1-0_
  6
CONTINUOUS
 62
    7
 10
719.87696460775419
 20
1252.8269325167976
 11
719.87696460775419
 21
1252.8269325167976
  0
TEXT
  8
_1-0_
 62
    6
 10
2039.5800189161853
 20
1826.8585234535246
 40
100
 41
1
 50
0
  1
B1-C401
  0
ENDSEC
  0
EOF
