  0
SECTION
  2
HEADER
  9
$ACADVER
  1
AC1009
  9
$INSBASE
 10
0
 20
0
 30
0
  9
$EXTMIN
 10
0
 20
0
  9
$EXTMAX
 10
2970
 20
2100
  9
$LIMMIN
 10
0
 20
0
  9
$LIMMAX
 10
2970
 20
2100
  9
$LTSCALE
 40
10
  0
ENDSEC
  0
SECTION
  2
TABLES
  0
TABLE
  2
LTYPE
 70
     9
  0
LTYPE
  2
CONTINUOUS
 70
    64
  3
実線
 72
    65
 73
     0
 40
0.0
  0
LTYPE
  2
DASHED1
 70
    64
  3
--  --  --  --  --  --  --  --  
 72
    65
 73
     2
 40
2.5
 49
1.25
 49
-1.25
  0
LTYPE
  2
DASHED2
 70
    64
  3
----    ----    ----    ----    
 72
    65
 73
     2
 40
5.0
 49
2.5
 49
-2.5
  0
LTYPE
  2
DASHED3
 70
    64
  3
------  ------  ------  ------  
 72
    65
 73
     2
 40
5.0
 49
3.75
 49
-1.25
  0
LTYPE
  2
CENTER1
 70
    64
  3
----- - ----- - ----- - ----- - 
 72
    65
 73
     4
 40
10.0
 49
6.25
 49
-1.25
 49
1.25
 49
-1.25
  0
LTYPE
  2
CENTER2
 70
    64
  3
----------  --  ----------  --  
 72
    65
 73
     4
 40
20.0
 49
12.5
 49
-2.5
 49
2.5
 49
-2.5
  0
LTYPE
  2
PHANTOM1
 70
    64
  3
--- - - --- - - --- - - --- - - 
 72
    65
 73
     6
 40
10.0
 49
3.25
 49
-1.25
 49
1.25
 49
-1.25
 49
1.25
 49
-1.25
  0
LTYPE
  2
PHANTOM2
 70
    64
  3
--------  -  -  --------  -  -  
 72
    65
 73
     6
 40
20.0
 49
10.0
 49
-2.5
 49
1.25
 49
-2.5
 49
1.25
 49
-2.5
  0
LTYPE
  2
DOT
 70
    64
  3
-   -   -   -   -   -   -   -   
 72
    65
 73
     2
 40
2.5
 49
0.625
 49
-1.875
  0
LTYPE
  2
DUMMY
 70
    64
  3
ダミー
 72
    65
 73
     0
 40
0.0
  0
LTYPE
  2
RAND1
 70
    64
  3
ランダム線1
 72
    65
 73
     4
 40
10.0
 49
1.0
 49
-2.0
 49
3.0
 49
-4.0
  0
LTYPE
  2
RAND2
 70
    64
  3
ランダム線2
 72
    65
 73
     4
 40
14.0
 49
2.0
 49
-3.0
 49
4.0
 49
-5.0
  0
LTYPE
  2
RAND3
 70
    64
  3
ランダム線3
 72
    65
 73
     4
 40
18.0
 49
3.0
 49
-4.0
 49
5.0
 49
-6.0
  0
LTYPE
  2
RAND4
 70
    64
  3
ランダム線4
 72
    65
 73
     4
 40
22.0
 49
4.0
 49
-5.0
 49
6.0
 49
-7.0
  0
LTYPE
  2
RAND5
 70
    64
  3
ランダム線5
 72
    65
 73
     4
 40
26.0
 49
5.0
 49
-6.0
 49
7.0
 49
-8.0
  0
LTYPE
  2
LONG1
 70
    64
  3
----------  --  ----------  --  
 72
    65
 73
     4
 40
40.0
 49
32.5
 49
-2.5
 49
2.5
 49
-2.5
  0
LTYPE
  2
LONG2
 70
    64
  3
--------  -  -  --------  -  -  
 72
    65
 73
     6
 40
40.0
 49
30.0
 49
-2.5
 49
1.25
 49
-2.5
 49
1.25
 49
-2.5
  0
LTYPE
  2
LONG3
 70
    64
  3
+++++++++++++++..+++++++++++++++
 72
    65
 73
     2
 40
40.0
 49
37.5
 49
-2.5
  0
LTYPE
  2
LONG4
 70
    64
  3
+++++++++++++++..+++++++++++++++
 72
    65
 73
     2
 40
80.0
 49
75.0
 49
-5.0
  0
LTYPE
  2
LONG5
 70
    64
  3
----------  --  ----------  --  
 72
    65
 73
     4
 40
60.0
 49
37.5
 49
-7.5
 49
7.5
 49
-7.5
  0
LTYPE
  2
dashed
 70
   64
  3
-------   -------------   ------
 72
   65
 73
    2
 40
7.5
 49
6
 49
-1.5
  0
LTYPE
  2
dashed_spaced
 70
   64
  3
----        --------        ----
 72
   65
 73
    2
 40
12
 49
6
 49
-6
  0
LTYPE
  2
long_dashed_dotted
 70
   64
  3
------------- --- --------------
 72
   65
 73
    4
 40
15.25
 49
12
 49
-1.5
 49
0.25
 49
-1.5
  0
LTYPE
  2
long_dashed_double-dotted
 70
   64
  3
----------- --- --- ------------
 72
   65
 73
    6
 40
17
 49
12
 49
-1.5
 49
0.25
 49
-1.5
 49
0.25
 49
-1.5
  0
LTYPE
  2
long_dashed_triplicate-dotted
 70
   64
  3
--------- --- --- --- ----------
 72
   65
 73
    8
 40
18.75
 49
12
 49
-1.5
 49
0.25
 49
-1.5
 49
0.25
 49
-1.5
 49
0.25
 49
-1.5
  0
LTYPE
  2
dotted
 70
   64
  3
   -       -       -       -    
 72
   65
 73
    2
 40
1.75
 49
0.25
 49
-1.5
  0
LTYPE
  2
chain
 70
   64
  3
-------------- -- --------------
 72
   65
 73
    4
 40
18.5
 49
12
 49
-1.5
 49
3.5
 49
-1.5
  0
LTYPE
  2
chain_double_dash
 70
   64
  3
------------ -- -- -------------
 72
   65
 73
    6
 40
23.5
 49
12
 49
-1.5
 49
3.5
 49
-1.5
 49
3.5
 49
-1.5
  0
LTYPE
  2
dashed_dotted
 70
   64
  3
-----------     -     ----------
 72
   65
 73
    4
 40
9.25
 49
6
 49
-1.5
 49
0.25
 49
-1.5
  0
LTYPE
  2
double-dashed_dotted
 70
   64
  3
------   -----------   -   -----
 72
   65
 73
    6
 40
16.75
 49
6
 49
-1.5
 49
6
 49
-1.5
 49
0.25
 49
-1.5
  0
LTYPE
  2
dashed_double-dotted
 70
   64
  3
---------    -    -    ---------
 72
   65
 73
    6
 40
11
 49
6
 49
-1.5
 49
0.25
 49
-1.5
 49
0.25
 49
-1.5
  0
LTYPE
  2
double-dashed_double-dotted
 70
   64
  3
-----   ---------   -   -   ----
 72
   65
 73
    8
 40
18.5
 49
6
 49
-1.5
 49
6
 49
-1.5
 49
0.25
 49
-1.5
 49
0.25
 49
-1.5
  0
LTYPE
  2
dashed_triplicate-dotted
 70
   64
  3
-------    -    -    -    ------
 72
   65
 73
    8
 40
12.75
 49
6
 49
-1.5
 49
0.25
 49
-1.5
 49
0.25
 49
-1.5
 49
0.25
 49
-1.5
  0
LTYPE
  2
double-dashed_triplicate-dotted
 70
   64
  3
-----  ---------  -  -  -  -----
 72
   65
 73
   10
 40
20.25
 49
6
 49
-1.5
 49
6
 49
-1.5
 49
0.25
 49
-1.5
 49
0.25
 49
-1.5
 49
0.25
 49
-1.5
  0
LTYPE
  2
undefined
 70
   64
  3
--------------------------------
 72
   65
 73
    0
 40
0
  0
LTYPE
  2
_
 70
   64
  3
                                
 72
   65
 73
    0
 40
0
  0
LTYPE
  2
__18
 70
   64
  3
                                
 72
   65
 73
    0
 40
0
  0
LTYPE
  2
__19
 70
   64
  3
                                
 72
   65
 73
    0
 40
0
  0
LTYPE
  2
__20
 70
   64
  3
                                
 72
   65
 73
    0
 40
0
  0
LTYPE
  2
__21
 70
   64
  3
                                
 72
   65
 73
    0
 40
0
  0
LTYPE
  2
__22
 70
   64
  3
                                
 72
   65
 73
    0
 40
0
  0
LTYPE
  2
__23
 70
   64
  3
                                
 72
   65
 73
    0
 40
0
  0
LTYPE
  2
__24
 70
   64
  3
                                
 72
   65
 73
    0
 40
0
  0
LTYPE
  2
__25
 70
   64
  3
                                
 72
   65
 73
    0
 40
0
  0
LTYPE
  2
__26
 70
   64
  3
                                
 72
   65
 73
    0
 40
0
  0
LTYPE
  2
__27
 70
   64
  3
                                
 72
   65
 73
    0
 40
0
  0
LTYPE
  2
__28
 70
   64
  3
                                
 72
   65
 73
    0
 40
0
  0
LTYPE
  2
__29
 70
   64
  3
                                
 72
   65
 73
    0
 40
0
  0
LTYPE
  2
__30
 70
   64
  3
                                
 72
   65
 73
    0
 40
0
  0
LTYPE
  2
__31
 70
   64
  3
                                
 72
   65
 73
    0
 40
0
  0
LTYPE
  2
__32
 70
   64
  3
                                
 72
   65
 73
    0
 40
0
  0
ENDTAB
  0
TABLE
  2
STYLE
  5
3
100
AcDbSymbolTable
 70
     1
  0
STYLE
  5
10
100
AcDbSymbolTableRecord
100
AcDbTextStyleTableRecord
  2
STANDARD
 70
     0
 40
0.0
 41
1.0
 50
0.0
 71
     0
 42
0.2
  3
txt
  4
bigfont.shx
  0
STYLE
  5
26
100
AcDbSymbolTableRecord
100
AcDbTextStyleTableRecord
  2
TATEGAKI
 70
    68
 40
0.0
 41
1.0
 50
0.0
 71
     0
 42
1.0
  3
txt
  4
bigfont.shx
  0
ENDTAB
  0
TABLE
  2
LAYER
 70
    4
  0
LAYER
  2
_0-0_
 70
   64
 62
    7
  6
CONTINUOUS
  0
LAYER
  2
_1-0_
 70
   64
 62
    7
  6
CONTINUOUS
  0
LAYER
  2
_2-0_
 70
   64
 62
    7
  6
CONTINUOUS
  0
LAYER
  2
ADD_LINE
 70
   64
 62
    7
  6
CONTINUOUS
  0
ENDTAB
  0
ENDSEC
  0
SECTION
  2
BLOCKS
  0
ENDSEC
  0
SECTION
  2
ENTITIES
  0
LINE
  8
_1-0_
  6
CONTINUOUS
 62
    7
 10
516.27932986697624
 20
565.0919277235347
 11
912.7793159632148
 21
565.0919277235347
  0
LINE
  8
_2-0_
  6
CONTINUOUS
 62
    7
 10
896.25001148827755
 20
839.01558982819665
 11
103.74999841667972
 21
839.01558982819665
  0
LINE
  8
_2-0_
  6
CONTINUOUS
 62
    7
 10
143.74999793800157
 20
1174.0155188365331
 11
856.2499572871734
 21
1174.0155188365331
  0
LINE
  8
_1-0_
  6
CONTINUOUS
 62
    7
 10
916.27934695210683
 20
405.09192963824773
 11
116.27932371780219
 21
405.09192963824773
  0
LINE
  8
_1-0_
  6
CONTINUOUS
 62
    7
 10
116.27932371780219
 20
405.09192963824773
 11
116.27932371780219
 21
561.59194047846847
  0
LINE
  8
_1-0_
  6
CONTINUOUS
 62
    7
 10
116.27932371780219
 20
561.59194047846847
 11
116.34656891399374
 21
562.27478159900795
  0
LINE
  8
_1-0_
  6
CONTINUOUS
 62
    7
 10
116.34656891399374
 20
562.27478159900795
 11
116.54574548875956
 21
562.93133268024928
  0
LINE
  8
_1-0_
  6
CONTINUOUS
 62
    7
 10
116.54574548875956
 20
562.93133268024928
 11
116.86917640067435
 21
563.53644102236467
  0
LINE
  8
_1-0_
  6
CONTINUOUS
 62
    7
 10
116.86917640067435
 20
563.53644102236467
 11
117.30444933917056
 21
564.0668349100356
  0
LINE
  8
_1-0_
  6
CONTINUOUS
 62
    7
 10
117.30444933917056
 20
564.0668349100356
 11
117.83482135492875
 21
564.50208597661901
  0
LINE
  8
_1-0_
  6
CONTINUOUS
 62
    7
 10
117.83482135492875
 20
564.50208597661901
 11
118.43992969704402
 21
564.82552782449022
  0
LINE
  8
_1-0_
  6
CONTINUOUS
 62
    7
 10
118.43992969704402
 20
564.82552782449022
 11
119.0965026501982
 21
565.02469346329963
  0
LINE
  8
_1-0_
  6
CONTINUOUS
 62
    7
 10
119.0965026501982
 20
565.02469346329963
 11
119.77932189882495
 21
565.0919277235347
  0
LINE
  8
_1-0_
  6
CONTINUOUS
 62
    7
 10
119.77932189882495
 20
565.0919277235347
 11
516.27932986697624
 21
565.0919277235347
  0
LINE
  8
_1-0_
  6
CONTINUOUS
 62
    7
 10
912.7793159632148
 20
565.0919277235347
 11
913.46215708375428
 21
565.02469346329963
  0
LINE
  8
_1-0_
  6
CONTINUOUS
 62
    7
 10
913.46215708375428
 20
565.02469346329963
 11
914.11875190882142
 21
564.82552782449022
  0
LINE
  8
_1-0_
  6
CONTINUOUS
 62
    7
 10
914.11875190882142
 20
564.82552782449022
 11
914.72381650711111
 21
564.50208597661901
  0
LINE
  8
_1-0_
  6
CONTINUOUS
 62
    7
 10
914.72381650711111
 20
564.50208597661901
 11
915.25416665095622
 21
564.0668349100356
  0
LINE
  8
_1-0_
  6
CONTINUOUS
 62
    7
 10
915.25416665095622
 20
564.0668349100356
 11
915.68950520519127
 21
563.53644102236467
  0
LINE
  8
_1-0_
  6
CONTINUOUS
 62
    7
 10
915.68950520519127
 20
563.53644102236467
 11
916.01285956541074
 21
562.93133268024928
  0
LINE
  8
_1-0_
  6
CONTINUOUS
 62
    7
 10
916.01285956541074
 20
562.93133268024928
 11
916.21206894804595
 21
562.27478159900795
  0
LINE
  8
_1-0_
  6
CONTINUOUS
 62
    7
 10
916.21206894804595
 20
562.27478159900795
 11
916.27934695210683
 21
561.59194047846847
  0
LINE
  8
_1-0_
  6
CONTINUOUS
 62
    7
 10
916.27934695210683
 20
561.59194047846847
 11
916.27934695210683
 21
405.09192963824773
  0
LINE
  8
_1-0_
  6
CONTINUOUS
 62
    7
 10
1669.6792584864788
 20
405.09192963824773
 11
1209.6793350749954
 21
405.09192963824773
  0
LINE
  8
_1-0_
  6
CONTINUOUS
 62
    7
 10
1209.6793350749954
 20
405.09192963824773
 11
1209.6793350749954
 21
561.59194047846847
  0
LINE
  8
_1-0_
  6
CONTINUOUS
 62
    7
 10
1209.6793350749954
 20
561.59194047846847
 11
1209.7466130790563
 21
562.27478159900795
  0
LINE
  8
_1-0_
  6
CONTINUOUS
 62
    7
 10
1209.7466130790563
 20
562.27478159900795
 11
1209.9457349740399
 21
562.93133268024928
  0
LINE
  8
_1-0_
  6
CONTINUOUS
 62
    7
 10
1209.9457349740399
 20
562.93133268024928
 11
1210.2691768219111
 21
563.53644102236467
  0
LINE
  8
_1-0_
  6
CONTINUOUS
 62
    7
 10
1210.2691768219111
 20
563.53644102236467
 11
1210.7044278884946
 21
564.0668349100356
  0
LINE
  8
_1-0_
  6
CONTINUOUS
 62
    7
 10
1210.7044278884946
 20
564.0668349100356
 11
1211.2348655199912
 21
564.50208597661901
  0
LINE
  8
_1-0_
  6
CONTINUOUS
 62
    7
 10
1211.2348655199912
 20
564.50208597661901
 11
1211.839930118281
 21
564.82552782449022
  0
LINE
  8
_1-0_
  6
CONTINUOUS
 62
    7
 10
1211.839930118281
 20
564.82552782449022
 11
1212.496524943348
 21
565.02469346329963
  0
LINE
  8
_1-0_
  6
CONTINUOUS
 62
    7
 10
1212.496524943348
 20
565.02469346329963
 11
1213.1793660638873
 21
565.0919277235347
  0
LINE
  8
_1-0_
  6
CONTINUOUS
 62
    7
 10
1213.1793660638873
 20
565.0919277235347
 11
1439.6792967807371
 21
565.0919277235347
  0
LINE
  8
_1-0_
  6
CONTINUOUS
 62
    7
 10
1439.6792967807371
 20
565.0919277235347
 11
1666.1794024728899
 21
565.0919277235347
  0
LINE
  8
_1-0_
  6
CONTINUOUS
 62
    7
 10
1666.1794024728899
 20
565.0919277235347
 11
1666.862156105778
 21
565.02469346329963
  0
LINE
  8
_1-0_
  6
CONTINUOUS
 62
    7
 10
1666.862156105778
 20
565.02469346329963
 11
1667.5186634431932
 21
564.82552782449022
  0
LINE
  8
_1-0_
  6
CONTINUOUS
 62
    7
 10
1667.5186634431932
 20
564.82552782449022
 11
1668.1239030167862
 21
564.50208597661901
  0
LINE
  8
_1-0_
  6
CONTINUOUS
 62
    7
 10
1668.1239030167862
 20
564.50208597661901
 11
1668.6542531606312
 21
564.0668349100356
  0
LINE
  8
_1-0_
  6
CONTINUOUS
 62
    7
 10
1668.6542531606312
 20
564.0668349100356
 11
1669.0894167395631
 21
563.53644102236467
  0
LINE
  8
_1-0_
  6
CONTINUOUS
 62
    7
 10
1669.0894167395631
 20
563.53644102236467
 11
1669.4129460750858
 21
562.93133268024928
  0
LINE
  8
_1-0_
  6
CONTINUOUS
 62
    7
 10
1669.4129460750858
 20
562.93133268024928
 11
1669.6120679700696
 21
562.27478159900795
  0
LINE
  8
_1-0_
  6
CONTINUOUS
 62
    7
 10
1669.6120679700696
 20
562.27478159900795
 11
1669.6792584864788
 21
561.59194047846847
  0
LINE
  8
_1-0_
  6
CONTINUOUS
 62
    7
 10
1669.6792584864788
 20
561.59194047846847
 11
1669.6792584864788
 21
405.09192963824773
  0
LINE
  8
_1-0_
  6
CONTINUOUS
 62
    7
 10
1504.6792973698798
 20
405.09192963824773
 11
1504.6792973698798
 21
440.09193332038791
  0
LINE
  8
_1-0_
  6
CONTINUOUS
 62
    7
 10
1454.6793171061513
 20
405.09192963824773
 11
1454.6793171061513
 21
440.09193332038791
  0
LINE
  8
_1-0_
  6
CONTINUOUS
 62
    7
 10
1254.6793085635859
 20
562.09193240721709
 11
1255.0770274276438
 21
554.65220123644497
  0
LINE
  8
_1-0_
  6
CONTINUOUS
 62
    7
 10
1255.0770274276438
 20
554.65220123644497
 11
1256.2702715074693
 21
547.33805858950814
  0
LINE
  8
_1-0_
  6
CONTINUOUS
 62
    7
 10
1256.2702715074693
 20
547.33805858950814
 11
1258.2589533154107
 21
540.14959195405811
  0
LINE
  8
_1-0_
  6
CONTINUOUS
 62
    7
 10
1258.2589533154107
 20
540.14959195405811
 11
1261.0430728514682
 21
533.086801330095
  0
LINE
  8
_1-0_
  6
CONTINUOUS
 62
    7
 10
1261.0430728514682
 20
533.086801330095
 11
1264.622717603293
 21
526.14959922996729
  0
LINE
  8
_1-0_
  6
CONTINUOUS
 62
    7
 10
1264.622717603293
 20
526.14959922996729
 11
1268.9978875708855
 21
519.33807314132628
  0
LINE
  8
_1-0_
  6
CONTINUOUS
 62
    7
 10
1268.9978875708855
 20
519.33807314132628
 11
1274.1684077789423
 21
512.65217932034636
  0
LINE
  8
_1-0_
  6
CONTINUOUS
 62
    7
 10
1274.1684077789423
 20
512.65217932034636
 11
1280.1344532027667
 21
506.09196151085337
  0
LINE
  8
_1-0_
  6
CONTINUOUS
 62
    7
 10
1280.1344532027667
 20
506.09196151085337
 11
1286.7894638827408
 21
499.76616686375445
  0
LINE
  8
_1-0_
  6
CONTINUOUS
 62
    7
 10
1286.7894638827408
 20
499.76616686375445
 11
1294.0267048839437
 21
493.78363001760823
  0
LINE
  8
_1-0_
  6
CONTINUOUS
 62
    7
 10
1294.0267048839437
 20
493.78363001760823
 11
1301.8463511816781
 21
488.1443947162407
  0
LINE
  8
_1-0_
  6
CONTINUOUS
 62
    7
 10
1301.8463511816781
 20
488.1443947162407
 11
1310.248315288293
 21
482.84837347200016
  0
LINE
  8
_1-0_
  6
CONTINUOUS
 62
    7
 10
1310.248315288293
 20
482.84837347200016
 11
1319.2325972037886
 21
477.89565377253825
  0
LINE
  8
_1-0_
  6
CONTINUOUS
 62
    7
 10
1319.2325972037886
 20
477.89565377253825
 11
1328.7991094405127
 21
473.2861918740291
  0
LINE
  8
_1-0_
  6
CONTINUOUS
 62
    7
 10
1328.7991094405127
 20
473.2861918740291
 11
1338.9481144614201
 21
469.02003152029852
  0
LINE
  8
_1-0_
  6
CONTINUOUS
 62
    7
 10
1338.9481144614201
 20
469.02003152029852
 11
1349.6793498035563
 21
465.09708522369499
  0
LINE
  8
_1-0_
  6
CONTINUOUS
 62
    7
 10
1349.6793498035563
 20
465.09708522369499
 11
1360.8083040097506
 21
461.58025660570058
  0
LINE
  8
_1-0_
  6
CONTINUOUS
 62
    7
 10
1360.8083040097506
 20
461.58025660570058
 11
1372.1504656228319
 21
458.53236180014591
  0
LINE
  8
_1-0_
  6
CONTINUOUS
 62
    7
 10
1372.1504656228319
 20
458.53236180014591
 11
1383.7057471551489
 21
455.95331331937928
  0
LINE
  8
_1-0_
  6
CONTINUOUS
 62
    7
 10
1383.7057471551489
 20
455.95331331937928
 11
1395.4741486067016
 21
453.84324239487808
  0
LINE
  8
_1-0_
  6
CONTINUOUS
 62
    7
 10
1395.4741486067016
 20
453.84324239487808
 11
1407.4557574651417
 21
452.20206153899085
  0
LINE
  8
_1-0_
  6
CONTINUOUS
 62
    7
 10
1407.4557574651417
 20
452.20206153899085
 11
1419.6504862428171
 21
451.02977075171742
  0
LINE
  8
_1-0_
  6
CONTINUOUS
 62
    7
 10
1419.6504862428171
 20
451.02977075171742
 11
1432.0583349397282
 21
450.32641377688373
  0
LINE
  8
_1-0_
  6
CONTINUOUS
 62
    7
 10
1432.0583349397282
 20
450.32641377688373
 11
1444.6793035558749
 21
450.09194687066389
  0
LINE
  8
_1-0_
  6
CONTINUOUS
 62
    7
 10
491.27933973511205
 20
440.09193332038791
 11
491.27933973511205
 21
405.09192963824773
  0
LINE
  8
_1-0_
  6
CONTINUOUS
 62
    7
 10
541.27931999884049
 20
440.09193332038791
 11
541.27931999884049
 21
405.09192963824773
  0
LINE
  8
_1-0_
  6
CONTINUOUS
 62
    7
 10
156.76676068987177
 20
562.16734676287433
 11
174.05332546896915
 21
458.44793621637643
  0
LINE
  8
_1-0_
  6
CONTINUOUS
 62
    7
 10
174.05332546896915
 20
458.44793621637643
 11
174.49256815965555
 21
456.74901351044991
  0
LINE
  8
_1-0_
  6
CONTINUOUS
 62
    7
 10
174.49256815965555
 20
456.74901351044991
 11
175.22202926252788
 21
455.15302002660093
  0
LINE
  8
_1-0_
  6
CONTINUOUS
 62
    7
 10
175.22202926252788
 20
455.15302002660093
 11
176.21924632304427
 21
453.70912382501433
  0
LINE
  8
_1-0_
  6
CONTINUOUS
 62
    7
 10
176.21924632304427
 20
453.70912382501433
 11
177.45351117550172
 21
452.46172488886418
  0
LINE
  8
_1-0_
  6
CONTINUOUS
 62
    7
 10
177.45351117550172
 20
452.46172488886418
 11
178.88681043529147
 21
451.44936152866904
  0
LINE
  8
_1-0_
  6
CONTINUOUS
 62
    7
 10
178.88681043529147
 20
451.44936152866904
 11
180.4750175181502
 21
450.70304811691221
  0
LINE
  8
_1-0_
  6
CONTINUOUS
 62
    7
 10
180.4750175181502
 20
450.70304811691221
 11
182.1692268268481
 21
450.24592513743517
  0
LINE
  8
_1-0_
  6
CONTINUOUS
 62
    7
 10
182.1692268268481
 20
450.24592513743517
 11
183.91726291317724
 21
450.09194687066389
  0
LINE
  8
_1-0_
  6
CONTINUOUS
 62
    7
 10
183.91726291317724
 20
450.09194687066389
 11
516.27932986697624
 21
450.09194687066389
  0
LINE
  8
_1-0_
  6
CONTINUOUS
 62
    7
 10
516.27932986697624
 20
450.09194687066389
 11
848.64141869268815
 21
450.09194687066389
  0
LINE
  8
_1-0_
  6
CONTINUOUS
 62
    7
 10
848.64141869268815
 20
450.09194687066389
 11
850.38942197114795
 21
450.24592513743517
  0
LINE
  8
_1-0_
  6
CONTINUOUS
 62
    7
 10
850.38942197114795
 20
450.24592513743517
 11
852.08362034388938
 21
450.70304811691221
  0
LINE
  8
_1-0_
  6
CONTINUOUS
 62
    7
 10
852.08362034388938
 20
450.70304811691221
 11
853.67187117057415
 21
451.44936152866904
  0
LINE
  8
_1-0_
  6
CONTINUOUS
 62
    7
 10
853.67187117057415
 20
451.44936152866904
 11
855.10509387866864
 21
452.46172488886418
  0
LINE
  8
_1-0_
  6
CONTINUOUS
 62
    7
 10
855.10509387866864
 20
452.46172488886418
 11
856.33936966708256
 21
453.70912382501433
  0
LINE
  8
_1-0_
  6
CONTINUOUS
 62
    7
 10
856.33936966708256
 20
453.70912382501433
 11
857.33664140738119
 21
455.15302002660093
  0
LINE
  8
_1-0_
  6
CONTINUOUS
 62
    7
 10
857.33664140738119
 20
455.15302002660093
 11
858.0661134462099
 21
456.74901351044991
  0
LINE
  8
_1-0_
  6
CONTINUOUS
 62
    7
 10
858.0661134462099
 20
456.74901351044991
 11
858.50530145711423
 21
458.44793621637643
  0
LINE
  8
_1-0_
  6
CONTINUOUS
 62
    7
 10
858.50530145711423
 20
458.44793621637643
 11
875.79189904408099
 21
562.16734676287433
  0
LINE
  8
_1-0_
  6
CONTINUOUS
 62
    7
 10
1534.6793380207075
 20
450.09194687066389
 11
1514.6793109201556
 21
450.09194687066389
  0
LINE
  8
_1-0_
  6
CONTINUOUS
 62
    7
 10
1514.6793109201556
 20
450.09194687066389
 11
1444.6793035558749
 21
450.09194687066389
  0
LINE
  8
_2-0_
  6
CONTINUOUS
 62
    7
 10
140.00000379260428
 20
879.01555654164895
 11
141.32852565367699
 21
879.6330443864623
  0
LINE
  8
_2-0_
  6
CONTINUOUS
 62
    7
 10
141.32852565367699
 20
879.6330443864623
 11
142.63461786807738
 21
881.48568289620528
  0
LINE
  8
_2-0_
  6
CONTINUOUS
 62
    7
 10
142.63461786807738
 20
881.48568289620528
 11
143.91826949984875
 21
884.57338458322636
  0
LINE
  8
_2-0_
  6
CONTINUOUS
 62
    7
 10
143.91826949984875
 20
884.57338458322636
 11
145.1794914849475
 21
888.89614944752577
  0
LINE
  8
_2-0_
  6
CONTINUOUS
 62
    7
 10
145.1794914849475
 20
888.89614944752577
 11
146.4182728874178
 21
894.45406497675481
  0
LINE
  8
_2-0_
  6
CONTINUOUS
 62
    7
 10
146.4182728874178
 20
894.45406497675481
 11
147.63461370725878
 21
901.24695619561044
  0
LINE
  8
_2-0_
  6
CONTINUOUS
 62
    7
 10
147.63461370725878
 20
901.24695619561044
 11
148.82852488042772
 21
909.27499807939557
  0
LINE
  8
_2-0_
  6
CONTINUOUS
 62
    7
 10
148.82852488042772
 20
909.27499807939557
 11
149.99999547096763
 21
918.53801565280742
  0
LINE
  8
_2-0_
  6
CONTINUOUS
 62
    7
 10
149.99999547096763
 20
918.53801565280742
 11
151.129603220229
 21
928.87074474202154
  0
LINE
  8
_2-0_
  6
CONTINUOUS
 62
    7
 10
151.129603220229
 20
928.87074474202154
 11
152.19791493360589
 21
940.10757122260713
  0
LINE
  8
_2-0_
  6
CONTINUOUS
 62
    7
 10
152.19791493360589
 20
940.10757122260713
 11
153.20491967514215
 21
952.24858258221605
  0
LINE
  8
_2-0_
  6
CONTINUOUS
 62
    7
 10
153.20491967514215
 20
952.24858258221605
 11
154.15063931675036
 21
965.29369133319631
  0
LINE
  8
_2-0_
  6
CONTINUOUS
 62
    7
 10
154.15063931675036
 20
965.29369133319631
 11
155.03505198651766
 21
979.24289747554826
  0
LINE
  8
_2-0_
  6
CONTINUOUS
 62
    7
 10
155.03505198651766
 20
979.24289747554826
 11
155.85816862040048
 21
994.09628849692331
  0
LINE
  8
_2-0_
  6
CONTINUOUS
 62
    7
 10
155.85816862040048
 20
994.09628849692331
 11
156.61998921839881
 21
1009.8538643973213
  0
LINE
  8
_2-0_
  6
CONTINUOUS
 62
    7
 10
156.61998921839881
 20
1009.8538643973213
 11
157.32050284455653
 21
1026.5155376890912
  0
LINE
  8
_2-0_
  6
CONTINUOUS
 62
    7
 10
157.32050284455653
 20
1026.5155376890912
 11
157.94851107947153
 21
1043.7947863133259
  0
LINE
  8
_2-0_
  6
CONTINUOUS
 62
    7
 10
157.94851107947153
 20
1043.7947863133259
 11
158.4927826958733
 21
1061.4049132358152
  0
LINE
  8
_2-0_
  6
CONTINUOUS
 62
    7
 10
158.4927826958733
 20
1061.4049132358152
 11
158.95332862971827
 21
1079.3460059442114
  0
LINE
  8
_2-0_
  6
CONTINUOUS
 62
    7
 10
158.95332862971827
 20
1079.3460059442114
 11
159.33012700909359
 21
1097.6180644385142
  0
LINE
  8
_2-0_
  6
CONTINUOUS
 62
    7
 10
159.33012700909359
 20
1097.6180644385142
 11
159.62319970591182
 21
1116.221001231072
  0
LINE
  8
_2-0_
  6
CONTINUOUS
 62
    7
 10
159.62319970591182
 20
1116.221001231072
 11
159.83253578421682
 21
1135.1549038095363
  0
LINE
  8
_2-0_
  6
CONTINUOUS
 62
    7
 10
159.83253578421682
 20
1135.1549038095363
 11
159.95813524400859
 21
1154.4197721739074
  0
LINE
  8
_2-0_
  6
CONTINUOUS
 62
    7
 10
159.95813524400859
 20
1154.4197721739074
 11
159.99999808528713
 21
1174.0155188365331
  0
LINE
  8
_2-0_
  6
CONTINUOUS
 62
    7
 10
840.00000088371371
 20
1174.0155188365331
 11
840.04190746881773
 21
1154.4197721739074
  0
LINE
  8
_2-0_
  6
CONTINUOUS
 62
    7
 10
840.04190746881773
 20
1154.4197721739074
 11
840.1674522488272
 21
1135.1549038095363
  0
LINE
  8
_2-0_
  6
CONTINUOUS
 62
    7
 10
840.1674522488272
 20
1135.1549038095363
 11
840.37681019904528
 21
1116.221001231072
  0
LINE
  8
_2-0_
  6
CONTINUOUS
 62
    7
 10
840.37681019904528
 20
1116.221001231072
 11
840.66989383181999
 21
1097.6180644385142
  0
LINE
  8
_2-0_
  6
CONTINUOUS
 62
    7
 10
840.66989383181999
 20
1097.6180644385142
 11
841.04670314715167
 21
1079.3460059442114
  0
LINE
  8
_2-0_
  6
CONTINUOUS
 62
    7
 10
841.04670314715167
 20
1079.3460059442114
 11
841.50723814504022
 21
1061.4049132358152
  0
LINE
  8
_2-0_
  6
CONTINUOUS
 62
    7
 10
841.50723814504022
 20
1061.4049132358152
 11
842.05149882548551
 21
1043.7947863133259
  0
LINE
  8
_2-0_
  6
CONTINUOUS
 62
    7
 10
842.05149882548551
 20
1043.7947863133259
 11
842.67948518848789
 21
1026.5155376890912
  0
LINE
  8
_2-0_
  6
CONTINUOUS
 62
    7
 10
842.67948518848789
 20
1026.5155376890912
 11
843.37999881464543
 21
1009.8538643973213
  0
LINE
  8
_2-0_
  6
CONTINUOUS
 62
    7
 10
843.37999881464543
 20
1009.8538643973213
 11
844.14184128455668
 21
994.09628849692331
  0
LINE
  8
_2-0_
  6
CONTINUOUS
 62
    7
 10
844.14184128455668
 20
994.09628849692331
 11
844.96492511057011
 21
979.24289747554826
  0
LINE
  8
_2-0_
  6
CONTINUOUS
 62
    7
 10
844.96492511057011
 20
979.24289747554826
 11
845.84933778033746
 21
965.29369133319631
  0
LINE
  8
_2-0_
  6
CONTINUOUS
 62
    7
 10
845.84933778033746
 20
965.29369133319631
 11
846.79507929385852
 21
952.24858258221605
  0
LINE
  8
_2-0_
  6
CONTINUOUS
 62
    7
 10
846.79507929385852
 20
952.24858258221605
 11
847.80206216348176
 21
940.10757122260713
  0
LINE
  8
_2-0_
  6
CONTINUOUS
 62
    7
 10
847.80206216348176
 20
940.10757122260713
 11
848.87037387685882
 21
928.87074474202154
  0
LINE
  8
_2-0_
  6
CONTINUOUS
 62
    7
 10
848.87037387685882
 20
928.87074474202154
 11
850.00001443398958
 21
918.53801565280742
  0
LINE
  8
_2-0_
  6
CONTINUOUS
 62
    7
 10
850.00001443398958
 20
918.53801565280742
 11
851.17147408857306
 21
909.27499807939557
  0
LINE
  8
_2-0_
  6
CONTINUOUS
 62
    7
 10
851.17147408857306
 20
909.27499807939557
 11
852.36541806961111
 21
901.24695619561044
  0
LINE
  8
_2-0_
  6
CONTINUOUS
 62
    7
 10
852.36541806961111
 20
901.24695619561044
 11
853.5817588894522
 21
894.45406497675481
  0
LINE
  8
_2-0_
  6
CONTINUOUS
 62
    7
 10
853.5817588894522
 20
894.45406497675481
 11
854.82049654809657
 21
888.89614944752577
  0
LINE
  8
_2-0_
  6
CONTINUOUS
 62
    7
 10
854.82049654809657
 20
888.89614944752577
 11
856.0817185331955
 21
884.57338458322636
  0
LINE
  8
_2-0_
  6
CONTINUOUS
 62
    7
 10
856.0817185331955
 20
884.57338458322636
 11
857.36533735709759
 21
881.48568289620528
  0
LINE
  8
_2-0_
  6
CONTINUOUS
 62
    7
 10
857.36533735709759
 20
881.48568289620528
 11
858.67144050745424
 21
879.6330443864623
  0
LINE
  8
_2-0_
  6
CONTINUOUS
 62
    7
 10
896.25001148827755
 20
1299.0155132396799
 11
896.98158323074392
 21
1298.9435109024341
  0
LINE
  8
_2-0_
  6
CONTINUOUS
 62
    7
 10
896.98158323074392
 20
1298.9435109024341
 11
897.68507143705506
 21
1298.7301285202439
  0
LINE
  8
_2-0_
  6
CONTINUOUS
 62
    7
 10
897.68507143705506
 20
1298.7301285202439
 11
898.33335493522259
 21
1298.3835899323569
  0
LINE
  8
_2-0_
  6
CONTINUOUS
 62
    7
 10
898.33335493522259
 20
1298.3835899323569
 11
898.90167471985092
 21
1297.9171932618128
  0
LINE
  8
_2-0_
  6
CONTINUOUS
 62
    7
 10
898.90167471985092
 20
1297.9171932618128
 11
899.36798390274339
 21
1297.3489609648364
  0
LINE
  8
_2-0_
  6
CONTINUOUS
 62
    7
 10
899.36798390274339
 20
1297.3489609648364
 11
899.7145224906302
 21
1296.700589979017
  0
LINE
  8
_2-0_
  6
CONTINUOUS
 62
    7
 10
899.7145224906302
 20
1296.700589979017
 11
899.92790487282059
 21
1295.9971017727059
  0
LINE
  8
_2-0_
  6
CONTINUOUS
 62
    7
 10
899.92790487282059
 20
1295.9971017727059
 11
899.99999469771808
 21
1295.2655300302395
  0
LINE
  8
_2-0_
  6
CONTINUOUS
 62
    7
 10
899.99999469771808
 20
842.7655730376373
 11
899.92790487282059
 21
842.03391380751907
  0
LINE
  8
_2-0_
  6
CONTINUOUS
 62
    7
 10
899.92790487282059
 20
842.03391380751907
 11
899.7145224906302
 21
841.33051308885956
  0
LINE
  8
_2-0_
  6
CONTINUOUS
 62
    7
 10
899.7145224906302
 20
841.33051308885956
 11
899.36798390274339
 21
840.68214210304052
  0
LINE
  8
_2-0_
  6
CONTINUOUS
 62
    7
 10
899.36798390274339
 20
840.68214210304052
 11
898.90167471985092
 21
840.1139098060637
  0
LINE
  8
_2-0_
  6
CONTINUOUS
 62
    7
 10
898.90167471985092
 20
840.1139098060637
 11
898.33335493522259
 21
839.64751313551972
  0
LINE
  8
_2-0_
  6
CONTINUOUS
 62
    7
 10
898.33335493522259
 20
839.64751313551972
 11
897.68507143705506
 21
839.3009745476329
  0
LINE
  8
_2-0_
  6
CONTINUOUS
 62
    7
 10
897.68507143705506
 20
839.3009745476329
 11
896.98158323074392
 21
839.0875921654424
  0
LINE
  8
_2-0_
  6
CONTINUOUS
 62
    7
 10
896.98158323074392
 20
839.0875921654424
 11
896.25001148827755
 21
839.01558982819665
  0
LINE
  8
_2-0_
  6
CONTINUOUS
 62
    7
 10
103.74999841667972
 20
839.01558982819665
 11
103.01841573825669
 21
839.0875921654424
  0
LINE
  8
_2-0_
  6
CONTINUOUS
 62
    7
 10
103.01841573825669
 20
839.0875921654424
 11
102.31493846790215
 21
839.3009745476329
  0
LINE
  8
_2-0_
  6
CONTINUOUS
 62
    7
 10
102.31493846790215
 20
839.3009745476329
 11
101.66661122590881
 21
839.64751313551972
  0
LINE
  8
_2-0_
  6
CONTINUOUS
 62
    7
 10
101.66661122590881
 20
839.64751313551972
 11
101.09834612106255
 21
840.1139098060637
  0
LINE
  8
_2-0_
  6
CONTINUOUS
 62
    7
 10
101.09834612106255
 20
840.1139098060637
 11
100.63199319434432
 21
840.68214210304052
  0
LINE
  8
_2-0_
  6
CONTINUOUS
 62
    7
 10
100.63199319434432
 20
840.68214210304052
 11
100.28545460645745
 21
841.33051308885956
  0
LINE
  8
_2-0_
  6
CONTINUOUS
 62
    7
 10
100.28545460645745
 20
841.33051308885956
 11
100.07205035235415
 21
842.03391380751907
  0
LINE
  8
_2-0_
  6
CONTINUOUS
 62
    7
 10
100.07205035235415
 20
842.03391380751907
 11
100.00000427128271
 21
842.7655730376373
  0
LINE
  8
_2-0_
  6
CONTINUOUS
 62
    7
 10
100.00000427128271
 20
842.7655730376373
 11
100.00000427128271
 21
1295.2655300302395
  0
LINE
  8
_2-0_
  6
CONTINUOUS
 62
    7
 10
100.00000427128271
 20
1295.2655300302395
 11
100.07205035235415
 21
1295.9971017727059
  0
LINE
  8
_2-0_
  6
CONTINUOUS
 62
    7
 10
100.07205035235415
 20
1295.9971017727059
 11
100.28545460645745
 21
1296.700589979017
  0
LINE
  8
_2-0_
  6
CONTINUOUS
 62
    7
 10
100.28545460645745
 20
1296.700589979017
 11
100.63199319434432
 21
1297.3489609648364
  0
LINE
  8
_2-0_
  6
CONTINUOUS
 62
    7
 10
100.63199319434432
 20
1297.3489609648364
 11
101.09834612106255
 21
1297.9171932618128
  0
LINE
  8
_2-0_
  6
CONTINUOUS
 62
    7
 10
101.09834612106255
 20
1297.9171932618128
 11
101.66661122590881
 21
1298.3835899323569
  0
LINE
  8
_2-0_
  6
CONTINUOUS
 62
    7
 10
101.66661122590881
 20
1298.3835899323569
 11
102.31493846790215
 21
1298.7301285202439
  0
LINE
  8
_2-0_
  6
CONTINUOUS
 62
    7
 10
102.31493846790215
 20
1298.7301285202439
 11
103.01841573825669
 21
1298.9435109024341
  0
LINE
  8
_2-0_
  6
CONTINUOUS
 62
    7
 10
103.01841573825669
 20
1298.9435109024341
 11
103.74999841667972
 21
1299.0155132396799
  0
LINE
  8
_2-0_
  6
CONTINUOUS
 62
    7
 10
103.74999841667972
 20
1299.0155132396799
 11
896.25001148827755
 21
1299.0155132396799
  0
LINE
  8
_2-0_
  6
CONTINUOUS
 62
    7
 10
860.00002798426567
 20
1170.2655356270925
 11
860.00002798426567
 21
882.7655397510897
  0
LINE
  8
_2-0_
  6
CONTINUOUS
 62
    7
 10
860.00002798426567
 20
882.7655397510897
 11
859.92793815936818
 21
882.03396800862311
  0
LINE
  8
_2-0_
  6
CONTINUOUS
 62
    7
 10
859.92793815936818
 20
882.03396800862311
 11
859.71455577717779
 21
881.33047980231197
  0
LINE
  8
_2-0_
  6
CONTINUOUS
 62
    7
 10
859.71455577717779
 20
881.33047980231197
 11
859.36801718929087
 21
880.68219630414444
  0
LINE
  8
_2-0_
  6
CONTINUOUS
 62
    7
 10
859.36801718929087
 20
880.68219630414444
 11
858.901620518747
 21
880.11387651951611
  0
LINE
  8
_2-0_
  6
CONTINUOUS
 62
    7
 10
858.901620518747
 20
880.11387651951611
 11
858.33338822177006
 21
879.64756733662375
  0
LINE
  8
_2-0_
  6
CONTINUOUS
 62
    7
 10
858.33338822177006
 20
879.64756733662375
 11
857.68510472360265
 21
879.30102874873683
  0
LINE
  8
_2-0_
  6
CONTINUOUS
 62
    7
 10
857.68510472360265
 20
879.30102874873683
 11
856.98161651729151
 21
879.08755887889481
  0
LINE
  8
_2-0_
  6
CONTINUOUS
 62
    7
 10
856.98161651729151
 20
879.08755887889481
 11
856.2499572871734
 21
879.01555654164895
  0
LINE
  8
_2-0_
  6
CONTINUOUS
 62
    7
 10
856.2499572871734
 20
879.01555654164895
 11
143.74999793800157
 21
879.01555654164895
  0
LINE
  8
_2-0_
  6
CONTINUOUS
 62
    7
 10
143.74999793800157
 20
879.01555654164895
 11
143.01841525957855
 21
879.08755887889481
  0
LINE
  8
_2-0_
  6
CONTINUOUS
 62
    7
 10
143.01841525957855
 20
879.08755887889481
 11
142.31493798922372
 21
879.30102874873683
  0
LINE
  8
_2-0_
  6
CONTINUOUS
 62
    7
 10
142.31493798922372
 20
879.30102874873683
 11
141.66661074723066
 21
879.64756733662375
  0
LINE
  8
_2-0_
  6
CONTINUOUS
 62
    7
 10
141.66661074723066
 20
879.64756733662375
 11
141.0983456423844
 21
880.11387651951611
  0
LINE
  8
_2-0_
  6
CONTINUOUS
 62
    7
 10
141.0983456423844
 20
880.11387651951611
 11
140.63199271566617
 21
880.68219630414444
  0
LINE
  8
_2-0_
  6
CONTINUOUS
 62
    7
 10
140.63199271566617
 20
880.68219630414444
 11
140.2854541277793
 21
881.33047980231197
  0
LINE
  8
_2-0_
  6
CONTINUOUS
 62
    7
 10
140.2854541277793
 20
881.33047980231197
 11
140.07204987367601
 21
882.03396800862311
  0
LINE
  8
_2-0_
  6
CONTINUOUS
 62
    7
 10
140.07204987367601
 20
882.03396800862311
 11
140.00000379260428
 21
882.7655397510897
  0
LINE
  8
_2-0_
  6
CONTINUOUS
 62
    7
 10
140.00000379260428
 20
882.7655397510897
 11
140.00000379260428
 21
1170.2655356270925
  0
LINE
  8
_2-0_
  6
CONTINUOUS
 62
    7
 10
140.00000379260428
 20
1170.2655356270925
 11
140.07204987367601
 21
1170.9971073695592
  0
LINE
  8
_2-0_
  6
CONTINUOUS
 62
    7
 10
140.07204987367601
 20
1170.9971073695592
 11
140.2854541277793
 21
1171.70059557587
  0
LINE
  8
_2-0_
  6
CONTINUOUS
 62
    7
 10
140.2854541277793
 20
1171.70059557587
 11
140.63199271566617
 21
1172.3489665616894
  0
LINE
  8
_2-0_
  6
CONTINUOUS
 62
    7
 10
140.63199271566617
 20
1172.3489665616894
 11
141.0983456423844
 21
1172.9171988586661
  0
LINE
  8
_2-0_
  6
CONTINUOUS
 62
    7
 10
141.0983456423844
 20
1172.9171988586661
 11
141.66661074723066
 21
1173.38359552921
  0
LINE
  8
_2-0_
  6
CONTINUOUS
 62
    7
 10
141.66661074723066
 20
1173.38359552921
 11
142.31493798922372
 21
1173.7301341170969
  0
LINE
  8
_2-0_
  6
CONTINUOUS
 62
    7
 10
142.31493798922372
 20
1173.7301341170969
 11
143.01841525957855
 21
1173.9435164992874
  0
LINE
  8
_2-0_
  6
CONTINUOUS
 62
    7
 10
143.01841525957855
 20
1173.9435164992874
 11
143.74999793800157
 21
1174.0155188365331
  0
CIRCLE
  8
_1-0_
  6
CONTINUOUS
 62
    7
 10
516.27932986697624
 20
535.09193081653257
 40
14.999999820495663
  0
CIRCLE
  8
_1-0_
  6
CONTINUOUS
 62
    7
 10
516.27932986697624
 20
535.09193081653257
 40
9.9999998803304422
  0
ARC
  8
_1-0_
  6
CONTINUOUS
 62
    7
 10
1534.6793380207075
 20
460.09196042093993
 40
9.9999998803304422
 50
270
 51
0
  0
ARC
  8
_1-0_
  6
CONTINUOUS
 62
    7
 10
481.27932618483612
 20
440.09193332038791
 40
9.9999998803304422
 50
0
 51
90
  0
ARC
  8
_1-0_
  6
CONTINUOUS
 62
    7
 10
551.27933354911647
 20
440.09193332038791
 40
9.9999998803304422
 50
90
 51
180
  0
ARC
  8
_1-0_
  6
CONTINUOUS
 62
    7
 10
153.31437766321841
 20
561.59194047846847
 40
3.4999998897659266
 50
9.462310791015625
 51
90
  0
ARC
  8
_1-0_
  6
CONTINUOUS
 62
    7
 10
879.24424926286497
 20
561.59194047846847
 40
3.4999998897659266
 50
90
 51
170.53767395019531
  0
ARC
  8
_1-0_
  6
CONTINUOUS
 62
    7
 10
1251.1793650623454
 20
561.59194047846847
 40
3.4999998897659266
 50
0
 51
90
  0
ARC
  8
_1-0_
  6
CONTINUOUS
 62
    7
 10
1444.6793035558749
 20
440.09193332038791
 40
9.9999998803304422
 50
0
 51
90
  0
ARC
  8
_1-0_
  6
CONTINUOUS
 62
    7
 10
1514.6793109201556
 20
440.09193332038791
 40
9.9999998803304422
 50
90
 51
180
  0
CIRCLE
  8
_2-0_
  6
CONTINUOUS
 62
    7
 10
500.00002135641324
 20
1239.0155194256756
 40
17.500000474075552
  0
CIRCLE
  8
_2-0_
  6
CONTINUOUS
 62
    7
 10
500.00002135641324
 20
1109.0155182473907
 40
25.000001067820662
  0
ARC
  8
_2-0_
  6
CONTINUOUS
 62
    7
 10
149.99999547096763
 20
889.01557009192504
 40
9.9999998803304422
 50
180
 51
270
  0
ARC
  8
_2-0_
  6
CONTINUOUS
 62
    7
 10
850.00001443398958
 20
889.01557009192504
 40
9.9999998803304422
 50
270
 51
0
  0
TEXT
  8
_0-0_
 62
    6
 10
1845.8955430432175
 20
1814.9806749498521
 40
100
 41
1
 50
0
  1
 B1-B801-1_
  0
TEXT
  8
_1-0_
 62
    4
 10
1173.4292944241674
 20
1589.3697937483032
 40
25
 41
1
 50
0
  1
 
  0
TEXT
  8
_2-0_
 62
    4
 10
1132.14999578174
 20
1319.2584935486545
 40
25
 41
1
 50
0
  1
 
  0
LINE
  8
_2-0_
  6
CONTINUOUS
 62
    7
 10
899.99999469771808
 20
1295.2655300302395
 11
899.99999469771808
 21
989.03279699767177
  0
LINE
  8
_1-0_
  6
CONTINUOUS
 62
    7
 10
1544.6793515709837
 20
460.09196042093993
 11
1544.6793515709837
 21
556.45752922166389
  0
LINE
  8
_1-0_
  6
CONTINUOUS
 62
    7
 10
1544.6793515709837
 20
556.45752922166389
 11
1544.6793515709837
 21
557.68922057828468
  0
LINE
  8
_0-0_
  6
CONTINUOUS
 62
    7
 10
1544.698943853268
 20
557.0390271670999
 11
1544.698943853268
 21
565.1155719746655
  0
LINE
  8
_0-0_
  6
CONTINUOUS
 62
    7
 10
899.92960195781916
 20
988.87507425730576
 11
899.92960195781916
 21
842.51231707232864
  0
LINE
  8
_0-0_
  6
CONTINUOUS
 62
    7
 10
859.92821851211716
 20
1171.0067988433357
 11
860.0002208493629
 21
1170.2752161649128
  0
LINE
  8
_0-0_
  6
CONTINUOUS
 62
    7
 10
859.71483612992665
 20
1171.7102761136905
 11
859.92821851211716
 21
1171.0067988433357
  0
LINE
  8
_0-0_
  6
CONTINUOUS
 62
    7
 10
859.36829754203984
 20
1172.3586033556835
 11
859.71483612992665
 21
1171.7102761136905
  0
LINE
  8
_0-0_
  6
CONTINUOUS
 62
    7
 10
858.90190087149585
 20
1172.9268684605299
 11
859.36829754203984
 21
1172.3586033556835
  0
LINE
  8
_0-0_
  6
CONTINUOUS
 62
    7
 10
858.33366857451892
 20
1173.3932213872481
 11
858.90190087149585
 21
1172.9268684605299
  0
LINE
  8
_0-0_
  6
CONTINUOUS
 62
    7
 10
857.68529758869988
 20
1173.739759975135
 11
858.33366857451892
 21
1173.3932213872481
  0
LINE
  8
_0-0_
  6
CONTINUOUS
 62
    7
 10
856.98180938238897
 20
1173.9531642292382
 11
857.68529758869988
 21
1173.739759975135
  0
LINE
  8
_0-0_
  6
CONTINUOUS
 62
    7
 10
856.25023763992226
 20
1174.0252103103101
 11
856.98180938238897
 21
1173.9531642292382
  0
ENDSEC
  0
EOF
