  0
SECTION
  2
HEADER
  9
$ACADVER
  1
AC1009
  9
$INSBASE
 10
0
 20
0
 30
0
  9
$EXTMIN
 10
0
 20
0
  9
$EXTMAX
 10
2970
 20
2100
  9
$LIMMIN
 10
0
 20
0
  9
$LIMMAX
 10
2970
 20
2100
  9
$LTSCALE
 40
10
  0
ENDSEC
  0
SECTION
  2
TABLES
  0
TABLE
  2
LTYPE
 70
     9
  0
LTYPE
  2
CONTINUOUS
 70
    64
  3
実線
 72
    65
 73
     0
 40
0.0
  0
LTYPE
  2
DASHED1
 70
    64
  3
--  --  --  --  --  --  --  --  
 72
    65
 73
     2
 40
2.5
 49
1.25
 49
-1.25
  0
LTYPE
  2
DASHED2
 70
    64
  3
----    ----    ----    ----    
 72
    65
 73
     2
 40
5.0
 49
2.5
 49
-2.5
  0
LTYPE
  2
DASHED3
 70
    64
  3
------  ------  ------  ------  
 72
    65
 73
     2
 40
5.0
 49
3.75
 49
-1.25
  0
LTYPE
  2
CENTER1
 70
    64
  3
----- - ----- - ----- - ----- - 
 72
    65
 73
     4
 40
10.0
 49
6.25
 49
-1.25
 49
1.25
 49
-1.25
  0
LTYPE
  2
CENTER2
 70
    64
  3
----------  --  ----------  --  
 72
    65
 73
     4
 40
20.0
 49
12.5
 49
-2.5
 49
2.5
 49
-2.5
  0
LTYPE
  2
PHANTOM1
 70
    64
  3
--- - - --- - - --- - - --- - - 
 72
    65
 73
     6
 40
10.0
 49
3.25
 49
-1.25
 49
1.25
 49
-1.25
 49
1.25
 49
-1.25
  0
LTYPE
  2
PHANTOM2
 70
    64
  3
--------  -  -  --------  -  -  
 72
    65
 73
     6
 40
20.0
 49
10.0
 49
-2.5
 49
1.25
 49
-2.5
 49
1.25
 49
-2.5
  0
LTYPE
  2
DOT
 70
    64
  3
-   -   -   -   -   -   -   -   
 72
    65
 73
     2
 40
2.5
 49
0.625
 49
-1.875
  0
LTYPE
  2
DUMMY
 70
    64
  3
ダミー
 72
    65
 73
     0
 40
0.0
  0
LTYPE
  2
RAND1
 70
    64
  3
ランダム線1
 72
    65
 73
     4
 40
10.0
 49
1.0
 49
-2.0
 49
3.0
 49
-4.0
  0
LTYPE
  2
RAND2
 70
    64
  3
ランダム線2
 72
    65
 73
     4
 40
14.0
 49
2.0
 49
-3.0
 49
4.0
 49
-5.0
  0
LTYPE
  2
RAND3
 70
    64
  3
ランダム線3
 72
    65
 73
     4
 40
18.0
 49
3.0
 49
-4.0
 49
5.0
 49
-6.0
  0
LTYPE
  2
RAND4
 70
    64
  3
ランダム線4
 72
    65
 73
     4
 40
22.0
 49
4.0
 49
-5.0
 49
6.0
 49
-7.0
  0
LTYPE
  2
RAND5
 70
    64
  3
ランダム線5
 72
    65
 73
     4
 40
26.0
 49
5.0
 49
-6.0
 49
7.0
 49
-8.0
  0
LTYPE
  2
LONG1
 70
    64
  3
----------  --  ----------  --  
 72
    65
 73
     4
 40
40.0
 49
32.5
 49
-2.5
 49
2.5
 49
-2.5
  0
LTYPE
  2
LONG2
 70
    64
  3
--------  -  -  --------  -  -  
 72
    65
 73
     6
 40
40.0
 49
30.0
 49
-2.5
 49
1.25
 49
-2.5
 49
1.25
 49
-2.5
  0
LTYPE
  2
LONG3
 70
    64
  3
+++++++++++++++..+++++++++++++++
 72
    65
 73
     2
 40
40.0
 49
37.5
 49
-2.5
  0
LTYPE
  2
LONG4
 70
    64
  3
+++++++++++++++..+++++++++++++++
 72
    65
 73
     2
 40
80.0
 49
75.0
 49
-5.0
  0
LTYPE
  2
LONG5
 70
    64
  3
----------  --  ----------  --  
 72
    65
 73
     4
 40
60.0
 49
37.5
 49
-7.5
 49
7.5
 49
-7.5
  0
LTYPE
  2
dashed
 70
   64
  3
-------   -------------   ------
 72
   65
 73
    2
 40
7.5
 49
6
 49
-1.5
  0
LTYPE
  2
dashed_spaced
 70
   64
  3
----        --------        ----
 72
   65
 73
    2
 40
12
 49
6
 49
-6
  0
LTYPE
  2
long_dashed_dotted
 70
   64
  3
------------- --- --------------
 72
   65
 73
    4
 40
15.25
 49
12
 49
-1.5
 49
0.25
 49
-1.5
  0
LTYPE
  2
long_dashed_double-dotted
 70
   64
  3
----------- --- --- ------------
 72
   65
 73
    6
 40
17
 49
12
 49
-1.5
 49
0.25
 49
-1.5
 49
0.25
 49
-1.5
  0
LTYPE
  2
long_dashed_triplicate-dotted
 70
   64
  3
--------- --- --- --- ----------
 72
   65
 73
    8
 40
18.75
 49
12
 49
-1.5
 49
0.25
 49
-1.5
 49
0.25
 49
-1.5
 49
0.25
 49
-1.5
  0
LTYPE
  2
dotted
 70
   64
  3
   -       -       -       -    
 72
   65
 73
    2
 40
1.75
 49
0.25
 49
-1.5
  0
LTYPE
  2
chain
 70
   64
  3
-------------- -- --------------
 72
   65
 73
    4
 40
18.5
 49
12
 49
-1.5
 49
3.5
 49
-1.5
  0
LTYPE
  2
chain_double_dash
 70
   64
  3
------------ -- -- -------------
 72
   65
 73
    6
 40
23.5
 49
12
 49
-1.5
 49
3.5
 49
-1.5
 49
3.5
 49
-1.5
  0
LTYPE
  2
dashed_dotted
 70
   64
  3
-----------     -     ----------
 72
   65
 73
    4
 40
9.25
 49
6
 49
-1.5
 49
0.25
 49
-1.5
  0
LTYPE
  2
double-dashed_dotted
 70
   64
  3
------   -----------   -   -----
 72
   65
 73
    6
 40
16.75
 49
6
 49
-1.5
 49
6
 49
-1.5
 49
0.25
 49
-1.5
  0
LTYPE
  2
dashed_double-dotted
 70
   64
  3
---------    -    -    ---------
 72
   65
 73
    6
 40
11
 49
6
 49
-1.5
 49
0.25
 49
-1.5
 49
0.25
 49
-1.5
  0
LTYPE
  2
double-dashed_double-dotted
 70
   64
  3
-----   ---------   -   -   ----
 72
   65
 73
    8
 40
18.5
 49
6
 49
-1.5
 49
6
 49
-1.5
 49
0.25
 49
-1.5
 49
0.25
 49
-1.5
  0
LTYPE
  2
dashed_triplicate-dotted
 70
   64
  3
-------    -    -    -    ------
 72
   65
 73
    8
 40
12.75
 49
6
 49
-1.5
 49
0.25
 49
-1.5
 49
0.25
 49
-1.5
 49
0.25
 49
-1.5
  0
LTYPE
  2
double-dashed_triplicate-dotted
 70
   64
  3
-----  ---------  -  -  -  -----
 72
   65
 73
   10
 40
20.25
 49
6
 49
-1.5
 49
6
 49
-1.5
 49
0.25
 49
-1.5
 49
0.25
 49
-1.5
 49
0.25
 49
-1.5
  0
LTYPE
  2
undefined
 70
   64
  3
--------------------------------
 72
   65
 73
    0
 40
0
  0
LTYPE
  2
_
 70
   64
  3
                                
 72
   65
 73
    0
 40
0
  0
LTYPE
  2
__18
 70
   64
  3
                                
 72
   65
 73
    0
 40
0
  0
LTYPE
  2
__19
 70
   64
  3
                                
 72
   65
 73
    0
 40
0
  0
LTYPE
  2
__20
 70
   64
  3
                                
 72
   65
 73
    0
 40
0
  0
LTYPE
  2
__21
 70
   64
  3
                                
 72
   65
 73
    0
 40
0
  0
LTYPE
  2
__22
 70
   64
  3
                                
 72
   65
 73
    0
 40
0
  0
LTYPE
  2
__23
 70
   64
  3
                                
 72
   65
 73
    0
 40
0
  0
LTYPE
  2
__24
 70
   64
  3
                                
 72
   65
 73
    0
 40
0
  0
LTYPE
  2
__25
 70
   64
  3
                                
 72
   65
 73
    0
 40
0
  0
LTYPE
  2
__26
 70
   64
  3
                                
 72
   65
 73
    0
 40
0
  0
LTYPE
  2
__27
 70
   64
  3
                                
 72
   65
 73
    0
 40
0
  0
LTYPE
  2
__28
 70
   64
  3
                                
 72
   65
 73
    0
 40
0
  0
LTYPE
  2
__29
 70
   64
  3
                                
 72
   65
 73
    0
 40
0
  0
LTYPE
  2
__30
 70
   64
  3
                                
 72
   65
 73
    0
 40
0
  0
LTYPE
  2
__31
 70
   64
  3
                                
 72
   65
 73
    0
 40
0
  0
LTYPE
  2
__32
 70
   64
  3
                                
 72
   65
 73
    0
 40
0
  0
ENDTAB
  0
TABLE
  2
STYLE
  5
3
100
AcDbSymbolTable
 70
     1
  0
STYLE
  5
10
100
AcDbSymbolTableRecord
100
AcDbTextStyleTableRecord
  2
STANDARD
 70
     0
 40
0.0
 41
1.0
 50
0.0
 71
     0
 42
0.2
  3
txt
  4
bigfont.shx
  0
STYLE
  5
26
100
AcDbSymbolTableRecord
100
AcDbTextStyleTableRecord
  2
TATEGAKI
 70
    68
 40
0.0
 41
1.0
 50
0.0
 71
     0
 42
1.0
  3
txt
  4
bigfont.shx
  0
ENDTAB
  0
TABLE
  2
LAYER
 70
    4
  0
LAYER
  2
_0-0_
 70
   64
 62
    7
  6
CONTINUOUS
  0
LAYER
  2
_2-0_
 70
   64
 62
    7
  6
CONTINUOUS
  0
LAYER
  2
_3-0_
 70
   64
 62
    7
  6
CONTINUOUS
  0
LAYER
  2
ADD_LINE
 70
   64
 62
    7
  6
CONTINUOUS
  0
ENDTAB
  0
ENDSEC
  0
SECTION
  2
BLOCKS
  0
ENDSEC
  0
SECTION
  2
ENTITIES
  0
LINE
  8
_2-0_
  6
CONTINUOUS
 62
    7
 10
505.92627476456812
 20
503.83178725091909
 11
902.42626086080668
 21
503.83178725091909
  0
LINE
  8
_3-0_
  6
CONTINUOUS
 62
    7
 10
840.00000088371371
 20
1174.0155188365331
 11
840.04190746881773
 21
1154.4197721739074
  0
LINE
  8
_3-0_
  6
CONTINUOUS
 62
    7
 10
840.04190746881773
 20
1154.4197721739074
 11
840.1674522488272
 21
1135.1549038095363
  0
LINE
  8
_3-0_
  6
CONTINUOUS
 62
    7
 10
840.1674522488272
 20
1135.1549038095363
 11
840.37681019904528
 21
1116.221001231072
  0
LINE
  8
_3-0_
  6
CONTINUOUS
 62
    7
 10
840.37681019904528
 20
1116.221001231072
 11
840.66989383181999
 21
1097.6180644385142
  0
LINE
  8
_3-0_
  6
CONTINUOUS
 62
    7
 10
840.66989383181999
 20
1097.6180644385142
 11
841.04670314715167
 21
1079.3460059442114
  0
LINE
  8
_3-0_
  6
CONTINUOUS
 62
    7
 10
841.04670314715167
 20
1079.3460059442114
 11
841.50723814504022
 21
1061.4049132358152
  0
LINE
  8
_3-0_
  6
CONTINUOUS
 62
    7
 10
841.50723814504022
 20
1061.4049132358152
 11
842.05149882548551
 21
1043.7947863133259
  0
LINE
  8
_3-0_
  6
CONTINUOUS
 62
    7
 10
842.05149882548551
 20
1043.7947863133259
 11
842.67948518848789
 21
1026.5155376890912
  0
LINE
  8
_3-0_
  6
CONTINUOUS
 62
    7
 10
842.67948518848789
 20
1026.5155376890912
 11
843.37999881464543
 21
1009.8538643973213
  0
LINE
  8
_3-0_
  6
CONTINUOUS
 62
    7
 10
843.37999881464543
 20
1009.8538643973213
 11
844.14184128455668
 21
994.09628849692331
  0
LINE
  8
_3-0_
  6
CONTINUOUS
 62
    7
 10
844.14184128455668
 20
994.09628849692331
 11
844.96492511057011
 21
979.24289747554826
  0
LINE
  8
_3-0_
  6
CONTINUOUS
 62
    7
 10
844.96492511057011
 20
979.24289747554826
 11
845.84933778033746
 21
965.29369133319631
  0
LINE
  8
_3-0_
  6
CONTINUOUS
 62
    7
 10
845.84933778033746
 20
965.29369133319631
 11
846.79507929385852
 21
952.24858258221605
  0
LINE
  8
_3-0_
  6
CONTINUOUS
 62
    7
 10
846.79507929385852
 20
952.24858258221605
 11
847.80206216348176
 21
940.10757122260713
  0
LINE
  8
_3-0_
  6
CONTINUOUS
 62
    7
 10
847.80206216348176
 20
940.10757122260713
 11
848.87037387685882
 21
928.87074474202154
  0
LINE
  8
_3-0_
  6
CONTINUOUS
 62
    7
 10
848.87037387685882
 20
928.87074474202154
 11
850.00001443398958
 21
918.53801565280742
  0
LINE
  8
_3-0_
  6
CONTINUOUS
 62
    7
 10
850.00001443398958
 20
918.53801565280742
 11
851.17147408857306
 21
909.27499807939557
  0
LINE
  8
_3-0_
  6
CONTINUOUS
 62
    7
 10
851.17147408857306
 20
909.27499807939557
 11
852.36541806961111
 21
901.24695619561044
  0
LINE
  8
_3-0_
  6
CONTINUOUS
 62
    7
 10
852.36541806961111
 20
901.24695619561044
 11
853.5817588894522
 21
894.45406497675481
  0
LINE
  8
_3-0_
  6
CONTINUOUS
 62
    7
 10
853.5817588894522
 20
894.45406497675481
 11
854.82049654809657
 21
888.89614944752577
  0
LINE
  8
_3-0_
  6
CONTINUOUS
 62
    7
 10
854.82049654809657
 20
888.89614944752577
 11
856.0817185331955
 21
884.57338458322636
  0
LINE
  8
_0-0_
  6
CONTINUOUS
 62
    7
 10
839.76111769067029
 20
1116.2113011821475
 11
840.05420132344511
 21
1097.6083643895897
  0
CIRCLE
  8
_3-0_
  6
CONTINUOUS
 62
    7
 10
500.00002135641324
 20
1109.0155182473907
 40
25.000001067820662
  0
LINE
  8
_3-0_
  6
CONTINUOUS
 62
    7
 10
856.2499572871734
 20
879.01555654164895
 11
143.74999793800157
 21
879.01555654164895
  0
LINE
  8
_3-0_
  6
CONTINUOUS
 62
    7
 10
896.25001148827755
 20
839.01558982819665
 11
103.74999841667972
 21
839.01558982819665
  0
LINE
  8
_3-0_
  6
CONTINUOUS
 62
    7
 10
1748.3999474720604
 20
514.98070691082921
 11
1288.4000240605769
 21
514.98070691082921
  0
LINE
  8
_3-0_
  6
CONTINUOUS
 62
    7
 10
1288.4000240605769
 20
514.98070691082921
 11
1288.4000240605769
 21
671.48067400722425
  0
LINE
  8
_3-0_
  6
CONTINUOUS
 62
    7
 10
1288.4000240605769
 20
671.48067400722425
 11
1288.4672145769864
 21
672.16351512776373
  0
LINE
  8
_3-0_
  6
CONTINUOUS
 62
    7
 10
1288.4672145769864
 20
672.16351512776373
 11
1288.6664239596214
 21
672.82006620900506
  0
LINE
  8
_3-0_
  6
CONTINUOUS
 62
    7
 10
1288.6664239596214
 20
672.82006620900506
 11
1288.9898658074926
 21
673.42517455112056
  0
LINE
  8
_3-0_
  6
CONTINUOUS
 62
    7
 10
1288.9898658074926
 20
673.42517455112056
 11
1289.4251168740761
 21
673.95556843879137
  0
LINE
  8
_3-0_
  6
CONTINUOUS
 62
    7
 10
1289.4251168740761
 20
673.95556843879137
 11
1289.9554670179211
 21
674.39081950537479
  0
LINE
  8
_3-0_
  6
CONTINUOUS
 62
    7
 10
1289.9554670179211
 20
674.39081950537479
 11
1290.5606191038623
 21
674.714261353246
  0
LINE
  8
_3-0_
  6
CONTINUOUS
 62
    7
 10
1290.5606191038623
 20
674.714261353246
 11
1291.2172139289296
 21
674.91342699205552
  0
LINE
  8
_3-0_
  6
CONTINUOUS
 62
    7
 10
1291.2172139289296
 20
674.91342699205552
 11
1291.8999675618174
 21
674.98070499611629
  0
LINE
  8
_3-0_
  6
CONTINUOUS
 62
    7
 10
1291.8999675618174
 20
674.98070499611629
 11
1518.3999857663187
 21
674.98070499611629
  0
LINE
  8
_3-0_
  6
CONTINUOUS
 62
    7
 10
1518.3999857663187
 20
674.98070499611629
 11
1744.8999164831685
 21
674.98070499611629
  0
LINE
  8
_3-0_
  6
CONTINUOUS
 62
    7
 10
1744.8999164831685
 20
674.98070499611629
 11
1745.5828450913596
 21
674.91342699205552
  0
LINE
  8
_3-0_
  6
CONTINUOUS
 62
    7
 10
1745.5828450913596
 20
674.91342699205552
 11
1746.2393524287747
 21
674.714261353246
  0
LINE
  8
_3-0_
  6
CONTINUOUS
 62
    7
 10
1746.2393524287747
 20
674.714261353246
 11
1746.8444170270645
 21
674.39081950537479
  0
LINE
  8
_3-0_
  6
CONTINUOUS
 62
    7
 10
1746.8444170270645
 20
674.39081950537479
 11
1747.3749421462128
 21
673.95556843879137
  0
LINE
  8
_3-0_
  6
CONTINUOUS
 62
    7
 10
1747.3749421462128
 20
673.95556843879137
 11
1747.8101057251447
 21
673.42517455112056
  0
LINE
  8
_3-0_
  6
CONTINUOUS
 62
    7
 10
1747.8101057251447
 20
673.42517455112056
 11
1748.1336350606673
 21
672.82006620900506
  0
LINE
  8
_3-0_
  6
CONTINUOUS
 62
    7
 10
1748.1336350606673
 20
672.82006620900506
 11
1748.3327569556511
 21
672.16351512776373
  0
LINE
  8
_3-0_
  6
CONTINUOUS
 62
    7
 10
1748.3327569556511
 20
672.16351512776373
 11
1748.3999474720604
 21
671.48067400722425
  0
LINE
  8
_3-0_
  6
CONTINUOUS
 62
    7
 10
1748.3999474720604
 20
671.48067400722425
 11
1748.3999474720604
 21
514.98070691082921
  0
LINE
  8
_3-0_
  6
CONTINUOUS
 62
    7
 10
1623.4000405565653
 20
569.98069394969571
 11
1623.4000405565653
 21
671.48067400722425
  0
LINE
  8
_3-0_
  6
CONTINUOUS
 62
    7
 10
1583.3999863554614
 20
514.98070691082921
 11
1583.7725087758656
 21
550.08678937050365
  0
LINE
  8
_3-0_
  6
CONTINUOUS
 62
    7
 10
1533.399918604081
 20
514.98070691082921
 11
1533.399918604081
 21
554.98067362428162
  0
LINE
  8
_3-0_
  6
CONTINUOUS
 62
    7
 10
856.0817185331955
 20
884.57338458322636
 11
857.36533735709759
 21
881.48568289620528
  0
LINE
  8
_3-0_
  6
CONTINUOUS
 62
    7
 10
857.36533735709759
 20
881.48568289620528
 11
858.67144050745424
 21
879.6330443864623
  0
LINE
  8
_3-0_
  6
CONTINUOUS
 62
    7
 10
858.67144050745424
 20
879.6330443864623
 11
860.00002798426567
 21
879.01555654164895
  0
LINE
  8
_3-0_
  6
CONTINUOUS
 62
    7
 10
1333.3999975491674
 20
671.98070967979879
 11
1333.9861648147169
 21
664.54093476520075
  0
LINE
  8
_3-0_
  6
CONTINUOUS
 62
    7
 10
1333.9861648147169
 20
664.54093476520075
 11
1335.7445791237142
 21
657.22683586208973
  0
LINE
  8
_3-0_
  6
CONTINUOUS
 62
    7
 10
1335.7445791237142
 20
657.22683586208973
 11
1338.6752404761589
 21
650.03836922663982
  0
LINE
  8
_3-0_
  6
CONTINUOUS
 62
    7
 10
1338.6752404761589
 20
650.03836922663982
 11
1342.778236359703
 21
642.97553485885089
  0
LINE
  8
_3-0_
  6
CONTINUOUS
 62
    7
 10
1342.778236359703
 20
642.97553485885089
 11
1348.0534792866945
 21
636.03837650254877
  0
LINE
  8
_3-0_
  6
CONTINUOUS
 62
    7
 10
1348.0534792866945
 20
636.03837650254877
 11
1354.5009692571339
 21
629.22685041390787
  0
LINE
  8
_3-0_
  6
CONTINUOUS
 62
    7
 10
1354.5009692571339
 20
629.22685041390787
 11
1362.1207937586721
 21
622.54095659292807
  0
LINE
  8
_3-0_
  6
CONTINUOUS
 62
    7
 10
1362.1207937586721
 20
622.54095659292807
 11
1370.912865303658
 21
615.98069503960926
  0
LINE
  8
_3-0_
  6
CONTINUOUS
 62
    7
 10
1370.912865303658
 20
615.98069503960926
 11
1380.7202310451669
 21
609.65490039251017
  0
LINE
  8
_3-0_
  6
CONTINUOUS
 62
    7
 10
1380.7202310451669
 20
609.65490039251017
 11
1391.3856756733189
 21
603.67236354636407
  0
LINE
  8
_3-0_
  6
CONTINUOUS
 62
    7
 10
1391.3856756733189
 20
603.67236354636407
 11
1402.909286675766
 21
598.03312824499653
  0
LINE
  8
_3-0_
  6
CONTINUOUS
 62
    7
 10
1402.909286675766
 20
598.03312824499653
 11
1415.2911515401595
 21
592.73715074458175
  0
LINE
  8
_3-0_
  6
CONTINUOUS
 62
    7
 10
1415.2911515401595
 20
592.73715074458175
 11
1428.5310952911964
 21
587.78443104511985
  0
LINE
  8
_3-0_
  6
CONTINUOUS
 62
    7
 10
1428.5310952911964
 20
587.78443104511985
 11
1442.6292054165285
 21
583.17496914661069
  0
LINE
  8
_3-0_
  6
CONTINUOUS
 62
    7
 10
1442.6292054165285
 20
583.17496914661069
 11
1457.5855694038066
 21
578.90876504905441
  0
LINE
  8
_3-0_
  6
CONTINUOUS
 62
    7
 10
1457.5855694038066
 20
578.90876504905441
 11
1473.4000122777284
 21
574.98586249627658
  0
LINE
  8
_3-0_
  6
CONTINUOUS
 62
    7
 10
1473.4000122777284
 20
574.98586249627658
 11
1489.8006224171993
 21
571.46903387828218
  0
LINE
  8
_3-0_
  6
CONTINUOUS
 62
    7
 10
1489.8006224171993
 20
571.46903387828218
 11
1506.5153132258233
 21
568.42109532890174
  0
LINE
  8
_3-0_
  6
CONTINUOUS
 62
    7
 10
1506.5153132258233
 20
568.42109532890174
 11
1523.5440847036
 21
565.84209059196087
  0
LINE
  8
_3-0_
  6
CONTINUOUS
 62
    7
 10
1523.5440847036
 20
565.84209059196087
 11
1540.8871118258323
 21
563.73197592363385
  0
LINE
  8
_3-0_
  6
CONTINUOUS
 62
    7
 10
1540.8871118258323
 20
563.73197592363385
 11
1558.5442196172175
 21
562.09079506774663
  0
LINE
  8
_3-0_
  6
CONTINUOUS
 62
    7
 10
1558.5442196172175
 20
562.09079506774663
 11
1576.5154080777554
 21
560.91850428047326
  0
LINE
  8
_3-0_
  6
CONTINUOUS
 62
    7
 10
1576.5154080777554
 20
560.91850428047326
 11
1594.8006772074459
 21
560.21514730563945
  0
LINE
  8
_3-0_
  6
CONTINUOUS
 62
    7
 10
1594.8006772074459
 20
560.21514730563945
 11
1613.4000270062891
 21
559.98068039941973
  0
LINE
  8
_3-0_
  6
CONTINUOUS
 62
    7
 10
899.99999469771808
 20
1295.2655300302395
 11
899.99999469771808
 21
842.7655730376373
  0
LINE
  8
_3-0_
  6
CONTINUOUS
 62
    7
 10
899.99999469771808
 20
842.7655730376373
 11
899.92790487282059
 21
842.03391380751907
  0
LINE
  8
_3-0_
  6
CONTINUOUS
 62
    7
 10
899.92790487282059
 20
842.03391380751907
 11
899.7145224906302
 21
841.33051308885956
  0
LINE
  8
_3-0_
  6
CONTINUOUS
 62
    7
 10
899.7145224906302
 20
841.33051308885956
 11
899.36798390274339
 21
840.68214210304052
  0
LINE
  8
_3-0_
  6
CONTINUOUS
 62
    7
 10
899.36798390274339
 20
840.68214210304052
 11
898.90167471985092
 21
840.1139098060637
  0
LINE
  8
_3-0_
  6
CONTINUOUS
 62
    7
 10
898.90167471985092
 20
840.1139098060637
 11
898.33335493522259
 21
839.64751313551972
  0
LINE
  8
_3-0_
  6
CONTINUOUS
 62
    7
 10
898.33335493522259
 20
839.64751313551972
 11
897.68507143705506
 21
839.3009745476329
  0
LINE
  8
_3-0_
  6
CONTINUOUS
 62
    7
 10
897.68507143705506
 20
839.3009745476329
 11
896.98158323074392
 21
839.0875921654424
  0
LINE
  8
_3-0_
  6
CONTINUOUS
 62
    7
 10
896.98158323074392
 20
839.0875921654424
 11
896.25001148827755
 21
839.01558982819665
  0
LINE
  8
_3-0_
  6
CONTINUOUS
 62
    7
 10
103.74999841667972
 20
839.01558982819665
 11
103.01841573825669
 21
839.0875921654424
  0
LINE
  8
_3-0_
  6
CONTINUOUS
 62
    7
 10
103.01841573825669
 20
839.0875921654424
 11
102.31493846790215
 21
839.3009745476329
  0
LINE
  8
_3-0_
  6
CONTINUOUS
 62
    7
 10
102.31493846790215
 20
839.3009745476329
 11
101.66661122590881
 21
839.64751313551972
  0
LINE
  8
_3-0_
  6
CONTINUOUS
 62
    7
 10
101.66661122590881
 20
839.64751313551972
 11
101.09834612106255
 21
840.1139098060637
  0
LINE
  8
_3-0_
  6
CONTINUOUS
 62
    7
 10
101.09834612106255
 20
840.1139098060637
 11
100.63199319434432
 21
840.68214210304052
  0
LINE
  8
_3-0_
  6
CONTINUOUS
 62
    7
 10
100.63199319434432
 20
840.68214210304052
 11
100.28545460645745
 21
841.33051308885956
  0
LINE
  8
_3-0_
  6
CONTINUOUS
 62
    7
 10
100.28545460645745
 20
841.33051308885956
 11
100.07205035235415
 21
842.03391380751907
  0
LINE
  8
_3-0_
  6
CONTINUOUS
 62
    7
 10
100.07205035235415
 20
842.03391380751907
 11
100.00000427128271
 21
842.7655730376373
  0
LINE
  8
_3-0_
  6
CONTINUOUS
 62
    7
 10
100.00000427128271
 20
842.7655730376373
 11
100.00000427128271
 21
1295.2655300302395
  0
LINE
  8
_3-0_
  6
CONTINUOUS
 62
    7
 10
100.00000427128271
 20
1295.2655300302395
 11
100.07205035235415
 21
1295.9971017727059
  0
LINE
  8
_3-0_
  6
CONTINUOUS
 62
    7
 10
100.07205035235415
 20
1295.9971017727059
 11
100.28545460645745
 21
1296.700589979017
  0
LINE
  8
_3-0_
  6
CONTINUOUS
 62
    7
 10
100.28545460645745
 20
1296.700589979017
 11
100.63199319434432
 21
1297.3489609648364
  0
LINE
  8
_3-0_
  6
CONTINUOUS
 62
    7
 10
100.63199319434432
 20
1297.3489609648364
 11
101.09834612106255
 21
1297.9171932618128
  0
LINE
  8
_3-0_
  6
CONTINUOUS
 62
    7
 10
101.09834612106255
 20
1297.9171932618128
 11
101.66661122590881
 21
1298.3835899323569
  0
LINE
  8
_3-0_
  6
CONTINUOUS
 62
    7
 10
101.66661122590881
 20
1298.3835899323569
 11
102.31493846790215
 21
1298.7301285202439
  0
LINE
  8
_3-0_
  6
CONTINUOUS
 62
    7
 10
102.31493846790215
 20
1298.7301285202439
 11
103.01841573825669
 21
1298.9435109024341
  0
LINE
  8
_3-0_
  6
CONTINUOUS
 62
    7
 10
103.01841573825669
 20
1298.9435109024341
 11
103.74999841667972
 21
1299.0155132396799
  0
LINE
  8
_3-0_
  6
CONTINUOUS
 62
    7
 10
103.74999841667972
 20
1299.0155132396799
 11
896.25001148827755
 21
1299.0155132396799
  0
LINE
  8
_3-0_
  6
CONTINUOUS
 62
    7
 10
856.2499572871734
 20
1174.0155188365331
 11
856.98161651729151
 21
1173.9435164992874
  0
LINE
  8
_3-0_
  6
CONTINUOUS
 62
    7
 10
856.98161651729151
 20
1173.9435164992874
 11
857.68510472360265
 21
1173.7301341170969
  0
LINE
  8
_3-0_
  6
CONTINUOUS
 62
    7
 10
857.68510472360265
 20
1173.7301341170969
 11
858.33338822177006
 21
1173.38359552921
  0
LINE
  8
_3-0_
  6
CONTINUOUS
 62
    7
 10
858.33338822177006
 20
1173.38359552921
 11
858.901620518747
 21
1172.9171988586661
  0
LINE
  8
_3-0_
  6
CONTINUOUS
 62
    7
 10
858.901620518747
 20
1172.9171988586661
 11
859.36801718929087
 21
1172.3489665616894
  0
LINE
  8
_3-0_
  6
CONTINUOUS
 62
    7
 10
859.36801718929087
 20
1172.3489665616894
 11
859.71455577717779
 21
1171.70059557587
  0
LINE
  8
_3-0_
  6
CONTINUOUS
 62
    7
 10
859.71455577717779
 20
1171.70059557587
 11
859.92793815936818
 21
1170.9971073695592
  0
LINE
  8
_3-0_
  6
CONTINUOUS
 62
    7
 10
859.92793815936818
 20
1170.9971073695592
 11
860.00002798426567
 21
1170.2655356270925
  0
LINE
  8
_3-0_
  6
CONTINUOUS
 62
    7
 10
860.00002798426567
 20
1170.2655356270925
 11
860.00002798426567
 21
882.7655397510897
  0
LINE
  8
_3-0_
  6
CONTINUOUS
 62
    7
 10
860.00002798426567
 20
882.7655397510897
 11
859.92793815936818
 21
882.03396800862311
  0
LINE
  8
_3-0_
  6
CONTINUOUS
 62
    7
 10
859.92793815936818
 20
882.03396800862311
 11
859.71455577717779
 21
881.33047980231197
  0
LINE
  8
_3-0_
  6
CONTINUOUS
 62
    7
 10
859.71455577717779
 20
881.33047980231197
 11
859.36801718929087
 21
880.68219630414444
  0
LINE
  8
_3-0_
  6
CONTINUOUS
 62
    7
 10
859.36801718929087
 20
880.68219630414444
 11
858.901620518747
 21
880.11387651951611
  0
LINE
  8
_3-0_
  6
CONTINUOUS
 62
    7
 10
858.901620518747
 20
880.11387651951611
 11
858.33338822177006
 21
879.64756733662375
  0
LINE
  8
_3-0_
  6
CONTINUOUS
 62
    7
 10
858.33338822177006
 20
879.64756733662375
 11
857.68510472360265
 21
879.30102874873683
  0
LINE
  8
_3-0_
  6
CONTINUOUS
 62
    7
 10
857.68510472360265
 20
879.30102874873683
 11
856.98161651729151
 21
879.08755887889481
  0
LINE
  8
_3-0_
  6
CONTINUOUS
 62
    7
 10
856.98161651729151
 20
879.08755887889481
 11
856.2499572871734
 21
879.01555654164895
  0
LINE
  8
_3-0_
  6
CONTINUOUS
 62
    7
 10
143.74999793800157
 20
879.01555654164895
 11
143.01841525957855
 21
879.08755887889481
  0
LINE
  8
_3-0_
  6
CONTINUOUS
 62
    7
 10
143.01841525957855
 20
879.08755887889481
 11
142.31493798922372
 21
879.30102874873683
  0
LINE
  8
_3-0_
  6
CONTINUOUS
 62
    7
 10
142.31493798922372
 20
879.30102874873683
 11
141.66661074723066
 21
879.64756733662375
  0
LINE
  8
_3-0_
  6
CONTINUOUS
 62
    7
 10
141.66661074723066
 20
879.64756733662375
 11
141.0983456423844
 21
880.11387651951611
  0
LINE
  8
_3-0_
  6
CONTINUOUS
 62
    7
 10
141.0983456423844
 20
880.11387651951611
 11
140.63199271566617
 21
880.68219630414444
  0
LINE
  8
_3-0_
  6
CONTINUOUS
 62
    7
 10
140.63199271566617
 20
880.68219630414444
 11
140.2854541277793
 21
881.33047980231197
  0
LINE
  8
_3-0_
  6
CONTINUOUS
 62
    7
 10
140.2854541277793
 20
881.33047980231197
 11
140.07204987367601
 21
882.03396800862311
  0
LINE
  8
_3-0_
  6
CONTINUOUS
 62
    7
 10
140.07204987367601
 20
882.03396800862311
 11
140.00000379260428
 21
882.7655397510897
  0
LINE
  8
_3-0_
  6
CONTINUOUS
 62
    7
 10
140.00000379260428
 20
882.7655397510897
 11
140.00000379260428
 21
1170.2655356270925
  0
LINE
  8
_3-0_
  6
CONTINUOUS
 62
    7
 10
140.00000379260428
 20
1170.2655356270925
 11
140.07204987367601
 21
1170.9971073695592
  0
LINE
  8
_3-0_
  6
CONTINUOUS
 62
    7
 10
140.07204987367601
 20
1170.9971073695592
 11
140.2854541277793
 21
1171.70059557587
  0
LINE
  8
_3-0_
  6
CONTINUOUS
 62
    7
 10
140.2854541277793
 20
1171.70059557587
 11
140.63199271566617
 21
1172.3489665616894
  0
LINE
  8
_3-0_
  6
CONTINUOUS
 62
    7
 10
140.63199271566617
 20
1172.3489665616894
 11
141.0983456423844
 21
1172.9171988586661
  0
LINE
  8
_3-0_
  6
CONTINUOUS
 62
    7
 10
141.0983456423844
 20
1172.9171988586661
 11
141.66661074723066
 21
1173.38359552921
  0
LINE
  8
_3-0_
  6
CONTINUOUS
 62
    7
 10
141.66661074723066
 20
1173.38359552921
 11
142.31493798922372
 21
1173.7301341170969
  0
LINE
  8
_3-0_
  6
CONTINUOUS
 62
    7
 10
142.31493798922372
 20
1173.7301341170969
 11
143.01841525957855
 21
1173.9435164992874
  0
LINE
  8
_3-0_
  6
CONTINUOUS
 62
    7
 10
143.01841525957855
 20
1173.9435164992874
 11
143.74999793800157
 21
1174.0155188365331
  0
LINE
  8
_3-0_
  6
CONTINUOUS
 62
    7
 10
143.74999793800157
 20
1174.0155188365331
 11
856.2499572871734
 21
1174.0155188365331
  0
CIRCLE
  8
_3-0_
  6
CONTINUOUS
 62
    7
 10
500.00002135641324
 20
1239.0155194256756
 40
17.500000474075552
  0
ARC
  8
_3-0_
  6
CONTINUOUS
 62
    7
 10
149.99999547096763
 20
889.01557009192504
 40
9.9999998803304422
 50
180
 51
270
  0
ARC
  8
_3-0_
  6
CONTINUOUS
 62
    7
 10
850.00001443398958
 20
889.01557009192504
 40
9.9999998803304422
 50
270
 51
0
  0
ARC
  8
_3-0_
  6
CONTINUOUS
 62
    7
 10
1613.4000270062891
 20
569.98069394969571
 40
9.9999998803304422
 50
270
 51
0
  0
ARC
  8
_3-0_
  6
CONTINUOUS
 62
    7
 10
1626.9000715454572
 20
671.48067400722425
 40
3.4999998897659266
 50
90
 51
180
  0
ARC
  8
_3-0_
  6
CONTINUOUS
 62
    7
 10
1593.7719974002323
 20
549.98071059296944
 40
9.9999998803304422
 50
90
 51
179.39204406738281
  0
ARC
  8
_3-0_
  6
CONTINUOUS
 62
    7
 10
1523.9928963561774
 20
555.60664777129773
 40
9.4279837424230379
 50
356.19305419921875
 51
83.867446899414063
  0
ARC
  8
_3-0_
  6
CONTINUOUS
 62
    7
 10
1329.8999665602753
 20
671.48067400722425
 40
3.4999998897659266
 50
0
 51
90
  0
TEXT
  8
_0-0_
 62
    6
 10
1845.4494435078389
 20
1804.9806613995761
 40
100
 41
1
 50
0
  1
 B1-B801-0_
  0
TEXT
  8
_0-0_
 62
    4
 10
1433.4292967807371
 20
2375.2585946454965
 40
25
 41
1
 50
0
  1
 
  0
TEXT
  8
_3-0_
 62
    4
 10
1132.14999578174
 20
1319.2584935486545
 40
25
 41
1
 50
0
  1
 
  0
LINE
  8
_2-0_
  6
CONTINUOUS
 62
    7
 10
905.9262918496986
 20
500.33180000585276
 11
905.9262918496986
 21
343.83178916563196
  0
LINE
  8
_2-0_
  6
CONTINUOUS
 62
    7
 10
848.15224635470599
 20
397.18783948758653
 11
865.43884394167276
 21
500.90720629025884
  0
LINE
  8
_2-0_
  6
CONTINUOUS
 62
    7
 10
905.9262918496986
 20
343.83178916563196
 11
105.92627955135072
 21
343.83178916563196
  0
LINE
  8
_2-0_
  6
CONTINUOUS
 62
    7
 10
105.92627955135072
 20
343.83178916563196
 11
105.92627955135072
 21
500.33180000585276
  0
LINE
  8
_2-0_
  6
CONTINUOUS
 62
    7
 10
105.92627955135072
 20
500.33180000585276
 11
105.99353568349841
 21
501.01464112639235
  0
LINE
  8
_2-0_
  6
CONTINUOUS
 62
    7
 10
105.99353568349841
 20
501.01464112639235
 11
106.19270132230781
 21
501.67119220763368
  0
LINE
  8
_2-0_
  6
CONTINUOUS
 62
    7
 10
106.19270132230781
 20
501.67119220763368
 11
106.51614317017902
 21
502.27630054974907
  0
LINE
  8
_2-0_
  6
CONTINUOUS
 62
    7
 10
106.51614317017902
 20
502.27630054974907
 11
106.95141610867552
 21
502.80669443741999
  0
LINE
  8
_2-0_
  6
CONTINUOUS
 62
    7
 10
106.95141610867552
 20
502.80669443741999
 11
107.48178812443314
 21
503.24194550400335
  0
LINE
  8
_2-0_
  6
CONTINUOUS
 62
    7
 10
107.48178812443314
 20
503.24194550400335
 11
108.08689646654898
 21
503.56538735187456
  0
LINE
  8
_2-0_
  6
CONTINUOUS
 62
    7
 10
108.08689646654898
 20
503.56538735187456
 11
108.74346941970316
 21
503.76455299068414
  0
LINE
  8
_2-0_
  6
CONTINUOUS
 62
    7
 10
108.74346941970316
 20
503.76455299068414
 11
109.4262886683299
 21
503.83178725091909
  0
LINE
  8
_2-0_
  6
CONTINUOUS
 62
    7
 10
109.4262886683299
 20
503.83178725091909
 11
505.92627476456812
 21
503.83178725091909
  0
LINE
  8
_2-0_
  6
CONTINUOUS
 62
    7
 10
902.42626086080668
 20
503.83178725091909
 11
903.10910198134604
 21
503.76455299068414
  0
LINE
  8
_2-0_
  6
CONTINUOUS
 62
    7
 10
903.10910198134604
 20
503.76455299068414
 11
903.76569680641319
 21
503.56538735187456
  0
LINE
  8
_2-0_
  6
CONTINUOUS
 62
    7
 10
903.76569680641319
 20
503.56538735187456
 11
904.37076140470299
 21
503.24194550400335
  0
LINE
  8
_2-0_
  6
CONTINUOUS
 62
    7
 10
904.37076140470299
 20
503.24194550400335
 11
904.90119903619961
 21
502.80669443741999
  0
LINE
  8
_2-0_
  6
CONTINUOUS
 62
    7
 10
904.90119903619961
 20
502.80669443741999
 11
905.33645010278303
 21
502.27630054974907
  0
LINE
  8
_2-0_
  6
CONTINUOUS
 62
    7
 10
905.33645010278303
 20
502.27630054974907
 11
905.65989195065413
 21
501.67119220763368
  0
LINE
  8
_2-0_
  6
CONTINUOUS
 62
    7
 10
905.65989195065413
 20
501.67119220763368
 11
905.85901384563783
 21
501.01464112639235
  0
LINE
  8
_2-0_
  6
CONTINUOUS
 62
    7
 10
905.85901384563783
 20
501.01464112639235
 11
905.9262918496986
 21
500.33180000585276
  0
LINE
  8
_2-0_
  6
CONTINUOUS
 62
    7
 10
480.92628463270398
 20
378.83179284777225
 11
480.92628463270398
 21
343.83178916563196
  0
LINE
  8
_2-0_
  6
CONTINUOUS
 62
    7
 10
530.92626489643237
 20
378.83179284777225
 11
530.92626489643237
 21
343.83178916563196
  0
LINE
  8
_2-0_
  6
CONTINUOUS
 62
    7
 10
146.41372745937645
 20
500.90720629025884
 11
163.7002813025174
 21
397.18783948758653
  0
LINE
  8
_2-0_
  6
CONTINUOUS
 62
    7
 10
163.7002813025174
 20
397.18783948758653
 11
164.1395349291605
 21
395.48887303783431
  0
LINE
  8
_2-0_
  6
CONTINUOUS
 62
    7
 10
164.1395349291605
 20
395.48887303783431
 11
164.86898509607613
 21
393.89287955398527
  0
LINE
  8
_2-0_
  6
CONTINUOUS
 62
    7
 10
164.86898509607613
 20
393.89287955398527
 11
165.86621309254895
 21
392.44898335239867
  0
LINE
  8
_2-0_
  6
CONTINUOUS
 62
    7
 10
165.86621309254895
 20
392.44898335239867
 11
167.10046700904996
 21
391.20162816007422
  0
LINE
  8
_2-0_
  6
CONTINUOUS
 62
    7
 10
167.10046700904996
 20
391.20162816007422
 11
168.53377720479614
 21
390.18922105605338
  0
LINE
  8
_2-0_
  6
CONTINUOUS
 62
    7
 10
168.53377720479614
 20
390.18922105605338
 11
170.12198428765487
 21
389.44295138812237
  0
LINE
  8
_2-0_
  6
CONTINUOUS
 62
    7
 10
170.12198428765487
 20
389.44295138812237
 11
171.81618266039663
 21
388.9857846648195
  0
LINE
  8
_2-0_
  6
CONTINUOUS
 62
    7
 10
171.81618266039663
 20
388.9857846648195
 11
173.56422968268191
 21
388.83180639804834
  0
LINE
  8
_2-0_
  6
CONTINUOUS
 62
    7
 10
173.56422968268191
 20
388.83180639804834
 11
505.92627476456812
 21
388.83180639804834
  0
LINE
  8
_2-0_
  6
CONTINUOUS
 62
    7
 10
505.92627476456812
 20
388.83180639804834
 11
838.28836359028003
 21
388.83180639804834
  0
LINE
  8
_2-0_
  6
CONTINUOUS
 62
    7
 10
838.28836359028003
 20
388.83180639804834
 11
840.03636686873972
 21
388.9857846648195
  0
LINE
  8
_2-0_
  6
CONTINUOUS
 62
    7
 10
840.03636686873972
 20
388.9857846648195
 11
841.73056524148126
 21
389.44295138812237
  0
LINE
  8
_2-0_
  6
CONTINUOUS
 62
    7
 10
841.73056524148126
 20
389.44295138812237
 11
843.31881606816592
 21
390.18922105605338
  0
LINE
  8
_2-0_
  6
CONTINUOUS
 62
    7
 10
843.31881606816592
 20
390.18922105605338
 11
844.75212626391203
 21
391.20162816007422
  0
LINE
  8
_2-0_
  6
CONTINUOUS
 62
    7
 10
844.75212626391203
 20
391.20162816007422
 11
845.98631456467444
 21
392.44898335239867
  0
LINE
  8
_2-0_
  6
CONTINUOUS
 62
    7
 10
845.98631456467444
 20
392.44898335239867
 11
846.98358630497296
 21
393.89287955398527
  0
LINE
  8
_2-0_
  6
CONTINUOUS
 62
    7
 10
846.98358630497296
 20
393.89287955398527
 11
847.71305834380155
 21
395.48887303783431
  0
LINE
  8
_2-0_
  6
CONTINUOUS
 62
    7
 10
847.71305834380155
 20
395.48887303783431
 11
848.15224635470599
 21
397.18783948758653
  0
CIRCLE
  8
_2-0_
  6
CONTINUOUS
 62
    7
 10
505.92627476456812
 20
473.83179034391685
 40
14.999999820495663
  0
CIRCLE
  8
_2-0_
  6
CONTINUOUS
 62
    7
 10
505.92627476456812
 20
473.83179034391685
 40
9.9999998803304422
  0
ARC
  8
_2-0_
  6
CONTINUOUS
 62
    7
 10
470.92627108242795
 20
378.83179284777225
 40
9.9999998803304422
 50
0
 51
90
  0
ARC
  8
_2-0_
  6
CONTINUOUS
 62
    7
 10
540.92627844670847
 20
378.83179284777225
 40
9.9999998803304422
 50
90
 51
180
  0
ARC
  8
_2-0_
  6
CONTINUOUS
 62
    7
 10
142.96133349676666
 20
500.33180000585276
 40
3.4999998897659266
 50
9.462310791015625
 51
90
  0
ARC
  8
_2-0_
  6
CONTINUOUS
 62
    7
 10
868.89119416045673
 20
500.33180000585276
 40
3.4999998897659266
 50
90
 51
170.53767395019531
  0
LINE
  8
_3-0_
  6
CONTINUOUS
 62
    7
 10
162.54639365959918
 20
1172.7392403617248
 11
162.50448707449493
 21
1153.1434936990991
  0
LINE
  8
_3-0_
  6
CONTINUOUS
 62
    7
 10
162.50448707449493
 20
1153.1434936990991
 11
162.37894229448557
 21
1133.8786253347282
  0
LINE
  8
_3-0_
  6
CONTINUOUS
 62
    7
 10
162.37894229448557
 20
1133.8786253347282
 11
162.16958434426772
 21
1114.9447227562637
  0
LINE
  8
_3-0_
  6
CONTINUOUS
 62
    7
 10
162.16958434426772
 20
1114.9447227562637
 11
161.87650071149278
 21
1096.3417859637061
  0
LINE
  8
_3-0_
  6
CONTINUOUS
 62
    7
 10
161.87650071149278
 20
1096.3417859637061
 11
161.49969139616132
 21
1078.0697274694032
  0
LINE
  8
_3-0_
  6
CONTINUOUS
 62
    7
 10
161.49969139616132
 20
1078.0697274694032
 11
161.03915639827278
 21
1060.1286347610071
  0
LINE
  8
_3-0_
  6
CONTINUOUS
 62
    7
 10
161.03915639827278
 20
1060.1286347610071
 11
160.49489571782715
 21
1042.5185078385175
  0
LINE
  8
_3-0_
  6
CONTINUOUS
 62
    7
 10
160.49489571782715
 20
1042.5185078385175
 11
159.866909354825
 21
1025.2392592142828
  0
LINE
  8
_3-0_
  6
CONTINUOUS
 62
    7
 10
159.866909354825
 20
1025.2392592142828
 11
159.16639572866757
 21
1008.5775859225132
  0
LINE
  8
_3-0_
  6
CONTINUOUS
 62
    7
 10
159.16639572866757
 20
1008.5775859225132
 11
158.4045532587561
 21
992.82001002211496
  0
LINE
  8
_3-0_
  6
CONTINUOUS
 62
    7
 10
158.4045532587561
 20
992.82001002211496
 11
157.58146943274255
 21
977.96661900074002
  0
LINE
  8
_3-0_
  6
CONTINUOUS
 62
    7
 10
157.58146943274255
 20
977.96661900074002
 11
156.69705676297554
 21
964.01741285838807
  0
LINE
  8
_3-0_
  6
CONTINUOUS
 62
    7
 10
156.69705676297554
 20
964.01741285838807
 11
155.75131524945448
 21
950.97230410740781
  0
LINE
  8
_3-0_
  6
CONTINUOUS
 62
    7
 10
155.75131524945448
 20
950.97230410740781
 11
154.74433237983106
 21
938.8312927477989
  0
LINE
  8
_3-0_
  6
CONTINUOUS
 62
    7
 10
154.74433237983106
 20
938.8312927477989
 11
153.67602066645418
 21
927.59446626721331
  0
LINE
  8
_3-0_
  6
CONTINUOUS
 62
    7
 10
153.67602066645418
 20
927.59446626721331
 11
152.54638010932325
 21
917.26173717799929
  0
LINE
  8
_3-0_
  6
CONTINUOUS
 62
    7
 10
152.54638010932325
 20
917.26173717799929
 11
151.37492045473977
 21
907.99871960458734
  0
LINE
  8
_3-0_
  6
CONTINUOUS
 62
    7
 10
151.37492045473977
 20
907.99871960458734
 11
150.18097647370155
 21
899.97067772080209
  0
LINE
  8
_3-0_
  6
CONTINUOUS
 62
    7
 10
150.18097647370155
 20
899.97067772080209
 11
148.96463565386057
 21
893.17778650194657
  0
LINE
  8
_3-0_
  6
CONTINUOUS
 62
    7
 10
148.96463565386057
 20
893.17778650194657
 11
147.72589799521626
 21
887.61987097271754
  0
LINE
  8
_3-0_
  6
CONTINUOUS
 62
    7
 10
147.72589799521626
 20
887.61987097271754
 11
146.4646760101175
 21
883.29710610841812
  0
LINE
  8
_0-0_
  6
CONTINUOUS
 62
    7
 10
162.78527685264237
 20
1114.9350227073392
 11
162.49219321986772
 21
1096.3320859147816
  0
LINE
  8
_3-0_
  6
CONTINUOUS
 62
    7
 10
146.2964372561396
 20
1172.7392403617248
 11
145.56477802602132
 21
1172.667238024479
  0
LINE
  8
_3-0_
  6
CONTINUOUS
 62
    7
 10
145.56477802602132
 20
877.81128040408657
 11
146.2964372561396
 21
877.73927806684071
  0
ENDSEC
  0
EOF
