  0
SECTION
  2
HEADER
  9
$ACADVER
  1
AC1009
  9
$INSBASE
 10
0
 20
0
 30
0
  9
$EXTMIN
 10
0
 20
0
  9
$EXTMAX
 10
2970
 20
2100
  9
$LIMMIN
 10
0
 20
0
  9
$LIMMAX
 10
2970
 20
2100
  9
$LTSCALE
 40
10
  0
ENDSEC
  0
SECTION
  2
TABLES
  0
TABLE
  2
LTYPE
 70
     9
  0
LTYPE
  2
CONTINUOUS
 70
    64
  3
実線
 72
    65
 73
     0
 40
0.0
  0
LTYPE
  2
DASHED1
 70
    64
  3
--  --  --  --  --  --  --  --  
 72
    65
 73
     2
 40
2.5
 49
1.25
 49
-1.25
  0
LTYPE
  2
DASHED2
 70
    64
  3
----    ----    ----    ----    
 72
    65
 73
     2
 40
5.0
 49
2.5
 49
-2.5
  0
LTYPE
  2
DASHED3
 70
    64
  3
------  ------  ------  ------  
 72
    65
 73
     2
 40
5.0
 49
3.75
 49
-1.25
  0
LTYPE
  2
CENTER1
 70
    64
  3
----- - ----- - ----- - ----- - 
 72
    65
 73
     4
 40
10.0
 49
6.25
 49
-1.25
 49
1.25
 49
-1.25
  0
LTYPE
  2
CENTER2
 70
    64
  3
----------  --  ----------  --  
 72
    65
 73
     4
 40
20.0
 49
12.5
 49
-2.5
 49
2.5
 49
-2.5
  0
LTYPE
  2
PHANTOM1
 70
    64
  3
--- - - --- - - --- - - --- - - 
 72
    65
 73
     6
 40
10.0
 49
3.25
 49
-1.25
 49
1.25
 49
-1.25
 49
1.25
 49
-1.25
  0
LTYPE
  2
PHANTOM2
 70
    64
  3
--------  -  -  --------  -  -  
 72
    65
 73
     6
 40
20.0
 49
10.0
 49
-2.5
 49
1.25
 49
-2.5
 49
1.25
 49
-2.5
  0
LTYPE
  2
DOT
 70
    64
  3
-   -   -   -   -   -   -   -   
 72
    65
 73
     2
 40
2.5
 49
0.625
 49
-1.875
  0
LTYPE
  2
DUMMY
 70
    64
  3
ダミー
 72
    65
 73
     0
 40
0.0
  0
LTYPE
  2
RAND1
 70
    64
  3
ランダム線1
 72
    65
 73
     4
 40
10.0
 49
1.0
 49
-2.0
 49
3.0
 49
-4.0
  0
LTYPE
  2
RAND2
 70
    64
  3
ランダム線2
 72
    65
 73
     4
 40
14.0
 49
2.0
 49
-3.0
 49
4.0
 49
-5.0
  0
LTYPE
  2
RAND3
 70
    64
  3
ランダム線3
 72
    65
 73
     4
 40
18.0
 49
3.0
 49
-4.0
 49
5.0
 49
-6.0
  0
LTYPE
  2
RAND4
 70
    64
  3
ランダム線4
 72
    65
 73
     4
 40
22.0
 49
4.0
 49
-5.0
 49
6.0
 49
-7.0
  0
LTYPE
  2
RAND5
 70
    64
  3
ランダム線5
 72
    65
 73
     4
 40
26.0
 49
5.0
 49
-6.0
 49
7.0
 49
-8.0
  0
LTYPE
  2
LONG1
 70
    64
  3
----------  --  ----------  --  
 72
    65
 73
     4
 40
40.0
 49
32.5
 49
-2.5
 49
2.5
 49
-2.5
  0
LTYPE
  2
LONG2
 70
    64
  3
--------  -  -  --------  -  -  
 72
    65
 73
     6
 40
40.0
 49
30.0
 49
-2.5
 49
1.25
 49
-2.5
 49
1.25
 49
-2.5
  0
LTYPE
  2
LONG3
 70
    64
  3
+++++++++++++++..+++++++++++++++
 72
    65
 73
     2
 40
40.0
 49
37.5
 49
-2.5
  0
LTYPE
  2
LONG4
 70
    64
  3
+++++++++++++++..+++++++++++++++
 72
    65
 73
     2
 40
80.0
 49
75.0
 49
-5.0
  0
LTYPE
  2
LONG5
 70
    64
  3
----------  --  ----------  --  
 72
    65
 73
     4
 40
60.0
 49
37.5
 49
-7.5
 49
7.5
 49
-7.5
  0
LTYPE
  2
dashed
 70
   64
  3
-------   -------------   ------
 72
   65
 73
    2
 40
7.5
 49
6
 49
-1.5
  0
LTYPE
  2
dashed_spaced
 70
   64
  3
----        --------        ----
 72
   65
 73
    2
 40
12
 49
6
 49
-6
  0
LTYPE
  2
long_dashed_dotted
 70
   64
  3
------------- --- --------------
 72
   65
 73
    4
 40
15.25
 49
12
 49
-1.5
 49
0.25
 49
-1.5
  0
LTYPE
  2
long_dashed_double-dotted
 70
   64
  3
----------- --- --- ------------
 72
   65
 73
    6
 40
17
 49
12
 49
-1.5
 49
0.25
 49
-1.5
 49
0.25
 49
-1.5
  0
LTYPE
  2
long_dashed_triplicate-dotted
 70
   64
  3
--------- --- --- --- ----------
 72
   65
 73
    8
 40
18.75
 49
12
 49
-1.5
 49
0.25
 49
-1.5
 49
0.25
 49
-1.5
 49
0.25
 49
-1.5
  0
LTYPE
  2
dotted
 70
   64
  3
   -       -       -       -    
 72
   65
 73
    2
 40
1.75
 49
0.25
 49
-1.5
  0
LTYPE
  2
chain
 70
   64
  3
-------------- -- --------------
 72
   65
 73
    4
 40
18.5
 49
12
 49
-1.5
 49
3.5
 49
-1.5
  0
LTYPE
  2
chain_double_dash
 70
   64
  3
------------ -- -- -------------
 72
   65
 73
    6
 40
23.5
 49
12
 49
-1.5
 49
3.5
 49
-1.5
 49
3.5
 49
-1.5
  0
LTYPE
  2
dashed_dotted
 70
   64
  3
-----------     -     ----------
 72
   65
 73
    4
 40
9.25
 49
6
 49
-1.5
 49
0.25
 49
-1.5
  0
LTYPE
  2
double-dashed_dotted
 70
   64
  3
------   -----------   -   -----
 72
   65
 73
    6
 40
16.75
 49
6
 49
-1.5
 49
6
 49
-1.5
 49
0.25
 49
-1.5
  0
LTYPE
  2
dashed_double-dotted
 70
   64
  3
---------    -    -    ---------
 72
   65
 73
    6
 40
11
 49
6
 49
-1.5
 49
0.25
 49
-1.5
 49
0.25
 49
-1.5
  0
LTYPE
  2
double-dashed_double-dotted
 70
   64
  3
-----   ---------   -   -   ----
 72
   65
 73
    8
 40
18.5
 49
6
 49
-1.5
 49
6
 49
-1.5
 49
0.25
 49
-1.5
 49
0.25
 49
-1.5
  0
LTYPE
  2
dashed_triplicate-dotted
 70
   64
  3
-------    -    -    -    ------
 72
   65
 73
    8
 40
12.75
 49
6
 49
-1.5
 49
0.25
 49
-1.5
 49
0.25
 49
-1.5
 49
0.25
 49
-1.5
  0
LTYPE
  2
double-dashed_triplicate-dotted
 70
   64
  3
-----  ---------  -  -  -  -----
 72
   65
 73
   10
 40
20.25
 49
6
 49
-1.5
 49
6
 49
-1.5
 49
0.25
 49
-1.5
 49
0.25
 49
-1.5
 49
0.25
 49
-1.5
  0
LTYPE
  2
undefined
 70
   64
  3
--------------------------------
 72
   65
 73
    0
 40
0
  0
LTYPE
  2
_
 70
   64
  3
                                
 72
   65
 73
    0
 40
0
  0
LTYPE
  2
__18
 70
   64
  3
                                
 72
   65
 73
    0
 40
0
  0
LTYPE
  2
__19
 70
   64
  3
                                
 72
   65
 73
    0
 40
0
  0
LTYPE
  2
__20
 70
   64
  3
                                
 72
   65
 73
    0
 40
0
  0
LTYPE
  2
__21
 70
   64
  3
                                
 72
   65
 73
    0
 40
0
  0
LTYPE
  2
__22
 70
   64
  3
                                
 72
   65
 73
    0
 40
0
  0
LTYPE
  2
__23
 70
   64
  3
                                
 72
   65
 73
    0
 40
0
  0
LTYPE
  2
__24
 70
   64
  3
                                
 72
   65
 73
    0
 40
0
  0
LTYPE
  2
__25
 70
   64
  3
                                
 72
   65
 73
    0
 40
0
  0
LTYPE
  2
__26
 70
   64
  3
                                
 72
   65
 73
    0
 40
0
  0
LTYPE
  2
__27
 70
   64
  3
                                
 72
   65
 73
    0
 40
0
  0
LTYPE
  2
__28
 70
   64
  3
                                
 72
   65
 73
    0
 40
0
  0
LTYPE
  2
__29
 70
   64
  3
                                
 72
   65
 73
    0
 40
0
  0
LTYPE
  2
__30
 70
   64
  3
                                
 72
   65
 73
    0
 40
0
  0
LTYPE
  2
__31
 70
   64
  3
                                
 72
   65
 73
    0
 40
0
  0
LTYPE
  2
__32
 70
   64
  3
                                
 72
   65
 73
    0
 40
0
  0
ENDTAB
  0
TABLE
  2
STYLE
  5
3
100
AcDbSymbolTable
 70
     1
  0
STYLE
  5
10
100
AcDbSymbolTableRecord
100
AcDbTextStyleTableRecord
  2
STANDARD
 70
     0
 40
0.0
 41
1.0
 50
0.0
 71
     0
 42
0.2
  3
txt
  4
bigfont.shx
  0
STYLE
  5
26
100
AcDbSymbolTableRecord
100
AcDbTextStyleTableRecord
  2
TATEGAKI
 70
    68
 40
0.0
 41
1.0
 50
0.0
 71
     0
 42
1.0
  3
txt
  4
bigfont.shx
  0
ENDTAB
  0
TABLE
  2
LAYER
 70
    3
  0
LAYER
  2
_0-0_
 70
   64
 62
    7
  6
CONTINUOUS
  0
LAYER
  2
_1-0_
 70
   64
 62
    7
  6
CONTINUOUS
  0
LAYER
  2
ADD_LINE
 70
   64
 62
    7
  6
CONTINUOUS
  0
ENDTAB
  0
ENDSEC
  0
SECTION
  2
BLOCKS
  0
ENDSEC
  0
SECTION
  2
ENTITIES
  0
LINE
  8
_1-0_
  6
CONTINUOUS
 62
    7
 10
805.91323705253444
 20
1591.1883120739321
 11
806.2807726767993
 21
1591.1702896177078
  0
LINE
  8
_1-0_
  6
CONTINUOUS
 62
    7
 10
806.2807726767993
 20
1591.1702896177078
 11
806.64480879500104
 21
1591.1162222490348
  0
LINE
  8
_1-0_
  6
CONTINUOUS
 62
    7
 10
806.64480879500104
 20
1591.1162222490348
 11
807.00175841342525
 21
1591.0268098691254
  0
LINE
  8
_1-0_
  6
CONTINUOUS
 62
    7
 10
807.00175841342525
 20
1591.0268098691254
 11
807.34829700131218
 21
1590.9029273544959
  0
LINE
  8
_1-0_
  6
CONTINUOUS
 62
    7
 10
807.34829700131218
 20
1590.9029273544959
 11
807.68092505259858
 21
1590.7454495816617
  0
LINE
  8
_1-0_
  6
CONTINUOUS
 62
    7
 10
807.68092505259858
 20
1590.7454495816617
 11
807.99658049947971
 21
1590.5563012789573
  0
LINE
  8
_1-0_
  6
CONTINUOUS
 62
    7
 10
807.99658049947971
 20
1590.5563012789573
 11
808.2922012741501
 21
1590.3370572241115
  0
LINE
  8
_1-0_
  6
CONTINUOUS
 62
    7
 10
808.2922012741501
 20
1590.3370572241115
 11
808.56481279645652
 21
1590.0899920960649
  0
LINE
  8
_1-0_
  6
CONTINUOUS
 62
    7
 10
808.56481279645652
 20
1590.0899920960649
 11
808.81196541215456
 21
1589.8172055984555
  0
LINE
  8
_1-0_
  6
CONTINUOUS
 62
    7
 10
808.81196541215456
 20
1589.8172055984555
 11
809.03120946700039
 21
1589.5216723114365
  0
LINE
  8
_1-0_
  6
CONTINUOUS
 62
    7
 10
809.03120946700039
 20
1589.5216723114365
 11
809.22035776970461
 21
1589.2060168645557
  0
LINE
  8
_1-0_
  6
CONTINUOUS
 62
    7
 10
809.22035776970461
 20
1589.2060168645557
 11
809.37774805488732
 21
1588.8733888132692
  0
LINE
  8
_1-0_
  6
CONTINUOUS
 62
    7
 10
809.37774805488732
 20
1588.8733888132692
 11
809.50171805716855
 21
1588.5269377130339
  0
LINE
  8
_1-0_
  6
CONTINUOUS
 62
    7
 10
809.50171805716855
 20
1588.5269377130339
 11
809.5911304370776
 21
1588.1698131193066
  0
LINE
  8
_1-0_
  6
CONTINUOUS
 62
    7
 10
809.5911304370776
 20
1588.1698131193066
 11
809.64511031809923
 21
1587.8058644887562
  0
LINE
  8
_1-0_
  6
CONTINUOUS
 62
    7
 10
809.64511031809923
 20
1587.8058644887562
 11
809.66322026197508
 21
1587.4382413768399
  0
LINE
  8
_1-0_
  6
CONTINUOUS
 62
    7
 10
809.66322026197508
 20
1587.4382413768399
 11
809.66322026197508
 21
1204.9382917485182
  0
LINE
  8
_1-0_
  6
CONTINUOUS
 62
    7
 10
809.66322026197508
 20
1204.9382917485182
 11
809.64511031809923
 21
1204.5707561242534
  0
LINE
  8
_1-0_
  6
CONTINUOUS
 62
    7
 10
809.64511031809923
 20
1204.5707561242534
 11
809.5911304370776
 21
1204.2067200060517
  0
LINE
  8
_1-0_
  6
CONTINUOUS
 62
    7
 10
809.5911304370776
 20
1204.2067200060517
 11
809.50171805716855
 21
1203.8497703876274
  0
LINE
  8
_1-0_
  6
CONTINUOUS
 62
    7
 10
809.50171805716855
 20
1203.8497703876274
 11
809.37774805488732
 21
1203.5032317997407
  0
LINE
  8
_1-0_
  6
CONTINUOUS
 62
    7
 10
809.37774805488732
 20
1203.5032317997407
 11
809.22035776970461
 21
1203.1706037484539
  0
LINE
  8
_1-0_
  6
CONTINUOUS
 62
    7
 10
809.22035776970461
 20
1203.1706037484539
 11
809.03120946700039
 21
1202.8549483015731
  0
LINE
  8
_1-0_
  6
CONTINUOUS
 62
    7
 10
809.03120946700039
 20
1202.8549483015731
 11
808.81196541215456
 21
1202.5593275269025
  0
LINE
  8
_1-0_
  6
CONTINUOUS
 62
    7
 10
808.81196541215456
 20
1202.5593275269025
 11
808.56481279645652
 21
1202.2866285169446
  0
LINE
  8
_1-0_
  6
CONTINUOUS
 62
    7
 10
808.56481279645652
 20
1202.2866285169446
 11
808.2922012741501
 21
1202.0394759012465
  0
LINE
  8
_1-0_
  6
CONTINUOUS
 62
    7
 10
808.2922012741501
 20
1202.0394759012465
 11
807.99658049947971
 21
1201.8203193340521
  0
LINE
  8
_1-0_
  6
CONTINUOUS
 62
    7
 10
807.99658049947971
 20
1201.8203193340521
 11
807.68092505259858
 21
1201.6310835436964
  0
LINE
  8
_1-0_
  6
CONTINUOUS
 62
    7
 10
807.68092505259858
 20
1201.6310835436964
 11
807.34829700131218
 21
1201.4737807461652
  0
LINE
  8
_1-0_
  6
CONTINUOUS
 62
    7
 10
807.34829700131218
 20
1201.4737807461652
 11
807.00175841342525
 21
1201.3498107438843
  0
LINE
  8
_1-0_
  6
CONTINUOUS
 62
    7
 10
807.00175841342525
 20
1201.3498107438843
 11
806.64480879500104
 21
1201.2603983639749
  0
LINE
  8
_1-0_
  6
CONTINUOUS
 62
    7
 10
806.64480879500104
 20
1201.2603983639749
 11
806.2807726767993
 21
1201.2063309953019
  0
LINE
  8
_1-0_
  6
CONTINUOUS
 62
    7
 10
806.2807726767993
 20
1201.2063309953019
 11
805.91323705253444
 21
1201.1883085390775
  0
LINE
  8
_1-0_
  6
CONTINUOUS
 62
    7
 10
805.91323705253444
 20
1201.1883085390775
 11
223.41319139399587
 21
1201.1883085390775
  0
LINE
  8
_1-0_
  6
CONTINUOUS
 62
    7
 10
223.41319139399587
 20
1201.1883085390775
 11
223.04563389781819
 21
1201.2063309953019
  0
LINE
  8
_1-0_
  6
CONTINUOUS
 62
    7
 10
223.04563389781819
 20
1201.2063309953019
 11
222.68159777961642
 21
1201.2603983639749
  0
LINE
  8
_1-0_
  6
CONTINUOUS
 62
    7
 10
222.68159777961642
 20
1201.2603983639749
 11
222.32462628927934
 21
1201.3498107438843
  0
LINE
  8
_1-0_
  6
CONTINUOUS
 62
    7
 10
222.32462628927934
 20
1201.3498107438843
 11
221.97813144521831
 21
1201.4737807461652
  0
LINE
  8
_1-0_
  6
CONTINUOUS
 62
    7
 10
221.97813144521831
 20
1201.4737807461652
 11
221.64545965010589
 21
1201.6310835436964
  0
LINE
  8
_1-0_
  6
CONTINUOUS
 62
    7
 10
221.64545965010589
 20
1201.6310835436964
 11
221.32980420322497
 21
1201.8203193340521
  0
LINE
  8
_1-0_
  6
CONTINUOUS
 62
    7
 10
221.32980420322497
 20
1201.8203193340521
 11
221.03422717238018
 21
1202.0394759012465
  0
LINE
  8
_1-0_
  6
CONTINUOUS
 62
    7
 10
221.03422717238018
 20
1202.0394759012465
 11
220.76155003433513
 21
1202.2866285169446
  0
LINE
  8
_1-0_
  6
CONTINUOUS
 62
    7
 10
220.76155003433513
 20
1202.2866285169446
 11
220.51439741863703
 21
1202.5593275269025
  0
LINE
  8
_1-0_
  6
CONTINUOUS
 62
    7
 10
220.51439741863703
 20
1202.5593275269025
 11
220.29517523570405
 21
1202.8549483015731
  0
LINE
  8
_1-0_
  6
CONTINUOUS
 62
    7
 10
220.29517523570405
 20
1202.8549483015731
 11
220.10598318917403
 21
1203.1706037484539
  0
LINE
  8
_1-0_
  6
CONTINUOUS
 62
    7
 10
220.10598318917403
 20
1203.1706037484539
 11
219.94865851973017
 21
1203.5032317997407
  0
LINE
  8
_1-0_
  6
CONTINUOUS
 62
    7
 10
219.94865851973017
 20
1203.5032317997407
 11
219.82466664553613
 21
1203.8497703876274
  0
LINE
  8
_1-0_
  6
CONTINUOUS
 62
    7
 10
219.82466664553613
 20
1203.8497703876274
 11
219.73525426562688
 21
1204.2067200060517
  0
LINE
  8
_1-0_
  6
CONTINUOUS
 62
    7
 10
219.73525426562688
 20
1204.2067200060517
 11
219.68125251269242
 21
1204.5707561242534
  0
LINE
  8
_1-0_
  6
CONTINUOUS
 62
    7
 10
219.68125251269242
 20
1204.5707561242534
 11
219.6631863126423
 21
1204.9382917485182
  0
LINE
  8
_1-0_
  6
CONTINUOUS
 62
    7
 10
219.6631863126423
 20
1204.9382917485182
 11
219.6631863126423
 21
1587.4382413768399
  0
LINE
  8
_1-0_
  6
CONTINUOUS
 62
    7
 10
219.6631863126423
 20
1587.4382413768399
 11
219.68125251269242
 21
1587.8058644887562
  0
LINE
  8
_1-0_
  6
CONTINUOUS
 62
    7
 10
219.68125251269242
 20
1587.8058644887562
 11
219.73525426562688
 21
1588.1698131193066
  0
LINE
  8
_1-0_
  6
CONTINUOUS
 62
    7
 10
219.73525426562688
 20
1588.1698131193066
 11
219.82466664553613
 21
1588.5269377130339
  0
LINE
  8
_1-0_
  6
CONTINUOUS
 62
    7
 10
219.82466664553613
 20
1588.5269377130339
 11
219.94865851973017
 21
1588.8733888132692
  0
LINE
  8
_1-0_
  6
CONTINUOUS
 62
    7
 10
219.94865851973017
 20
1588.8733888132692
 11
220.10598318917403
 21
1589.2060168645557
  0
LINE
  8
_1-0_
  6
CONTINUOUS
 62
    7
 10
220.10598318917403
 20
1589.2060168645557
 11
220.29517523570405
 21
1589.5216723114365
  0
LINE
  8
_1-0_
  6
CONTINUOUS
 62
    7
 10
220.29517523570405
 20
1589.5216723114365
 11
220.51439741863703
 21
1589.8172055984555
  0
LINE
  8
_1-0_
  6
CONTINUOUS
 62
    7
 10
220.51439741863703
 20
1589.8172055984555
 11
220.76155003433513
 21
1590.0899920960649
  0
LINE
  8
_1-0_
  6
CONTINUOUS
 62
    7
 10
220.76155003433513
 20
1590.0899920960649
 11
221.03422717238018
 21
1590.3370572241115
  0
LINE
  8
_1-0_
  6
CONTINUOUS
 62
    7
 10
221.03422717238018
 20
1590.3370572241115
 11
221.32980420322497
 21
1590.5563012789573
  0
LINE
  8
_1-0_
  6
CONTINUOUS
 62
    7
 10
221.32980420322497
 20
1590.5563012789573
 11
221.64545965010589
 21
1590.7454495816617
  0
LINE
  8
_1-0_
  6
CONTINUOUS
 62
    7
 10
221.64545965010589
 20
1590.7454495816617
 11
221.97813144521831
 21
1590.9029273544959
  0
LINE
  8
_1-0_
  6
CONTINUOUS
 62
    7
 10
221.97813144521831
 20
1590.9029273544959
 11
222.32462628927934
 21
1591.0268098691254
  0
LINE
  8
_1-0_
  6
CONTINUOUS
 62
    7
 10
222.32462628927934
 20
1591.0268098691254
 11
222.68159777961642
 21
1591.1162222490348
  0
LINE
  8
_1-0_
  6
CONTINUOUS
 62
    7
 10
222.68159777961642
 20
1591.1162222490348
 11
223.04563389781819
 21
1591.1702896177078
  0
LINE
  8
_1-0_
  6
CONTINUOUS
 62
    7
 10
223.04563389781819
 20
1591.1702896177078
 11
223.41319139399587
 21
1591.1883120739321
  0
LINE
  8
_1-0_
  6
CONTINUOUS
 62
    7
 10
223.41319139399587
 20
1591.1883120739321
 11
805.91323705253444
 21
1591.1883120739321
  0
LINE
  8
_1-0_
  6
CONTINUOUS
 62
    7
 10
760.01056597499769
 20
1546.1883385853416
 11
760.4666391026559
 21
1546.1659417465387
  0
LINE
  8
_1-0_
  6
CONTINUOUS
 62
    7
 10
760.4666391026559
 20
1546.1659417465387
 11
760.9182503600839
 21
1546.0989262054322
  0
LINE
  8
_1-0_
  6
CONTINUOUS
 62
    7
 10
760.9182503600839
 20
1546.0989262054322
 11
761.36120034000578
 21
1545.9879918632359
  0
LINE
  8
_1-0_
  6
CONTINUOUS
 62
    7
 10
761.36120034000578
 20
1545.9879918632359
 11
761.79102717219166
 21
1545.8341885717678
  0
LINE
  8
_1-0_
  6
CONTINUOUS
 62
    7
 10
761.79102717219166
 20
1545.8341885717678
 11
762.20379391232041
 21
1545.6389161334532
  0
LINE
  8
_1-0_
  6
CONTINUOUS
 62
    7
 10
762.20379391232041
 20
1545.6389161334532
 11
762.59547612841982
 21
1545.4042742519302
  0
LINE
  8
_1-0_
  6
CONTINUOUS
 62
    7
 10
762.59547612841982
 20
1545.4042742519302
 11
762.96213687616887
 21
1545.1321876555335
  0
LINE
  8
_1-0_
  6
CONTINUOUS
 62
    7
 10
762.96213687616887
 20
1545.1321876555335
 11
763.30045162480769
 21
1544.8256309244161
  0
LINE
  8
_1-0_
  6
CONTINUOUS
 62
    7
 10
763.30045162480769
 20
1544.8256309244161
 11
763.60709584357653
 21
1544.4872286881259
  0
LINE
  8
_1-0_
  6
CONTINUOUS
 62
    7
 10
763.60709584357653
 20
1544.4872286881259
 11
763.87909495232179
 21
1544.1204804527251
  0
LINE
  8
_1-0_
  6
CONTINUOUS
 62
    7
 10
763.87909495232179
 20
1544.1204804527251
 11
764.11382432149639
 21
1543.7288857242775
  0
LINE
  8
_1-0_
  6
CONTINUOUS
 62
    7
 10
764.11382432149639
 20
1543.7288857242775
 11
764.3090092721593
 21
1543.3161189841487
  0
LINE
  8
_1-0_
  6
CONTINUOUS
 62
    7
 10
764.3090092721593
 20
1543.3161189841487
 11
764.46290005127889
 21
1542.8862046643112
  0
LINE
  8
_1-0_
  6
CONTINUOUS
 62
    7
 10
764.46290005127889
 20
1542.8862046643112
 11
764.57383439347552
 21
1542.443342172041
  0
LINE
  8
_1-0_
  6
CONTINUOUS
 62
    7
 10
764.57383439347552
 20
1542.443342172041
 11
764.64076244693001
 21
1541.9917309146128
  0
LINE
  8
_1-0_
  6
CONTINUOUS
 62
    7
 10
764.64076244693001
 20
1541.9917309146128
 11
764.66315928573306
 21
1541.5357452746061
  0
LINE
  8
_1-0_
  6
CONTINUOUS
 62
    7
 10
764.66315928573306
 20
1541.5357452746061
 11
764.66315928573306
 21
1250.8408753384033
  0
LINE
  8
_1-0_
  6
CONTINUOUS
 62
    7
 10
764.66315928573306
 20
1250.8408753384033
 11
764.64076244693001
 21
1250.3848896983968
  0
LINE
  8
_1-0_
  6
CONTINUOUS
 62
    7
 10
764.64076244693001
 20
1250.3848896983968
 11
764.57383439347552
 21
1249.9331909533173
  0
LINE
  8
_1-0_
  6
CONTINUOUS
 62
    7
 10
764.57383439347552
 20
1249.9331909533173
 11
764.46290005127889
 21
1249.4903284610468
  0
LINE
  8
_1-0_
  6
CONTINUOUS
 62
    7
 10
764.46290005127889
 20
1249.4903284610468
 11
764.3090092721593
 21
1249.0604141412093
  0
LINE
  8
_1-0_
  6
CONTINUOUS
 62
    7
 10
764.3090092721593
 20
1249.0604141412093
 11
764.11382432149639
 21
1248.6476474010806
  0
LINE
  8
_1-0_
  6
CONTINUOUS
 62
    7
 10
764.11382432149639
 20
1248.6476474010806
 11
763.87909495232179
 21
1248.2560526726329
  0
LINE
  8
_1-0_
  6
CONTINUOUS
 62
    7
 10
763.87909495232179
 20
1248.2560526726329
 11
763.60709584357653
 21
1247.8893044372321
  0
LINE
  8
_1-0_
  6
CONTINUOUS
 62
    7
 10
763.60709584357653
 20
1247.8893044372321
 11
763.30045162480769
 21
1247.5509896885935
  0
LINE
  8
_1-0_
  6
CONTINUOUS
 62
    7
 10
763.30045162480769
 20
1247.5509896885935
 11
762.96213687616887
 21
1247.244432957476
  0
LINE
  8
_1-0_
  6
CONTINUOUS
 62
    7
 10
762.96213687616887
 20
1247.244432957476
 11
762.59547612841982
 21
1246.9724338487308
  0
LINE
  8
_1-0_
  6
CONTINUOUS
 62
    7
 10
762.59547612841982
 20
1246.9724338487308
 11
762.20379391232041
 21
1246.7377044795562
  0
LINE
  8
_1-0_
  6
CONTINUOUS
 62
    7
 10
762.20379391232041
 20
1246.7377044795562
 11
761.79102717219166
 21
1246.5424320412417
  0
LINE
  8
_1-0_
  6
CONTINUOUS
 62
    7
 10
761.79102717219166
 20
1246.5424320412417
 11
761.36120034000578
 21
1246.3886287497737
  0
LINE
  8
_1-0_
  6
CONTINUOUS
 62
    7
 10
761.36120034000578
 20
1246.3886287497737
 11
760.9182503600839
 21
1246.2776944075772
  0
LINE
  8
_1-0_
  6
CONTINUOUS
 62
    7
 10
760.9182503600839
 20
1246.2776944075772
 11
760.4666391026559
 21
1246.210678866471
  0
LINE
  8
_1-0_
  6
CONTINUOUS
 62
    7
 10
760.4666391026559
 20
1246.210678866471
 11
760.01056597499769
 21
1246.1882820276678
  0
LINE
  8
_1-0_
  6
CONTINUOUS
 62
    7
 10
760.01056597499769
 20
1246.1882820276678
 11
269.31579685579391
 21
1246.1882820276678
  0
LINE
  8
_1-0_
  6
CONTINUOUS
 62
    7
 10
269.31579685579391
 20
1246.1882820276678
 11
268.8597674719615
 21
1246.210678866471
  0
LINE
  8
_1-0_
  6
CONTINUOUS
 62
    7
 10
268.8597674719615
 20
1246.210678866471
 11
268.40811247070775
 21
1246.2776944075772
  0
LINE
  8
_1-0_
  6
CONTINUOUS
 62
    7
 10
268.40811247070775
 20
1246.2776944075772
 11
267.96522810652448
 21
1246.3886287497737
  0
LINE
  8
_1-0_
  6
CONTINUOUS
 62
    7
 10
267.96522810652448
 20
1246.3886287497737
 11
267.53533565859993
 21
1246.5424320412417
  0
LINE
  8
_1-0_
  6
CONTINUOUS
 62
    7
 10
267.53533565859993
 20
1246.5424320412417
 11
267.12256891847119
 21
1246.7377044795562
  0
LINE
  8
_1-0_
  6
CONTINUOUS
 62
    7
 10
267.12256891847119
 20
1246.7377044795562
 11
266.73095231811044
 21
1246.9724338487308
  0
LINE
  8
_1-0_
  6
CONTINUOUS
 62
    7
 10
266.73095231811044
 20
1246.9724338487308
 11
266.36422595462278
 21
1247.244432957476
  0
LINE
  8
_1-0_
  6
CONTINUOUS
 62
    7
 10
266.36422595462278
 20
1247.244432957476
 11
266.0259112059839
 21
1247.5509896885935
  0
LINE
  8
_1-0_
  6
CONTINUOUS
 62
    7
 10
266.0259112059839
 20
1247.5509896885935
 11
265.71928885912797
 21
1247.8893044372321
  0
LINE
  8
_1-0_
  6
CONTINUOUS
 62
    7
 10
265.71928885912797
 20
1247.8893044372321
 11
265.44731162229567
 21
1248.2560526726329
  0
LINE
  8
_1-0_
  6
CONTINUOUS
 62
    7
 10
265.44731162229567
 20
1248.2560526726329
 11
265.21256038120811
 21
1248.6476474010806
  0
LINE
  8
_1-0_
  6
CONTINUOUS
 62
    7
 10
265.21256038120811
 20
1248.6476474010806
 11
265.01735355863246
 21
1249.0604141412093
  0
LINE
  8
_1-0_
  6
CONTINUOUS
 62
    7
 10
265.01735355863246
 20
1249.0604141412093
 11
264.86352839525136
 21
1249.4903284610468
  0
LINE
  8
_1-0_
  6
CONTINUOUS
 62
    7
 10
264.86352839525136
 20
1249.4903284610468
 11
264.75259405305479
 21
1249.9331909533173
  0
LINE
  8
_1-0_
  6
CONTINUOUS
 62
    7
 10
264.75259405305479
 20
1249.9331909533173
 11
264.68560038386158
 21
1250.3848896983968
  0
LINE
  8
_1-0_
  6
CONTINUOUS
 62
    7
 10
264.68560038386158
 20
1250.3848896983968
 11
264.66320354505854
 21
1250.8408753384033
  0
LINE
  8
_1-0_
  6
CONTINUOUS
 62
    7
 10
264.66320354505854
 20
1250.8408753384033
 11
264.66320354505854
 21
1541.5357452746061
  0
LINE
  8
_1-0_
  6
CONTINUOUS
 62
    7
 10
264.66320354505854
 20
1541.5357452746061
 11
264.68560038386158
 21
1541.9917309146128
  0
LINE
  8
_1-0_
  6
CONTINUOUS
 62
    7
 10
264.68560038386158
 20
1541.9917309146128
 11
264.75259405305479
 21
1542.443342172041
  0
LINE
  8
_1-0_
  6
CONTINUOUS
 62
    7
 10
264.75259405305479
 20
1542.443342172041
 11
264.86352839525136
 21
1542.8862046643112
  0
LINE
  8
_1-0_
  6
CONTINUOUS
 62
    7
 10
264.86352839525136
 20
1542.8862046643112
 11
265.01735355863246
 21
1543.3161189841487
  0
LINE
  8
_1-0_
  6
CONTINUOUS
 62
    7
 10
265.01735355863246
 20
1543.3161189841487
 11
265.21256038120811
 21
1543.7288857242775
  0
LINE
  8
_1-0_
  6
CONTINUOUS
 62
    7
 10
265.21256038120811
 20
1543.7288857242775
 11
265.44731162229567
 21
1544.1204804527251
  0
LINE
  8
_1-0_
  6
CONTINUOUS
 62
    7
 10
265.44731162229567
 20
1544.1204804527251
 11
265.71928885912797
 21
1544.4872286881259
  0
LINE
  8
_1-0_
  6
CONTINUOUS
 62
    7
 10
265.71928885912797
 20
1544.4872286881259
 11
266.0259112059839
 21
1544.8256309244161
  0
LINE
  8
_1-0_
  6
CONTINUOUS
 62
    7
 10
266.0259112059839
 20
1544.8256309244161
 11
266.36422595462278
 21
1545.1321876555335
  0
LINE
  8
_1-0_
  6
CONTINUOUS
 62
    7
 10
266.36422595462278
 20
1545.1321876555335
 11
266.73095231811044
 21
1545.4042742519302
  0
LINE
  8
_1-0_
  6
CONTINUOUS
 62
    7
 10
266.73095231811044
 20
1545.4042742519302
 11
267.12256891847119
 21
1545.6389161334532
  0
LINE
  8
_1-0_
  6
CONTINUOUS
 62
    7
 10
267.12256891847119
 20
1545.6389161334532
 11
267.53533565859993
 21
1545.8341885717678
  0
LINE
  8
_1-0_
  6
CONTINUOUS
 62
    7
 10
267.53533565859993
 20
1545.8341885717678
 11
267.96522810652448
 21
1545.9879918632359
  0
LINE
  8
_1-0_
  6
CONTINUOUS
 62
    7
 10
267.96522810652448
 20
1545.9879918632359
 11
268.40811247070775
 21
1546.0989262054322
  0
LINE
  8
_1-0_
  6
CONTINUOUS
 62
    7
 10
268.40811247070775
 20
1546.0989262054322
 11
268.8597674719615
 21
1546.1659417465387
  0
LINE
  8
_1-0_
  6
CONTINUOUS
 62
    7
 10
268.8597674719615
 20
1546.1659417465387
 11
269.31579685579391
 21
1546.1883385853416
  0
LINE
  8
_1-0_
  6
CONTINUOUS
 62
    7
 10
269.31579685579391
 20
1546.1883385853416
 11
760.01056597499769
 21
1546.1883385853416
  0
LINE
  8
_1-0_
  6
CONTINUOUS
 62
    7
 10
785.24226715205714
 20
1570.1883011158827
 11
785.57760732054248
 21
1570.1718534373867
  0
LINE
  8
_1-0_
  6
CONTINUOUS
 62
    7
 10
785.57760732054248
 20
1570.1718534373867
 11
785.90971044591947
 21
1570.1225104018988
  0
LINE
  8
_1-0_
  6
CONTINUOUS
 62
    7
 10
785.90971044591947
 20
1570.1225104018988
 11
786.23533948507998
 21
1570.0409719106312
  0
LINE
  8
_1-0_
  6
CONTINUOUS
 62
    7
 10
786.23533948507998
 20
1570.0409719106312
 11
786.55143237021889
 21
1569.9279378647971
  0
LINE
  8
_1-0_
  6
CONTINUOUS
 62
    7
 10
786.55143237021889
 20
1569.9279378647971
 11
786.85492703353111
 21
1569.7842831409114
  0
LINE
  8
_1-0_
  6
CONTINUOUS
 62
    7
 10
786.85492703353111
 20
1569.7842831409114
 11
787.14284889486294
 21
1569.6117574920063
  0
LINE
  8
_1-0_
  6
CONTINUOUS
 62
    7
 10
787.14284889486294
 20
1569.6117574920063
 11
787.41248583701577
 21
1569.4117607205069
  0
LINE
  8
_1-0_
  6
CONTINUOUS
 62
    7
 10
787.41248583701577
 20
1569.4117607205069
 11
787.66121323044229
 21
1569.1863925300509
  0
LINE
  8
_1-0_
  6
CONTINUOUS
 62
    7
 10
787.66121323044229
 20
1569.1863925300509
 11
787.88666890854995
 21
1568.9375776489728
  0
LINE
  8
_1-0_
  6
CONTINUOUS
 62
    7
 10
787.88666890854995
 20
1568.9375776489728
 11
788.08666568004935
 21
1568.66794070682
  0
LINE
  8
_1-0_
  6
CONTINUOUS
 62
    7
 10
788.08666568004935
 20
1568.66794070682
 11
788.25927881660607
 21
1568.3799313578365
  0
LINE
  8
_1-0_
  6
CONTINUOUS
 62
    7
 10
788.25927881660607
 20
1568.3799313578365
 11
788.40275856518826
 21
1568.0765241821759
  0
LINE
  8
_1-0_
  6
CONTINUOUS
 62
    7
 10
788.40275856518826
 20
1568.0765241821759
 11
788.5158800986743
 21
1567.7605187846884
  0
LINE
  8
_1-0_
  6
CONTINUOUS
 62
    7
 10
788.5158800986743
 20
1567.7605187846884
 11
788.59750607759338
 21
1567.4347147702249
  0
LINE
  8
_1-0_
  6
CONTINUOUS
 62
    7
 10
788.59750607759338
 20
1567.4347147702249
 11
788.6467616254298
 21
1567.1027866201509
  0
LINE
  8
_1-0_
  6
CONTINUOUS
 62
    7
 10
788.6467616254298
 20
1567.1027866201509
 11
788.66320930392578
 21
1566.7673589640142
  0
LINE
  8
_1-0_
  6
CONTINUOUS
 62
    7
 10
788.66320930392578
 20
1566.7673589640142
 11
788.66320930392578
 21
1225.6091741613438
  0
LINE
  8
_1-0_
  6
CONTINUOUS
 62
    7
 10
788.66320930392578
 20
1225.6091741613438
 11
788.6467616254298
 21
1225.2739214805101
  0
LINE
  8
_1-0_
  6
CONTINUOUS
 62
    7
 10
788.6467616254298
 20
1225.2739214805101
 11
788.59750607759338
 21
1224.9418183551331
  0
LINE
  8
_1-0_
  6
CONTINUOUS
 62
    7
 10
788.59750607759338
 20
1224.9418183551331
 11
788.5158800986743
 21
1224.6161893159726
  0
LINE
  8
_1-0_
  6
CONTINUOUS
 62
    7
 10
788.5158800986743
 20
1224.6161893159726
 11
788.40275856518826
 21
1224.3000964308337
  0
LINE
  8
_1-0_
  6
CONTINUOUS
 62
    7
 10
788.40275856518826
 20
1224.3000964308337
 11
788.25927881660607
 21
1223.9966017675215
  0
LINE
  8
_1-0_
  6
CONTINUOUS
 62
    7
 10
788.25927881660607
 20
1223.9966017675215
 11
788.08666568004935
 21
1223.7086799061897
  0
LINE
  8
_1-0_
  6
CONTINUOUS
 62
    7
 10
788.08666568004935
 20
1223.7086799061897
 11
787.88666890854995
 21
1223.4390429640368
  0
LINE
  8
_1-0_
  6
CONTINUOUS
 62
    7
 10
787.88666890854995
 20
1223.4390429640368
 11
787.66121323044229
 21
1223.1902280829586
  0
LINE
  8
_1-0_
  6
CONTINUOUS
 62
    7
 10
787.66121323044229
 20
1223.1902280829586
 11
787.41248583701577
 21
1222.9647724048509
  0
LINE
  8
_1-0_
  6
CONTINUOUS
 62
    7
 10
787.41248583701577
 20
1222.9647724048509
 11
787.14284889486294
 21
1222.7648631210031
  0
LINE
  8
_1-0_
  6
CONTINUOUS
 62
    7
 10
787.14284889486294
 20
1222.7648631210031
 11
786.85492703353111
 21
1222.5922499844464
  0
LINE
  8
_1-0_
  6
CONTINUOUS
 62
    7
 10
786.85492703353111
 20
1222.5922499844464
 11
786.55143237021889
 21
1222.4486827482128
  0
LINE
  8
_1-0_
  6
CONTINUOUS
 62
    7
 10
786.55143237021889
 20
1222.4486827482128
 11
786.23533948507998
 21
1222.3355612147268
  0
LINE
  8
_1-0_
  6
CONTINUOUS
 62
    7
 10
786.23533948507998
 20
1222.3355612147268
 11
785.90971044591947
 21
1222.2540227234592
  0
LINE
  8
_1-0_
  6
CONTINUOUS
 62
    7
 10
785.90971044591947
 20
1222.2540227234592
 11
785.57760732054248
 21
1222.2047671756227
  0
LINE
  8
_1-0_
  6
CONTINUOUS
 62
    7
 10
785.57760732054248
 20
1222.2047671756227
 11
785.24226715205714
 21
1222.1883194971267
  0
LINE
  8
_1-0_
  6
CONTINUOUS
 62
    7
 10
785.24226715205714
 20
1222.1883194971267
 11
244.08409567873449
 21
1222.1883194971267
  0
LINE
  8
_1-0_
  6
CONTINUOUS
 62
    7
 10
244.08409567873449
 20
1222.1883194971267
 11
243.74879925407498
 21
1222.2047671756227
  0
LINE
  8
_1-0_
  6
CONTINUOUS
 62
    7
 10
243.74879925407498
 20
1222.2047671756227
 11
243.41671800061079
 21
1222.2540227234592
  0
LINE
  8
_1-0_
  6
CONTINUOUS
 62
    7
 10
243.41671800061079
 20
1222.2540227234592
 11
243.09106708953735
 21
1222.3355612147268
  0
LINE
  8
_1-0_
  6
CONTINUOUS
 62
    7
 10
243.09106708953735
 20
1222.3355612147268
 11
242.77497420439843
 21
1222.4486827482128
  0
LINE
  8
_1-0_
  6
CONTINUOUS
 62
    7
 10
242.77497420439843
 20
1222.4486827482128
 11
242.47150141299926
 21
1222.5922499844464
  0
LINE
  8
_1-0_
  6
CONTINUOUS
 62
    7
 10
242.47150141299926
 20
1222.5922499844464
 11
242.18355767975439
 21
1222.7648631210031
  0
LINE
  8
_1-0_
  6
CONTINUOUS
 62
    7
 10
242.18355767975439
 20
1222.7648631210031
 11
241.91389886568871
 21
1222.9647724048509
  0
LINE
  8
_1-0_
  6
CONTINUOUS
 62
    7
 10
241.91389886568871
 20
1222.9647724048509
 11
241.66514960034931
 21
1223.1902280829586
  0
LINE
  8
_1-0_
  6
CONTINUOUS
 62
    7
 10
241.66514960034931
 20
1223.1902280829586
 11
241.43971579415449
 21
1223.4390429640368
  0
LINE
  8
_1-0_
  6
CONTINUOUS
 62
    7
 10
241.43971579415449
 20
1223.4390429640368
 11
241.23971902265509
 21
1223.7086799061897
  0
LINE
  8
_1-0_
  6
CONTINUOUS
 62
    7
 10
241.23971902265509
 20
1223.7086799061897
 11
241.06712775801142
 21
1223.9966017675215
  0
LINE
  8
_1-0_
  6
CONTINUOUS
 62
    7
 10
241.06712775801142
 20
1223.9966017675215
 11
240.92360426560333
 21
1224.3000964308337
  0
LINE
  8
_1-0_
  6
CONTINUOUS
 62
    7
 10
240.92360426560333
 20
1224.3000964308337
 11
240.8105046040302
 21
1224.6161893159726
  0
LINE
  8
_1-0_
  6
CONTINUOUS
 62
    7
 10
240.8105046040302
 20
1224.6161893159726
 11
240.72892236893694
 21
1224.9418183551331
  0
LINE
  8
_1-0_
  6
CONTINUOUS
 62
    7
 10
240.72892236893694
 20
1224.9418183551331
 11
240.67966682110054
 21
1225.2739214805101
  0
LINE
  8
_1-0_
  6
CONTINUOUS
 62
    7
 10
240.67966682110054
 20
1225.2739214805101
 11
240.66319727069157
 21
1225.6091741613438
  0
LINE
  8
_1-0_
  6
CONTINUOUS
 62
    7
 10
240.66319727069157
 20
1225.6091741613438
 11
240.66319727069157
 21
1566.7673589640142
  0
LINE
  8
_1-0_
  6
CONTINUOUS
 62
    7
 10
240.66319727069157
 20
1566.7673589640142
 11
240.67966682110054
 21
1567.1027866201509
  0
LINE
  8
_1-0_
  6
CONTINUOUS
 62
    7
 10
240.67966682110054
 20
1567.1027866201509
 11
240.72892236893694
 21
1567.4347147702249
  0
LINE
  8
_1-0_
  6
CONTINUOUS
 62
    7
 10
240.72892236893694
 20
1567.4347147702249
 11
240.8105046040302
 21
1567.7605187846884
  0
LINE
  8
_1-0_
  6
CONTINUOUS
 62
    7
 10
240.8105046040302
 20
1567.7605187846884
 11
240.92360426560333
 21
1568.0765241821759
  0
LINE
  8
_1-0_
  6
CONTINUOUS
 62
    7
 10
240.92360426560333
 20
1568.0765241821759
 11
241.06712775801142
 21
1568.3799313578365
  0
LINE
  8
_1-0_
  6
CONTINUOUS
 62
    7
 10
241.06712775801142
 20
1568.3799313578365
 11
241.23971902265509
 21
1568.66794070682
  0
LINE
  8
_1-0_
  6
CONTINUOUS
 62
    7
 10
241.23971902265509
 20
1568.66794070682
 11
241.43971579415449
 21
1568.9375776489728
  0
LINE
  8
_1-0_
  6
CONTINUOUS
 62
    7
 10
241.43971579415449
 20
1568.9375776489728
 11
241.66514960034931
 21
1569.1863925300509
  0
LINE
  8
_1-0_
  6
CONTINUOUS
 62
    7
 10
241.66514960034931
 20
1569.1863925300509
 11
241.91389886568871
 21
1569.4117607205069
  0
LINE
  8
_1-0_
  6
CONTINUOUS
 62
    7
 10
241.91389886568871
 20
1569.4117607205069
 11
242.18355767975439
 21
1569.6117574920063
  0
LINE
  8
_1-0_
  6
CONTINUOUS
 62
    7
 10
242.18355767975439
 20
1569.6117574920063
 11
242.47150141299926
 21
1569.7842831409114
  0
LINE
  8
_1-0_
  6
CONTINUOUS
 62
    7
 10
242.47150141299926
 20
1569.7842831409114
 11
242.77497420439843
 21
1569.9279378647971
  0
LINE
  8
_1-0_
  6
CONTINUOUS
 62
    7
 10
242.77497420439843
 20
1569.9279378647971
 11
243.09106708953735
 21
1570.0409719106312
  0
LINE
  8
_1-0_
  6
CONTINUOUS
 62
    7
 10
243.09106708953735
 20
1570.0409719106312
 11
243.41671800061079
 21
1570.1225104018988
  0
LINE
  8
_1-0_
  6
CONTINUOUS
 62
    7
 10
243.41671800061079
 20
1570.1225104018988
 11
243.74879925407498
 21
1570.1718534373867
  0
LINE
  8
_1-0_
  6
CONTINUOUS
 62
    7
 10
243.74879925407498
 20
1570.1718534373867
 11
244.08409567873449
 21
1570.1883011158827
  0
LINE
  8
_1-0_
  6
CONTINUOUS
 62
    7
 10
244.08409567873449
 20
1570.1883011158827
 11
785.24226715205714
 21
1570.1883011158827
  0
LINE
  8
_1-0_
  6
CONTINUOUS
 62
    7
 10
265.88474988016844
 20
1544.6781267438614
 11
241.31438973327391
 21
1569.2485087626687
  0
LINE
  8
_1-0_
  6
CONTINUOUS
 62
    7
 10
763.44165669444908
 20
1544.6781267438614
 11
787.80128096061321
 21
1569.0376635223743
  0
LINE
  8
_1-0_
  6
CONTINUOUS
 62
    7
 10
763.07622077382212
 20
1247.341106812466
 11
787.4343577499094
 21
1222.9828823487269
  0
LINE
  8
_1-0_
  6
CONTINUOUS
 62
    7
 10
265.00000913170766
 20
1244.9806899729842
 11
245.00000390306866
 21
1224.9806628724323
  0
LINE
  8
_1-0_
  6
CONTINUOUS
 62
    7
 10
219.99518007845495
 20
545.37566682086481
 11
809.33120462424972
 21
545.37566682086481
  0
LINE
  8
_1-0_
  6
CONTINUOUS
 62
    7
 10
809.33120462424972
 20
545.37566682086481
 11
809.33120462424972
 21
700.06376465315054
  0
LINE
  8
_1-0_
  6
CONTINUOUS
 62
    7
 10
219.29519137820677
 20
544.98070381783145
 11
219.29519137820677
 21
700.06376465315054
  0
LINE
  8
_1-0_
  6
CONTINUOUS
 62
    7
 10
479.66321054112484
 20
575.37566372786705
 11
273.19038435298967
 21
575.37566372786705
  0
LINE
  8
_1-0_
  6
CONTINUOUS
 62
    7
 10
756.13600034971478
 20
575.37566372786705
 11
549.66321790540542
 21
575.37566372786705
  0
LINE
  8
_1-0_
  6
CONTINUOUS
 62
    7
 10
549.66321790540542
 20
575.37566372786705
 11
479.66321054112484
 21
575.37566372786705
  0
LINE
  8
_1-0_
  6
CONTINUOUS
 62
    7
 10
804.34090897843646
 20
705.37566490615188
 11
798.92682314839601
 21
705.37566490615188
  0
LINE
  8
_1-0_
  6
CONTINUOUS
 62
    7
 10
224.28544328019427
 20
705.37566490615188
 11
229.69959472597338
 21
705.37566490615188
  0
LINE
  8
_1-0_
  6
CONTINUOUS
 62
    7
 10
240.63679787182906
 20
701.16562788090641
 11
262.61597062630074
 21
583.7957815221838
  0
LINE
  8
_1-0_
  6
CONTINUOUS
 62
    7
 10
787.98955438680173
 20
701.16562788090641
 11
766.01038163232988
 21
583.7957815221838
  0
LINE
  8
_1-0_
  6
CONTINUOUS
 62
    7
 10
228.60070607837102
 20
705.37566490615188
 11
801.63386606341624
 21
705.37566490615188
  0
LINE
  8
_1-0_
  6
CONTINUOUS
 62
    7
 10
489.66318034757506
 20
545.37566682086481
 11
489.66318034757506
 21
565.37565017759107
  0
LINE
  8
_1-0_
  6
CONTINUOUS
 62
    7
 10
539.66320435512921
 20
545.37566682086481
 11
539.66320435512921
 21
565.37565017759107
  0
LINE
  8
_1-0_
  6
CONTINUOUS
 62
    7
 10
1178.4326828768815
 20
545.38572790079593
 11
1567.7687426239368
 21
544.98070381783145
  0
LINE
  8
_1-0_
  6
CONTINUOUS
 62
    7
 10
1568.4686438365334
 20
544.98070381783145
 11
1568.4686438365334
 21
700.06376465315054
  0
LINE
  8
_1-0_
  6
CONTINUOUS
 62
    7
 10
1178.4326828768815
 20
545.38572790079593
 11
1178.4326828768815
 21
700.06376465315054
  0
LINE
  8
_1-0_
  6
CONTINUOUS
 62
    7
 10
1338.100709068269
 20
575.37566372786705
 11
1226.2987518310545
 21
575.37566372786705
  0
LINE
  8
_1-0_
  6
CONTINUOUS
 62
    7
 10
1519.9026736697635
 20
575.37566372786705
 11
1408.1007164325492
 21
575.37566372786705
  0
LINE
  8
_1-0_
  6
CONTINUOUS
 62
    7
 10
1408.1007164325492
 20
575.37566372786705
 11
1338.100709068269
 21
575.37566372786705
  0
LINE
  8
_1-0_
  6
CONTINUOUS
 62
    7
 10
1557.4784450457364
 20
705.37566490615188
 11
1551.8997074554322
 21
705.37566490615188
  0
LINE
  8
_1-0_
  6
CONTINUOUS
 62
    7
 10
1189.4229691553298
 20
705.37566490615188
 11
1195.0017067456336
 21
705.37566490615188
  0
LINE
  8
_1-0_
  6
CONTINUOUS
 62
    7
 10
1546.9968994611938
 20
701.35626347368748
 11
1530.4085408214437
 21
583.41451033662179
  0
LINE
  8
_1-0_
  6
CONTINUOUS
 62
    7
 10
1199.9046022275238
 20
701.35626347368748
 11
1216.4929608672742
 21
583.41451033662179
  0
LINE
  8
_1-0_
  6
CONTINUOUS
 62
    7
 10
1183.4229785226946
 20
705.37566490615188
 11
1563.478523166023
 21
705.37566490615188
  0
LINE
  8
_1-0_
  6
CONTINUOUS
 62
    7
 10
1348.1007226185448
 20
545.37566682086481
 11
1348.1007226185448
 21
565.37565017759107
  0
LINE
  8
_1-0_
  6
CONTINUOUS
 62
    7
 10
1398.1007028822733
 20
545.37566682086481
 11
1398.1007028822733
 21
565.37565017759107
  0
CIRCLE
  8
_1-0_
  6
CONTINUOUS
 62
    7
 10
514.66321422326519
 20
1396.1883103065047
 40
22.500000414240773
  0
ARC
  8
_1-0_
  6
CONTINUOUS
 62
    7
 10
224.28544328019427
 20
700.37565813101401
 40
4.9999999401652211
 50
90
 51
183.57632446289062
  0
ARC
  8
_1-0_
  6
CONTINUOUS
 62
    7
 10
235.69960723052148
 20
700.37565813101401
 40
4.9999999401652211
 50
9.09027099609375
 51
90
  0
ARC
  8
_1-0_
  6
CONTINUOUS
 62
    7
 10
804.34090897843646
 20
700.37565813101401
 40
4.9999999401652211
 50
356.42366027832031
 51
90
  0
ARC
  8
_1-0_
  6
CONTINUOUS
 62
    7
 10
792.92683251576068
 20
700.37565813101401
 40
4.9999999401652211
 50
90
 51
170.90971374511719
  0
ARC
  8
_1-0_
  6
CONTINUOUS
 62
    7
 10
479.66321054112484
 20
565.37565017759107
 40
9.9999998803304422
 50
0
 51
90
  0
ARC
  8
_1-0_
  6
CONTINUOUS
 62
    7
 10
549.66321790540542
 20
565.37565017759107
 40
9.9999998803304422
 50
90
 51
180
  0
ARC
  8
_1-0_
  6
CONTINUOUS
 62
    7
 10
272.4903956527416
 20
585.37567727814303
 40
9.9999998803304422
 50
189.09027099609378
 51
270
  0
ARC
  8
_1-0_
  6
CONTINUOUS
 62
    7
 10
756.13600034971478
 20
585.37567727814303
 40
9.9999998803304422
 50
270
 51
350.90971374511719
  0
ARC
  8
_1-0_
  6
CONTINUOUS
 62
    7
 10
1551.8997074554322
 20
700.37565813101401
 40
4.9999999401652211
 50
90
 51
168.69006347656253
  0
ARC
  8
_1-0_
  6
CONTINUOUS
 62
    7
 10
1563.478523166023
 20
700.37565813101401
 40
4.9999999401652211
 50
356.42366027832031
 51
90
  0
ARC
  8
_1-0_
  6
CONTINUOUS
 62
    7
 10
1195.0017067456336
 20
700.37565813101401
 40
4.9999999401652211
 50
11.309921264648438
 51
90
  0
ARC
  8
_1-0_
  6
CONTINUOUS
 62
    7
 10
1183.4229785226946
 20
700.37565813101401
 40
4.9999999401652211
 50
90
 51
183.57632446289062
  0
ARC
  8
_1-0_
  6
CONTINUOUS
 62
    7
 10
1338.100709068269
 20
565.37565017759107
 40
9.9999998803304422
 50
0
 51
90
  0
ARC
  8
_1-0_
  6
CONTINUOUS
 62
    7
 10
1408.1007164325492
 20
565.37565017759107
 40
9.9999998803304422
 50
90
 51
180
  0
ARC
  8
_1-0_
  6
CONTINUOUS
 62
    7
 10
1226.2987518310545
 20
585.37567727814303
 40
9.9999998803304422
 50
191.30992126464844
 51
270
  0
ARC
  8
_1-0_
  6
CONTINUOUS
 62
    7
 10
1520.6025748823599
 20
585.37567727814303
 40
9.9999998803304422
 50
269.99998474121094
 51
348.69006347656244
  0
TEXT
  8
_0-0_
 62
    6
 10
2129.9999941085757
 20
1789.1635938961074
 40
100
 41
1
 50
0
  1
B1-B505
  0
ENDSEC
  0
EOF
