  0
SECTION
  2
HEADER
  9
$ACADVER
  1
AC1009
  9
$INSBASE
 10
0
 20
0
 30
0
  9
$EXTMIN
 10
0
 20
0
  9
$EXTMAX
 10
2970
 20
2100
  9
$LIMMIN
 10
0
 20
0
  9
$LIMMAX
 10
2970
 20
2100
  9
$LTSCALE
 40
10
  0
ENDSEC
  0
SECTION
  2
TABLES
  0
TABLE
  2
LTYPE
 70
     9
  0
LTYPE
  2
CONTINUOUS
 70
    64
  3
実線
 72
    65
 73
     0
 40
0.0
  0
LTYPE
  2
DASHED1
 70
    64
  3
--  --  --  --  --  --  --  --  
 72
    65
 73
     2
 40
2.5
 49
1.25
 49
-1.25
  0
LTYPE
  2
DASHED2
 70
    64
  3
----    ----    ----    ----    
 72
    65
 73
     2
 40
5.0
 49
2.5
 49
-2.5
  0
LTYPE
  2
DASHED3
 70
    64
  3
------  ------  ------  ------  
 72
    65
 73
     2
 40
5.0
 49
3.75
 49
-1.25
  0
LTYPE
  2
CENTER1
 70
    64
  3
----- - ----- - ----- - ----- - 
 72
    65
 73
     4
 40
10.0
 49
6.25
 49
-1.25
 49
1.25
 49
-1.25
  0
LTYPE
  2
CENTER2
 70
    64
  3
----------  --  ----------  --  
 72
    65
 73
     4
 40
20.0
 49
12.5
 49
-2.5
 49
2.5
 49
-2.5
  0
LTYPE
  2
PHANTOM1
 70
    64
  3
--- - - --- - - --- - - --- - - 
 72
    65
 73
     6
 40
10.0
 49
3.25
 49
-1.25
 49
1.25
 49
-1.25
 49
1.25
 49
-1.25
  0
LTYPE
  2
PHANTOM2
 70
    64
  3
--------  -  -  --------  -  -  
 72
    65
 73
     6
 40
20.0
 49
10.0
 49
-2.5
 49
1.25
 49
-2.5
 49
1.25
 49
-2.5
  0
LTYPE
  2
DOT
 70
    64
  3
-   -   -   -   -   -   -   -   
 72
    65
 73
     2
 40
2.5
 49
0.625
 49
-1.875
  0
LTYPE
  2
DUMMY
 70
    64
  3
ダミー
 72
    65
 73
     0
 40
0.0
  0
LTYPE
  2
RAND1
 70
    64
  3
ランダム線1
 72
    65
 73
     4
 40
10.0
 49
1.0
 49
-2.0
 49
3.0
 49
-4.0
  0
LTYPE
  2
RAND2
 70
    64
  3
ランダム線2
 72
    65
 73
     4
 40
14.0
 49
2.0
 49
-3.0
 49
4.0
 49
-5.0
  0
LTYPE
  2
RAND3
 70
    64
  3
ランダム線3
 72
    65
 73
     4
 40
18.0
 49
3.0
 49
-4.0
 49
5.0
 49
-6.0
  0
LTYPE
  2
RAND4
 70
    64
  3
ランダム線4
 72
    65
 73
     4
 40
22.0
 49
4.0
 49
-5.0
 49
6.0
 49
-7.0
  0
LTYPE
  2
RAND5
 70
    64
  3
ランダム線5
 72
    65
 73
     4
 40
26.0
 49
5.0
 49
-6.0
 49
7.0
 49
-8.0
  0
LTYPE
  2
LONG1
 70
    64
  3
----------  --  ----------  --  
 72
    65
 73
     4
 40
40.0
 49
32.5
 49
-2.5
 49
2.5
 49
-2.5
  0
LTYPE
  2
LONG2
 70
    64
  3
--------  -  -  --------  -  -  
 72
    65
 73
     6
 40
40.0
 49
30.0
 49
-2.5
 49
1.25
 49
-2.5
 49
1.25
 49
-2.5
  0
LTYPE
  2
LONG3
 70
    64
  3
+++++++++++++++..+++++++++++++++
 72
    65
 73
     2
 40
40.0
 49
37.5
 49
-2.5
  0
LTYPE
  2
LONG4
 70
    64
  3
+++++++++++++++..+++++++++++++++
 72
    65
 73
     2
 40
80.0
 49
75.0
 49
-5.0
  0
LTYPE
  2
LONG5
 70
    64
  3
----------  --  ----------  --  
 72
    65
 73
     4
 40
60.0
 49
37.5
 49
-7.5
 49
7.5
 49
-7.5
  0
LTYPE
  2
dashed
 70
   64
  3
-------   -------------   ------
 72
   65
 73
    2
 40
7.5
 49
6
 49
-1.5
  0
LTYPE
  2
dashed_spaced
 70
   64
  3
----        --------        ----
 72
   65
 73
    2
 40
12
 49
6
 49
-6
  0
LTYPE
  2
long_dashed_dotted
 70
   64
  3
------------- --- --------------
 72
   65
 73
    4
 40
15.25
 49
12
 49
-1.5
 49
0.25
 49
-1.5
  0
LTYPE
  2
long_dashed_double-dotted
 70
   64
  3
----------- --- --- ------------
 72
   65
 73
    6
 40
17
 49
12
 49
-1.5
 49
0.25
 49
-1.5
 49
0.25
 49
-1.5
  0
LTYPE
  2
long_dashed_triplicate-dotted
 70
   64
  3
--------- --- --- --- ----------
 72
   65
 73
    8
 40
18.75
 49
12
 49
-1.5
 49
0.25
 49
-1.5
 49
0.25
 49
-1.5
 49
0.25
 49
-1.5
  0
LTYPE
  2
dotted
 70
   64
  3
   -       -       -       -    
 72
   65
 73
    2
 40
1.75
 49
0.25
 49
-1.5
  0
LTYPE
  2
chain
 70
   64
  3
-------------- -- --------------
 72
   65
 73
    4
 40
18.5
 49
12
 49
-1.5
 49
3.5
 49
-1.5
  0
LTYPE
  2
chain_double_dash
 70
   64
  3
------------ -- -- -------------
 72
   65
 73
    6
 40
23.5
 49
12
 49
-1.5
 49
3.5
 49
-1.5
 49
3.5
 49
-1.5
  0
LTYPE
  2
dashed_dotted
 70
   64
  3
-----------     -     ----------
 72
   65
 73
    4
 40
9.25
 49
6
 49
-1.5
 49
0.25
 49
-1.5
  0
LTYPE
  2
double-dashed_dotted
 70
   64
  3
------   -----------   -   -----
 72
   65
 73
    6
 40
16.75
 49
6
 49
-1.5
 49
6
 49
-1.5
 49
0.25
 49
-1.5
  0
LTYPE
  2
dashed_double-dotted
 70
   64
  3
---------    -    -    ---------
 72
   65
 73
    6
 40
11
 49
6
 49
-1.5
 49
0.25
 49
-1.5
 49
0.25
 49
-1.5
  0
LTYPE
  2
double-dashed_double-dotted
 70
   64
  3
-----   ---------   -   -   ----
 72
   65
 73
    8
 40
18.5
 49
6
 49
-1.5
 49
6
 49
-1.5
 49
0.25
 49
-1.5
 49
0.25
 49
-1.5
  0
LTYPE
  2
dashed_triplicate-dotted
 70
   64
  3
-------    -    -    -    ------
 72
   65
 73
    8
 40
12.75
 49
6
 49
-1.5
 49
0.25
 49
-1.5
 49
0.25
 49
-1.5
 49
0.25
 49
-1.5
  0
LTYPE
  2
double-dashed_triplicate-dotted
 70
   64
  3
-----  ---------  -  -  -  -----
 72
   65
 73
   10
 40
20.25
 49
6
 49
-1.5
 49
6
 49
-1.5
 49
0.25
 49
-1.5
 49
0.25
 49
-1.5
 49
0.25
 49
-1.5
  0
LTYPE
  2
undefined
 70
   64
  3
--------------------------------
 72
   65
 73
    0
 40
0
  0
LTYPE
  2
_
 70
   64
  3
                                
 72
   65
 73
    0
 40
0
  0
LTYPE
  2
__18
 70
   64
  3
                                
 72
   65
 73
    0
 40
0
  0
LTYPE
  2
__19
 70
   64
  3
                                
 72
   65
 73
    0
 40
0
  0
LTYPE
  2
__20
 70
   64
  3
                                
 72
   65
 73
    0
 40
0
  0
LTYPE
  2
__21
 70
   64
  3
                                
 72
   65
 73
    0
 40
0
  0
LTYPE
  2
__22
 70
   64
  3
                                
 72
   65
 73
    0
 40
0
  0
LTYPE
  2
__23
 70
   64
  3
                                
 72
   65
 73
    0
 40
0
  0
LTYPE
  2
__24
 70
   64
  3
                                
 72
   65
 73
    0
 40
0
  0
LTYPE
  2
__25
 70
   64
  3
                                
 72
   65
 73
    0
 40
0
  0
LTYPE
  2
__26
 70
   64
  3
                                
 72
   65
 73
    0
 40
0
  0
LTYPE
  2
__27
 70
   64
  3
                                
 72
   65
 73
    0
 40
0
  0
LTYPE
  2
__28
 70
   64
  3
                                
 72
   65
 73
    0
 40
0
  0
LTYPE
  2
__29
 70
   64
  3
                                
 72
   65
 73
    0
 40
0
  0
LTYPE
  2
__30
 70
   64
  3
                                
 72
   65
 73
    0
 40
0
  0
LTYPE
  2
__31
 70
   64
  3
                                
 72
   65
 73
    0
 40
0
  0
LTYPE
  2
__32
 70
   64
  3
                                
 72
   65
 73
    0
 40
0
  0
ENDTAB
  0
TABLE
  2
STYLE
  5
3
100
AcDbSymbolTable
 70
     1
  0
STYLE
  5
10
100
AcDbSymbolTableRecord
100
AcDbTextStyleTableRecord
  2
STANDARD
 70
     0
 40
0.0
 41
1.0
 50
0.0
 71
     0
 42
0.2
  3
txt
  4
bigfont.shx
  0
STYLE
  5
26
100
AcDbSymbolTableRecord
100
AcDbTextStyleTableRecord
  2
TATEGAKI
 70
    68
 40
0.0
 41
1.0
 50
0.0
 71
     0
 42
1.0
  3
txt
  4
bigfont.shx
  0
ENDTAB
  0
TABLE
  2
LAYER
 70
    3
  0
LAYER
  2
_0-0_
 70
   64
 62
    7
  6
CONTINUOUS
  0
LAYER
  2
_1-0_
 70
   64
 62
    7
  6
CONTINUOUS
  0
LAYER
  2
ADD_LINE
 70
   64
 62
    7
  6
CONTINUOUS
  0
ENDTAB
  0
ENDSEC
  0
SECTION
  2
BLOCKS
  0
ENDSEC
  0
SECTION
  2
ENTITIES
  0
CIRCLE
  8
_1-0_
  6
CONTINUOUS
 62
    7
 10
436.19247745823213
 20
1292.7067786846383
 40
79.999999042643537
  0
LINE
  8
_1-0_
  6
CONTINUOUS
 62
    7
 10
191.7444112770346
 20
601.75270949551498
 11
191.23647984390544
 21
600.76965449859733
  0
LINE
  8
_1-0_
  6
CONTINUOUS
 62
    7
 10
191.23647984390544
 20
600.76965449859733
 11
190.88983189645433
 21
599.7188403155352
  0
LINE
  8
_1-0_
  6
CONTINUOUS
 62
    7
 10
190.88983189645433
 20
599.7188403155352
 11
190.71308496836082
 21
598.62651324180104
  0
LINE
  8
_1-0_
  6
CONTINUOUS
 62
    7
 10
190.71308496836082
 20
598.62651324180104
 11
190.71067905794223
 21
597.51996942468588
  0
LINE
  8
_1-0_
  6
CONTINUOUS
 62
    7
 10
190.71067905794223
 20
597.51996942468588
 11
190.88267978093796
 21
596.42689870591323
  0
LINE
  8
_1-0_
  6
CONTINUOUS
 62
    7
 10
190.88267978093796
 20
596.42689870591323
 11
191.22477837050752
 21
595.37459723277436
  0
LINE
  8
_1-0_
  6
CONTINUOUS
 62
    7
 10
191.22477837050752
 20
595.37459723277436
 11
191.72842290870932
 21
594.38931130074161
  0
LINE
  8
_1-0_
  6
CONTINUOUS
 62
    7
 10
191.72842290870932
 20
594.38931130074161
 11
192.38103704562974
 21
593.49571242755906
  0
LINE
  8
_1-0_
  6
CONTINUOUS
 62
    7
 10
192.38103704562974
 20
593.49571242755906
 11
338.72996503321815
 21
441.89409145517237
  0
LINE
  8
_1-0_
  6
CONTINUOUS
 62
    7
 10
338.72996503321815
 20
441.89409145517237
 11
533.72996680064546
 21
441.89409145517237
  0
LINE
  8
_1-0_
  6
CONTINUOUS
 62
    7
 10
533.72996680064546
 20
441.89409145517237
 11
679.42100952030603
 21
593.56150314154308
  0
LINE
  8
_1-0_
  6
CONTINUOUS
 62
    7
 10
679.42100952030603
 20
593.56150314154308
 11
680.07751685772166
 21
594.42553118849344
  0
LINE
  8
_1-0_
  6
CONTINUOUS
 62
    7
 10
680.07751685772166
 20
594.42553118849344
 11
680.59255666254103
 21
595.38059013690724
  0
LINE
  8
_1-0_
  6
CONTINUOUS
 62
    7
 10
680.59255666254103
 20
595.38059013690724
 11
680.95383691971824
 21
596.40384570972333
  0
LINE
  8
_1-0_
  6
CONTINUOUS
 62
    7
 10
680.95383691971824
 20
596.40384570972333
 11
681.15260886409555
 21
597.47058264537202
  0
LINE
  8
_1-0_
  6
CONTINUOUS
 62
    7
 10
681.15260886409555
 20
597.47058264537202
 11
681.18414816248833
 21
598.55525454959343
  0
LINE
  8
_1-0_
  6
CONTINUOUS
 62
    7
 10
681.18414816248833
 20
598.55525454959343
 11
681.04762368220622
 21
599.63174635839277
  0
LINE
  8
_1-0_
  6
CONTINUOUS
 62
    7
 10
681.04762368220622
 20
599.63174635839277
 11
680.74640369783492
 21
600.67420547072948
  0
LINE
  8
_1-0_
  6
CONTINUOUS
 62
    7
 10
680.74640369783492
 20
600.67420547072948
 11
680.28770594062951
 21
601.6576104182534
  0
LINE
  8
_1-0_
  6
CONTINUOUS
 62
    7
 10
401.22996223479163
 20
1292.7067786846383
 11
471.22996959907198
 21
1292.7067786846383
  0
LINE
  8
_1-0_
  6
CONTINUOUS
 62
    7
 10
370.8492190681369
 20
461.89411855572439
 11
401.22996223479163
 21
461.89411855572439
  0
LINE
  8
_1-0_
  6
CONTINUOUS
 62
    7
 10
471.22996959907198
 20
461.89411855572439
 11
506.61071954086481
 21
461.89411855572439
  0
LINE
  8
_1-0_
  6
CONTINUOUS
 62
    7
 10
401.22996223479163
 20
461.89411855572439
 11
471.22996959907198
 21
461.89411855572439
  0
LINE
  8
_1-0_
  6
CONTINUOUS
 62
    7
 10
672.09330628737519
 20
599.64933137635921
 11
527.4485721367206
 21
470.31204915875173
  0
LINE
  8
_1-0_
  6
CONTINUOUS
 62
    7
 10
199.98863514786052
 20
599.64933137635921
 11
350.01136647228111
 21
470.31204915875173
  0
LINE
  8
_1-0_
  6
CONTINUOUS
 62
    7
 10
199.98863514786052
 20
599.64933137635921
 11
199.30828742539092
 21
600.30623240820682
  0
LINE
  8
_1-0_
  6
CONTINUOUS
 62
    7
 10
672.09330628737519
 20
599.64933137635921
 11
672.61105820939349
 21
600.16708329837752
  0
LINE
  8
_1-0_
  6
CONTINUOUS
 62
    7
 10
196.71029786805832
 20
601.89408954045939
 11
674.64816443248139
 21
601.89408954045939
  0
LINE
  8
_1-0_
  6
CONTINUOUS
 62
    7
 10
411.22997578506755
 20
441.89409145517237
 11
411.22997578506755
 21
451.89410500544841
  0
LINE
  8
_1-0_
  6
CONTINUOUS
 62
    7
 10
461.22995604879605
 20
441.89409145517237
 11
461.22995604879605
 21
451.89410500544841
  0
LINE
  8
_1-0_
  6
CONTINUOUS
 62
    7
 10
1041.7444257110242
 20
601.75270949551498
 11
1041.2364724059821
 21
600.76965449859733
  0
LINE
  8
_1-0_
  6
CONTINUOUS
 62
    7
 10
1041.2364724059821
 20
600.76965449859733
 11
1040.8898463304438
 21
599.7188403155352
  0
LINE
  8
_1-0_
  6
CONTINUOUS
 62
    7
 10
1040.8898463304438
 20
599.7188403155352
 11
1040.7131212742634
 21
598.62651324180104
  0
LINE
  8
_1-0_
  6
CONTINUOUS
 62
    7
 10
1040.7131212742634
 20
598.62651324180104
 11
1040.7106716200192
 21
597.51996942468588
  0
LINE
  8
_1-0_
  6
CONTINUOUS
 62
    7
 10
1040.7106716200192
 20
597.51996942468588
 11
1040.8826723430147
 21
596.42689870591323
  0
LINE
  8
_1-0_
  6
CONTINUOUS
 62
    7
 10
1040.8826723430147
 20
596.42689870591323
 11
1041.2247490606712
 21
595.37459723277436
  0
LINE
  8
_1-0_
  6
CONTINUOUS
 62
    7
 10
1041.2247490606712
 20
595.37459723277436
 11
1041.7284154707861
 21
594.38931130074161
  0
LINE
  8
_1-0_
  6
CONTINUOUS
 62
    7
 10
1041.7284154707861
 20
594.38931130074161
 11
1042.3810733515322
 21
593.49571242755906
  0
LINE
  8
_1-0_
  6
CONTINUOUS
 62
    7
 10
1042.3810733515322
 20
593.49571242755906
 11
1188.7299794672076
 21
441.89409145517237
  0
LINE
  8
_1-0_
  6
CONTINUOUS
 62
    7
 10
1188.7299794672076
 20
441.89409145517237
 11
1383.729981234635
 21
441.89409145517237
  0
LINE
  8
_1-0_
  6
CONTINUOUS
 62
    7
 10
1383.729981234635
 20
441.89409145517237
 11
1529.4209802104697
 21
593.56150314154308
  0
LINE
  8
_1-0_
  6
CONTINUOUS
 62
    7
 10
1529.4209802104697
 20
593.56150314154308
 11
1530.0774875478853
 21
594.42553118849344
  0
LINE
  8
_1-0_
  6
CONTINUOUS
 62
    7
 10
1530.0774875478853
 20
594.42553118849344
 11
1530.5926148403564
 21
595.38059013690724
  0
LINE
  8
_1-0_
  6
CONTINUOUS
 62
    7
 10
1530.5926148403564
 20
595.38059013690724
 11
1530.9537638660563
 21
596.40384570972333
  0
LINE
  8
_1-0_
  6
CONTINUOUS
 62
    7
 10
1530.9537638660563
 20
596.40384570972333
 11
1531.1525358104336
 21
597.47058264537202
  0
LINE
  8
_1-0_
  6
CONTINUOUS
 62
    7
 10
1531.1525358104336
 20
597.47058264537202
 11
1531.1842063403037
 21
598.55525454959343
  0
LINE
  8
_1-0_
  6
CONTINUOUS
 62
    7
 10
1531.1842063403037
 20
598.55525454959343
 11
1531.0475506285443
 21
599.63174635839277
  0
LINE
  8
_1-0_
  6
CONTINUOUS
 62
    7
 10
1531.0475506285443
 20
599.63174635839277
 11
1530.7464181318246
 21
600.67420547072948
  0
LINE
  8
_1-0_
  6
CONTINUOUS
 62
    7
 10
1530.7464181318246
 20
600.67420547072948
 11
1530.2876328869675
 21
601.6576104182534
  0
LINE
  8
_1-0_
  6
CONTINUOUS
 62
    7
 10
1220.8492335021265
 20
461.89411855572439
 11
1251.2299329249554
 21
461.89411855572439
  0
LINE
  8
_1-0_
  6
CONTINUOUS
 62
    7
 10
1321.2299402892359
 20
461.89411855572439
 11
1356.6107339748544
 21
461.89411855572439
  0
LINE
  8
_1-0_
  6
CONTINUOUS
 62
    7
 10
1251.2299329249554
 20
461.89411855572439
 11
1321.2299402892359
 21
461.89411855572439
  0
LINE
  8
_1-0_
  6
CONTINUOUS
 62
    7
 10
1522.0933644651905
 20
599.64933137635921
 11
1377.4485428268845
 21
470.31204915875173
  0
LINE
  8
_1-0_
  6
CONTINUOUS
 62
    7
 10
1049.9886495818503
 20
599.64933137635921
 11
1200.0113371624448
 21
470.31204915875173
  0
LINE
  8
_1-0_
  6
CONTINUOUS
 62
    7
 10
1049.9886495818503
 20
599.64933137635921
 11
1049.3082581155547
 21
600.30623240820682
  0
LINE
  8
_1-0_
  6
CONTINUOUS
 62
    7
 10
1522.0933644651905
 20
599.64933137635921
 11
1522.6111163872088
 21
600.16708329837752
  0
LINE
  8
_1-0_
  6
CONTINUOUS
 62
    7
 10
1046.7103123020481
 20
601.89408954045939
 11
1524.648178866471
 21
601.89408954045939
  0
LINE
  8
_1-0_
  6
CONTINUOUS
 62
    7
 10
1261.2299464752314
 20
441.89409145517237
 11
1261.2299464752314
 21
451.89410500544841
  0
LINE
  8
_1-0_
  6
CONTINUOUS
 62
    7
 10
1311.2299267389599
 20
441.89409145517237
 11
1311.2299267389599
 21
451.89410500544841
  0
CIRCLE
  8
_1-0_
  6
CONTINUOUS
 62
    7
 10
436.19247745823213
 20
1292.7067786846383
 40
245.00000390306863
  0
CIRCLE
  8
_1-0_
  6
CONTINUOUS
 62
    7
 10
436.19247745823213
 20
1292.7067786846383
 40
25.000001067820662
  0
CIRCLE
  8
_1-0_
  6
CONTINUOUS
 62
    7
 10
436.19247745823213
 20
1292.7067786846383
 40
234.99999035279262
  0
ARC
  8
_1-0_
  6
CONTINUOUS
 62
    7
 10
370.8492190681369
 20
491.89411546272657
 40
29.999999640991327
 50
226.00508117675784
 51
269.99998474121094
  0
ARC
  8
_1-0_
  6
CONTINUOUS
 62
    7
 10
506.61071954086481
 20
491.89411546272657
 40
29.999999640991327
 50
270
 51
313.99490356445312
  0
ARC
  8
_1-0_
  6
CONTINUOUS
 62
    7
 10
677.56080332870181
 20
595.21733817906909
 40
6.9999997795318532
 50
66.432022094726577
 51
135
  0
ARC
  8
_1-0_
  6
CONTINUOUS
 62
    7
 10
194.44611744530874
 20
595.2703994397491
 40
6.9999997795318532
 50
46.005081176757813
 51
112.92059326171875
  0
ARC
  8
_1-0_
  6
CONTINUOUS
 62
    7
 10
401.22996223479163
 20
451.89410500544841
 40
9.9999998803304422
 50
0
 51
90
  0
ARC
  8
_1-0_
  6
CONTINUOUS
 62
    7
 10
471.22996959907198
 20
451.89410500544841
 40
9.9999998803304422
 50
90
 51
180
  0
ARC
  8
_1-0_
  6
CONTINUOUS
 62
    7
 10
1220.8492335021265
 20
491.89411546272657
 40
29.999999640991327
 50
226.00508117675784
 51
269.99998474121094
  0
ARC
  8
_1-0_
  6
CONTINUOUS
 62
    7
 10
1356.6107339748544
 20
491.89411546272657
 40
29.999999640991327
 50
270
 51
313.99490356445312
  0
ARC
  8
_1-0_
  6
CONTINUOUS
 62
    7
 10
1527.5608177626916
 20
595.21733817906909
 40
6.9999997795318532
 50
66.432022094726577
 51
135
  0
ARC
  8
_1-0_
  6
CONTINUOUS
 62
    7
 10
1044.4461318792983
 20
595.2703994397491
 40
6.9999997795318532
 50
46.005081176757813
 51
112.92059326171875
  0
ARC
  8
_1-0_
  6
CONTINUOUS
 62
    7
 10
1251.2299329249554
 20
451.89410500544841
 40
9.9999998803304422
 50
0
 51
90
  0
ARC
  8
_1-0_
  6
CONTINUOUS
 62
    7
 10
1321.2299402892359
 20
451.89410500544841
 40
9.9999998803304422
 50
90
 51
180
  0
TEXT
  8
_0-0_
 62
    7
 10
2764.4304639308143
 20
252.52514489369048
 40
30
 41
1
 50
0
  1
    
  0
TEXT
  8
_0-0_
 62
    7
 10
2344.4305072327834
 20
252.52514489369048
 40
30
 41
1
 50
0
  1
    
  0
TEXT
  8
_0-0_
 62
    6
 10
1781.9336838887923
 20
1804.9806613995761
 40
100
 41
1
 50
0
  1
 B1-A408_
  0
ENDSEC
  0
EOF
