  0
SECTION
  2
HEADER
  9
$ACADVER
  1
AC1009
  9
$INSBASE
 10
0
 20
0
 30
0
  9
$EXTMIN
 10
0
 20
0
  9
$EXTMAX
 10
2970
 20
2100
  9
$LIMMIN
 10
0
 20
0
  9
$LIMMAX
 10
2970
 20
2100
  9
$LTSCALE
 40
10
  0
ENDSEC
  0
SECTION
  2
TABLES
  0
TABLE
  2
LTYPE
 70
     9
  0
LTYPE
  2
CONTINUOUS
 70
    64
  3
実線
 72
    65
 73
     0
 40
0.0
  0
LTYPE
  2
DASHED1
 70
    64
  3
--  --  --  --  --  --  --  --  
 72
    65
 73
     2
 40
2.5
 49
1.25
 49
-1.25
  0
LTYPE
  2
DASHED2
 70
    64
  3
----    ----    ----    ----    
 72
    65
 73
     2
 40
5.0
 49
2.5
 49
-2.5
  0
LTYPE
  2
DASHED3
 70
    64
  3
------  ------  ------  ------  
 72
    65
 73
     2
 40
5.0
 49
3.75
 49
-1.25
  0
LTYPE
  2
CENTER1
 70
    64
  3
----- - ----- - ----- - ----- - 
 72
    65
 73
     4
 40
10.0
 49
6.25
 49
-1.25
 49
1.25
 49
-1.25
  0
LTYPE
  2
CENTER2
 70
    64
  3
----------  --  ----------  --  
 72
    65
 73
     4
 40
20.0
 49
12.5
 49
-2.5
 49
2.5
 49
-2.5
  0
LTYPE
  2
PHANTOM1
 70
    64
  3
--- - - --- - - --- - - --- - - 
 72
    65
 73
     6
 40
10.0
 49
3.25
 49
-1.25
 49
1.25
 49
-1.25
 49
1.25
 49
-1.25
  0
LTYPE
  2
PHANTOM2
 70
    64
  3
--------  -  -  --------  -  -  
 72
    65
 73
     6
 40
20.0
 49
10.0
 49
-2.5
 49
1.25
 49
-2.5
 49
1.25
 49
-2.5
  0
LTYPE
  2
DOT
 70
    64
  3
-   -   -   -   -   -   -   -   
 72
    65
 73
     2
 40
2.5
 49
0.625
 49
-1.875
  0
LTYPE
  2
DUMMY
 70
    64
  3
ダミー
 72
    65
 73
     0
 40
0.0
  0
LTYPE
  2
RAND1
 70
    64
  3
ランダム線1
 72
    65
 73
     4
 40
10.0
 49
1.0
 49
-2.0
 49
3.0
 49
-4.0
  0
LTYPE
  2
RAND2
 70
    64
  3
ランダム線2
 72
    65
 73
     4
 40
14.0
 49
2.0
 49
-3.0
 49
4.0
 49
-5.0
  0
LTYPE
  2
RAND3
 70
    64
  3
ランダム線3
 72
    65
 73
     4
 40
18.0
 49
3.0
 49
-4.0
 49
5.0
 49
-6.0
  0
LTYPE
  2
RAND4
 70
    64
  3
ランダム線4
 72
    65
 73
     4
 40
22.0
 49
4.0
 49
-5.0
 49
6.0
 49
-7.0
  0
LTYPE
  2
RAND5
 70
    64
  3
ランダム線5
 72
    65
 73
     4
 40
26.0
 49
5.0
 49
-6.0
 49
7.0
 49
-8.0
  0
LTYPE
  2
LONG1
 70
    64
  3
----------  --  ----------  --  
 72
    65
 73
     4
 40
40.0
 49
32.5
 49
-2.5
 49
2.5
 49
-2.5
  0
LTYPE
  2
LONG2
 70
    64
  3
--------  -  -  --------  -  -  
 72
    65
 73
     6
 40
40.0
 49
30.0
 49
-2.5
 49
1.25
 49
-2.5
 49
1.25
 49
-2.5
  0
LTYPE
  2
LONG3
 70
    64
  3
+++++++++++++++..+++++++++++++++
 72
    65
 73
     2
 40
40.0
 49
37.5
 49
-2.5
  0
LTYPE
  2
LONG4
 70
    64
  3
+++++++++++++++..+++++++++++++++
 72
    65
 73
     2
 40
80.0
 49
75.0
 49
-5.0
  0
LTYPE
  2
LONG5
 70
    64
  3
----------  --  ----------  --  
 72
    65
 73
     4
 40
60.0
 49
37.5
 49
-7.5
 49
7.5
 49
-7.5
  0
LTYPE
  2
dashed
 70
   64
  3
-------   -------------   ------
 72
   65
 73
    2
 40
7.5
 49
6
 49
-1.5
  0
LTYPE
  2
dashed_spaced
 70
   64
  3
----        --------        ----
 72
   65
 73
    2
 40
12
 49
6
 49
-6
  0
LTYPE
  2
long_dashed_dotted
 70
   64
  3
------------- --- --------------
 72
   65
 73
    4
 40
15.25
 49
12
 49
-1.5
 49
0.25
 49
-1.5
  0
LTYPE
  2
long_dashed_double-dotted
 70
   64
  3
----------- --- --- ------------
 72
   65
 73
    6
 40
17
 49
12
 49
-1.5
 49
0.25
 49
-1.5
 49
0.25
 49
-1.5
  0
LTYPE
  2
long_dashed_triplicate-dotted
 70
   64
  3
--------- --- --- --- ----------
 72
   65
 73
    8
 40
18.75
 49
12
 49
-1.5
 49
0.25
 49
-1.5
 49
0.25
 49
-1.5
 49
0.25
 49
-1.5
  0
LTYPE
  2
dotted
 70
   64
  3
   -       -       -       -    
 72
   65
 73
    2
 40
1.75
 49
0.25
 49
-1.5
  0
LTYPE
  2
chain
 70
   64
  3
-------------- -- --------------
 72
   65
 73
    4
 40
18.5
 49
12
 49
-1.5
 49
3.5
 49
-1.5
  0
LTYPE
  2
chain_double_dash
 70
   64
  3
------------ -- -- -------------
 72
   65
 73
    6
 40
23.5
 49
12
 49
-1.5
 49
3.5
 49
-1.5
 49
3.5
 49
-1.5
  0
LTYPE
  2
dashed_dotted
 70
   64
  3
-----------     -     ----------
 72
   65
 73
    4
 40
9.25
 49
6
 49
-1.5
 49
0.25
 49
-1.5
  0
LTYPE
  2
double-dashed_dotted
 70
   64
  3
------   -----------   -   -----
 72
   65
 73
    6
 40
16.75
 49
6
 49
-1.5
 49
6
 49
-1.5
 49
0.25
 49
-1.5
  0
LTYPE
  2
dashed_double-dotted
 70
   64
  3
---------    -    -    ---------
 72
   65
 73
    6
 40
11
 49
6
 49
-1.5
 49
0.25
 49
-1.5
 49
0.25
 49
-1.5
  0
LTYPE
  2
double-dashed_double-dotted
 70
   64
  3
-----   ---------   -   -   ----
 72
   65
 73
    8
 40
18.5
 49
6
 49
-1.5
 49
6
 49
-1.5
 49
0.25
 49
-1.5
 49
0.25
 49
-1.5
  0
LTYPE
  2
dashed_triplicate-dotted
 70
   64
  3
-------    -    -    -    ------
 72
   65
 73
    8
 40
12.75
 49
6
 49
-1.5
 49
0.25
 49
-1.5
 49
0.25
 49
-1.5
 49
0.25
 49
-1.5
  0
LTYPE
  2
double-dashed_triplicate-dotted
 70
   64
  3
-----  ---------  -  -  -  -----
 72
   65
 73
   10
 40
20.25
 49
6
 49
-1.5
 49
6
 49
-1.5
 49
0.25
 49
-1.5
 49
0.25
 49
-1.5
 49
0.25
 49
-1.5
  0
LTYPE
  2
undefined
 70
   64
  3
--------------------------------
 72
   65
 73
    0
 40
0
  0
LTYPE
  2
_
 70
   64
  3
                                
 72
   65
 73
    0
 40
0
  0
LTYPE
  2
__18
 70
   64
  3
                                
 72
   65
 73
    0
 40
0
  0
LTYPE
  2
__19
 70
   64
  3
                                
 72
   65
 73
    0
 40
0
  0
LTYPE
  2
__20
 70
   64
  3
                                
 72
   65
 73
    0
 40
0
  0
LTYPE
  2
__21
 70
   64
  3
                                
 72
   65
 73
    0
 40
0
  0
LTYPE
  2
__22
 70
   64
  3
                                
 72
   65
 73
    0
 40
0
  0
LTYPE
  2
__23
 70
   64
  3
                                
 72
   65
 73
    0
 40
0
  0
LTYPE
  2
__24
 70
   64
  3
                                
 72
   65
 73
    0
 40
0
  0
LTYPE
  2
__25
 70
   64
  3
                                
 72
   65
 73
    0
 40
0
  0
LTYPE
  2
__26
 70
   64
  3
                                
 72
   65
 73
    0
 40
0
  0
LTYPE
  2
__27
 70
   64
  3
                                
 72
   65
 73
    0
 40
0
  0
LTYPE
  2
__28
 70
   64
  3
                                
 72
   65
 73
    0
 40
0
  0
LTYPE
  2
__29
 70
   64
  3
                                
 72
   65
 73
    0
 40
0
  0
LTYPE
  2
__30
 70
   64
  3
                                
 72
   65
 73
    0
 40
0
  0
LTYPE
  2
__31
 70
   64
  3
                                
 72
   65
 73
    0
 40
0
  0
LTYPE
  2
__32
 70
   64
  3
                                
 72
   65
 73
    0
 40
0
  0
ENDTAB
  0
TABLE
  2
STYLE
  5
3
100
AcDbSymbolTable
 70
     1
  0
STYLE
  5
10
100
AcDbSymbolTableRecord
100
AcDbTextStyleTableRecord
  2
STANDARD
 70
     0
 40
0.0
 41
1.0
 50
0.0
 71
     0
 42
0.2
  3
txt
  4
bigfont.shx
  0
STYLE
  5
26
100
AcDbSymbolTableRecord
100
AcDbTextStyleTableRecord
  2
TATEGAKI
 70
    68
 40
0.0
 41
1.0
 50
0.0
 71
     0
 42
1.0
  3
txt
  4
bigfont.shx
  0
ENDTAB
  0
TABLE
  2
LAYER
 70
    3
  0
LAYER
  2
_0-0_
 70
   64
 62
    7
  6
CONTINUOUS
  0
LAYER
  2
_1-0_
 70
   64
 62
    7
  6
CONTINUOUS
  0
LAYER
  2
ADD_LINE
 70
   64
 62
    7
  6
CONTINUOUS
  0
ENDTAB
  0
ENDSEC
  0
SECTION
  2
BLOCKS
  0
ENDSEC
  0
SECTION
  2
ENTITIES
  0
CIRCLE
  8
_1-0_
  6
CONTINUOUS
 62
    7
 10
474.99998748072329
 20
1209.9807300346699
 40
22.500000414240773
  0
LINE
  8
_1-0_
  6
CONTINUOUS
 62
    7
 10
280.00000758520883
 20
535.63934105243459
 11
250.71767188407279
 21
682.05097581428902
  0
LINE
  8
_1-0_
  6
CONTINUOUS
 62
    7
 10
250.71767188407279
 20
682.05097581428902
 11
250.66025811272695
 21
682.71019526890336
  0
LINE
  8
_1-0_
  6
CONTINUOUS
 62
    7
 10
250.66025811272695
 20
682.71019526890336
 11
250.74875187229466
 21
683.36595896128063
  0
LINE
  8
_1-0_
  6
CONTINUOUS
 62
    7
 10
250.74875187229466
 20
683.36595896128063
 11
250.97886626784856
 21
683.98642138624734
  0
LINE
  8
_1-0_
  6
CONTINUOUS
 62
    7
 10
250.97886626784856
 20
683.98642138624734
 11
251.33938100807455
 21
684.54126807253328
  0
LINE
  8
_1-0_
  6
CONTINUOUS
 62
    7
 10
251.33938100807455
 20
684.54126807253328
 11
251.81279856265746
 21
685.00364031110496
  0
LINE
  8
_1-0_
  6
CONTINUOUS
 62
    7
 10
251.81279856265746
 20
685.00364031110496
 11
252.37604406349448
 21
685.35096628785595
  0
LINE
  8
_1-0_
  6
CONTINUOUS
 62
    7
 10
252.37604406349448
 20
685.35096628785595
 11
253.00173387564286
 21
685.56636088603238
  0
LINE
  8
_1-0_
  6
CONTINUOUS
 62
    7
 10
253.00173387564286
 20
685.56636088603238
 11
253.65942229635465
 21
685.63932558744568
  0
LINE
  8
_1-0_
  6
CONTINUOUS
 62
    7
 10
253.65942229635465
 20
685.63932558744568
 11
474.99998748072329
 21
685.63932558744568
  0
LINE
  8
_1-0_
  6
CONTINUOUS
 62
    7
 10
474.99998748072329
 20
685.63932558744568
 11
696.34059640891769
 21
685.63932558744568
  0
LINE
  8
_1-0_
  6
CONTINUOUS
 62
    7
 10
696.34059640891769
 20
685.63932558744568
 11
696.99828482962948
 21
685.56636088603238
  0
LINE
  8
_1-0_
  6
CONTINUOUS
 62
    7
 10
696.99828482962948
 20
685.56636088603238
 11
697.6239527698649
 21
685.35096628785595
  0
LINE
  8
_1-0_
  6
CONTINUOUS
 62
    7
 10
697.6239527698649
 20
685.35096628785595
 11
698.18719827070197
 21
685.00364031110496
  0
LINE
  8
_1-0_
  6
CONTINUOUS
 62
    7
 10
698.18719827070197
 20
685.00364031110496
 11
698.66059395337186
 21
684.54126807253328
  0
LINE
  8
_1-0_
  6
CONTINUOUS
 62
    7
 10
698.66059395337186
 20
684.54126807253328
 11
699.0211305655107
 21
683.98642138624734
  0
LINE
  8
_1-0_
  6
CONTINUOUS
 62
    7
 10
699.0211305655107
 20
683.98642138624734
 11
699.25126683297765
 21
683.36595896128063
  0
LINE
  8
_1-0_
  6
CONTINUOUS
 62
    7
 10
699.25126683297765
 20
683.36595896128063
 11
699.3397605925453
 21
682.71019526890336
  0
LINE
  8
_1-0_
  6
CONTINUOUS
 62
    7
 10
699.3397605925453
 20
682.71019526890336
 11
699.2823249492867
 21
682.05097581428902
  0
LINE
  8
_1-0_
  6
CONTINUOUS
 62
    7
 10
699.2823249492867
 20
682.05097581428902
 11
669.99998924815043
 21
535.63934105243459
  0
LINE
  8
_1-0_
  6
CONTINUOUS
 62
    7
 10
669.99998924815043
 20
535.63934105243459
 11
280.00000758520883
 21
535.63934105243459
  0
LINE
  8
_1-0_
  6
CONTINUOUS
 62
    7
 10
284.99999248843392
 20
685.63932558744568
 11
311.48959111983243
 21
589.3135402193401
  0
LINE
  8
_1-0_
  6
CONTINUOUS
 62
    7
 10
311.48959111983243
 20
589.3135402193401
 11
311.76823929009743
 21
588.54964178961677
  0
LINE
  8
_1-0_
  6
CONTINUOUS
 62
    7
 10
311.76823929009743
 20
588.54964178961677
 11
312.16700800597437
 21
587.84103555568856
  0
LINE
  8
_1-0_
  6
CONTINUOUS
 62
    7
 10
312.16700800597437
 20
587.84103555568856
 11
312.67535500544841
 21
587.20640013116667
  0
LINE
  8
_1-0_
  6
CONTINUOUS
 62
    7
 10
312.67535500544841
 20
587.20640013116667
 11
313.27985093400287
 21
586.66257688897917
  0
LINE
  8
_1-0_
  6
CONTINUOUS
 62
    7
 10
313.27985093400287
 20
586.66257688897917
 11
313.96450742331251
 21
586.22391380398426
  0
LINE
  8
_1-0_
  6
CONTINUOUS
 62
    7
 10
313.96450742331251
 20
586.22391380398426
 11
314.71119265758858
 21
585.90204673384142
  0
LINE
  8
_1-0_
  6
CONTINUOUS
 62
    7
 10
314.71119265758858
 20
585.90204673384142
 11
315.50020004331373
 21
585.70541823692758
  0
LINE
  8
_1-0_
  6
CONTINUOUS
 62
    7
 10
315.50020004331373
 20
585.70541823692758
 11
316.3106200317618
 21
585.63932131616309
  0
LINE
  8
_1-0_
  6
CONTINUOUS
 62
    7
 10
316.3106200317618
 20
585.63932131616309
 11
474.99998748072329
 21
585.63932131616309
  0
LINE
  8
_1-0_
  6
CONTINUOUS
 62
    7
 10
474.99998748072329
 20
585.63932131616309
 11
633.68937680159752
 21
585.63932131616309
  0
LINE
  8
_1-0_
  6
CONTINUOUS
 62
    7
 10
633.68937680159752
 20
585.63932131616309
 11
634.49981866195856
 21
585.70541823692758
  0
LINE
  8
_1-0_
  6
CONTINUOUS
 62
    7
 10
634.49981866195856
 20
585.70541823692758
 11
635.28882604768364
 21
585.90204673384142
  0
LINE
  8
_1-0_
  6
CONTINUOUS
 62
    7
 10
635.28882604768364
 20
585.90204673384142
 11
636.03548941004692
 21
586.22391380398426
  0
LINE
  8
_1-0_
  6
CONTINUOUS
 62
    7
 10
636.03548941004692
 20
586.22391380398426
 11
636.72016777126942
 21
586.66257688897917
  0
LINE
  8
_1-0_
  6
CONTINUOUS
 62
    7
 10
636.72016777126942
 20
586.66257688897917
 11
637.32466369982387
 21
587.20640013116667
  0
LINE
  8
_1-0_
  6
CONTINUOUS
 62
    7
 10
637.32466369982387
 20
587.20640013116667
 11
637.83301069929792
 21
587.84103555568856
  0
LINE
  8
_1-0_
  6
CONTINUOUS
 62
    7
 10
637.83301069929792
 20
587.84103555568856
 11
638.23177941517486
 21
588.54964178961677
  0
LINE
  8
_1-0_
  6
CONTINUOUS
 62
    7
 10
638.23177941517486
 20
588.54964178961677
 11
638.51042758543963
 21
589.3135402193401
  0
LINE
  8
_1-0_
  6
CONTINUOUS
 62
    7
 10
638.51042758543963
 20
589.3135402193401
 11
664.99998247301255
 21
685.63932558744568
  0
LINE
  8
_1-0_
  6
CONTINUOUS
 62
    7
 10
452.50000073642809
 20
535.63934105243459
 11
452.50000073642809
 21
575.639307765887
  0
LINE
  8
_1-0_
  6
CONTINUOUS
 62
    7
 10
497.50001796884419
 20
535.63934105243459
 11
497.50001796884419
 21
575.639307765887
  0
LINE
  8
_1-0_
  6
CONTINUOUS
 62
    7
 10
884.999974372304
 20
535.63934105243459
 11
855.71768241499376
 21
682.05097581428902
  0
LINE
  8
_1-0_
  6
CONTINUOUS
 62
    7
 10
855.71768241499376
 20
682.05097581428902
 11
855.66029051556086
 21
682.71019526890336
  0
LINE
  8
_1-0_
  6
CONTINUOUS
 62
    7
 10
855.66029051556086
 20
682.71019526890336
 11
855.7487405313027
 21
683.36595896128063
  0
LINE
  8
_1-0_
  6
CONTINUOUS
 62
    7
 10
855.7487405313027
 20
683.36595896128063
 11
855.97883305494383
 21
683.98642138624734
  0
LINE
  8
_1-0_
  6
CONTINUOUS
 62
    7
 10
855.97883305494383
 20
683.98642138624734
 11
856.33936966708256
 21
684.54126807253328
  0
LINE
  8
_1-0_
  6
CONTINUOUS
 62
    7
 10
856.33936966708256
 20
684.54126807253328
 11
856.81276534975257
 21
685.00364031110496
  0
LINE
  8
_1-0_
  6
CONTINUOUS
 62
    7
 10
856.81276534975257
 20
685.00364031110496
 11
857.37601085058964
 21
685.35096628785595
  0
LINE
  8
_1-0_
  6
CONTINUOUS
 62
    7
 10
857.37601085058964
 20
685.35096628785595
 11
858.00172253465098
 21
685.56636088603238
  0
LINE
  8
_1-0_
  6
CONTINUOUS
 62
    7
 10
858.00172253465098
 20
685.56636088603238
 11
858.65945469918859
 21
685.63932558744568
  0
LINE
  8
_1-0_
  6
CONTINUOUS
 62
    7
 10
858.65945469918859
 20
685.63932558744568
 11
1079.9999761397314
 21
685.63932558744568
  0
LINE
  8
_1-0_
  6
CONTINUOUS
 62
    7
 10
1079.9999761397314
 20
685.63932558744568
 11
1301.3405850679258
 21
685.63932558744568
  0
LINE
  8
_1-0_
  6
CONTINUOUS
 62
    7
 10
1301.3405850679258
 20
685.63932558744568
 11
1301.9983172324633
 21
685.56636088603238
  0
LINE
  8
_1-0_
  6
CONTINUOUS
 62
    7
 10
1301.9983172324633
 20
685.56636088603238
 11
1302.623941428873
 21
685.35096628785595
  0
LINE
  8
_1-0_
  6
CONTINUOUS
 62
    7
 10
1302.623941428873
 20
685.35096628785595
 11
1303.1871869297102
 21
685.00364031110496
  0
LINE
  8
_1-0_
  6
CONTINUOUS
 62
    7
 10
1303.1871869297102
 20
685.00364031110496
 11
1303.66058261238
 21
684.54126807253328
  0
LINE
  8
_1-0_
  6
CONTINUOUS
 62
    7
 10
1303.66058261238
 20
684.54126807253328
 11
1304.021119224519
 21
683.98642138624734
  0
LINE
  8
_1-0_
  6
CONTINUOUS
 62
    7
 10
1304.021119224519
 20
683.98642138624734
 11
1304.2512117481599
 21
683.36595896128063
  0
LINE
  8
_1-0_
  6
CONTINUOUS
 62
    7
 10
1304.2512117481599
 20
683.36595896128063
 11
1304.3397492515533
 21
682.71019526890336
  0
LINE
  8
_1-0_
  6
CONTINUOUS
 62
    7
 10
1304.3397492515533
 20
682.71019526890336
 11
1304.2823573521205
 21
682.05097581428902
  0
LINE
  8
_1-0_
  6
CONTINUOUS
 62
    7
 10
1304.2823573521205
 20
682.05097581428902
 11
1274.9999779071586
 21
535.63934105243459
  0
LINE
  8
_1-0_
  6
CONTINUOUS
 62
    7
 10
1274.9999779071586
 20
535.63934105243459
 11
884.999974372304
 21
535.63934105243459
  0
LINE
  8
_1-0_
  6
CONTINUOUS
 62
    7
 10
889.99998114744199
 20
685.63932558744568
 11
916.48957977884049
 21
589.3135402193401
  0
LINE
  8
_1-0_
  6
CONTINUOUS
 62
    7
 10
916.48957977884049
 20
589.3135402193401
 11
916.76822794910561
 21
588.54964178961677
  0
LINE
  8
_1-0_
  6
CONTINUOUS
 62
    7
 10
916.76822794910561
 20
588.54964178961677
 11
917.16699666498243
 21
587.84103555568856
  0
LINE
  8
_1-0_
  6
CONTINUOUS
 62
    7
 10
917.16699666498243
 20
587.84103555568856
 11
917.67538740828229
 21
587.20640013116667
  0
LINE
  8
_1-0_
  6
CONTINUOUS
 62
    7
 10
917.67538740828229
 20
587.20640013116667
 11
918.27983959301093
 21
586.66257688897917
  0
LINE
  8
_1-0_
  6
CONTINUOUS
 62
    7
 10
918.27983959301093
 20
586.66257688897917
 11
918.96451795423343
 21
586.22391380398426
  0
LINE
  8
_1-0_
  6
CONTINUOUS
 62
    7
 10
918.96451795423343
 20
586.22391380398426
 11
919.71122506042229
 21
585.90204673384142
  0
LINE
  8
_1-0_
  6
CONTINUOUS
 62
    7
 10
919.71122506042229
 20
585.90204673384142
 11
920.50018870232179
 21
585.70541823692758
  0
LINE
  8
_1-0_
  6
CONTINUOUS
 62
    7
 10
920.50018870232179
 20
585.70541823692758
 11
921.31058681885702
 21
585.63932131616309
  0
LINE
  8
_1-0_
  6
CONTINUOUS
 62
    7
 10
921.31058681885702
 20
585.63932131616309
 11
1079.9999761397314
 21
585.63932131616309
  0
LINE
  8
_1-0_
  6
CONTINUOUS
 62
    7
 10
1079.9999761397314
 20
585.63932131616309
 11
1238.6893654606056
 21
585.63932131616309
  0
LINE
  8
_1-0_
  6
CONTINUOUS
 62
    7
 10
1238.6893654606056
 20
585.63932131616309
 11
1239.4998510647924
 21
585.70541823692758
  0
LINE
  8
_1-0_
  6
CONTINUOUS
 62
    7
 10
1239.4998510647924
 20
585.70541823692758
 11
1240.2888147066917
 21
585.90204673384142
  0
LINE
  8
_1-0_
  6
CONTINUOUS
 62
    7
 10
1240.2888147066917
 20
585.90204673384142
 11
1241.0355218128807
 21
586.22391380398426
  0
LINE
  8
_1-0_
  6
CONTINUOUS
 62
    7
 10
1241.0355218128807
 20
586.22391380398426
 11
1241.7201126864518
 21
586.66257688897917
  0
LINE
  8
_1-0_
  6
CONTINUOUS
 62
    7
 10
1241.7201126864518
 20
586.66257688897917
 11
1242.3246523588321
 21
587.20640013116667
  0
LINE
  8
_1-0_
  6
CONTINUOUS
 62
    7
 10
1242.3246523588321
 20
587.20640013116667
 11
1242.8329556144802
 21
587.84103555568856
  0
LINE
  8
_1-0_
  6
CONTINUOUS
 62
    7
 10
1242.8329556144802
 20
587.84103555568856
 11
1243.2318118180087
 21
588.54964178961677
  0
LINE
  8
_1-0_
  6
CONTINUOUS
 62
    7
 10
1243.2318118180087
 20
588.54964178961677
 11
1243.510372500622
 21
589.3135402193401
  0
LINE
  8
_1-0_
  6
CONTINUOUS
 62
    7
 10
1243.510372500622
 20
589.3135402193401
 11
1269.9999711320206
 21
685.63932558744568
  0
LINE
  8
_1-0_
  6
CONTINUOUS
 62
    7
 10
1057.4999893954362
 20
535.63934105243459
 11
1057.4999893954362
 21
575.639307765887
  0
LINE
  8
_1-0_
  6
CONTINUOUS
 62
    7
 10
1102.4999628840264
 20
535.63934105243459
 11
1102.4999628840264
 21
575.639307765887
  0
CIRCLE
  8
_1-0_
  6
CONTINUOUS
 62
    7
 10
474.99998748072329
 20
1209.9807300346699
 40
224.99999867442952
  0
CIRCLE
  8
_1-0_
  6
CONTINUOUS
 62
    7
 10
474.99998748072329
 20
1209.9807300346699
 40
189.99999499228932
  0
CIRCLE
  8
_1-0_
  6
CONTINUOUS
 62
    7
 10
474.99998748072329
 20
1209.9807300346699
 40
162.50000147285607
  0
ARC
  8
_1-0_
  6
CONTINUOUS
 62
    7
 10
282.71363394600996
 20
682.63933027112796
 40
3.0000001007985881
 50
15.376251220703125
 51
90
  0
ARC
  8
_1-0_
  6
CONTINUOUS
 62
    7
 10
667.28638475926221
 20
682.63933027112796
 40
3.0000001007985881
 50
90
 51
164.62373352050781
  0
ARC
  8
_1-0_
  6
CONTINUOUS
 62
    7
 10
442.499987186152
 20
575.639307765887
 40
9.9999998803304422
 50
0
 51
90
  0
ARC
  8
_1-0_
  6
CONTINUOUS
 62
    7
 10
507.49998777529441
 20
575.639307765887
 40
9.9999998803304422
 50
90
 51
180
  0
LINE
  8
_1-0_
  6
CONTINUOUS
 62
    7
 10
484.99998736105374
 20
660.63933545558143
 11
484.99998736105374
 21
660.63933545558143
  0
LINE
  8
_1-0_
  6
CONTINUOUS
 62
    7
 10
484.99998736105374
 20
660.63933545558143
 11
484.84806489299388
 21
662.20216903588141
  0
LINE
  8
_1-0_
  6
CONTINUOUS
 62
    7
 10
484.84806489299388
 20
662.20216903588141
 11
484.39691357612975
 21
663.71751670867604
  0
LINE
  8
_1-0_
  6
CONTINUOUS
 62
    7
 10
484.39691357612975
 20
663.71751670867604
 11
483.66024141493079
 21
665.13933540173014
  0
LINE
  8
_1-0_
  6
CONTINUOUS
 62
    7
 10
483.66024141493079
 20
665.13933540173014
 11
482.66043182024089
 21
666.42442387353037
  0
LINE
  8
_1-0_
  6
CONTINUOUS
 62
    7
 10
482.66043182024089
 20
666.42442387353037
 11
481.4278635006666
 21
667.53373536114725
  0
LINE
  8
_1-0_
  6
CONTINUOUS
 62
    7
 10
481.4278635006666
 20
667.53373536114725
 11
479.99998742088849
 21
668.43356399636821
  0
LINE
  8
_1-0_
  6
CONTINUOUS
 62
    7
 10
479.99998742088849
 20
668.43356399636821
 11
478.42018887305056
 21
669.09656894144723
  0
LINE
  8
_1-0_
  6
CONTINUOUS
 62
    7
 10
478.42018887305056
 20
669.09656894144723
 11
476.73646923661221
 21
669.50260512662499
  0
LINE
  8
_1-0_
  6
CONTINUOUS
 62
    7
 10
476.73646923661221
 20
669.50260512662499
 11
474.99998748072329
 21
669.63933534787884
  0
LINE
  8
_1-0_
  6
CONTINUOUS
 62
    7
 10
474.99998748072329
 20
669.63933534787884
 11
473.26350572483437
 21
669.50260512662499
  0
LINE
  8
_1-0_
  6
CONTINUOUS
 62
    7
 10
473.26350572483437
 20
669.50260512662499
 11
471.57978608839602
 21
669.09656894144723
  0
LINE
  8
_1-0_
  6
CONTINUOUS
 62
    7
 10
471.57978608839602
 20
669.09656894144723
 11
469.9999875405581
 21
668.43356399636821
  0
LINE
  8
_1-0_
  6
CONTINUOUS
 62
    7
 10
469.9999875405581
 20
668.43356399636821
 11
468.57211146078004
 21
667.53373536114725
  0
LINE
  8
_1-0_
  6
CONTINUOUS
 62
    7
 10
468.57211146078004
 20
667.53373536114725
 11
467.3395431412057
 21
666.42442387353037
  0
LINE
  8
_1-0_
  6
CONTINUOUS
 62
    7
 10
467.3395431412057
 20
666.42442387353037
 11
466.33973354651579
 21
665.13933540173014
  0
LINE
  8
_1-0_
  6
CONTINUOUS
 62
    7
 10
466.33973354651579
 20
665.13933540173014
 11
465.60306138531683
 21
663.71751670867604
  0
LINE
  8
_1-0_
  6
CONTINUOUS
 62
    7
 10
465.60306138531683
 20
663.71751670867604
 11
465.15191006845271
 21
662.20216903588141
  0
LINE
  8
_1-0_
  6
CONTINUOUS
 62
    7
 10
465.15191006845271
 20
662.20216903588141
 11
464.99998760039284
 21
660.63933545558143
  0
LINE
  8
_1-0_
  6
CONTINUOUS
 62
    7
 10
464.99998760039284
 20
660.63933545558143
 11
465.15191006845271
 21
659.07650187528145
  0
LINE
  8
_1-0_
  6
CONTINUOUS
 62
    7
 10
465.15191006845271
 20
659.07650187528145
 11
465.60306138531678
 21
657.56115420248693
  0
LINE
  8
_1-0_
  6
CONTINUOUS
 62
    7
 10
465.60306138531678
 20
657.56115420248693
 11
466.33973354651579
 21
656.13933550943273
  0
LINE
  8
_1-0_
  6
CONTINUOUS
 62
    7
 10
466.33973354651579
 20
656.13933550943273
 11
467.3395431412057
 21
654.85424703763249
  0
LINE
  8
_1-0_
  6
CONTINUOUS
 62
    7
 10
467.3395431412057
 20
654.85424703763249
 11
468.57211146077998
 21
653.74493555001561
  0
LINE
  8
_1-0_
  6
CONTINUOUS
 62
    7
 10
468.57211146077998
 20
653.74493555001561
 11
469.99998754055804
 21
652.84510691479466
  0
LINE
  8
_1-0_
  6
CONTINUOUS
 62
    7
 10
469.99998754055804
 20
652.84510691479466
 11
471.57978608839596
 21
652.18210196971563
  0
LINE
  8
_1-0_
  6
CONTINUOUS
 62
    7
 10
471.57978608839596
 20
652.18210196971563
 11
473.26350572483437
 21
651.77606578453788
  0
LINE
  8
_1-0_
  6
CONTINUOUS
 62
    7
 10
473.26350572483437
 20
651.77606578453788
 11
474.99998748072323
 21
651.63933556328402
  0
LINE
  8
_1-0_
  6
CONTINUOUS
 62
    7
 10
474.99998748072323
 20
651.63933556328402
 11
476.73646923661215
 21
651.77606578453788
  0
LINE
  8
_1-0_
  6
CONTINUOUS
 62
    7
 10
476.73646923661215
 20
651.77606578453788
 11
478.42018887305056
 21
652.18210196971563
  0
LINE
  8
_1-0_
  6
CONTINUOUS
 62
    7
 10
478.42018887305056
 20
652.18210196971563
 11
479.99998742088849
 21
652.84510691479466
  0
LINE
  8
_1-0_
  6
CONTINUOUS
 62
    7
 10
479.99998742088849
 20
652.84510691479466
 11
481.42786350066655
 21
653.74493555001561
  0
LINE
  8
_1-0_
  6
CONTINUOUS
 62
    7
 10
481.42786350066655
 20
653.74493555001561
 11
482.66043182024083
 21
654.85424703763249
  0
LINE
  8
_1-0_
  6
CONTINUOUS
 62
    7
 10
482.66043182024083
 20
654.85424703763249
 11
483.66024141493079
 21
656.13933550943273
  0
LINE
  8
_1-0_
  6
CONTINUOUS
 62
    7
 10
483.66024141493079
 20
656.13933550943273
 11
484.39691357612975
 21
657.56115420248682
  0
LINE
  8
_1-0_
  6
CONTINUOUS
 62
    7
 10
484.39691357612975
 20
657.56115420248682
 11
484.84806489299388
 21
659.07650187528134
  0
LINE
  8
_1-0_
  6
CONTINUOUS
 62
    7
 10
484.84806489299388
 20
659.07650187528134
 11
484.99998736105374
 21
660.63933545558143
  0
LINE
  8
_1-0_
  6
CONTINUOUS
 62
    7
 10
484.99998736105374
 20
660.63933545558143
 11
484.99998736105374
 21
660.63933545558143
  0
ARC
  8
_1-0_
  6
CONTINUOUS
 62
    7
 10
887.71366634884384
 20
682.63933027112796
 40
3.0000001007985881
 50
15.376251220703125
 51
90
  0
ARC
  8
_1-0_
  6
CONTINUOUS
 62
    7
 10
1272.2863734182702
 20
682.63933027112796
 40
3.0000001007985881
 50
90
 51
164.62373352050781
  0
ARC
  8
_1-0_
  6
CONTINUOUS
 62
    7
 10
1047.4999758451602
 20
575.639307765887
 40
9.9999998803304422
 50
0
 51
90
  0
ARC
  8
_1-0_
  6
CONTINUOUS
 62
    7
 10
1112.4999764343024
 20
575.639307765887
 40
9.9999998803304422
 50
90
 51
180
  0
TEXT
  8
_0-0_
 62
    7
 10
2764.4304639308143
 20
252.52514489369048
 40
30
 41
1
 50
0
  1
    
  0
TEXT
  8
_0-0_
 62
    7
 10
2344.4305072327834
 20
252.52514489369048
 40
30
 41
1
 50
0
  1
    
  0
TEXT
  8
_0-0_
 62
    6
 10
1881.9338193915523
 20
1784.0835359197786
 40
100
 41
1
 50
0
  1
 B1-A406_
  0
ENDSEC
  0
EOF
