  0
SECTION
  2
HEADER
  9
$ACADVER
  1
AC1009
  9
$INSBASE
 10
0
 20
0
 30
0
  9
$EXTMIN
 10
0
 20
0
  9
$EXTMAX
 10
2970
 20
2100
  9
$LIMMIN
 10
0
 20
0
  9
$LIMMAX
 10
2970
 20
2100
  9
$LTSCALE
 40
10
  0
ENDSEC
  0
SECTION
  2
TABLES
  0
TABLE
  2
LTYPE
 70
     9
  0
LTYPE
  2
CONTINUOUS
 70
    64
  3
実線
 72
    65
 73
     0
 40
0.0
  0
LTYPE
  2
DASHED1
 70
    64
  3
--  --  --  --  --  --  --  --  
 72
    65
 73
     2
 40
2.5
 49
1.25
 49
-1.25
  0
LTYPE
  2
DASHED2
 70
    64
  3
----    ----    ----    ----    
 72
    65
 73
     2
 40
5.0
 49
2.5
 49
-2.5
  0
LTYPE
  2
DASHED3
 70
    64
  3
------  ------  ------  ------  
 72
    65
 73
     2
 40
5.0
 49
3.75
 49
-1.25
  0
LTYPE
  2
CENTER1
 70
    64
  3
----- - ----- - ----- - ----- - 
 72
    65
 73
     4
 40
10.0
 49
6.25
 49
-1.25
 49
1.25
 49
-1.25
  0
LTYPE
  2
CENTER2
 70
    64
  3
----------  --  ----------  --  
 72
    65
 73
     4
 40
20.0
 49
12.5
 49
-2.5
 49
2.5
 49
-2.5
  0
LTYPE
  2
PHANTOM1
 70
    64
  3
--- - - --- - - --- - - --- - - 
 72
    65
 73
     6
 40
10.0
 49
3.25
 49
-1.25
 49
1.25
 49
-1.25
 49
1.25
 49
-1.25
  0
LTYPE
  2
PHANTOM2
 70
    64
  3
--------  -  -  --------  -  -  
 72
    65
 73
     6
 40
20.0
 49
10.0
 49
-2.5
 49
1.25
 49
-2.5
 49
1.25
 49
-2.5
  0
LTYPE
  2
DOT
 70
    64
  3
-   -   -   -   -   -   -   -   
 72
    65
 73
     2
 40
2.5
 49
0.625
 49
-1.875
  0
LTYPE
  2
DUMMY
 70
    64
  3
ダミー
 72
    65
 73
     0
 40
0.0
  0
LTYPE
  2
RAND1
 70
    64
  3
ランダム線1
 72
    65
 73
     4
 40
10.0
 49
1.0
 49
-2.0
 49
3.0
 49
-4.0
  0
LTYPE
  2
RAND2
 70
    64
  3
ランダム線2
 72
    65
 73
     4
 40
14.0
 49
2.0
 49
-3.0
 49
4.0
 49
-5.0
  0
LTYPE
  2
RAND3
 70
    64
  3
ランダム線3
 72
    65
 73
     4
 40
18.0
 49
3.0
 49
-4.0
 49
5.0
 49
-6.0
  0
LTYPE
  2
RAND4
 70
    64
  3
ランダム線4
 72
    65
 73
     4
 40
22.0
 49
4.0
 49
-5.0
 49
6.0
 49
-7.0
  0
LTYPE
  2
RAND5
 70
    64
  3
ランダム線5
 72
    65
 73
     4
 40
26.0
 49
5.0
 49
-6.0
 49
7.0
 49
-8.0
  0
LTYPE
  2
LONG1
 70
    64
  3
----------  --  ----------  --  
 72
    65
 73
     4
 40
40.0
 49
32.5
 49
-2.5
 49
2.5
 49
-2.5
  0
LTYPE
  2
LONG2
 70
    64
  3
--------  -  -  --------  -  -  
 72
    65
 73
     6
 40
40.0
 49
30.0
 49
-2.5
 49
1.25
 49
-2.5
 49
1.25
 49
-2.5
  0
LTYPE
  2
LONG3
 70
    64
  3
+++++++++++++++..+++++++++++++++
 72
    65
 73
     2
 40
40.0
 49
37.5
 49
-2.5
  0
LTYPE
  2
LONG4
 70
    64
  3
+++++++++++++++..+++++++++++++++
 72
    65
 73
     2
 40
80.0
 49
75.0
 49
-5.0
  0
LTYPE
  2
LONG5
 70
    64
  3
----------  --  ----------  --  
 72
    65
 73
     4
 40
60.0
 49
37.5
 49
-7.5
 49
7.5
 49
-7.5
  0
LTYPE
  2
dashed
 70
   64
  3
-------   -------------   ------
 72
   65
 73
    2
 40
7.5
 49
6
 49
-1.5
  0
LTYPE
  2
dashed_spaced
 70
   64
  3
----        --------        ----
 72
   65
 73
    2
 40
12
 49
6
 49
-6
  0
LTYPE
  2
long_dashed_dotted
 70
   64
  3
------------- --- --------------
 72
   65
 73
    4
 40
15.25
 49
12
 49
-1.5
 49
0.25
 49
-1.5
  0
LTYPE
  2
long_dashed_double-dotted
 70
   64
  3
----------- --- --- ------------
 72
   65
 73
    6
 40
17
 49
12
 49
-1.5
 49
0.25
 49
-1.5
 49
0.25
 49
-1.5
  0
LTYPE
  2
long_dashed_triplicate-dotted
 70
   64
  3
--------- --- --- --- ----------
 72
   65
 73
    8
 40
18.75
 49
12
 49
-1.5
 49
0.25
 49
-1.5
 49
0.25
 49
-1.5
 49
0.25
 49
-1.5
  0
LTYPE
  2
dotted
 70
   64
  3
   -       -       -       -    
 72
   65
 73
    2
 40
1.75
 49
0.25
 49
-1.5
  0
LTYPE
  2
chain
 70
   64
  3
-------------- -- --------------
 72
   65
 73
    4
 40
18.5
 49
12
 49
-1.5
 49
3.5
 49
-1.5
  0
LTYPE
  2
chain_double_dash
 70
   64
  3
------------ -- -- -------------
 72
   65
 73
    6
 40
23.5
 49
12
 49
-1.5
 49
3.5
 49
-1.5
 49
3.5
 49
-1.5
  0
LTYPE
  2
dashed_dotted
 70
   64
  3
-----------     -     ----------
 72
   65
 73
    4
 40
9.25
 49
6
 49
-1.5
 49
0.25
 49
-1.5
  0
LTYPE
  2
double-dashed_dotted
 70
   64
  3
------   -----------   -   -----
 72
   65
 73
    6
 40
16.75
 49
6
 49
-1.5
 49
6
 49
-1.5
 49
0.25
 49
-1.5
  0
LTYPE
  2
dashed_double-dotted
 70
   64
  3
---------    -    -    ---------
 72
   65
 73
    6
 40
11
 49
6
 49
-1.5
 49
0.25
 49
-1.5
 49
0.25
 49
-1.5
  0
LTYPE
  2
double-dashed_double-dotted
 70
   64
  3
-----   ---------   -   -   ----
 72
   65
 73
    8
 40
18.5
 49
6
 49
-1.5
 49
6
 49
-1.5
 49
0.25
 49
-1.5
 49
0.25
 49
-1.5
  0
LTYPE
  2
dashed_triplicate-dotted
 70
   64
  3
-------    -    -    -    ------
 72
   65
 73
    8
 40
12.75
 49
6
 49
-1.5
 49
0.25
 49
-1.5
 49
0.25
 49
-1.5
 49
0.25
 49
-1.5
  0
LTYPE
  2
double-dashed_triplicate-dotted
 70
   64
  3
-----  ---------  -  -  -  -----
 72
   65
 73
   10
 40
20.25
 49
6
 49
-1.5
 49
6
 49
-1.5
 49
0.25
 49
-1.5
 49
0.25
 49
-1.5
 49
0.25
 49
-1.5
  0
LTYPE
  2
undefined
 70
   64
  3
--------------------------------
 72
   65
 73
    0
 40
0
  0
LTYPE
  2
_
 70
   64
  3
                                
 72
   65
 73
    0
 40
0
  0
LTYPE
  2
__18
 70
   64
  3
                                
 72
   65
 73
    0
 40
0
  0
LTYPE
  2
__19
 70
   64
  3
                                
 72
   65
 73
    0
 40
0
  0
LTYPE
  2
__20
 70
   64
  3
                                
 72
   65
 73
    0
 40
0
  0
LTYPE
  2
__21
 70
   64
  3
                                
 72
   65
 73
    0
 40
0
  0
LTYPE
  2
__22
 70
   64
  3
                                
 72
   65
 73
    0
 40
0
  0
LTYPE
  2
__23
 70
   64
  3
                                
 72
   65
 73
    0
 40
0
  0
LTYPE
  2
__24
 70
   64
  3
                                
 72
   65
 73
    0
 40
0
  0
LTYPE
  2
__25
 70
   64
  3
                                
 72
   65
 73
    0
 40
0
  0
LTYPE
  2
__26
 70
   64
  3
                                
 72
   65
 73
    0
 40
0
  0
LTYPE
  2
__27
 70
   64
  3
                                
 72
   65
 73
    0
 40
0
  0
LTYPE
  2
__28
 70
   64
  3
                                
 72
   65
 73
    0
 40
0
  0
LTYPE
  2
__29
 70
   64
  3
                                
 72
   65
 73
    0
 40
0
  0
LTYPE
  2
__30
 70
   64
  3
                                
 72
   65
 73
    0
 40
0
  0
LTYPE
  2
__31
 70
   64
  3
                                
 72
   65
 73
    0
 40
0
  0
LTYPE
  2
__32
 70
   64
  3
                                
 72
   65
 73
    0
 40
0
  0
ENDTAB
  0
TABLE
  2
STYLE
  5
3
100
AcDbSymbolTable
 70
     1
  0
STYLE
  5
10
100
AcDbSymbolTableRecord
100
AcDbTextStyleTableRecord
  2
STANDARD
 70
     0
 40
0.0
 41
1.0
 50
0.0
 71
     0
 42
0.2
  3
txt
  4
bigfont.shx
  0
STYLE
  5
26
100
AcDbSymbolTableRecord
100
AcDbTextStyleTableRecord
  2
TATEGAKI
 70
    68
 40
0.0
 41
1.0
 50
0.0
 71
     0
 42
1.0
  3
txt
  4
bigfont.shx
  0
ENDTAB
  0
TABLE
  2
LAYER
 70
    4
  0
LAYER
  2
_0-0_
 70
   64
 62
    7
  6
CONTINUOUS
  0
LAYER
  2
_1-0_
 70
   64
 62
    7
  6
CONTINUOUS
  0
LAYER
  2
_1-1_
 70
   64
 62
    7
  6
CONTINUOUS
  0
LAYER
  2
ADD_LINE
 70
   64
 62
    7
  6
CONTINUOUS
  0
ENDTAB
  0
ENDSEC
  0
SECTION
  2
BLOCKS
  0
ENDSEC
  0
SECTION
  2
ENTITIES
  0
LINE
  8
_1-0_
  6
CONTINUOUS
 62
    7
 10
294.82507447938656
 20
499.75820548746117
 11
420.00000044185686
 21
499.75820548746117
  0
LINE
  8
_1-0_
  6
CONTINUOUS
 62
    7
 10
490.00000780613732
 20
499.75820548746117
 11
615.17493376860739
 21
499.75820548746117
  0
LINE
  8
_1-0_
  6
CONTINUOUS
 62
    7
 10
420.00000044185686
 20
499.75820548746117
 11
490.00000780613732
 21
499.75820548746117
  0
LINE
  8
_1-0_
  6
CONTINUOUS
 62
    7
 10
664.99998247301255
 20
604.75817279005594
 11
664.13752920379034
 21
604.75817279005594
  0
LINE
  8
_1-0_
  6
CONTINUOUS
 62
    7
 10
245.00000390306866
 20
604.75817279005594
 11
245.86247904420361
 21
604.75817279005594
  0
LINE
  8
_1-0_
  6
CONTINUOUS
 62
    7
 10
239.99999712793056
 20
599.75820975874376
 11
239.99999712793056
 21
454.7581882550449
  0
LINE
  8
_1-0_
  6
CONTINUOUS
 62
    7
 10
239.99999712793056
 20
454.7581882550449
 11
669.99998924815043
 21
454.7581882550449
  0
LINE
  8
_1-0_
  6
CONTINUOUS
 62
    7
 10
669.99998924815043
 20
454.7581882550449
 11
669.99998924815043
 21
599.75820975874376
  0
LINE
  8
_1-0_
  6
CONTINUOUS
 62
    7
 10
659.22584121291698
 20
600.69375896085637
 11
644.64506171384824
 21
524.14481969413612
  0
LINE
  8
_1-0_
  6
CONTINUOUS
 62
    7
 10
250.77418890698993
 20
600.69375896085637
 11
265.35492466223286
 21
524.14481969413612
  0
LINE
  8
_1-0_
  6
CONTINUOUS
 62
    7
 10
1103.2625927428021
 20
499.75820548746117
 11
1228.4374749614465
 21
499.75820548746117
  0
LINE
  8
_1-0_
  6
CONTINUOUS
 62
    7
 10
1298.4374823257269
 20
499.75820548746117
 11
1423.6124520320229
 21
499.75820548746117
  0
LINE
  8
_1-0_
  6
CONTINUOUS
 62
    7
 10
1228.4374749614465
 20
499.75820548746117
 11
1298.4374823257269
 21
499.75820548746117
  0
LINE
  8
_1-0_
  6
CONTINUOUS
 62
    7
 10
1473.4374569926022
 20
604.75817279005594
 11
1472.57500372338
 21
604.75817279005594
  0
LINE
  8
_1-0_
  6
CONTINUOUS
 62
    7
 10
1053.4375002945712
 20
604.75817279005594
 11
1054.2999535637932
 21
604.75817279005594
  0
LINE
  8
_1-0_
  6
CONTINUOUS
 62
    7
 10
1048.4374935194332
 20
599.75820975874376
 11
1048.4374935194332
 21
454.7581882550449
  0
LINE
  8
_1-0_
  6
CONTINUOUS
 62
    7
 10
1048.4374935194332
 20
454.7581882550449
 11
1478.4375512553916
 21
454.7581882550449
  0
LINE
  8
_1-0_
  6
CONTINUOUS
 62
    7
 10
1478.4375512553916
 20
454.7581882550449
 11
1478.4375512553916
 21
599.75820975874376
  0
LINE
  8
_1-0_
  6
CONTINUOUS
 62
    7
 10
1467.6633594763325
 20
600.69375896085637
 11
1453.0825799772638
 21
524.14481969413612
  0
LINE
  8
_1-0_
  6
CONTINUOUS
 62
    7
 10
1059.2116852984925
 20
600.69375896085637
 11
1073.7924647975613
 21
524.14481969413612
  0
LINE
  8
_1-0_
  6
CONTINUOUS
 62
    7
 10
1053.8687269291822
 20
604.73958166409636
 11
1472.1436896011176
 21
604.73958166409636
  0
LINE
  8
_1-1_
  6
CONTINUOUS
 62
   18
 10
472.67767151350228
 20
1287.8931206073539
 11
469.80549565613501
 21
1291.9949791514275
  0
LINE
  8
_1-1_
  6
CONTINUOUS
 62
   18
 10
468.57581296942868
 20
1290.7653402085471
 11
469.80549565613501
 21
1291.9949791514275
  0
LINE
  8
_1-0_
  6
CONTINUOUS
 62
    7
 10
245.00000390306866
 20
604.75817279005594
 11
664.56875583840144
 21
604.73958166409636
  0
LINE
  8
_1-0_
  6
CONTINUOUS
 62
    7
 10
420.00000044185686
 20
1305.5707879968591
 11
490.00000780613732
 21
1305.5707879968591
  0
LINE
  8
_1-0_
  6
CONTINUOUS
 62
    7
 10
430.00001399213289
 20
454.7581882550449
 11
430.00001399213289
 21
489.75819193718513
  0
LINE
  8
_1-0_
  6
CONTINUOUS
 62
    7
 10
479.99999425586122
 20
454.7581882550449
 11
479.99999425586122
 21
489.75819193718513
  0
LINE
  8
_1-0_
  6
CONTINUOUS
 62
    7
 10
1238.4374885117224
 20
454.7581882550449
 11
1238.4374885117224
 21
489.75819193718513
  0
LINE
  8
_1-0_
  6
CONTINUOUS
 62
    7
 10
1288.437468775451
 20
454.7581882550449
 11
1288.437468775451
 21
489.75819193718513
  0
CIRCLE
  8
_1-0_
  6
CONTINUOUS
 62
    7
 10
455.00000412399697
 20
1305.5707879968591
 40
215.00000699606642
  0
CIRCLE
  8
_1-0_
  6
CONTINUOUS
 62
    7
 10
455.00000412399697
 20
1305.5707879968591
 40
185.0000100890642
  0
CIRCLE
  8
_1-0_
  6
CONTINUOUS
 62
    7
 10
455.00000412399697
 20
1305.5707879968591
 40
25.000001067820662
  0
CIRCLE
  8
_1-0_
  6
CONTINUOUS
 62
    7
 10
455.00000412399697
 20
1305.5707879968591
 40
204.99999344579041
  0
ARC
  8
_1-0_
  6
CONTINUOUS
 62
    7
 10
294.82507447938656
 20
529.7582023944633
 40
29.999999640991327
 50
190.78428649902344
 51
270
  0
ARC
  8
_1-0_
  6
CONTINUOUS
 62
    7
 10
615.17493376860739
 20
529.7582023944633
 40
29.999999640991327
 50
270
 51
349.2156982421875
  0
ARC
  8
_1-0_
  6
CONTINUOUS
 62
    7
 10
245.00000390306866
 20
599.75820975874376
 40
4.9999999401652211
 50
90
 51
180
  0
ARC
  8
_1-0_
  6
CONTINUOUS
 62
    7
 10
245.86247904420361
 20
599.75820975874376
 40
4.9999999401652211
 50
10.784286499023438
 51
90
  0
ARC
  8
_1-0_
  6
CONTINUOUS
 62
    7
 10
664.99998247301255
 20
599.75820975874376
 40
4.9999999401652211
 50
0
 51
90
  0
ARC
  8
_1-0_
  6
CONTINUOUS
 62
    7
 10
664.13752920379034
 20
599.75820975874376
 40
4.9999999401652211
 50
90
 51
169.21569824218747
  0
ARC
  8
_1-0_
  6
CONTINUOUS
 62
    7
 10
1103.2625927428021
 20
529.7582023944633
 40
29.999999640991327
 50
190.78428649902344
 51
270
  0
ARC
  8
_1-0_
  6
CONTINUOUS
 62
    7
 10
1423.6124520320229
 20
529.7582023944633
 40
29.999999640991327
 50
270
 51
349.2156982421875
  0
ARC
  8
_1-0_
  6
CONTINUOUS
 62
    7
 10
1053.4375002945712
 20
599.75820975874376
 40
4.9999999401652211
 50
90
 51
180
  0
ARC
  8
_1-0_
  6
CONTINUOUS
 62
    7
 10
1054.2999535637932
 20
599.75820975874376
 40
4.9999999401652211
 50
10.784286499023438
 51
90
  0
ARC
  8
_1-0_
  6
CONTINUOUS
 62
    7
 10
1473.4374569926022
 20
599.75820975874376
 40
4.9999999401652211
 50
0
 51
90
  0
ARC
  8
_1-0_
  6
CONTINUOUS
 62
    7
 10
1472.57500372338
 20
599.75820975874376
 40
4.9999999401652211
 50
90
 51
169.21569824218747
  0
ARC
  8
_1-0_
  6
CONTINUOUS
 62
    7
 10
420.00000044185686
 20
489.75819193718513
 40
9.9999998803304422
 50
0
 51
90
  0
ARC
  8
_1-0_
  6
CONTINUOUS
 62
    7
 10
490.00000780613732
 20
489.75819193718513
 40
9.9999998803304422
 50
90
 51
180
  0
ARC
  8
_1-0_
  6
CONTINUOUS
 62
    7
 10
1228.4374749614465
 20
489.75819193718513
 40
9.9999998803304422
 50
0
 51
90
  0
ARC
  8
_1-0_
  6
CONTINUOUS
 62
    7
 10
1298.4374823257269
 20
489.75819193718513
 40
9.9999998803304422
 50
90
 51
180
  0
TEXT
  8
_0-0_
 62
    7
 10
2764.4304639308143
 20
252.52514489369048
 40
30
 41
1
 50
0
  1
    
  0
TEXT
  8
_0-0_
 62
    7
 10
2344.4305072327834
 20
252.52514489369048
 40
30
 41
1
 50
0
  1
    
  0
TEXT
  8
_0-0_
 62
    6
 10
1801.9337109893445
 20
1784.0835359197786
 40
100
 41
1
 50
0
  1
 B1-A403_
  0
ENDSEC
  0
EOF
