  0
SECTION
  2
HEADER
  9
$ACADVER
  1
AC1009
  9
$INSBASE
 10
0
 20
0
 30
0
  9
$EXTMIN
 10
0
 20
0
  9
$EXTMAX
 10
2970
 20
2100
  9
$LIMMIN
 10
0
 20
0
  9
$LIMMAX
 10
2970
 20
2100
  9
$LTSCALE
 40
10
  0
ENDSEC
  0
SECTION
  2
TABLES
  0
TABLE
  2
LTYPE
 70
     9
  0
LTYPE
  2
CONTINUOUS
 70
    64
  3
実線
 72
    65
 73
     0
 40
0.0
  0
LTYPE
  2
DASHED1
 70
    64
  3
--  --  --  --  --  --  --  --  
 72
    65
 73
     2
 40
2.5
 49
1.25
 49
-1.25
  0
LTYPE
  2
DASHED2
 70
    64
  3
----    ----    ----    ----    
 72
    65
 73
     2
 40
5.0
 49
2.5
 49
-2.5
  0
LTYPE
  2
DASHED3
 70
    64
  3
------  ------  ------  ------  
 72
    65
 73
     2
 40
5.0
 49
3.75
 49
-1.25
  0
LTYPE
  2
CENTER1
 70
    64
  3
----- - ----- - ----- - ----- - 
 72
    65
 73
     4
 40
10.0
 49
6.25
 49
-1.25
 49
1.25
 49
-1.25
  0
LTYPE
  2
CENTER2
 70
    64
  3
----------  --  ----------  --  
 72
    65
 73
     4
 40
20.0
 49
12.5
 49
-2.5
 49
2.5
 49
-2.5
  0
LTYPE
  2
PHANTOM1
 70
    64
  3
--- - - --- - - --- - - --- - - 
 72
    65
 73
     6
 40
10.0
 49
3.25
 49
-1.25
 49
1.25
 49
-1.25
 49
1.25
 49
-1.25
  0
LTYPE
  2
PHANTOM2
 70
    64
  3
--------  -  -  --------  -  -  
 72
    65
 73
     6
 40
20.0
 49
10.0
 49
-2.5
 49
1.25
 49
-2.5
 49
1.25
 49
-2.5
  0
LTYPE
  2
DOT
 70
    64
  3
-   -   -   -   -   -   -   -   
 72
    65
 73
     2
 40
2.5
 49
0.625
 49
-1.875
  0
LTYPE
  2
DUMMY
 70
    64
  3
ダミー
 72
    65
 73
     0
 40
0.0
  0
LTYPE
  2
RAND1
 70
    64
  3
ランダム線1
 72
    65
 73
     4
 40
10.0
 49
1.0
 49
-2.0
 49
3.0
 49
-4.0
  0
LTYPE
  2
RAND2
 70
    64
  3
ランダム線2
 72
    65
 73
     4
 40
14.0
 49
2.0
 49
-3.0
 49
4.0
 49
-5.0
  0
LTYPE
  2
RAND3
 70
    64
  3
ランダム線3
 72
    65
 73
     4
 40
18.0
 49
3.0
 49
-4.0
 49
5.0
 49
-6.0
  0
LTYPE
  2
RAND4
 70
    64
  3
ランダム線4
 72
    65
 73
     4
 40
22.0
 49
4.0
 49
-5.0
 49
6.0
 49
-7.0
  0
LTYPE
  2
RAND5
 70
    64
  3
ランダム線5
 72
    65
 73
     4
 40
26.0
 49
5.0
 49
-6.0
 49
7.0
 49
-8.0
  0
LTYPE
  2
LONG1
 70
    64
  3
----------  --  ----------  --  
 72
    65
 73
     4
 40
40.0
 49
32.5
 49
-2.5
 49
2.5
 49
-2.5
  0
LTYPE
  2
LONG2
 70
    64
  3
--------  -  -  --------  -  -  
 72
    65
 73
     6
 40
40.0
 49
30.0
 49
-2.5
 49
1.25
 49
-2.5
 49
1.25
 49
-2.5
  0
LTYPE
  2
LONG3
 70
    64
  3
+++++++++++++++..+++++++++++++++
 72
    65
 73
     2
 40
40.0
 49
37.5
 49
-2.5
  0
LTYPE
  2
LONG4
 70
    64
  3
+++++++++++++++..+++++++++++++++
 72
    65
 73
     2
 40
80.0
 49
75.0
 49
-5.0
  0
LTYPE
  2
LONG5
 70
    64
  3
----------  --  ----------  --  
 72
    65
 73
     4
 40
60.0
 49
37.5
 49
-7.5
 49
7.5
 49
-7.5
  0
LTYPE
  2
dashed
 70
   64
  3
-------   -------------   ------
 72
   65
 73
    2
 40
7.5
 49
6
 49
-1.5
  0
LTYPE
  2
dashed_spaced
 70
   64
  3
----        --------        ----
 72
   65
 73
    2
 40
12
 49
6
 49
-6
  0
LTYPE
  2
long_dashed_dotted
 70
   64
  3
------------- --- --------------
 72
   65
 73
    4
 40
15.25
 49
12
 49
-1.5
 49
0.25
 49
-1.5
  0
LTYPE
  2
long_dashed_double-dotted
 70
   64
  3
----------- --- --- ------------
 72
   65
 73
    6
 40
17
 49
12
 49
-1.5
 49
0.25
 49
-1.5
 49
0.25
 49
-1.5
  0
LTYPE
  2
long_dashed_triplicate-dotted
 70
   64
  3
--------- --- --- --- ----------
 72
   65
 73
    8
 40
18.75
 49
12
 49
-1.5
 49
0.25
 49
-1.5
 49
0.25
 49
-1.5
 49
0.25
 49
-1.5
  0
LTYPE
  2
dotted
 70
   64
  3
   -       -       -       -    
 72
   65
 73
    2
 40
1.75
 49
0.25
 49
-1.5
  0
LTYPE
  2
chain
 70
   64
  3
-------------- -- --------------
 72
   65
 73
    4
 40
18.5
 49
12
 49
-1.5
 49
3.5
 49
-1.5
  0
LTYPE
  2
chain_double_dash
 70
   64
  3
------------ -- -- -------------
 72
   65
 73
    6
 40
23.5
 49
12
 49
-1.5
 49
3.5
 49
-1.5
 49
3.5
 49
-1.5
  0
LTYPE
  2
dashed_dotted
 70
   64
  3
-----------     -     ----------
 72
   65
 73
    4
 40
9.25
 49
6
 49
-1.5
 49
0.25
 49
-1.5
  0
LTYPE
  2
double-dashed_dotted
 70
   64
  3
------   -----------   -   -----
 72
   65
 73
    6
 40
16.75
 49
6
 49
-1.5
 49
6
 49
-1.5
 49
0.25
 49
-1.5
  0
LTYPE
  2
dashed_double-dotted
 70
   64
  3
---------    -    -    ---------
 72
   65
 73
    6
 40
11
 49
6
 49
-1.5
 49
0.25
 49
-1.5
 49
0.25
 49
-1.5
  0
LTYPE
  2
double-dashed_double-dotted
 70
   64
  3
-----   ---------   -   -   ----
 72
   65
 73
    8
 40
18.5
 49
6
 49
-1.5
 49
6
 49
-1.5
 49
0.25
 49
-1.5
 49
0.25
 49
-1.5
  0
LTYPE
  2
dashed_triplicate-dotted
 70
   64
  3
-------    -    -    -    ------
 72
   65
 73
    8
 40
12.75
 49
6
 49
-1.5
 49
0.25
 49
-1.5
 49
0.25
 49
-1.5
 49
0.25
 49
-1.5
  0
LTYPE
  2
double-dashed_triplicate-dotted
 70
   64
  3
-----  ---------  -  -  -  -----
 72
   65
 73
   10
 40
20.25
 49
6
 49
-1.5
 49
6
 49
-1.5
 49
0.25
 49
-1.5
 49
0.25
 49
-1.5
 49
0.25
 49
-1.5
  0
LTYPE
  2
undefined
 70
   64
  3
--------------------------------
 72
   65
 73
    0
 40
0
  0
LTYPE
  2
_
 70
   64
  3
                                
 72
   65
 73
    0
 40
0
  0
LTYPE
  2
__18
 70
   64
  3
                                
 72
   65
 73
    0
 40
0
  0
LTYPE
  2
__19
 70
   64
  3
                                
 72
   65
 73
    0
 40
0
  0
LTYPE
  2
__20
 70
   64
  3
                                
 72
   65
 73
    0
 40
0
  0
LTYPE
  2
__21
 70
   64
  3
                                
 72
   65
 73
    0
 40
0
  0
LTYPE
  2
__22
 70
   64
  3
                                
 72
   65
 73
    0
 40
0
  0
LTYPE
  2
__23
 70
   64
  3
                                
 72
   65
 73
    0
 40
0
  0
LTYPE
  2
__24
 70
   64
  3
                                
 72
   65
 73
    0
 40
0
  0
LTYPE
  2
__25
 70
   64
  3
                                
 72
   65
 73
    0
 40
0
  0
LTYPE
  2
__26
 70
   64
  3
                                
 72
   65
 73
    0
 40
0
  0
LTYPE
  2
__27
 70
   64
  3
                                
 72
   65
 73
    0
 40
0
  0
LTYPE
  2
__28
 70
   64
  3
                                
 72
   65
 73
    0
 40
0
  0
LTYPE
  2
__29
 70
   64
  3
                                
 72
   65
 73
    0
 40
0
  0
LTYPE
  2
__30
 70
   64
  3
                                
 72
   65
 73
    0
 40
0
  0
LTYPE
  2
__31
 70
   64
  3
                                
 72
   65
 73
    0
 40
0
  0
LTYPE
  2
__32
 70
   64
  3
                                
 72
   65
 73
    0
 40
0
  0
ENDTAB
  0
TABLE
  2
STYLE
  5
3
100
AcDbSymbolTable
 70
     1
  0
STYLE
  5
10
100
AcDbSymbolTableRecord
100
AcDbTextStyleTableRecord
  2
STANDARD
 70
     0
 40
0.0
 41
1.0
 50
0.0
 71
     0
 42
0.2
  3
txt
  4
bigfont.shx
  0
STYLE
  5
26
100
AcDbSymbolTableRecord
100
AcDbTextStyleTableRecord
  2
TATEGAKI
 70
    68
 40
0.0
 41
1.0
 50
0.0
 71
     0
 42
1.0
  3
txt
  4
bigfont.shx
  0
ENDTAB
  0
TABLE
  2
LAYER
 70
    5
  0
LAYER
  2
_0-0_
 70
   64
 62
    7
  6
CONTINUOUS
  0
LAYER
  2
_1-0_
 70
   64
 62
    7
  6
CONTINUOUS
  0
LAYER
  2
_1-1_
 70
   64
 62
    7
  6
CONTINUOUS
  0
LAYER
  2
_1-2_
 70
   64
 62
    7
  6
CONTINUOUS
  0
LAYER
  2
ADD_LINE
 70
   64
 62
    7
  6
CONTINUOUS
  0
ENDTAB
  0
ENDSEC
  0
SECTION
  2
BLOCKS
  0
ENDSEC
  0
SECTION
  2
ENTITIES
  0
LINE
  8
_1-0_
  6
CONTINUOUS
 62
    7
 10
1014.5585128607436
 20
561.54084768994892
 11
234.55848391912156
 21
561.54084768994892
  0
LINE
  8
_1-0_
  6
CONTINUOUS
 62
    7
 10
1174.5584672022048
 20
561.54084768994892
 11
1434.5584695587745
 21
561.54084768994892
  0
LINE
  8
_1-0_
  6
CONTINUOUS
 62
    7
 10
1174.5584672022048
 20
561.54084768994892
 11
1776.5585480325469
 21
561.54084768994892
  0
LINE
  8
_1-0_
  6
CONTINUOUS
 62
    7
 10
1343.8532846222511
 20
561.35694864633922
 11
1288.8532100957332
 21
561.35694864633922
  0
LINE
  8
_1-0_
  6
CONTINUOUS
 62
    7
 10
1333.5585251738207
 20
561.35694864633922
 11
1309.5584751556275
 21
561.35694864633922
  0
LINE
  8
_1-0_
  6
CONTINUOUS
 62
    7
 10
1343.8532846222511
 20
518.35326839137724
 11
1343.8532846222511
 21
561.54084768994892
  0
LINE
  8
_1-0_
  6
CONTINUOUS
 62
    7
 10
1343.8532846222511
 20
561.54084768994892
 11
1288.8532100957332
 21
561.54084768994892
  0
LINE
  8
_1-0_
  6
CONTINUOUS
 62
    7
 10
1288.8532100957332
 20
561.54084768994892
 11
1288.8532100957332
 21
518.35326839137724
  0
LINE
  8
_1-0_
  6
CONTINUOUS
 62
    7
 10
1288.8532100957332
 20
498.11934305434056
 11
1288.8532100957332
 21
469.54084551012193
  0
LINE
  8
_1-0_
  6
CONTINUOUS
 62
    7
 10
1288.8532100957332
 20
469.54084551012193
 11
1343.8532846222511
 21
469.54084551012193
  0
LINE
  8
_1-0_
  6
CONTINUOUS
 62
    7
 10
1343.8532846222511
 20
469.54084551012193
 11
1343.8532846222511
 21
498.11934305434056
  0
LINE
  8
_1-0_
  6
CONTINUOUS
 62
    7
 10
1288.387075888144
 20
559.54083623112854
 11
1344.3870467845077
 21
559.54083623112854
  0
LINE
  8
_1-0_
  6
CONTINUOUS
 62
    7
 10
1344.3870467845077
 20
559.54083623112854
 11
1344.3870467845077
 21
557.54082477230816
  0
LINE
  8
_1-0_
  6
CONTINUOUS
 62
    7
 10
1344.3870467845077
 20
557.54082477230816
 11
1288.387075888144
 21
557.54082477230816
  0
LINE
  8
_1-0_
  6
CONTINUOUS
 62
    7
 10
1288.387075888144
 20
557.54082477230816
 11
1288.387075888144
 21
559.54083623112854
  0
LINE
  8
_1-0_
  6
CONTINUOUS
 62
    7
 10
1288.5036094400414
 20
555.54081331348789
 11
1344.5036678240567
 21
555.54081331348789
  0
LINE
  8
_1-0_
  6
CONTINUOUS
 62
    7
 10
1344.5036678240567
 20
555.54081331348789
 11
1344.5036678240567
 21
553.54084559849321
  0
LINE
  8
_1-0_
  6
CONTINUOUS
 62
    7
 10
1344.5036678240567
 20
553.54084559849321
 11
1288.5036094400414
 21
553.54084559849321
  0
LINE
  8
_1-0_
  6
CONTINUOUS
 62
    7
 10
1288.5036094400414
 20
553.54084559849321
 11
1288.5036094400414
 21
555.54081331348789
  0
LINE
  8
_1-0_
  6
CONTINUOUS
 62
    7
 10
1288.387075888144
 20
551.54083413967294
 11
1344.3870467845077
 21
551.54083413967294
  0
LINE
  8
_1-0_
  6
CONTINUOUS
 62
    7
 10
1344.3870467845077
 20
551.54083413967294
 11
1344.3870467845077
 21
549.54082268085256
  0
LINE
  8
_1-0_
  6
CONTINUOUS
 62
    7
 10
1344.3870467845077
 20
549.54082268085256
 11
1288.387075888144
 21
549.54082268085256
  0
LINE
  8
_1-0_
  6
CONTINUOUS
 62
    7
 10
1288.387075888144
 20
549.54082268085256
 11
1288.387075888144
 21
551.54083413967294
  0
LINE
  8
_1-0_
  6
CONTINUOUS
 62
    7
 10
1288.387075888144
 20
547.54085496585799
 11
1344.3870467845077
 21
547.54085496585799
  0
LINE
  8
_1-0_
  6
CONTINUOUS
 62
    7
 10
1344.3870467845077
 20
547.54085496585799
 11
1344.3870467845077
 21
545.54084350703761
  0
LINE
  8
_1-0_
  6
CONTINUOUS
 62
    7
 10
1344.3870467845077
 20
545.54084350703761
 11
1288.387075888144
 21
545.54084350703761
  0
LINE
  8
_1-0_
  6
CONTINUOUS
 62
    7
 10
1288.387075888144
 20
545.54084350703761
 11
1288.387075888144
 21
547.54085496585799
  0
LINE
  8
_1-0_
  6
CONTINUOUS
 62
    7
 10
1288.387075888144
 20
543.54083204821723
 11
1344.3870467845077
 21
543.54083204821723
  0
LINE
  8
_1-0_
  6
CONTINUOUS
 62
    7
 10
1344.3870467845077
 20
543.54083204821723
 11
1344.3870467845077
 21
541.54082058939696
  0
LINE
  8
_1-0_
  6
CONTINUOUS
 62
    7
 10
1344.3870467845077
 20
541.54082058939696
 11
1288.387075888144
 21
541.54082058939696
  0
LINE
  8
_1-0_
  6
CONTINUOUS
 62
    7
 10
1288.387075888144
 20
541.54082058939696
 11
1288.387075888144
 21
543.54083204821723
  0
LINE
  8
_1-0_
  6
CONTINUOUS
 62
    7
 10
1288.387075888144
 20
539.54085287440239
 11
1344.3870467845077
 21
539.54085287440239
  0
LINE
  8
_1-0_
  6
CONTINUOUS
 62
    7
 10
1344.3870467845077
 20
539.54085287440239
 11
1344.3870467845077
 21
537.54084141558201
  0
LINE
  8
_1-0_
  6
CONTINUOUS
 62
    7
 10
1344.3870467845077
 20
537.54084141558201
 11
1288.387075888144
 21
537.54084141558201
  0
LINE
  8
_1-0_
  6
CONTINUOUS
 62
    7
 10
1288.387075888144
 20
537.54084141558201
 11
1288.387075888144
 21
539.54085287440239
  0
LINE
  8
_1-0_
  6
CONTINUOUS
 62
    7
 10
1288.387075888144
 20
535.54082995676163
 11
1344.3870467845077
 21
535.54082995676163
  0
LINE
  8
_1-0_
  6
CONTINUOUS
 62
    7
 10
1344.3870467845077
 20
535.54082995676163
 11
1344.3870467845077
 21
533.54081849794125
  0
LINE
  8
_1-0_
  6
CONTINUOUS
 62
    7
 10
1344.3870467845077
 20
533.54081849794125
 11
1288.387075888144
 21
533.54081849794125
  0
LINE
  8
_1-0_
  6
CONTINUOUS
 62
    7
 10
1288.387075888144
 20
533.54081849794125
 11
1288.387075888144
 21
535.54082995676163
  0
LINE
  8
_1-0_
  6
CONTINUOUS
 62
    7
 10
1288.387075888144
 20
531.54085078294668
 11
1344.3870467845077
 21
531.54085078294668
  0
LINE
  8
_1-0_
  6
CONTINUOUS
 62
    7
 10
1344.3870467845077
 20
531.54085078294668
 11
1344.3870467845077
 21
529.54083932412641
  0
LINE
  8
_1-0_
  6
CONTINUOUS
 62
    7
 10
1344.3870467845077
 20
529.54083932412641
 11
1288.387075888144
 21
529.54083932412641
  0
LINE
  8
_1-0_
  6
CONTINUOUS
 62
    7
 10
1288.387075888144
 20
529.54083932412641
 11
1288.387075888144
 21
531.54085078294668
  0
LINE
  8
_1-0_
  6
CONTINUOUS
 62
    7
 10
1288.387075888144
 20
527.54082786530591
 11
1344.3870467845077
 21
527.54082786530591
  0
LINE
  8
_1-0_
  6
CONTINUOUS
 62
    7
 10
1344.3870467845077
 20
527.54082786530591
 11
1344.3870467845077
 21
525.54081640648565
  0
LINE
  8
_1-0_
  6
CONTINUOUS
 62
    7
 10
1344.3870467845077
 20
525.54081640648565
 11
1288.387075888144
 21
525.54081640648565
  0
LINE
  8
_1-0_
  6
CONTINUOUS
 62
    7
 10
1288.387075888144
 20
525.54081640648565
 11
1288.387075888144
 21
527.54082786530591
  0
LINE
  8
_1-0_
  6
CONTINUOUS
 62
    7
 10
1288.387075888144
 20
523.54084869149108
 11
1344.3870467845077
 21
523.54084869149108
  0
LINE
  8
_1-0_
  6
CONTINUOUS
 62
    7
 10
1344.3870467845077
 20
523.54084869149108
 11
1344.3870467845077
 21
521.5408372326707
  0
LINE
  8
_1-0_
  6
CONTINUOUS
 62
    7
 10
1344.3870467845077
 20
521.5408372326707
 11
1288.387075888144
 21
521.5408372326707
  0
LINE
  8
_1-0_
  6
CONTINUOUS
 62
    7
 10
1288.387075888144
 20
521.5408372326707
 11
1288.387075888144
 21
523.54084869149108
  0
LINE
  8
_1-0_
  6
CONTINUOUS
 62
    7
 10
1288.387075888144
 20
495.5408194994834
 11
1344.3870467845077
 21
495.5408194994834
  0
LINE
  8
_1-0_
  6
CONTINUOUS
 62
    7
 10
1344.3870467845077
 20
495.5408194994834
 11
1344.3870467845077
 21
493.54085178448884
  0
LINE
  8
_1-0_
  6
CONTINUOUS
 62
    7
 10
1344.3870467845077
 20
493.54085178448884
 11
1288.387075888144
 21
493.54085178448884
  0
LINE
  8
_1-0_
  6
CONTINUOUS
 62
    7
 10
1288.387075888144
 20
493.54085178448884
 11
1288.387075888144
 21
495.5408194994834
  0
LINE
  8
_1-0_
  6
CONTINUOUS
 62
    7
 10
1288.387075888144
 20
491.54084032566851
 11
1344.3870467845077
 21
491.54084032566851
  0
LINE
  8
_1-0_
  6
CONTINUOUS
 62
    7
 10
1344.3870467845077
 20
491.54084032566851
 11
1344.3870467845077
 21
489.54082886684819
  0
LINE
  8
_1-0_
  6
CONTINUOUS
 62
    7
 10
1344.3870467845077
 20
489.54082886684819
 11
1288.387075888144
 21
489.54082886684819
  0
LINE
  8
_1-0_
  6
CONTINUOUS
 62
    7
 10
1288.387075888144
 20
489.54082886684819
 11
1288.387075888144
 21
491.54084032566851
  0
LINE
  8
_1-0_
  6
CONTINUOUS
 62
    7
 10
1288.387075888144
 20
487.54081740802775
 11
1344.3870467845077
 21
487.54081740802775
  0
LINE
  8
_1-0_
  6
CONTINUOUS
 62
    7
 10
1344.3870467845077
 20
487.54081740802775
 11
1344.3870467845077
 21
485.54084969303318
  0
LINE
  8
_1-0_
  6
CONTINUOUS
 62
    7
 10
1344.3870467845077
 20
485.54084969303318
 11
1288.387075888144
 21
485.54084969303318
  0
LINE
  8
_1-0_
  6
CONTINUOUS
 62
    7
 10
1288.387075888144
 20
485.54084969303318
 11
1288.387075888144
 21
487.54081740802775
  0
LINE
  8
_1-0_
  6
CONTINUOUS
 62
    7
 10
1288.387075888144
 20
483.54083823421286
 11
1344.3870467845077
 21
483.54083823421286
  0
LINE
  8
_1-0_
  6
CONTINUOUS
 62
    7
 10
1344.3870467845077
 20
483.54083823421286
 11
1344.3870467845077
 21
481.54082677539247
  0
LINE
  8
_1-0_
  6
CONTINUOUS
 62
    7
 10
1344.3870467845077
 20
481.54082677539247
 11
1288.387075888144
 21
481.54082677539247
  0
LINE
  8
_1-0_
  6
CONTINUOUS
 62
    7
 10
1288.387075888144
 20
481.54082677539247
 11
1288.387075888144
 21
483.54083823421286
  0
LINE
  8
_1-0_
  6
CONTINUOUS
 62
    7
 10
1288.387075888144
 20
479.54081531657209
 11
1344.3870467845077
 21
479.54081531657209
  0
LINE
  8
_1-0_
  6
CONTINUOUS
 62
    7
 10
1344.3870467845077
 20
479.54081531657209
 11
1344.3870467845077
 21
477.54084760157752
  0
LINE
  8
_1-0_
  6
CONTINUOUS
 62
    7
 10
1344.3870467845077
 20
477.54084760157752
 11
1288.387075888144
 21
477.54084760157752
  0
LINE
  8
_1-0_
  6
CONTINUOUS
 62
    7
 10
1288.387075888144
 20
477.54084760157752
 11
1288.387075888144
 21
479.54081531657209
  0
LINE
  8
_1-0_
  6
CONTINUOUS
 62
    7
 10
1288.387075888144
 20
475.5408361427572
 11
1344.3870467845077
 21
475.5408361427572
  0
LINE
  8
_1-0_
  6
CONTINUOUS
 62
    7
 10
1344.3870467845077
 20
475.5408361427572
 11
1344.3870467845077
 21
473.54082468393688
  0
LINE
  8
_1-0_
  6
CONTINUOUS
 62
    7
 10
1344.3870467845077
 20
473.54082468393688
 11
1288.387075888144
 21
473.54082468393688
  0
LINE
  8
_1-0_
  6
CONTINUOUS
 62
    7
 10
1288.387075888144
 20
473.54082468393688
 11
1288.387075888144
 21
475.5408361427572
  0
LINE
  8
_1-0_
  6
CONTINUOUS
 62
    7
 10
1296.405931568514
 20
411.42743541467144
 11
1336.4058982819663
 21
411.42743541467144
  0
LINE
  8
_1-0_
  6
CONTINUOUS
 62
    7
 10
1336.4058982819663
 20
411.42743541467144
 11
1336.4058982819663
 21
381.42743850766919
  0
LINE
  8
_1-0_
  6
CONTINUOUS
 62
    7
 10
1336.4058982819663
 20
381.42743850766919
 11
1296.405931568514
 21
381.42743850766919
  0
LINE
  8
_1-0_
  6
CONTINUOUS
 62
    7
 10
1296.405931568514
 20
381.42743850766919
 11
1296.405931568514
 21
411.42743541467144
  0
LINE
  8
_1-0_
  6
CONTINUOUS
 62
    7
 10
1295.4059477110168
 20
387.42742914030458
 11
1337.4058821394635
 21
387.42742914030458
  0
LINE
  8
_1-0_
  6
CONTINUOUS
 62
    7
 10
1337.4058821394635
 20
387.42742914030458
 11
1337.4058821394635
 21
385.42741768148403
  0
LINE
  8
_1-0_
  6
CONTINUOUS
 62
    7
 10
1337.4058821394635
 20
385.42741768148403
 11
1295.4059477110168
 21
385.42741768148403
  0
LINE
  8
_1-0_
  6
CONTINUOUS
 62
    7
 10
1295.4059477110168
 20
385.42741768148403
 11
1295.4059477110168
 21
387.42742914030458
  0
LINE
  8
_1-0_
  6
CONTINUOUS
 62
    7
 10
1295.4059477110168
 20
391.42740831411942
 11
1337.4058821394635
 21
391.42740831411942
  0
LINE
  8
_1-0_
  6
CONTINUOUS
 62
    7
 10
1337.4058821394635
 20
391.42740831411942
 11
1337.4058821394635
 21
389.42744059912485
  0
LINE
  8
_1-0_
  6
CONTINUOUS
 62
    7
 10
1337.4058821394635
 20
389.42744059912485
 11
1295.4059477110168
 21
389.42744059912485
  0
LINE
  8
_1-0_
  6
CONTINUOUS
 62
    7
 10
1295.4059477110168
 20
389.42744059912485
 11
1295.4059477110168
 21
391.42740831411942
  0
LINE
  8
_1-0_
  6
CONTINUOUS
 62
    7
 10
1295.4059477110168
 20
395.42743123176012
 11
1337.4058821394635
 21
395.42743123176012
  0
LINE
  8
_1-0_
  6
CONTINUOUS
 62
    7
 10
1337.4058821394635
 20
395.42743123176012
 11
1337.4058821394635
 21
393.42741977293969
  0
LINE
  8
_1-0_
  6
CONTINUOUS
 62
    7
 10
1337.4058821394635
 20
393.42741977293969
 11
1295.4059477110168
 21
393.42741977293969
  0
LINE
  8
_1-0_
  6
CONTINUOUS
 62
    7
 10
1295.4059477110168
 20
393.42741977293969
 11
1295.4059477110168
 21
395.42743123176012
  0
LINE
  8
_1-0_
  6
CONTINUOUS
 62
    7
 10
1295.4059477110168
 20
399.42741040557507
 11
1337.4058821394635
 21
399.42741040557507
  0
LINE
  8
_1-0_
  6
CONTINUOUS
 62
    7
 10
1337.4058821394635
 20
399.42741040557507
 11
1337.4058821394635
 21
397.42744269058051
  0
LINE
  8
_1-0_
  6
CONTINUOUS
 62
    7
 10
1337.4058821394635
 20
397.42744269058051
 11
1295.4059477110168
 21
397.42744269058051
  0
LINE
  8
_1-0_
  6
CONTINUOUS
 62
    7
 10
1295.4059477110168
 20
397.42744269058051
 11
1295.4059477110168
 21
399.42741040557507
  0
LINE
  8
_1-0_
  6
CONTINUOUS
 62
    7
 10
1295.4059477110168
 20
403.42743332321572
 11
1337.4058821394635
 21
403.42743332321572
  0
LINE
  8
_1-0_
  6
CONTINUOUS
 62
    7
 10
1337.4058821394635
 20
403.42743332321572
 11
1337.4058821394635
 21
401.42742186439534
  0
LINE
  8
_1-0_
  6
CONTINUOUS
 62
    7
 10
1337.4058821394635
 20
401.42742186439534
 11
1295.4059477110168
 21
401.42742186439534
  0
LINE
  8
_1-0_
  6
CONTINUOUS
 62
    7
 10
1295.4059477110168
 20
401.42742186439534
 11
1295.4059477110168
 21
403.42743332321572
  0
LINE
  8
_1-0_
  6
CONTINUOUS
 62
    7
 10
1295.4059477110168
 20
407.42741249703073
 11
1337.4058821394635
 21
407.42741249703073
  0
LINE
  8
_1-0_
  6
CONTINUOUS
 62
    7
 10
1337.4058821394635
 20
407.42741249703073
 11
1337.4058821394635
 21
405.42744478203616
  0
LINE
  8
_1-0_
  6
CONTINUOUS
 62
    7
 10
1337.4058821394635
 20
405.42744478203616
 11
1295.4059477110168
 21
405.42744478203616
  0
LINE
  8
_1-0_
  6
CONTINUOUS
 62
    7
 10
1295.4059477110168
 20
405.42744478203616
 11
1295.4059477110168
 21
407.42741249703073
  0
LINE
  8
_1-0_
  6
CONTINUOUS
 62
    7
 10
1295.4059477110168
 20
411.42743541467144
 11
1337.4058821394635
 21
411.42743541467144
  0
LINE
  8
_1-0_
  6
CONTINUOUS
 62
    7
 10
1337.4058821394635
 20
411.42743541467144
 11
1337.4058821394635
 21
409.427423955851
  0
LINE
  8
_1-0_
  6
CONTINUOUS
 62
    7
 10
1337.4058821394635
 20
409.427423955851
 11
1295.4059477110168
 21
409.427423955851
  0
LINE
  8
_1-0_
  6
CONTINUOUS
 62
    7
 10
1295.4059477110168
 20
409.427423955851
 11
1295.4059477110168
 21
411.42743541467144
  0
LINE
  8
_1-0_
  6
CONTINUOUS
 62
    7
 10
1267.5565285111945
 20
518.35326839137724
 11
1365.5565213236569
 21
518.35326839137724
  0
LINE
  8
_1-0_
  6
CONTINUOUS
 62
    7
 10
1365.5565213236569
 20
518.35326839137724
 11
1365.5565213236569
 21
514.35324547373648
  0
LINE
  8
_1-0_
  6
CONTINUOUS
 62
    7
 10
1365.5565213236569
 20
514.35324547373648
 11
1267.5565285111945
 21
514.35324547373648
  0
LINE
  8
_1-0_
  6
CONTINUOUS
 62
    7
 10
1267.5565285111945
 20
514.35324547373648
 11
1267.5565285111945
 21
518.35326839137724
  0
LINE
  8
_1-0_
  6
CONTINUOUS
 62
    7
 10
1270.4030267428245
 20
514.11934723725187
 11
1362.4030289226516
 21
514.11934723725187
  0
LINE
  8
_1-0_
  6
CONTINUOUS
 62
    7
 10
1362.4030289226516
 20
514.11934723725187
 11
1362.4030289226516
 21
508.11935660461654
  0
LINE
  8
_1-0_
  6
CONTINUOUS
 62
    7
 10
1362.4030289226516
 20
508.11935660461654
 11
1270.4030267428245
 21
508.11935660461654
  0
LINE
  8
_1-0_
  6
CONTINUOUS
 62
    7
 10
1270.4030267428245
 20
508.11935660461654
 11
1270.4030267428245
 21
514.11934723725187
  0
LINE
  8
_1-1_
  6
CONTINUOUS
 62
    7
 10
1350.2574682051611
 20
508.11935660461654
 11
1282.2575160435267
 21
508.11935660461654
  0
LINE
  8
_1-1_
  6
CONTINUOUS
 62
    7
 10
1282.2575160435267
 20
508.11935660461654
 11
1282.2575160435267
 21
502.11932222815551
  0
LINE
  8
_1-1_
  6
CONTINUOUS
 62
    7
 10
1282.2575160435267
 20
502.11932222815551
 11
1288.2575066761619
 21
498.11934305434056
  0
LINE
  8
_1-1_
  6
CONTINUOUS
 62
    7
 10
1288.2575066761619
 20
498.11934305434056
 11
1344.2574775725257
 21
498.11934305434056
  0
LINE
  8
_1-1_
  6
CONTINUOUS
 62
    7
 10
1344.2574775725257
 20
498.11934305434056
 11
1350.2574682051611
 21
502.11932222815551
  0
LINE
  8
_1-1_
  6
CONTINUOUS
 62
    7
 10
1350.2574682051611
 20
502.11932222815551
 11
1350.2574682051611
 21
508.11935660461654
  0
LINE
  8
_1-1_
  6
CONTINUOUS
 62
    7
 10
1331.4349374071512
 20
508.11935660461654
 11
1331.4349374071512
 21
502.45041924553948
  0
LINE
  8
_1-1_
  6
CONTINUOUS
 62
    7
 10
1329.8405624448562
 20
508.11935660461654
 11
1329.8405624448562
 21
502.45041924553948
  0
LINE
  8
_1-1_
  6
CONTINUOUS
 62
    7
 10
1301.3869535232602
 20
508.11935660461654
 11
1301.3869535232602
 21
502.45041924553948
  0
LINE
  8
_1-1_
  6
CONTINUOUS
 62
    7
 10
1299.8329103683411
 20
508.11935660461654
 11
1299.8329103683411
 21
502.45041924553948
  0
LINE
  8
_1-1_
  6
CONTINUOUS
 62
    7
 10
1329.8474739693304
 20
502.11932222815551
 11
1327.3743730346209
 21
500.47061743423285
  0
LINE
  8
_1-1_
  6
CONTINUOUS
 62
    7
 10
1299.8344851460695
 20
502.3103077715428
 11
1297.0749496401047
 21
500.47061743423285
  0
LINE
  8
_1-1_
  6
CONTINUOUS
 62
    7
 10
1301.3530083144494
 20
502.3888279388309
 11
1304.2303021994337
 21
500.47061743423285
  0
LINE
  8
_1-1_
  6
CONTINUOUS
 62
    7
 10
1331.4009921983402
 20
502.15331118079223
 11
1333.9250109462662
 21
500.47061743423285
  0
LINE
  8
_1-1_
  6
CONTINUOUS
 62
    7
 10
1331.4349374071512
 20
502.34657140312044
 11
1329.8349632351553
 21
502.34657140312044
  0
LINE
  8
_1-1_
  6
CONTINUOUS
 62
    7
 10
1301.4292100589707
 20
502.40689413888111
 11
1299.8291483993237
 21
502.40689413888111
  0
LINE
  8
_1-1_
  6
CONTINUOUS
 62
    7
 10
1342.3393108117534
 20
419.19734498248596
 11
1342.3393108117534
 21
464.06748679613969
  0
LINE
  8
_1-1_
  6
CONTINUOUS
 62
    7
 10
1289.9493428823109
 20
420.09689301597564
 11
1296.3879965999411
 21
413.65828304217126
  0
LINE
  8
_1-0_
  6
CONTINUOUS
 62
    7
 10
1295.4552907465045
 20
383.78330598926908
 11
1337.4553126626031
 21
383.78330598926908
  0
LINE
  8
_1-0_
  6
CONTINUOUS
 62
    7
 10
1337.4553126626031
 20
383.78330598926908
 11
1337.4553126626031
 21
381.78333827427451
  0
LINE
  8
_1-0_
  6
CONTINUOUS
 62
    7
 10
1337.4553126626031
 20
381.78333827427451
 11
1295.4552907465045
 21
381.78333827427451
  0
LINE
  8
_1-0_
  6
CONTINUOUS
 62
    7
 10
1295.4552907465045
 20
381.78333827427451
 11
1295.4552907465045
 21
383.78330598926908
  0
LINE
  8
_1-1_
  6
CONTINUOUS
 62
    7
 10
1343.8532846222511
 20
469.54084551012193
 11
1342.3659070578321
 21
468.05351168952853
  0
LINE
  8
_1-1_
  6
CONTINUOUS
 62
    7
 10
1342.3659070578321
 20
468.05351168952853
 11
1342.3659070578321
 21
460.31466023802295
  0
LINE
  8
_1-1_
  6
CONTINUOUS
 62
    7
 10
1295.7880062854429
 20
419.7898113589489
 11
1339.7880834041873
 21
419.7898113589489
  0
LINE
  8
_1-1_
  6
CONTINUOUS
 62
    7
 10
1342.3393108117534
 20
419.19734498248596
 11
1336.4058982819663
 21
413.2639324526989
  0
LINE
  8
_1-1_
  6
CONTINUOUS
 62
    7
 10
1289.9680652397478
 20
420.07821440236449
 11
1289.9680652397478
 21
469.21937213441117
  0
LINE
  8
_1-1_
  6
CONTINUOUS
 62
    7
 10
1336.4058982819663
 20
411.42743541467144
 11
1336.4058982819663
 21
413.2639324526989
  0
LINE
  8
_1-1_
  6
CONTINUOUS
 62
    7
 10
1296.3879965999411
 20
411.65726547535775
 11
1296.3879965999411
 21
413.73369739782851
  0
LINE
  8
_1-0_
  6
CONTINUOUS
 62
    7
 10
607.55847754165472
 20
842.54081726074219
 11
607.55847754165472
 21
589.54083313813078
  0
LINE
  8
_1-0_
  6
CONTINUOUS
 62
    7
 10
541.55849309501491
 20
589.51226841989171
 11
541.55849309501491
 21
842.54081726074219
  0
LINE
  8
_1-0_
  6
CONTINUOUS
 62
    7
 10
1374.5667870716698
 20
561.54084768994892
 11
1258.5673472872111
 21
561.54084768994892
  0
LINE
  8
_1-0_
  6
CONTINUOUS
 62
    7
 10
1258.5673472872111
 20
561.54084768994892
 11
1258.5673472872111
 21
589.54083313813078
  0
LINE
  8
_1-0_
  6
CONTINUOUS
 62
    7
 10
1258.5673472872111
 20
589.54083313813078
 11
1374.5667870716698
 21
589.54083313813078
  0
LINE
  8
_1-0_
  6
CONTINUOUS
 62
    7
 10
1374.5667870716698
 20
589.54083313813078
 11
1374.5667870716698
 21
561.54084768994892
  0
LINE
  8
_1-0_
  6
CONTINUOUS
 62
    7
 10
632.55820521056421
 20
561.54084768994892
 11
516.55876542610542
 21
561.54084768994892
  0
LINE
  8
_1-0_
  6
CONTINUOUS
 62
    7
 10
516.55876542610542
 20
561.54084768994892
 11
516.55876542610542
 21
589.54083313813078
  0
LINE
  8
_1-0_
  6
CONTINUOUS
 62
    7
 10
516.55876542610542
 20
589.54083313813078
 11
632.55820521056421
 21
589.54083313813078
  0
LINE
  8
_1-0_
  6
CONTINUOUS
 62
    7
 10
632.55820521056421
 20
589.54083313813078
 11
632.55820521056421
 21
561.54084768994892
  0
LINE
  8
_1-0_
  6
CONTINUOUS
 62
    7
 10
1283.5670312122948
 20
589.51226841989171
 11
1283.5670312122948
 21
809.54082503742234
  0
LINE
  8
_1-0_
  6
CONTINUOUS
 62
    7
 10
1349.5670156589345
 20
589.54083313813078
 11
1349.5670156589345
 21
769.54085832396981
  0
LINE
  8
_1-0_
  6
CONTINUOUS
 62
    7
 10
1739.3817203477543
 20
809.54082503742234
 11
1673.3817359011143
 21
769.54085832396981
  0
LINE
  8
_1-0_
  6
CONTINUOUS
 62
    7
 10
1726.953749490981
 20
801.90175325253745
 11
1685.8097067578879
 21
777.17993010885471
  0
LINE
  8
_1-0_
  6
CONTINUOUS
 62
    7
 10
1685.8097067578879
 20
777.17993010885471
 11
1691.9901844157216
 21
766.89391942558132
  0
LINE
  8
_1-0_
  6
CONTINUOUS
 62
    7
 10
1691.9901844157216
 20
766.89391942558132
 11
1733.1342271488145
 21
791.61574256926428
  0
LINE
  8
_1-0_
  6
CONTINUOUS
 62
    7
 10
1733.1342271488145
 20
791.61574256926428
 11
1726.953749490981
 21
801.90175325253745
  0
LINE
  8
_1-0_
  6
CONTINUOUS
 62
    7
 10
541.55849309501491
 20
791.61574256926428
 11
541.55849309501491
 21
766.89391942558132
  0
LINE
  8
_1-0_
  6
CONTINUOUS
 62
    7
 10
598.55849159270178
 20
779.25478725359699
 11
598.52590244249029
 21
779.79178645896172
  0
LINE
  8
_1-0_
  6
CONTINUOUS
 62
    7
 10
598.52590244249029
 20
779.79178645896172
 11
598.46129281180242
 21
780.31102567105677
  0
LINE
  8
_1-0_
  6
CONTINUOUS
 62
    7
 10
598.46129281180242
 20
780.31102567105677
 11
598.36466270063829
 21
780.81259237753375
  0
LINE
  8
_1-0_
  6
CONTINUOUS
 62
    7
 10
598.36466270063829
 20
780.81259237753375
 11
598.23596836517208
 21
781.29648657839266
  0
LINE
  8
_1-0_
  6
CONTINUOUS
 62
    7
 10
598.23596836517208
 20
781.29648657839266
 11
598.07525354922973
 21
781.76262078598199
  0
LINE
  8
_1-0_
  6
CONTINUOUS
 62
    7
 10
598.07525354922973
 20
781.76262078598199
 11
597.88247450898507
 21
782.21116997560466
  0
LINE
  8
_1-0_
  6
CONTINUOUS
 62
    7
 10
597.88247450898507
 20
782.21116997560466
 11
597.65767498826426
 21
782.64195917195798
  0
LINE
  8
_1-0_
  6
CONTINUOUS
 62
    7
 10
597.65767498826426
 20
782.64195917195798
 11
597.40081124324138
 21
783.05516335034451
  0
LINE
  8
_1-0_
  6
CONTINUOUS
 62
    7
 10
597.40081124324138
 20
783.05516335034451
 11
597.12172563471859
 21
783.45305718970565
  0
LINE
  8
_1-0_
  6
CONTINUOUS
 62
    7
 10
597.12172563471859
 20
783.45305718970565
 11
596.8301292920205
 21
783.8383528072402
  0
LINE
  8
_1-0_
  6
CONTINUOUS
 62
    7
 10
596.8301292920205
 20
783.8383528072402
 11
596.52606595897305
 21
784.21087522764446
  0
LINE
  8
_1-0_
  6
CONTINUOUS
 62
    7
 10
596.52606595897305
 20
784.21087522764446
 11
596.20953563557634
 21
784.57062445091924
  0
LINE
  8
_1-0_
  6
CONTINUOUS
 62
    7
 10
596.20953563557634
 20
784.57062445091924
 11
595.88049457800423
 21
784.91777545236698
  0
LINE
  8
_1-0_
  6
CONTINUOUS
 62
    7
 10
595.88049457800423
 20
784.91777545236698
 11
595.53898653008309
 21
785.25215325668512
  0
LINE
  8
_1-0_
  6
CONTINUOUS
 62
    7
 10
595.53898653008309
 20
785.25215325668512
 11
595.18501149181236
 21
785.57384535152482
  0
LINE
  8
_1-0_
  6
CONTINUOUS
 62
    7
 10
595.18501149181236
 20
785.57384535152482
 11
594.81852571936645
 21
785.88276424923447
  0
LINE
  8
_1-0_
  6
CONTINUOUS
 62
    7
 10
594.81852571936645
 20
785.88276424923447
 11
594.43791069119129
 21
786.18223448057415
  0
LINE
  8
_1-0_
  6
CONTINUOUS
 62
    7
 10
594.43791069119129
 20
786.18223448057415
 11
594.04141665425527
 21
786.47514313804595
  0
LINE
  8
_1-0_
  6
CONTINUOUS
 62
    7
 10
594.04141665425527
 20
786.47514313804595
 11
593.62913109621013
 21
786.76166519695255
  0
LINE
  8
_1-0_
  6
CONTINUOUS
 62
    7
 10
593.62913109621013
 20
786.76166519695255
 11
593.20092278557854
 21
787.04180065729429
  0
LINE
  8
_1-0_
  6
CONTINUOUS
 62
    7
 10
593.20092278557854
 20
787.04180065729429
 11
592.75692295383749
 21
787.31546203141966
  0
LINE
  8
_1-0_
  6
CONTINUOUS
 62
    7
 10
592.75692295383749
 20
787.31546203141966
 11
592.29704411333591
 21
787.58264931932831
  0
LINE
  8
_1-0_
  6
CONTINUOUS
 62
    7
 10
592.29704411333591
 20
787.58264931932831
 11
591.82133000789918
 21
787.84345000867222
  0
LINE
  8
_1-0_
  6
CONTINUOUS
 62
    7
 10
591.82133000789918
 20
787.84345000867222
 11
591.32978063752739
 21
788.09786409945093
  0
LINE
  8
_1-0_
  6
CONTINUOUS
 62
    7
 10
591.32978063752739
 20
788.09786409945093
 11
590.79601847527101
 21
788.35324055439719
  0
LINE
  8
_1-0_
  6
CONTINUOUS
 62
    7
 10
590.79601847527101
 20
788.35324055439719
 11
590.19366599418026
 21
788.61701582389446
  0
LINE
  8
_1-0_
  6
CONTINUOUS
 62
    7
 10
590.19366599418026
 20
788.61701582389446
 11
589.52281068190644
 21
788.88927739559449
  0
LINE
  8
_1-0_
  6
CONTINUOUS
 62
    7
 10
589.52281068190644
 20
788.88927739559449
 11
588.78336505079812
 21
789.16993778184576
  0
LINE
  8
_1-0_
  6
CONTINUOUS
 62
    7
 10
588.78336505079812
 20
789.16993778184576
 11
587.97537284468126
 21
789.45917195795118
  0
LINE
  8
_1-0_
  6
CONTINUOUS
 62
    7
 10
587.97537284468126
 20
789.45917195795118
 11
587.09879031972991
 21
789.75671746095622
  0
LINE
  8
_1-0_
  6
CONTINUOUS
 62
    7
 10
587.09879031972991
 20
789.75671746095622
 11
586.1537049635956
 21
790.06274926616413
  0
LINE
  8
_1-0_
  6
CONTINUOUS
 62
    7
 10
586.1537049635956
 20
790.06274926616413
 11
585.14002928862692
 21
790.3772673735748
  0
LINE
  8
_1-0_
  6
CONTINUOUS
 62
    7
 10
585.14002928862692
 20
790.3772673735748
 11
584.05771955099794
 21
790.67551277779239
  0
LINE
  8
_1-0_
  6
CONTINUOUS
 62
    7
 10
584.05771955099794
 20
790.67551277779239
 11
582.90673200688298
 21
790.93272647342155
  0
LINE
  8
_1-0_
  6
CONTINUOUS
 62
    7
 10
582.90673200688298
 20
790.93272647342155
 11
581.68706665628201
 21
791.14899594811391
  0
LINE
  8
_1-0_
  6
CONTINUOUS
 62
    7
 10
581.68706665628201
 20
791.14899594811391
 11
580.39872349919506
 21
791.32432120186934
  0
LINE
  8
_1-0_
  6
CONTINUOUS
 62
    7
 10
580.39872349919506
 20
791.32432120186934
 11
579.04170253562188
 21
791.45861474703634
  0
LINE
  8
_1-0_
  6
CONTINUOUS
 62
    7
 10
579.04170253562188
 20
791.45861474703634
 11
577.6159600217369
 21
791.55196407126641
  0
LINE
  8
_1-0_
  6
CONTINUOUS
 62
    7
 10
577.6159600217369
 20
791.55196407126641
 11
576.12158344519173
 21
791.60436917455957
  0
LINE
  8
_1-0_
  6
CONTINUOUS
 62
    7
 10
576.12158344519173
 20
791.60436917455957
 11
574.55848531833476
 21
791.61574256926428
  0
LINE
  8
_1-0_
  6
CONTINUOUS
 62
    7
 10
574.55848531833476
 20
791.61574256926428
 11
572.99258758662745
 21
791.60681882880363
  0
LINE
  8
_1-0_
  6
CONTINUOUS
 62
    7
 10
572.99258758662745
 20
791.60681882880363
 11
571.49593633114137
 21
791.55633845384511
  0
LINE
  8
_1-0_
  6
CONTINUOUS
 62
    7
 10
571.49593633114137
 20
791.55633845384511
 11
570.0685752957022
 21
791.46447641969189
  0
LINE
  8
_1-0_
  6
CONTINUOUS
 62
    7
 10
570.0685752957022
 20
791.46447641969189
 11
568.71046073648461
 21
791.33105775104059
  0
LINE
  8
_1-0_
  6
CONTINUOUS
 62
    7
 10
568.71046073648461
 20
791.33105775104059
 11
567.42163639731393
 21
791.15616993554318
  0
LINE
  8
_1-0_
  6
CONTINUOUS
 62
    7
 10
567.42163639731393
 20
791.15616993554318
 11
566.20205853436437
 21
790.9398129731992
  0
LINE
  8
_1-0_
  6
CONTINUOUS
 62
    7
 10
566.20205853436437
 20
790.9398129731992
 11
565.05177089146196
 21
790.68198686400888
  0
LINE
  8
_1-0_
  6
CONTINUOUS
 62
    7
 10
565.05177089146196
 20
790.68198686400888
 11
563.97072972478099
 21
790.38269160797222
  0
LINE
  8
_1-0_
  6
CONTINUOUS
 62
    7
 10
563.97072972478099
 20
790.38269160797222
 11
562.95854133988894
 21
790.06686118578818
  0
LINE
  8
_1-0_
  6
CONTINUOUS
 62
    7
 10
562.95854133988894
 20
790.06686118578818
 11
562.01468081087683
 21
789.75977952876133
  0
LINE
  8
_1-0_
  6
CONTINUOUS
 62
    7
 10
562.01468081087683
 20
789.75977952876133
 11
561.13919188157013
 21
789.46127166158908
  0
LINE
  8
_1-0_
  6
CONTINUOUS
 62
    7
 10
561.13919188157013
 20
789.46127166158908
 11
560.33207455196907
 21
789.17133758427087
  0
LINE
  8
_1-0_
  6
CONTINUOUS
 62
    7
 10
560.33207455196907
 20
789.17133758427087
 11
559.5932850782475
 21
788.89006478445867
  0
LINE
  8
_1-0_
  6
CONTINUOUS
 62
    7
 10
559.5932850782475
 20
788.89006478445867
 11
558.92291094805739
 21
788.61736577450074
  0
LINE
  8
_1-0_
  6
CONTINUOUS
 62
    7
 10
558.92291094805739
 20
788.61736577450074
 11
558.32086467374688
 21
788.35324055439719
  0
LINE
  8
_1-0_
  6
CONTINUOUS
 62
    7
 10
558.32086467374688
 20
788.35324055439719
 11
557.78718999914213
 21
788.09786409945093
  0
LINE
  8
_1-0_
  6
CONTINUOUS
 62
    7
 10
557.78718999914213
 20
788.09786409945093
 11
557.29564062877046
 21
787.84345000867222
  0
LINE
  8
_1-0_
  6
CONTINUOUS
 62
    7
 10
557.29564062877046
 20
787.84345000867222
 11
556.81992652333383
 21
787.58264931932831
  0
LINE
  8
_1-0_
  6
CONTINUOUS
 62
    7
 10
556.81992652333383
 20
787.58264931932831
 11
556.36004768283215
 21
787.31546203141966
  0
LINE
  8
_1-0_
  6
CONTINUOUS
 62
    7
 10
556.36004768283215
 20
787.31546203141966
 11
555.91604785109109
 21
787.04180065729429
  0
LINE
  8
_1-0_
  6
CONTINUOUS
 62
    7
 10
555.91604785109109
 20
787.04180065729429
 11
555.48788328428509
 21
786.76166519695255
  0
LINE
  8
_1-0_
  6
CONTINUOUS
 62
    7
 10
555.48788328428509
 20
786.76166519695255
 11
555.07555398241436
 21
786.47514313804595
  0
LINE
  8
_1-0_
  6
CONTINUOUS
 62
    7
 10
555.07555398241436
 20
786.47514313804595
 11
554.67905994547834
 21
786.18223448057415
  0
LINE
  8
_1-0_
  6
CONTINUOUS
 62
    7
 10
554.67905994547834
 20
786.18223448057415
 11
554.29844491730319
 21
785.88276424923447
  0
LINE
  8
_1-0_
  6
CONTINUOUS
 62
    7
 10
554.29844491730319
 20
785.88276424923447
 11
553.9319591448575
 21
785.57384535152482
  0
LINE
  8
_1-0_
  6
CONTINUOUS
 62
    7
 10
553.9319591448575
 20
785.57384535152482
 11
553.57798410658665
 21
785.25215325668512
  0
LINE
  8
_1-0_
  6
CONTINUOUS
 62
    7
 10
553.57798410658665
 20
785.25215325668512
 11
553.2364760586654
 21
784.91777545236698
  0
LINE
  8
_1-0_
  6
CONTINUOUS
 62
    7
 10
553.2364760586654
 20
784.91777545236698
 11
552.90747874491922
 21
784.57062445091924
  0
LINE
  8
_1-0_
  6
CONTINUOUS
 62
    7
 10
552.90747874491922
 20
784.57062445091924
 11
552.5909046776967
 21
784.21087522764446
  0
LINE
  8
_1-0_
  6
CONTINUOUS
 62
    7
 10
552.5909046776967
 20
784.21087522764446
 11
552.28684134464913
 21
783.8383528072402
  0
LINE
  8
_1-0_
  6
CONTINUOUS
 62
    7
 10
552.28684134464913
 20
783.8383528072402
 11
551.99528874577709
 21
783.45305718970565
  0
LINE
  8
_1-0_
  6
CONTINUOUS
 62
    7
 10
551.99528874577709
 20
783.45305718970565
 11
551.71615939342837
 21
783.05516335034451
  0
LINE
  8
_1-0_
  6
CONTINUOUS
 62
    7
 10
551.71615939342837
 20
783.05516335034451
 11
551.45933939223119
 21
782.64195917195798
  0
LINE
  8
_1-0_
  6
CONTINUOUS
 62
    7
 10
551.45933939223119
 20
782.64195917195798
 11
551.23449612768457
 21
782.21116997560466
  0
LINE
  8
_1-0_
  6
CONTINUOUS
 62
    7
 10
551.23449612768457
 20
782.21116997560466
 11
551.04176083126595
 21
781.76262078598199
  0
LINE
  8
_1-0_
  6
CONTINUOUS
 62
    7
 10
551.04176083126595
 20
781.76262078598199
 11
550.88100227149755
 21
781.29648657839266
  0
LINE
  8
_1-0_
  6
CONTINUOUS
 62
    7
 10
550.88100227149755
 20
781.29648657839266
 11
550.75230793603146
 21
780.81259237753375
  0
LINE
  8
_1-0_
  6
CONTINUOUS
 62
    7
 10
550.75230793603146
 20
780.81259237753375
 11
550.65567782486721
 21
780.31102567105677
  0
LINE
  8
_1-0_
  6
CONTINUOUS
 62
    7
 10
550.65567782486721
 20
780.31102567105677
 11
550.59106819417934
 21
779.79178645896172
  0
LINE
  8
_1-0_
  6
CONTINUOUS
 62
    7
 10
550.59106819417934
 20
779.79178645896172
 11
550.55847904396785
 21
779.25478725359699
  0
LINE
  8
_1-0_
  6
CONTINUOUS
 62
    7
 10
550.55847904396785
 20
779.25478725359699
 11
550.59106819417934
 21
778.71787553588388
  0
LINE
  8
_1-0_
  6
CONTINUOUS
 62
    7
 10
550.59106819417934
 20
778.71787553588388
 11
550.65567782486721
 21
778.19863632378883
  0
LINE
  8
_1-0_
  6
CONTINUOUS
 62
    7
 10
550.65567782486721
 20
778.19863632378883
 11
550.75230793603146
 21
777.69706961731185
  0
LINE
  8
_1-0_
  6
CONTINUOUS
 62
    7
 10
550.75230793603146
 20
777.69706961731185
 11
550.88100227149755
 21
777.21317541645294
  0
LINE
  8
_1-0_
  6
CONTINUOUS
 62
    7
 10
550.88100227149755
 20
777.21317541645294
 11
551.04176083126595
 21
776.74704120886361
  0
LINE
  8
_1-0_
  6
CONTINUOUS
 62
    7
 10
551.04176083126595
 20
776.74704120886361
 11
551.23449612768457
 21
776.29849201924094
  0
LINE
  8
_1-0_
  6
CONTINUOUS
 62
    7
 10
551.23449612768457
 20
776.29849201924094
 11
551.45933939223119
 21
775.86770282288762
  0
LINE
  8
_1-0_
  6
CONTINUOUS
 62
    7
 10
551.45933939223119
 20
775.86770282288762
 11
551.71615939342837
 21
775.45449864450109
  0
LINE
  8
_1-0_
  6
CONTINUOUS
 62
    7
 10
551.71615939342837
 20
775.45449864450109
 11
551.99528874577709
 21
775.05660480513995
  0
LINE
  8
_1-0_
  6
CONTINUOUS
 62
    7
 10
551.99528874577709
 20
775.05660480513995
 11
552.28684134464913
 21
774.6713091876054
  0
LINE
  8
_1-0_
  6
CONTINUOUS
 62
    7
 10
552.28684134464913
 20
774.6713091876054
 11
552.5909046776967
 21
774.29878676720114
  0
LINE
  8
_1-0_
  6
CONTINUOUS
 62
    7
 10
552.5909046776967
 20
774.29878676720114
 11
552.90747874491922
 21
773.93895005627485
  0
LINE
  8
_1-0_
  6
CONTINUOUS
 62
    7
 10
552.90747874491922
 20
773.93895005627485
 11
553.2364760586654
 21
773.59188654247862
  0
LINE
  8
_1-0_
  6
CONTINUOUS
 62
    7
 10
553.2364760586654
 20
773.59188654247862
 11
553.57798410658665
 21
773.25750873816048
  0
LINE
  8
_1-0_
  6
CONTINUOUS
 62
    7
 10
553.57798410658665
 20
773.25750873816048
 11
553.9319591448575
 21
772.93581664332078
  0
LINE
  8
_1-0_
  6
CONTINUOUS
 62
    7
 10
553.9319591448575
 20
772.93581664332078
 11
554.29844491730319
 21
772.62681025795951
  0
LINE
  8
_1-0_
  6
CONTINUOUS
 62
    7
 10
554.29844491730319
 20
772.62681025795951
 11
554.67905994547834
 21
772.32742751427145
  0
LINE
  8
_1-0_
  6
CONTINUOUS
 62
    7
 10
554.67905994547834
 20
772.32742751427145
 11
555.07555398241436
 21
772.03451885679965
  0
LINE
  8
_1-0_
  6
CONTINUOUS
 62
    7
 10
555.07555398241436
 20
772.03451885679965
 11
555.48788328428509
 21
771.74799679789305
  0
LINE
  8
_1-0_
  6
CONTINUOUS
 62
    7
 10
555.48788328428509
 20
771.74799679789305
 11
555.91604785109109
 21
771.46786133755131
  0
LINE
  8
_1-0_
  6
CONTINUOUS
 62
    7
 10
555.91604785109109
 20
771.46786133755131
 11
556.36004768283215
 21
771.19419996342594
  0
LINE
  8
_1-0_
  6
CONTINUOUS
 62
    7
 10
556.36004768283215
 20
771.19419996342594
 11
556.81992652333383
 21
770.92701267551729
  0
LINE
  8
_1-0_
  6
CONTINUOUS
 62
    7
 10
556.81992652333383
 20
770.92701267551729
 11
557.29564062877046
 21
770.66621198617349
  0
LINE
  8
_1-0_
  6
CONTINUOUS
 62
    7
 10
557.29564062877046
 20
770.66621198617349
 11
557.78718999914213
 21
770.41179789539467
  0
LINE
  8
_1-0_
  6
CONTINUOUS
 62
    7
 10
557.78718999914213
 20
770.41179789539467
 11
558.32095216139862
 21
770.15642144044841
  0
LINE
  8
_1-0_
  6
CONTINUOUS
 62
    7
 10
558.32095216139862
 20
770.15642144044841
 11
558.92330464248948
 21
769.89264617095114
  0
LINE
  8
_1-0_
  6
CONTINUOUS
 62
    7
 10
558.92330464248948
 20
769.89264617095114
 11
559.5941599547632
 21
769.62038459925111
  0
LINE
  8
_1-0_
  6
CONTINUOUS
 62
    7
 10
559.5941599547632
 20
769.62038459925111
 11
560.33360558587151
 21
769.33963672534833
  0
LINE
  8
_1-0_
  6
CONTINUOUS
 62
    7
 10
560.33360558587151
 20
769.33963672534833
 11
561.14164153581419
 21
769.05049003689442
  0
LINE
  8
_1-0_
  6
CONTINUOUS
 62
    7
 10
561.14164153581419
 20
769.05049003689442
 11
562.01818031693972
 21
768.75294453388938
  0
LINE
  8
_1-0_
  6
CONTINUOUS
 62
    7
 10
562.01818031693972
 20
768.75294453388938
 11
562.96330941689973
 21
768.44691272868147
  0
LINE
  8
_1-0_
  6
CONTINUOUS
 62
    7
 10
562.96330941689973
 20
768.44691272868147
 11
563.97698509186853
 21
768.13239462127081
  0
LINE
  8
_1-0_
  6
CONTINUOUS
 62
    7
 10
563.97698509186853
 20
768.13239462127081
 11
565.05925108567169
 21
767.83414921705321
  0
LINE
  8
_1-0_
  6
CONTINUOUS
 62
    7
 10
565.05925108567169
 20
767.83414921705321
 11
566.21023862978655
 21
767.57693552142405
  0
LINE
  8
_1-0_
  6
CONTINUOUS
 62
    7
 10
566.21023862978655
 20
767.57693552142405
 11
567.42990398038751
 21
767.36066604673169
  0
LINE
  8
_1-0_
  6
CONTINUOUS
 62
    7
 10
567.42990398038751
 20
767.36066604673169
 11
568.71824713747469
 21
767.18534079297626
  0
LINE
  8
_1-0_
  6
CONTINUOUS
 62
    7
 10
568.71824713747469
 20
767.18534079297626
 11
570.07526810104775
 21
767.05104724780927
  0
LINE
  8
_1-0_
  6
CONTINUOUS
 62
    7
 10
570.07526810104775
 20
767.05104724780927
 11
571.50101061493274
 21
766.95769792357919
  0
LINE
  8
_1-0_
  6
CONTINUOUS
 62
    7
 10
571.50101061493274
 20
766.95769792357919
 11
572.9953871914779
 21
766.90529282028604
  0
LINE
  8
_1-0_
  6
CONTINUOUS
 62
    7
 10
572.9953871914779
 20
766.90529282028604
 11
574.55848531833476
 21
766.89391942558132
  0
LINE
  8
_1-0_
  6
CONTINUOUS
 62
    7
 10
574.55848531833476
 20
766.89391942558132
 11
576.12438305004218
 21
766.90284316604198
  0
LINE
  8
_1-0_
  6
CONTINUOUS
 62
    7
 10
576.12438305004218
 20
766.90284316604198
 11
577.62103430552827
 21
766.95332354100049
  0
LINE
  8
_1-0_
  6
CONTINUOUS
 62
    7
 10
577.62103430552827
 20
766.95332354100049
 11
579.04839534096732
 21
767.04518557515382
  0
LINE
  8
_1-0_
  6
CONTINUOUS
 62
    7
 10
579.04839534096732
 20
767.04518557515382
 11
580.40650990018526
 21
767.17860424380501
  0
LINE
  8
_1-0_
  6
CONTINUOUS
 62
    7
 10
580.40650990018526
 20
767.17860424380501
 11
581.69533423935582
 21
767.35349205930265
  0
LINE
  8
_1-0_
  6
CONTINUOUS
 62
    7
 10
581.69533423935582
 20
767.35349205930265
 11
582.91491210230538
 21
767.56984902164641
  0
LINE
  8
_1-0_
  6
CONTINUOUS
 62
    7
 10
582.91491210230538
 20
767.56984902164641
 11
584.06519974520756
 21
767.82767513083672
  0
LINE
  8
_1-0_
  6
CONTINUOUS
 62
    7
 10
584.06519974520756
 20
767.82767513083672
 11
585.14624091188875
 21
768.12697038687338
  0
LINE
  8
_1-0_
  6
CONTINUOUS
 62
    7
 10
585.14624091188875
 20
768.12697038687338
 11
586.15847304060651
 21
768.4427133214059
  0
LINE
  8
_1-0_
  6
CONTINUOUS
 62
    7
 10
586.15847304060651
 20
768.4427133214059
 11
587.10228982579281
 21
768.74988246608427
  0
LINE
  8
_1-0_
  6
CONTINUOUS
 62
    7
 10
587.10228982579281
 20
768.74988246608427
 11
587.97777875509951
 21
769.04839033325652
  0
LINE
  8
_1-0_
  6
CONTINUOUS
 62
    7
 10
587.97777875509951
 20
769.04839033325652
 11
588.78489608470079
 21
769.33832441057473
  0
LINE
  8
_1-0_
  6
CONTINUOUS
 62
    7
 10
588.78489608470079
 20
769.33832441057473
 11
589.52368555842213
 21
769.61959721038693
  0
LINE
  8
_1-0_
  6
CONTINUOUS
 62
    7
 10
589.52368555842213
 20
769.61959721038693
 11
590.19405968861236
 21
769.89229622034486
  0
LINE
  8
_1-0_
  6
CONTINUOUS
 62
    7
 10
590.19405968861236
 20
769.89229622034486
 11
590.79610596292264
 21
770.1563339527969
  0
LINE
  8
_1-0_
  6
CONTINUOUS
 62
    7
 10
590.79610596292264
 20
770.1563339527969
 11
591.32978063752739
 21
770.41179789539467
  0
LINE
  8
_1-0_
  6
CONTINUOUS
 62
    7
 10
591.32978063752739
 20
770.41179789539467
 11
591.82133000789918
 21
770.66621198617349
  0
LINE
  8
_1-0_
  6
CONTINUOUS
 62
    7
 10
591.82133000789918
 20
770.66621198617349
 11
592.29704411333591
 21
770.92701267551729
  0
LINE
  8
_1-0_
  6
CONTINUOUS
 62
    7
 10
592.29704411333591
 20
770.92701267551729
 11
592.75692295383749
 21
771.19419996342594
  0
LINE
  8
_1-0_
  6
CONTINUOUS
 62
    7
 10
592.75692295383749
 20
771.19419996342594
 11
593.20092278557854
 21
771.46786133755131
  0
LINE
  8
_1-0_
  6
CONTINUOUS
 62
    7
 10
593.20092278557854
 20
771.46786133755131
 11
593.62913109621013
 21
771.74799679789305
  0
LINE
  8
_1-0_
  6
CONTINUOUS
 62
    7
 10
593.62913109621013
 20
771.74799679789305
 11
594.04141665425527
 21
772.03451885679965
  0
LINE
  8
_1-0_
  6
CONTINUOUS
 62
    7
 10
594.04141665425527
 20
772.03451885679965
 11
594.43791069119129
 21
772.32742751427145
  0
LINE
  8
_1-0_
  6
CONTINUOUS
 62
    7
 10
594.43791069119129
 20
772.32742751427145
 11
594.81852571936645
 21
772.62681025795951
  0
LINE
  8
_1-0_
  6
CONTINUOUS
 62
    7
 10
594.81852571936645
 20
772.62681025795951
 11
595.18501149181236
 21
772.93581664332078
  0
LINE
  8
_1-0_
  6
CONTINUOUS
 62
    7
 10
595.18501149181236
 20
772.93581664332078
 11
595.53898653008309
 21
773.25750873816048
  0
LINE
  8
_1-0_
  6
CONTINUOUS
 62
    7
 10
595.53898653008309
 20
773.25750873816048
 11
595.88049457800423
 21
773.59188654247862
  0
LINE
  8
_1-0_
  6
CONTINUOUS
 62
    7
 10
595.88049457800423
 20
773.59188654247862
 11
596.20953563557634
 21
773.93895005627485
  0
LINE
  8
_1-0_
  6
CONTINUOUS
 62
    7
 10
596.20953563557634
 20
773.93895005627485
 11
596.52606595897305
 21
774.29878676720114
  0
LINE
  8
_1-0_
  6
CONTINUOUS
 62
    7
 10
596.52606595897305
 20
774.29878676720114
 11
596.8301292920205
 21
774.6713091876054
  0
LINE
  8
_1-0_
  6
CONTINUOUS
 62
    7
 10
596.8301292920205
 20
774.6713091876054
 11
597.12172563471859
 21
775.05660480513995
  0
LINE
  8
_1-0_
  6
CONTINUOUS
 62
    7
 10
597.12172563471859
 20
775.05660480513995
 11
597.40081124324138
 21
775.45449864450109
  0
LINE
  8
_1-0_
  6
CONTINUOUS
 62
    7
 10
597.40081124324138
 20
775.45449864450109
 11
597.65767498826426
 21
775.86770282288762
  0
LINE
  8
_1-0_
  6
CONTINUOUS
 62
    7
 10
597.65767498826426
 20
775.86770282288762
 11
597.88247450898507
 21
776.29849201924094
  0
LINE
  8
_1-0_
  6
CONTINUOUS
 62
    7
 10
597.88247450898507
 20
776.29849201924094
 11
598.07525354922973
 21
776.74704120886361
  0
LINE
  8
_1-0_
  6
CONTINUOUS
 62
    7
 10
598.07525354922973
 20
776.74704120886361
 11
598.23596836517208
 21
777.21317541645294
  0
LINE
  8
_1-0_
  6
CONTINUOUS
 62
    7
 10
598.23596836517208
 20
777.21317541645294
 11
598.36466270063829
 21
777.69706961731185
  0
LINE
  8
_1-0_
  6
CONTINUOUS
 62
    7
 10
598.36466270063829
 20
777.69706961731185
 11
598.46129281180242
 21
778.19863632378883
  0
LINE
  8
_1-0_
  6
CONTINUOUS
 62
    7
 10
598.46129281180242
 20
778.19863632378883
 11
598.52590244249029
 21
778.71787553588388
  0
LINE
  8
_1-0_
  6
CONTINUOUS
 62
    7
 10
598.52590244249029
 20
778.71787553588388
 11
598.55849159270178
 21
779.25478725359699
  0
LINE
  8
_1-0_
  6
CONTINUOUS
 62
    7
 10
597.00545454577593
 20
774.88049216252034
 11
598.34838999744534
 21
775.61705070112657
  0
LINE
  8
_1-0_
  6
CONTINUOUS
 62
    7
 10
598.34838999744534
 20
775.61705070112657
 11
599.58349691854937
 21
776.37495622671713
  0
LINE
  8
_1-0_
  6
CONTINUOUS
 62
    7
 10
599.58349691854937
 20
776.37495622671713
 11
600.71068782143607
 21
777.15420873929179
  0
LINE
  8
_1-0_
  6
CONTINUOUS
 62
    7
 10
600.71068782143607
 20
777.15420873929179
 11
601.73000644993124
 21
777.95498321415369
  0
LINE
  8
_1-0_
  6
CONTINUOUS
 62
    7
 10
601.73000644993124
 20
777.95498321415369
 11
602.64145280403511
 21
778.77710467599979
  0
LINE
  8
_1-0_
  6
CONTINUOUS
 62
    7
 10
602.64145280403511
 20
778.77710467599979
 11
603.44498313992176
 21
779.62057312483023
  0
LINE
  8
_1-0_
  6
CONTINUOUS
 62
    7
 10
603.44498313992176
 20
779.62057312483023
 11
604.14064120141688
 21
780.4854760482965
  0
LINE
  8
_1-0_
  6
CONTINUOUS
 62
    7
 10
604.14064120141688
 20
780.4854760482965
 11
604.7284269885206
 21
781.37181344639839
  0
LINE
  8
_1-0_
  6
CONTINUOUS
 62
    7
 10
604.7284269885206
 20
781.37181344639839
 11
605.23563664852418
 21
782.24520267206731
  0
LINE
  8
_1-0_
  6
CONTINUOUS
 62
    7
 10
605.23563664852418
 20
782.24520267206731
 11
605.68965381637042
 21
783.07152354118898
  0
LINE
  8
_1-0_
  6
CONTINUOUS
 62
    7
 10
605.68965381637042
 20
783.07152354118898
 11
606.09039100440771
 21
783.85060107846061
  0
LINE
  8
_1-0_
  6
CONTINUOUS
 62
    7
 10
606.09039100440771
 20
783.85060107846061
 11
606.43797944411347
 21
784.58252277153338
  0
LINE
  8
_1-0_
  6
CONTINUOUS
 62
    7
 10
606.43797944411347
 20
784.58252277153338
 11
606.73228790401026
 21
785.26728862040738
  0
LINE
  8
_1-0_
  6
CONTINUOUS
 62
    7
 10
606.73228790401026
 20
785.26728862040738
 11
606.97340387174972
 21
785.90489862508298
  0
LINE
  8
_1-0_
  6
CONTINUOUS
 62
    7
 10
606.97340387174972
 20
785.90489862508298
 11
607.16128360350604
 21
786.49526529790808
  0
LINE
  8
_1-0_
  6
CONTINUOUS
 62
    7
 10
607.16128360350604
 20
786.49526529790808
 11
607.29597084310512
 21
787.03856361418616
  0
LINE
  8
_1-0_
  6
CONTINUOUS
 62
    7
 10
607.29597084310512
 20
787.03856361418616
 11
607.39168233392775
 21
787.56576420257443
  0
LINE
  8
_1-0_
  6
CONTINUOUS
 62
    7
 10
607.39168233392775
 20
787.56576420257443
 11
607.4627660508321
 21
788.10801266703368
  0
LINE
  8
_1-0_
  6
CONTINUOUS
 62
    7
 10
607.4627660508321
 20
788.10801266703368
 11
607.50922199381819
 21
788.66539649521519
  0
LINE
  8
_1-0_
  6
CONTINUOUS
 62
    7
 10
607.50922199381819
 20
788.66539649521519
 11
607.531050162886
 21
789.23782819946746
  0
LINE
  8
_1-0_
  6
CONTINUOUS
 62
    7
 10
607.531050162886
 20
789.23782819946746
 11
607.52820681420985
 21
789.82539526744233
  0
LINE
  8
_1-0_
  6
CONTINUOUS
 62
    7
 10
607.52820681420985
 20
789.82539526744233
 11
607.50073569161543
 21
790.42801021148784
  0
LINE
  8
_1-0_
  6
CONTINUOUS
 62
    7
 10
607.50073569161543
 20
790.42801021148784
 11
607.44863679510274
 21
791.04567303160434
  0
LINE
  8
_1-0_
  6
CONTINUOUS
 62
    7
 10
607.44863679510274
 20
791.04567303160434
 11
607.37186638084609
 21
791.67838372779158
  0
LINE
  8
_1-0_
  6
CONTINUOUS
 62
    7
 10
607.37186638084609
 20
791.67838372779158
 11
607.26119450160445
 21
792.31940575087845
  0
LINE
  8
_1-0_
  6
CONTINUOUS
 62
    7
 10
607.26119450160445
 20
792.31940575087845
 11
607.10734746631044
 21
792.96200255169367
  0
LINE
  8
_1-0_
  6
CONTINUOUS
 62
    7
 10
607.10734746631044
 20
792.96200255169367
 11
606.91028153113871
 21
793.60599915493412
  0
LINE
  8
_1-0_
  6
CONTINUOUS
 62
    7
 10
606.91028153113871
 20
793.60599915493412
 11
606.66999669608913
 21
794.25139556059958
  0
LINE
  8
_1-0_
  6
CONTINUOUS
 62
    7
 10
606.66999669608913
 20
794.25139556059958
 11
606.38653670498775
 21
794.89836674399362
  0
LINE
  8
_1-0_
  6
CONTINUOUS
 62
    7
 10
606.38653670498775
 20
794.89836674399362
 11
606.05990155783388
 21
795.54682521746417
  0
LINE
  8
_1-0_
  6
CONTINUOUS
 62
    7
 10
606.05990155783388
 20
795.54682521746417
 11
605.69004751080251
 21
796.1967709810117
  0
LINE
  8
_1-0_
  6
CONTINUOUS
 62
    7
 10
605.69004751080251
 20
796.1967709810117
 11
605.27701830771889
 21
796.84811654698433
  0
LINE
  8
_1-0_
  6
CONTINUOUS
 62
    7
 10
605.27701830771889
 20
796.84811654698433
 11
604.76753396877461
 21
797.57295174027956
  0
LINE
  8
_1-0_
  6
CONTINUOUS
 62
    7
 10
604.76753396877461
 20
797.57295174027956
 11
604.24208313341762
 21
798.26445413832494
  0
LINE
  8
_1-0_
  6
CONTINUOUS
 62
    7
 10
604.24208313341762
 20
798.26445413832494
 11
603.70062205782256
 21
798.92279871642359
  0
LINE
  8
_1-0_
  6
CONTINUOUS
 62
    7
 10
603.70062205782256
 20
798.92279871642359
 11
603.14319448581523
 21
799.54781049927215
  0
LINE
  8
_1-0_
  6
CONTINUOUS
 62
    7
 10
603.14319448581523
 20
799.54781049927215
 11
602.56980041739553
 21
800.13966446217421
  0
LINE
  8
_1-0_
  6
CONTINUOUS
 62
    7
 10
602.56980041739553
 20
800.13966446217421
 11
601.98039610873775
 21
800.6982731174777
  0
LINE
  8
_1-0_
  6
CONTINUOUS
 62
    7
 10
601.98039610873775
 20
800.6982731174777
 11
601.3750253036676
 21
801.22354897753144
  0
LINE
  8
_1-0_
  6
CONTINUOUS
 62
    7
 10
601.3750253036676
 20
801.22354897753144
 11
600.75364425835915
 21
801.71566701763834
  0
LINE
  8
_1-0_
  6
CONTINUOUS
 62
    7
 10
600.75364425835915
 20
801.71566701763834
 11
600.10072391465826
 21
802.19256220637135
  0
LINE
  8
_1-0_
  6
CONTINUOUS
 62
    7
 10
600.10072391465826
 20
802.19256220637135
 11
599.40069147058443
 21
802.67243197525784
  0
LINE
  8
_1-0_
  6
CONTINUOUS
 62
    7
 10
599.40069147058443
 20
802.67243197525784
 11
598.65359066996336
 21
803.1551888366464
  0
LINE
  8
_1-0_
  6
CONTINUOUS
 62
    7
 10
598.65359066996336
 20
803.1551888366464
 11
597.85933402514365
 21
803.64092027818833
  0
LINE
  8
_1-0_
  6
CONTINUOUS
 62
    7
 10
597.85933402514365
 20
803.64092027818833
 11
597.01800902377681
 21
804.1294513245806
  0
LINE
  8
_1-0_
  6
CONTINUOUS
 62
    7
 10
597.01800902377681
 20
804.1294513245806
 11
596.12952817821133
 21
804.62095695112657
  0
LINE
  8
_1-0_
  6
CONTINUOUS
 62
    7
 10
596.12952817821133
 20
804.62095695112657
 11
595.19397897609883
 21
805.11543715782614
  0
LINE
  8
_1-0_
  6
CONTINUOUS
 62
    7
 10
595.19397897609883
 20
805.11543715782614
 11
594.21127392978747
 21
805.61280445702755
  0
LINE
  8
_1-0_
  6
CONTINUOUS
 62
    7
 10
594.21127392978747
 20
805.61280445702755
 11
593.18333776761187
 21
806.09556131841589
  0
LINE
  8
_1-0_
  6
CONTINUOUS
 62
    7
 10
593.18333776761187
 20
806.09556131841589
 11
592.11187649877832
 21
806.54621021167645
  0
LINE
  8
_1-0_
  6
CONTINUOUS
 62
    7
 10
592.11187649877832
 20
806.54621021167645
 11
590.99693386711215
 21
806.96483862446075
  0
LINE
  8
_1-0_
  6
CONTINUOUS
 62
    7
 10
590.99693386711215
 20
806.96483862446075
 11
589.83855361643907
 21
807.35135906911728
  0
LINE
  8
_1-0_
  6
CONTINUOUS
 62
    7
 10
589.83855361643907
 20
807.35135906911728
 11
588.63664825910757
 21
807.70585903329732
  0
LINE
  8
_1-0_
  6
CONTINUOUS
 62
    7
 10
588.63664825910757
 20
807.70585903329732
 11
587.39130528276951
 21
808.02825102934958
  0
LINE
  8
_1-0_
  6
CONTINUOUS
 62
    7
 10
587.39130528276951
 20
808.02825102934958
 11
586.10248094359872
 21
808.31862254492557
  0
LINE
  8
_1-0_
  6
CONTINUOUS
 62
    7
 10
586.10248094359872
 20
808.31862254492557
 11
584.77017524159555
 21
808.57679860472217
  0
LINE
  8
_1-0_
  6
CONTINUOUS
 62
    7
 10
584.77017524159555
 20
808.57679860472217
 11
583.42579624367488
 21
808.8038290605582
  0
LINE
  8
_1-0_
  6
CONTINUOUS
 62
    7
 10
583.42579624367488
 20
808.8038290605582
 11
582.10083950440389
 21
809.00041381364622
  0
LINE
  8
_1-0_
  6
CONTINUOUS
 62
    7
 10
582.10083950440389
 20
809.00041381364622
 11
580.79530502378248
 21
809.16655286398623
  0
LINE
  8
_1-0_
  6
CONTINUOUS
 62
    7
 10
580.79530502378248
 20
809.16655286398623
 11
579.5091490579847
 21
809.30224621157845
  0
LINE
  8
_1-0_
  6
CONTINUOUS
 62
    7
 10
579.5091490579847
 20
809.30224621157845
 11
578.24237160701091
 21
809.40758134407417
  0
LINE
  8
_1-0_
  6
CONTINUOUS
 62
    7
 10
578.24237160701091
 20
809.40758134407417
 11
576.99501641468657
 21
809.48238328617049
  0
LINE
  8
_1-0_
  6
CONTINUOUS
 62
    7
 10
576.99501641468657
 20
809.48238328617049
 11
575.767039737186
 21
809.5268270131703
  0
LINE
  8
_1-0_
  6
CONTINUOUS
 62
    7
 10
575.767039737186
 20
809.5268270131703
 11
574.55848531833476
 21
809.54082503742234
  0
LINE
  8
_1-0_
  6
CONTINUOUS
 62
    7
 10
574.55848531833476
 20
809.54082503742234
 11
573.3496684365291
 21
809.52700198847356
  0
LINE
  8
_1-0_
  6
CONTINUOUS
 62
    7
 10
573.3496684365291
 20
809.52700198847356
 11
572.12094811398993
 21
809.48308318738316
  0
LINE
  8
_1-0_
  6
CONTINUOUS
 62
    7
 10
572.12094811398993
 20
809.48308318738316
 11
570.87236809454362
 21
809.40906863415091
  0
LINE
  8
_1-0_
  6
CONTINUOUS
 62
    7
 10
570.87236809454362
 20
809.40906863415091
 11
569.60384089053832
 21
809.30504581642879
  0
LINE
  8
_1-0_
  6
CONTINUOUS
 62
    7
 10
569.60384089053832
 20
809.30504581642879
 11
568.31541024579963
 21
809.17083975891342
  0
LINE
  8
_1-0_
  6
CONTINUOUS
 62
    7
 10
568.31541024579963
 20
809.17083975891342
 11
567.00707616032787
 21
809.00662543690805
  0
LINE
  8
_1-0_
  6
CONTINUOUS
 62
    7
 10
567.00707616032787
 20
809.00662543690805
 11
565.67883863412271
 21
808.81231536276096
  0
LINE
  8
_1-0_
  6
CONTINUOUS
 62
    7
 10
565.67883863412271
 20
808.81231536276096
 11
564.33074141101031
 21
808.58790953647213
  0
LINE
  8
_1-0_
  6
CONTINUOUS
 62
    7
 10
564.33074141101031
 20
808.58790953647213
 11
562.99489245911809
 21
808.33209564326808
  0
LINE
  8
_1-0_
  6
CONTINUOUS
 62
    7
 10
562.99489245911809
 20
808.33209564326808
 11
561.70353097805196
 21
808.04356136837509
  0
LINE
  8
_1-0_
  6
CONTINUOUS
 62
    7
 10
561.70353097805196
 20
808.04356136837509
 11
560.45665696781111
 21
807.72221922414178
  0
LINE
  8
_1-0_
  6
CONTINUOUS
 62
    7
 10
560.45665696781111
 20
807.72221922414178
 11
559.25427042839601
 21
807.36806921056791
  0
LINE
  8
_1-0_
  6
CONTINUOUS
 62
    7
 10
559.25427042839601
 20
807.36806921056791
 11
558.09637135980665
 21
806.98119881530511
  0
LINE
  8
_1-0_
  6
CONTINUOUS
 62
    7
 10
558.09637135980665
 20
806.98119881530511
 11
556.98295976204292
 21
806.56152055070208
  0
LINE
  8
_1-0_
  6
CONTINUOUS
 62
    7
 10
556.98295976204292
 20
806.56152055070208
 11
555.91403563510494
 21
806.10903441675828
  0
LINE
  8
_1-0_
  6
CONTINUOUS
 62
    7
 10
555.91403563510494
 20
806.10903441675828
 11
554.88959897899258
 21
805.62391538877728
  0
LINE
  8
_1-0_
  6
CONTINUOUS
 62
    7
 10
554.88959897899258
 20
805.62391538877728
 11
553.91069964552469
 21
805.12392346002866
  0
LINE
  8
_1-0_
  6
CONTINUOUS
 62
    7
 10
553.91069964552469
 20
805.12392346002866
 11
552.97838748652043
 21
804.62725606203992
  0
LINE
  8
_1-0_
  6
CONTINUOUS
 62
    7
 10
552.97838748652043
 20
804.62725606203992
 11
552.09270624580529
 21
804.13382570715942
  0
LINE
  8
_1-0_
  6
CONTINUOUS
 62
    7
 10
552.09270624580529
 20
804.13382570715942
 11
551.25361217955356
 21
803.64363239538704
  0
LINE
  8
_1-0_
  6
CONTINUOUS
 62
    7
 10
551.25361217955356
 20
803.64363239538704
 11
550.46114903159128
 21
803.15676361437465
  0
LINE
  8
_1-0_
  6
CONTINUOUS
 62
    7
 10
550.46114903159128
 20
803.15676361437465
 11
549.71527305809218
 21
802.67313187647051
  0
LINE
  8
_1-0_
  6
CONTINUOUS
 62
    7
 10
549.71527305809218
 20
802.67313187647051
 11
549.01602800288265
 21
802.19282466932611
  0
LINE
  8
_1-0_
  6
CONTINUOUS
 62
    7
 10
549.01602800288265
 20
802.19282466932611
 11
548.36332637831049
 21
801.71566701763834
  0
LINE
  8
_1-0_
  6
CONTINUOUS
 62
    7
 10
548.36332637831049
 20
801.71566701763834
 11
547.74198907682785
 21
801.22354897753144
  0
LINE
  8
_1-0_
  6
CONTINUOUS
 62
    7
 10
547.74198907682785
 20
801.22354897753144
 11
547.1366182717577
 21
800.6982731174777
  0
LINE
  8
_1-0_
  6
CONTINUOUS
 62
    7
 10
547.1366182717577
 20
800.6982731174777
 11
546.54721396309981
 21
800.13966446217421
  0
LINE
  8
_1-0_
  6
CONTINUOUS
 62
    7
 10
546.54721396309981
 20
800.13966446217421
 11
545.97377615085429
 21
799.54789798692389
  0
LINE
  8
_1-0_
  6
CONTINUOUS
 62
    7
 10
545.97377615085429
 20
799.54789798692389
 11
545.41634857884696
 21
798.92279871642359
  0
LINE
  8
_1-0_
  6
CONTINUOUS
 62
    7
 10
545.41634857884696
 20
798.92279871642359
 11
544.87493124707782
 21
798.26445413832494
  0
LINE
  8
_1-0_
  6
CONTINUOUS
 62
    7
 10
544.87493124707782
 20
798.26445413832494
 11
544.34948041172106
 21
797.57295174027956
  0
LINE
  8
_1-0_
  6
CONTINUOUS
 62
    7
 10
544.34948041172106
 20
797.57295174027956
 11
543.83999607277644
 21
796.84811654698433
  0
LINE
  8
_1-0_
  6
CONTINUOUS
 62
    7
 10
543.83999607277644
 20
796.84811654698433
 11
543.42692312586723
 21
796.1967709810117
  0
LINE
  8
_1-0_
  6
CONTINUOUS
 62
    7
 10
543.42692312586723
 20
796.1967709810117
 11
543.05711282266145
 21
795.54682521746417
  0
LINE
  8
_1-0_
  6
CONTINUOUS
 62
    7
 10
543.05711282266145
 20
795.54682521746417
 11
542.73043393168211
 21
794.89836674399362
  0
LINE
  8
_1-0_
  6
CONTINUOUS
 62
    7
 10
542.73043393168211
 20
794.89836674399362
 11
542.44697394058051
 21
794.2514830482512
  0
LINE
  8
_1-0_
  6
CONTINUOUS
 62
    7
 10
542.44697394058051
 20
794.2514830482512
 11
542.20673284935674
 21
793.60599915493412
  0
LINE
  8
_1-0_
  6
CONTINUOUS
 62
    7
 10
542.20673284935674
 20
793.60599915493412
 11
542.009666914185
 21
792.96200255169367
  0
LINE
  8
_1-0_
  6
CONTINUOUS
 62
    7
 10
542.009666914185
 20
792.96200255169367
 11
541.8557761350653
 21
792.31949323852996
  0
LINE
  8
_1-0_
  6
CONTINUOUS
 62
    7
 10
541.8557761350653
 20
792.31949323852996
 11
541.74510425582355
 21
791.67838372779158
  0
LINE
  8
_1-0_
  6
CONTINUOUS
 62
    7
 10
541.74510425582355
 20
791.67838372779158
 11
541.66837758539259
 21
791.04567303160434
  0
LINE
  8
_1-0_
  6
CONTINUOUS
 62
    7
 10
541.66837758539259
 20
791.04567303160434
 11
541.6162349450542
 21
790.42801021148784
  0
LINE
  8
_1-0_
  6
CONTINUOUS
 62
    7
 10
541.6162349450542
 20
790.42801021148784
 11
541.58876382245978
 21
789.82539526744233
  0
LINE
  8
_1-0_
  6
CONTINUOUS
 62
    7
 10
541.58876382245978
 20
789.82539526744233
 11
541.58596421760933
 21
789.23782819946746
  0
LINE
  8
_1-0_
  6
CONTINUOUS
 62
    7
 10
541.58596421760933
 20
789.23782819946746
 11
541.60774864285145
 21
788.66539649521519
  0
LINE
  8
_1-0_
  6
CONTINUOUS
 62
    7
 10
541.60774864285145
 20
788.66539649521519
 11
541.65420458583753
 21
788.10801266703368
  0
LINE
  8
_1-0_
  6
CONTINUOUS
 62
    7
 10
541.65420458583753
 20
788.10801266703368
 11
541.72528830274189
 21
787.56576420257443
  0
LINE
  8
_1-0_
  6
CONTINUOUS
 62
    7
 10
541.72528830274189
 20
787.56576420257443
 11
541.82104353739021
 21
787.03856361418616
  0
LINE
  8
_1-0_
  6
CONTINUOUS
 62
    7
 10
541.82104353739021
 20
787.03856361418616
 11
541.93980802440274
 21
786.52081169216785
  0
LINE
  8
_1-0_
  6
CONTINUOUS
 62
    7
 10
541.93980802440274
 20
786.52081169216785
 11
542.0800069860511
 21
786.00699671447046
  0
LINE
  8
_1-0_
  6
CONTINUOUS
 62
    7
 10
542.0800069860511
 20
786.00699671447046
 11
542.24164042233497
 21
785.49694370579073
  0
LINE
  8
_1-0_
  6
CONTINUOUS
 62
    7
 10
542.24164042233497
 20
785.49694370579073
 11
542.42470833325478
 21
784.99082764143179
  0
LINE
  8
_1-0_
  6
CONTINUOUS
 62
    7
 10
542.42470833325478
 20
784.99082764143179
 11
542.62925446263603
 21
784.48864852139377
  0
LINE
  8
_1-0_
  6
CONTINUOUS
 62
    7
 10
542.62925446263603
 20
784.48864852139377
 11
542.8551913228273
 21
783.99031885802515
  0
LINE
  8
_1-0_
  6
CONTINUOUS
 62
    7
 10
542.8551913228273
 20
783.99031885802515
 11
543.10256265765452
 21
783.4958386513257
  0
LINE
  8
_1-0_
  6
CONTINUOUS
 62
    7
 10
543.10256265765452
 20
783.4958386513257
 11
543.37136846711724
 21
783.00520790129553
  0
LINE
  8
_1-0_
  6
CONTINUOUS
 62
    7
 10
543.37136846711724
 20
783.00520790129553
 11
543.66694549796193
 21
782.51308986118852
  0
LINE
  8
_1-0_
  6
CONTINUOUS
 62
    7
 10
543.66694549796193
 20
782.51308986118852
 11
543.99463049693452
 21
782.01406029660734
  0
LINE
  8
_1-0_
  6
CONTINUOUS
 62
    7
 10
543.99463049693452
 20
782.01406029660734
 11
544.35433597638337
 21
781.50820669520317
  0
LINE
  8
_1-0_
  6
CONTINUOUS
 62
    7
 10
544.35433597638337
 20
781.50820669520317
 11
544.7461931677858
 21
780.99535408167299
  0
LINE
  8
_1-0_
  6
CONTINUOUS
 62
    7
 10
544.7461931677858
 20
780.99535408167299
 11
545.17007083966462
 21
780.47567743132004
  0
LINE
  8
_1-0_
  6
CONTINUOUS
 62
    7
 10
545.17007083966462
 20
780.47567743132004
 11
545.62605647967132
 21
779.94908925649281
  0
LINE
  8
_1-0_
  6
CONTINUOUS
 62
    7
 10
545.62605647967132
 20
779.94908925649281
 11
546.11415008780568
 21
779.41558955719097
  0
LINE
  8
_1-0_
  6
CONTINUOUS
 62
    7
 10
546.11415008780568
 20
779.41558955719097
 11
546.63426417641654
 21
778.87517833341508
  0
LINE
  8
_1-0_
  6
CONTINUOUS
 62
    7
 10
546.63426417641654
 20
778.87517833341508
 11
547.18902337505085
 21
778.33695430092826
  0
LINE
  8
_1-0_
  6
CONTINUOUS
 62
    7
 10
547.18902337505085
 20
778.33695430092826
 11
547.78087733795269
 21
777.80984120019161
  0
LINE
  8
_1-0_
  6
CONTINUOUS
 62
    7
 10
547.78087733795269
 20
777.80984120019161
 11
548.40986980894809
 21
777.29375154355307
  0
LINE
  8
_1-0_
  6
CONTINUOUS
 62
    7
 10
548.40986980894809
 20
777.29375154355307
 11
549.07595704421112
 21
776.78886030631634
  0
LINE
  8
_1-0_
  6
CONTINUOUS
 62
    7
 10
549.07595704421112
 20
776.78886030631634
 11
549.77918278756749
 21
776.29508000082956
  0
LINE
  8
_1-0_
  6
CONTINUOUS
 62
    7
 10
549.77918278756749
 20
776.29508000082956
 11
550.5195032951915
 21
775.8124106270925
  0
LINE
  8
_1-0_
  6
CONTINUOUS
 62
    7
 10
550.5195032951915
 20
775.8124106270925
 11
551.29696231090884
 21
775.34093967275726
  0
LINE
  8
_1-0_
  6
CONTINUOUS
 62
    7
 10
551.29696231090884
 20
775.34093967275726
 11
552.1115160908937
 21
774.88049216252034
  0
LINE
  8
_1-0_
  6
CONTINUOUS
 62
    7
 10
598.55849159270178
 20
789.54079793687026
 11
598.53666342363397
 21
789.99932071877254
  0
LINE
  8
_1-0_
  6
CONTINUOUS
 62
    7
 10
598.53666342363397
 20
789.99932071877254
 11
598.49029496829928
 21
790.44419542702929
  0
LINE
  8
_1-0_
  6
CONTINUOUS
 62
    7
 10
598.49029496829928
 20
790.44419542702929
 11
598.41942997052399
 21
790.87550954929179
  0
LINE
  8
_1-0_
  6
CONTINUOUS
 62
    7
 10
598.41942997052399
 20
790.87550954929179
 11
598.32402468648183
 21
791.29326308556051
  0
LINE
  8
_1-0_
  6
CONTINUOUS
 62
    7
 10
598.32402468648183
 20
791.29326308556051
 11
598.20412285999907
 21
791.6975435234865
  0
LINE
  8
_1-0_
  6
CONTINUOUS
 62
    7
 10
598.20412285999907
 20
791.6975435234865
 11
598.05968074724944
 21
792.08817588776697
  0
LINE
  8
_1-0_
  6
CONTINUOUS
 62
    7
 10
598.05968074724944
 20
792.08817588776697
 11
597.89074209205887
 21
792.4652476660533
  0
LINE
  8
_1-0_
  6
CONTINUOUS
 62
    7
 10
597.89074209205887
 20
792.4652476660533
 11
597.69726315060188
 21
792.82875885834551
  0
LINE
  8
_1-0_
  6
CONTINUOUS
 62
    7
 10
597.69726315060188
 20
792.82875885834551
 11
597.48659288561021
 21
793.18045921767532
  0
LINE
  8
_1-0_
  6
CONTINUOUS
 62
    7
 10
597.48659288561021
 20
793.18045921767532
 11
597.26599277216496
 21
793.52209849707401
  0
LINE
  8
_1-0_
  6
CONTINUOUS
 62
    7
 10
597.26599277216496
 20
793.52209849707401
 11
597.03546281026604
 21
793.85358920889007
  0
LINE
  8
_1-0_
  6
CONTINUOUS
 62
    7
 10
597.03546281026604
 20
793.85358920889007
 11
596.79504674373902
 21
794.17493135312338
  0
LINE
  8
_1-0_
  6
CONTINUOUS
 62
    7
 10
596.79504674373902
 20
794.17493135312338
 11
596.54465708493262
 21
794.48621241742569
  0
LINE
  8
_1-0_
  6
CONTINUOUS
 62
    7
 10
596.54465708493262
 20
794.48621241742569
 11
596.28433757767255
 21
794.78734491414548
  0
LINE
  8
_1-0_
  6
CONTINUOUS
 62
    7
 10
596.28433757767255
 20
794.78734491414548
 11
596.01413196578449
 21
795.07832884328241
  0
LINE
  8
_1-0_
  6
CONTINUOUS
 62
    7
 10
596.01413196578449
 20
795.07832884328241
 11
595.73399650544275
 21
795.35925169248821
  0
LINE
  8
_1-0_
  6
CONTINUOUS
 62
    7
 10
595.73399650544275
 20
795.35925169248821
 11
595.42743977432542
 21
795.6416618317711
  0
LINE
  8
_1-0_
  6
CONTINUOUS
 62
    7
 10
595.42743977432542
 20
795.6416618317711
 11
595.07810158158816
 21
795.93693265583522
  0
LINE
  8
_1-0_
  6
CONTINUOUS
 62
    7
 10
595.07810158158816
 20
795.93693265583522
 11
594.68589443957944
 21
796.24515165233231
  0
LINE
  8
_1-0_
  6
CONTINUOUS
 62
    7
 10
594.68589443957944
 20
796.24515165233231
 11
594.25081834829916
 21
796.56640630891411
  0
LINE
  8
_1-0_
  6
CONTINUOUS
 62
    7
 10
594.25081834829916
 20
796.56640630891411
 11
593.77296079539883
 21
796.90052165027748
  0
LINE
  8
_1-0_
  6
CONTINUOUS
 62
    7
 10
593.77296079539883
 20
796.90052165027748
 11
593.25223429322705
 21
797.24767265172534
  0
LINE
  8
_1-0_
  6
CONTINUOUS
 62
    7
 10
593.25223429322705
 20
797.24767265172534
 11
592.6886825856094
 21
797.60777182560628
  0
LINE
  8
_1-0_
  6
CONTINUOUS
 62
    7
 10
592.6886825856094
 20
797.60777182560628
 11
592.08230567254623
 21
797.98073168426868
  0
LINE
  8
_1-0_
  6
CONTINUOUS
 62
    7
 10
592.08230567254623
 20
797.98073168426868
 11
591.42011163777829
 21
798.35552878361409
  0
LINE
  8
_1-0_
  6
CONTINUOUS
 62
    7
 10
591.42011163777829
 20
798.35552878361409
 11
590.68919605269855
 21
798.72061475363466
  0
LINE
  8
_1-0_
  6
CONTINUOUS
 62
    7
 10
590.68919605269855
 20
798.72061475363466
 11
589.889558917307
 21
799.07625205728539
  0
LINE
  8
_1-0_
  6
CONTINUOUS
 62
    7
 10
589.889558917307
 20
799.07625205728539
 11
589.02120023160364
 21
799.42226571926267
  0
LINE
  8
_1-0_
  6
CONTINUOUS
 62
    7
 10
589.02120023160364
 20
799.42226571926267
 11
588.08407625176278
 21
799.75874322721847
  0
LINE
  8
_1-0_
  6
CONTINUOUS
 62
    7
 10
588.08407625176278
 20
799.75874322721847
 11
587.07823072160988
 21
800.08559709350106
  0
LINE
  8
_1-0_
  6
CONTINUOUS
 62
    7
 10
587.07823072160988
 20
800.08559709350106
 11
586.00366364114529
 21
800.40291480576207
  0
LINE
  8
_1-0_
  6
CONTINUOUS
 62
    7
 10
586.00366364114529
 20
800.40291480576207
 11
584.86033126654308
 21
800.71069636400136
  0
LINE
  8
_1-0_
  6
CONTINUOUS
 62
    7
 10
584.86033126654308
 20
800.71069636400136
 11
583.66892442740073
 21
800.99441881805774
  0
LINE
  8
_1-0_
  6
CONTINUOUS
 62
    7
 10
583.66892442740073
 20
800.99441881805774
 11
582.44995897801232
 21
801.23955921776974
  0
LINE
  8
_1-0_
  6
CONTINUOUS
 62
    7
 10
582.44995897801232
 20
801.23955921776974
 11
581.20347866220357
 21
801.44620505078876
  0
LINE
  8
_1-0_
  6
CONTINUOUS
 62
    7
 10
581.20347866220357
 20
801.44620505078876
 11
579.92952722380051
 21
801.61435631711515
  0
LINE
  8
_1-0_
  6
CONTINUOUS
 62
    7
 10
579.92952722380051
 20
801.61435631711515
 11
578.62801717515151
 21
801.74401301674857
  0
LINE
  8
_1-0_
  6
CONTINUOUS
 62
    7
 10
578.62801717515151
 20
801.74401301674857
 11
577.2990360039081
 21
801.83508766203772
  0
LINE
  8
_1-0_
  6
CONTINUOUS
 62
    7
 10
577.2990360039081
 20
801.83508766203772
 11
575.94253996624445
 21
801.88766774063401
  0
LINE
  8
_1-0_
  6
CONTINUOUS
 62
    7
 10
575.94253996624445
 20
801.88766774063401
 11
574.55848531833476
 21
801.90175325253745
  0
LINE
  8
_1-0_
  6
CONTINUOUS
 62
    7
 10
574.55848531833476
 20
801.90175325253745
 11
573.18772879346454
 21
801.8928295120769
  0
LINE
  8
_1-0_
  6
CONTINUOUS
 62
    7
 10
573.18772879346454
 20
801.8928295120769
 11
571.87493283776234
 21
801.85258519235265
  0
LINE
  8
_1-0_
  6
CONTINUOUS
 62
    7
 10
571.87493283776234
 20
801.85258519235265
 11
570.6200974512285
 21
801.78110778101609
  0
LINE
  8
_1-0_
  6
CONTINUOUS
 62
    7
 10
570.6200974512285
 20
801.78110778101609
 11
569.42326637768838
 21
801.67822230276442
  0
LINE
  8
_1-0_
  6
CONTINUOUS
 62
    7
 10
569.42326637768838
 20
801.67822230276442
 11
568.2843521294908
 21
801.54401624524905
  0
LINE
  8
_1-0_
  6
CONTINUOUS
 62
    7
 10
568.2843521294908
 20
801.54401624524905
 11
567.20348593811264
 21
801.37848960847009
  0
LINE
  8
_1-0_
  6
CONTINUOUS
 62
    7
 10
567.20348593811264
 20
801.37848960847009
 11
566.18053657207702
 21
801.18164239242731
  0
LINE
  8
_1-0_
  6
CONTINUOUS
 62
    7
 10
566.18053657207702
 20
801.18164239242731
 11
565.21554777520964
 21
800.95338710946919
  0
LINE
  8
_1-0_
  6
CONTINUOUS
 62
    7
 10
565.21554777520964
 20
800.95338710946919
 11
564.30825708455563
 21
800.7125336046845
  0
LINE
  8
_1-0_
  6
CONTINUOUS
 62
    7
 10
564.30825708455563
 20
800.7125336046845
 11
563.45835829333453
 21
800.47762926020664
  0
LINE
  8
_1-0_
  6
CONTINUOUS
 62
    7
 10
563.45835829333453
 20
800.47762926020664
 11
562.66580765772051
 21
800.24858658838457
  0
LINE
  8
_1-0_
  6
CONTINUOUS
 62
    7
 10
562.66580765772051
 20
800.24858658838457
 11
561.93064892153939
 21
800.02558056452085
  0
LINE
  8
_1-0_
  6
CONTINUOUS
 62
    7
 10
561.93064892153939
 20
800.02558056452085
 11
561.25288208479117
 21
799.80852370096443
  0
LINE
  8
_1-0_
  6
CONTINUOUS
 62
    7
 10
561.25288208479117
 20
799.80852370096443
 11
560.63246340365026
 21
799.59732851006356
  0
LINE
  8
_1-0_
  6
CONTINUOUS
 62
    7
 10
560.63246340365026
 20
799.59732851006356
 11
560.06943662194203
 21
799.39216996712105
  0
LINE
  8
_1-0_
  6
CONTINUOUS
 62
    7
 10
560.06943662194203
 20
799.39216996712105
 11
559.56375799584112
 21
799.19287309683432
  0
LINE
  8
_1-0_
  6
CONTINUOUS
 62
    7
 10
559.56375799584112
 20
799.19287309683432
 11
559.09211206620262
 21
798.99366371419887
  0
LINE
  8
_1-0_
  6
CONTINUOUS
 62
    7
 10
559.09211206620262
 20
798.99366371419887
 11
558.63118337388198
 21
798.7885926589081
  0
LINE
  8
_1-0_
  6
CONTINUOUS
 62
    7
 10
558.63118337388198
 20
798.7885926589081
 11
558.1808844312277
 21
798.577659930962
  0
LINE
  8
_1-0_
  6
CONTINUOUS
 62
    7
 10
558.1808844312277
 20
798.577659930962
 11
557.74130272589127
 21
798.36095301801163
  0
LINE
  8
_1-0_
  6
CONTINUOUS
 62
    7
 10
557.74130272589127
 20
798.36095301801163
 11
557.3123507702212
 21
798.13829694475442
  0
LINE
  8
_1-0_
  6
CONTINUOUS
 62
    7
 10
557.3123507702212
 20
798.13829694475442
 11
556.8941160518691
 21
797.90977919884176
  0
LINE
  8
_1-0_
  6
CONTINUOUS
 62
    7
 10
556.8941160518691
 20
797.90977919884176
 11
556.48655482700883
 21
797.67548726792495
  0
LINE
  8
_1-0_
  6
CONTINUOUS
 62
    7
 10
556.48655482700883
 20
797.67548726792495
 11
556.08966709564083
 21
797.43524617670118
  0
LINE
  8
_1-0_
  6
CONTINUOUS
 62
    7
 10
556.08966709564083
 20
797.43524617670118
 11
555.7047651725386
 21
797.19010577698918
  0
LINE
  8
_1-0_
  6
CONTINUOUS
 62
    7
 10
555.7047651725386
 20
797.19010577698918
 11
555.33316137247562
 21
796.94076597000173
  0
LINE
  8
_1-0_
  6
CONTINUOUS
 62
    7
 10
555.33316137247562
 20
796.94076597000173
 11
554.97485569545211
 21
796.68748921869337
  0
LINE
  8
_1-0_
  6
CONTINUOUS
 62
    7
 10
554.97485569545211
 20
796.68748921869337
 11
554.62989188529355
 21
796.43001306010945
  0
LINE
  8
_1-0_
  6
CONTINUOUS
 62
    7
 10
554.62989188529355
 20
796.43001306010945
 11
554.29822619817423
 21
796.16842498190158
  0
LINE
  8
_1-0_
  6
CONTINUOUS
 62
    7
 10
554.29822619817423
 20
796.16842498190158
 11
553.9798586340944
 21
795.90281247172118
  0
LINE
  8
_1-0_
  6
CONTINUOUS
 62
    7
 10
553.9798586340944
 20
795.90281247172118
 11
553.67478919305404
 21
795.63308804191684
  0
LINE
  8
_1-0_
  6
CONTINUOUS
 62
    7
 10
553.67478919305404
 20
795.63308804191684
 11
553.3830178750527
 21
795.35925169248821
  0
LINE
  8
_1-0_
  6
CONTINUOUS
 62
    7
 10
553.3830178750527
 20
795.35925169248821
 11
553.10283867088515
 21
795.07832884328241
  0
LINE
  8
_1-0_
  6
CONTINUOUS
 62
    7
 10
553.10283867088515
 20
795.07832884328241
 11
552.83263305899709
 21
794.78734491414548
  0
LINE
  8
_1-0_
  6
CONTINUOUS
 62
    7
 10
552.83263305899709
 20
794.78734491414548
 11
552.57231355173701
 21
794.48621241742569
  0
LINE
  8
_1-0_
  6
CONTINUOUS
 62
    7
 10
552.57231355173701
 20
794.48621241742569
 11
552.32196763675643
 21
794.17493135312338
  0
LINE
  8
_1-0_
  6
CONTINUOUS
 62
    7
 10
552.32196763675643
 20
794.17493135312338
 11
552.08150782640371
 21
793.85358920889007
  0
LINE
  8
_1-0_
  6
CONTINUOUS
 62
    7
 10
552.08150782640371
 20
793.85358920889007
 11
551.85097786450478
 21
793.52209849707401
  0
LINE
  8
_1-0_
  6
CONTINUOUS
 62
    7
 10
551.85097786450478
 20
793.52209849707401
 11
551.63037775105954
 21
793.18045921767532
  0
LINE
  8
_1-0_
  6
CONTINUOUS
 62
    7
 10
551.63037775105954
 20
793.18045921767532
 11
551.41970748606798
 21
792.82875885834551
  0
LINE
  8
_1-0_
  6
CONTINUOUS
 62
    7
 10
551.41970748606798
 20
792.82875885834551
 11
551.22622854461065
 21
792.4652476660533
  0
LINE
  8
_1-0_
  6
CONTINUOUS
 62
    7
 10
551.22622854461065
 20
792.4652476660533
 11
551.05728988942019
 21
792.08817588776697
  0
LINE
  8
_1-0_
  6
CONTINUOUS
 62
    7
 10
551.05728988942019
 20
792.08817588776697
 11
550.91289152049649
 21
791.6975435234865
  0
LINE
  8
_1-0_
  6
CONTINUOUS
 62
    7
 10
550.91289152049649
 20
791.6975435234865
 11
550.7929459501878
 21
791.29326308556051
  0
LINE
  8
_1-0_
  6
CONTINUOUS
 62
    7
 10
550.7929459501878
 20
791.29326308556051
 11
550.69758440997145
 21
790.87550954929179
  0
LINE
  8
_1-0_
  6
CONTINUOUS
 62
    7
 10
550.69758440997145
 20
790.87550954929179
 11
550.62667566837035
 21
790.44419542702929
  0
LINE
  8
_1-0_
  6
CONTINUOUS
 62
    7
 10
550.62667566837035
 20
790.44419542702929
 11
550.58035095686148
 21
789.99932071877254
  0
LINE
  8
_1-0_
  6
CONTINUOUS
 62
    7
 10
550.58035095686148
 20
789.99932071877254
 11
550.55847904396785
 21
789.54079793687026
  0
LINE
  8
_1-0_
  6
CONTINUOUS
 62
    7
 10
550.55847904396785
 20
789.54079793687026
 11
550.55847904396785
 21
779.25478725359699
  0
LINE
  8
_1-0_
  6
CONTINUOUS
 62
    7
 10
598.55849159270178
 20
789.54079793687026
 11
598.55849159270178
 21
779.25478725359699
  0
LINE
  8
_1-0_
  6
CONTINUOUS
 62
    7
 10
1348.5670318014372
 20
589.54083313813078
 11
1284.5670150697922
 21
589.54083313813078
  0
LINE
  8
_1-0_
  6
CONTINUOUS
 62
    7
 10
1284.5670150697922
 20
589.54083313813078
 11
1284.5670150697922
 21
659.44324802707979
  0
LINE
  8
_1-0_
  6
CONTINUOUS
 62
    7
 10
1284.5670150697922
 20
659.44324802707979
 11
1348.5670318014372
 21
659.44324802707979
  0
LINE
  8
_1-0_
  6
CONTINUOUS
 62
    7
 10
1348.5670318014372
 20
659.44324802707979
 11
1348.5670318014372
 21
589.54083313813078
  0
LINE
  8
_1-0_
  6
CONTINUOUS
 62
    7
 10
1300.4058669985031
 20
717.81505290145572
 11
1300.4058669985031
 21
659.44324802707979
  0
LINE
  8
_1-0_
  6
CONTINUOUS
 62
    7
 10
1332.4058753643258
 20
717.81505290145572
 11
1332.4058753643258
 21
659.44324802707979
  0
LINE
  8
_1-0_
  6
CONTINUOUS
 62
    7
 10
1332.4058753643258
 20
700.44324234185524
 11
1332.3738548838494
 21
701.33351668427804
  0
LINE
  8
_1-0_
  6
CONTINUOUS
 62
    7
 10
1332.3738548838494
 20
701.33351668427804
 11
1332.2902166889439
 21
702.20240029589081
  0
LINE
  8
_1-0_
  6
CONTINUOUS
 62
    7
 10
1332.2902166889439
 20
702.20240029589081
 11
1332.1548732919582
 21
703.04993692051949
  0
LINE
  8
_1-0_
  6
CONTINUOUS
 62
    7
 10
1332.1548732919582
 20
703.04993692051949
 11
1331.967999668195
 21
703.87612655816383
  0
LINE
  8
_1-0_
  6
CONTINUOUS
 62
    7
 10
1331.967999668195
 20
703.87612655816383
 11
1331.7294208423509
 21
704.68096920882408
  0
LINE
  8
_1-0_
  6
CONTINUOUS
 62
    7
 10
1331.7294208423509
 20
704.68096920882408
 11
1331.4392243020782
 21
705.46442112867442
  0
LINE
  8
_1-0_
  6
CONTINUOUS
 62
    7
 10
1331.4392243020782
 20
705.46442112867442
 11
1331.0973225597249
 21
706.22652606154031
  0
LINE
  8
_1-0_
  6
CONTINUOUS
 62
    7
 10
1331.0973225597249
 20
706.22652606154031
 11
1330.703890590594
 21
706.96732775124804
  0
LINE
  8
_1-0_
  6
CONTINUOUS
 62
    7
 10
1330.703890590594
 20
706.96732775124804
 11
1330.2707392276484
 21
707.68109575661913
  0
LINE
  8
_1-0_
  6
CONTINUOUS
 62
    7
 10
1330.2707392276484
 20
707.68109575661913
 11
1329.809941766805
 21
708.3622308679528
  0
LINE
  8
_1-0_
  6
CONTINUOUS
 62
    7
 10
1329.809941766805
 20
708.3622308679528
 11
1329.3214107204128
 21
709.0107768290751
  0
LINE
  8
_1-0_
  6
CONTINUOUS
 62
    7
 10
1329.3214107204128
 20
709.0107768290751
 11
1328.8053210637745
 21
709.62664615233416
  0
LINE
  8
_1-0_
  6
CONTINUOUS
 62
    7
 10
1328.8053210637745
 20
709.62664615233416
 11
1328.261497821587
 21
710.20992632538196
  0
LINE
  8
_1-0_
  6
CONTINUOUS
 62
    7
 10
1328.261497821587
 20
710.20992632538196
 11
1327.6900284815017
 21
710.76057360439222
  0
LINE
  8
_1-0_
  6
CONTINUOUS
 62
    7
 10
1327.6900284815017
 20
710.76057360439222
 11
1327.0909130435191
 21
711.27854424553948
  0
LINE
  8
_1-0_
  6
CONTINUOUS
 62
    7
 10
1327.0909130435191
 20
711.27854424553948
 11
1326.4641515076389
 21
711.76392573647513
  0
LINE
  8
_1-0_
  6
CONTINUOUS
 62
    7
 10
1326.4641515076389
 20
711.76392573647513
 11
1325.8225170709911
 21
712.21435591060686
  0
LINE
  8
_1-0_
  6
CONTINUOUS
 62
    7
 10
1325.8225170709911
 20
712.21435591060686
 11
1325.1790453936601
 21
712.6275600889935
  0
LINE
  8
_1-0_
  6
CONTINUOUS
 62
    7
 10
1325.1790453936601
 20
712.6275600889935
 11
1324.5336489879946
 21
713.00349452780938
  0
LINE
  8
_1-0_
  6
CONTINUOUS
 62
    7
 10
1324.5336489879946
 20
713.00349452780938
 11
1323.8864153416462
 21
713.34215922705448
  0
LINE
  8
_1-0_
  6
CONTINUOUS
 62
    7
 10
1323.8864153416462
 20
713.34215922705448
 11
1323.2372569669628
 21
713.64359793055473
  0
LINE
  8
_1-0_
  6
CONTINUOUS
 62
    7
 10
1323.2372569669628
 20
713.64359793055473
 11
1322.5861738639449
 21
713.90776689448398
  0
LINE
  8
_1-0_
  6
CONTINUOUS
 62
    7
 10
1322.5861738639449
 20
713.90776689448398
 11
1321.9332535202439
 21
714.13470986266839
  0
LINE
  8
_1-0_
  6
CONTINUOUS
 62
    7
 10
1321.9332535202439
 20
714.13470986266839
 11
1321.2784084482082
 21
714.32438309128213
  0
LINE
  8
_1-0_
  6
CONTINUOUS
 62
    7
 10
1321.2784084482082
 20
714.32438309128213
 11
1320.6283751970091
 21
714.48474795661832
  0
LINE
  8
_1-0_
  6
CONTINUOUS
 62
    7
 10
1320.6283751970091
 20
714.48474795661832
 11
1319.9901527787729
 21
714.62372209114449
  0
LINE
  8
_1-0_
  6
CONTINUOUS
 62
    7
 10
1319.9901527787729
 20
714.62372209114449
 11
1319.3635662181955
 21
714.74139298251225
  0
LINE
  8
_1-0_
  6
CONTINUOUS
 62
    7
 10
1319.3635662181955
 20
714.74139298251225
 11
1318.7486155152781
 21
714.83762939924429
  0
LINE
  8
_1-0_
  6
CONTINUOUS
 62
    7
 10
1318.7486155152781
 20
714.83762939924429
 11
1318.1453881576715
 21
714.91256257281793
  0
LINE
  8
_1-0_
  6
CONTINUOUS
 62
    7
 10
1318.1453881576715
 20
714.91256257281793
 11
1317.5538841453758
 21
714.96610501558166
  0
LINE
  8
_1-0_
  6
CONTINUOUS
 62
    7
 10
1317.5538841453758
 20
714.96610501558166
 11
1316.9740159907394
 21
714.99830047136106
  0
LINE
  8
_1-0_
  6
CONTINUOUS
 62
    7
 10
1316.9740159907394
 20
714.99830047136106
 11
1316.4058711814143
 21
715.00910519633055
  0
LINE
  8
_1-0_
  6
CONTINUOUS
 62
    7
 10
1316.4058711814143
 20
715.00910519633055
 11
1315.837551396786
 21
714.99825672753536
  0
LINE
  8
_1-0_
  6
CONTINUOUS
 62
    7
 10
1315.837551396786
 20
714.99825672753536
 11
1315.2572458038917
 21
714.96597378410434
  0
LINE
  8
_1-0_
  6
CONTINUOUS
 62
    7
 10
1315.2572458038917
 20
714.96597378410434
 11
1314.6649544027321
 21
714.91225636603747
  0
LINE
  8
_1-0_
  6
CONTINUOUS
 62
    7
 10
1314.6649544027321
 20
714.91225636603747
 11
1314.0605897056548
 21
714.83706072950906
  0
LINE
  8
_1-0_
  6
CONTINUOUS
 62
    7
 10
1314.0605897056548
 20
714.83706072950906
 11
1313.4441517126606
 21
714.74047436217074
  0
LINE
  8
_1-0_
  6
CONTINUOUS
 62
    7
 10
1313.4441517126606
 20
714.74047436217074
 11
1312.8158153990521
 21
714.62245352019659
  0
LINE
  8
_1-0_
  6
CONTINUOUS
 62
    7
 10
1312.8158153990521
 20
714.62245352019659
 11
1312.1754057895262
 21
714.48299820358682
  0
LINE
  8
_1-0_
  6
CONTINUOUS
 62
    7
 10
1312.1754057895262
 20
714.48299820358682
 11
1311.5230103717345
 21
714.3220646685154
  0
LINE
  8
_1-0_
  6
CONTINUOUS
 62
    7
 10
1311.5230103717345
 20
714.3220646685154
 11
1310.8756892377344
 21
714.13912798907302
  0
LINE
  8
_1-0_
  6
CONTINUOUS
 62
    7
 10
1310.8756892377344
 20
714.13912798907302
 11
1310.2506774548856
 21
713.93353200787271
  0
LINE
  8
_1-0_
  6
CONTINUOUS
 62
    7
 10
1310.2506774548856
 20
713.93353200787271
 11
1309.6480625108402
 21
713.70532046874041
  0
LINE
  8
_1-0_
  6
CONTINUOUS
 62
    7
 10
1309.6480625108402
 20
713.70532046874041
 11
1309.0676694302945
 21
713.45440588402471
  0
LINE
  8
_1-0_
  6
CONTINUOUS
 62
    7
 10
1309.0676694302945
 20
713.45440588402471
 11
1308.5095857009003
 21
713.18087574137678
  0
LINE
  8
_1-0_
  6
CONTINUOUS
 62
    7
 10
1308.5095857009003
 20
713.18087574137678
 11
1307.973723835006
 21
712.88473004079697
  0
LINE
  8
_1-0_
  6
CONTINUOUS
 62
    7
 10
1307.973723835006
 20
712.88473004079697
 11
1307.4602588079151
 21
712.56588129463341
  0
LINE
  8
_1-0_
  6
CONTINUOUS
 62
    7
 10
1307.4602588079151
 20
712.56588129463341
 11
1306.9691031319755
 21
712.22441699053786
  0
LINE
  8
_1-0_
  6
CONTINUOUS
 62
    7
 10
1306.9691031319755
 20
712.22441699053786
 11
1306.4948325727896
 21
711.86667998324947
  0
LINE
  8
_1-0_
  6
CONTINUOUS
 62
    7
 10
1306.4948325727896
 20
711.86667998324947
 11
1306.0321978712634
 21
711.49901312750728
  0
LINE
  8
_1-0_
  6
CONTINUOUS
 62
    7
 10
1306.0321978712634
 20
711.49901312750728
 11
1305.5812865150481
 21
711.12146016713734
  0
LINE
  8
_1-0_
  6
CONTINUOUS
 62
    7
 10
1305.5812865150481
 20
711.12146016713734
 11
1305.142011016492
 21
710.7339773583135
  0
LINE
  8
_1-0_
  6
CONTINUOUS
 62
    7
 10
1305.142011016492
 20
710.7339773583135
 11
1304.714283887944
 21
710.33656470103608
  0
LINE
  8
_1-0_
  6
CONTINUOUS
 62
    7
 10
1304.714283887944
 20
710.33656470103608
 11
1304.2982801047071
 21
709.9293096829565
  0
LINE
  8
_1-0_
  6
CONTINUOUS
 62
    7
 10
1304.2982801047071
 20
709.9293096829565
 11
1303.8939121791293
 21
709.51208107259743
  0
LINE
  8
_1-0_
  6
CONTINUOUS
 62
    7
 10
1303.8939121791293
 20
709.51208107259743
 11
1303.5010926235598
 21
709.08496635761037
  0
LINE
  8
_1-0_
  6
CONTINUOUS
 62
    7
 10
1303.5010926235598
 20
709.08496635761037
 11
1303.1262955242141
 21
708.64206012151408
  0
LINE
  8
_1-0_
  6
CONTINUOUS
 62
    7
 10
1303.1262955242141
 20
708.64206012151408
 11
1302.7757325043549
 21
708.1774132040016
  0
LINE
  8
_1-0_
  6
CONTINUOUS
 62
    7
 10
1302.7757325043549
 20
708.1774132040016
 11
1302.4494035639816
 21
707.69106934889862
  0
LINE
  8
_1-0_
  6
CONTINUOUS
 62
    7
 10
1302.4494035639816
 20
707.69106934889862
 11
1302.1473961907463
 21
707.18302855620504
  0
LINE
  8
_1-0_
  6
CONTINUOUS
 62
    7
 10
1302.1473961907463
 20
707.18302855620504
 11
1301.8695354093456
 21
706.65329082592109
  0
LINE
  8
_1-0_
  6
CONTINUOUS
 62
    7
 10
1301.8695354093456
 20
706.65329082592109
 11
1301.6159961950825
 21
706.10181241422083
  0
LINE
  8
_1-0_
  6
CONTINUOUS
 62
    7
 10
1301.6159961950825
 20
706.10181241422083
 11
1301.3866035726539
 21
705.52863706492997
  0
LINE
  8
_1-0_
  6
CONTINUOUS
 62
    7
 10
1301.3866035726539
 20
705.52863706492997
 11
1301.1815325173632
 21
704.93372103422303
  0
LINE
  8
_1-0_
  6
CONTINUOUS
 62
    7
 10
1301.1815325173632
 20
704.93372103422303
 11
1301.0006080539069
 21
704.33355574442146
  0
LINE
  8
_1-0_
  6
CONTINUOUS
 62
    7
 10
1301.0006080539069
 20
704.33355574442146
 11
1300.843655206982
 21
703.74445764254415
  0
LINE
  8
_1-0_
  6
CONTINUOUS
 62
    7
 10
1300.843655206982
 20
703.74445764254415
 11
1300.7106739765889
 21
703.16647047241668
  0
LINE
  8
_1-0_
  6
CONTINUOUS
 62
    7
 10
1300.7106739765889
 20
703.16647047241668
 11
1300.6016643627268
 21
702.59963797786509
  0
LINE
  8
_1-0_
  6
CONTINUOUS
 62
    7
 10
1300.6016643627268
 20
702.59963797786509
 11
1300.5167138530478
 21
702.04387267123775
  0
LINE
  8
_1-0_
  6
CONTINUOUS
 62
    7
 10
1300.5167138530478
 20
702.04387267123775
 11
1300.4558224475522
 21
701.49921829636025
  0
LINE
  8
_1-0_
  6
CONTINUOUS
 62
    7
 10
1300.4558224475522
 20
701.49921829636025
 11
1300.4188151709359
 21
700.96567485323271
  0
LINE
  8
_1-0_
  6
CONTINUOUS
 62
    7
 10
1300.4188151709359
 20
700.96567485323271
 11
1300.4058669985031
 21
700.44324234185524
  0
LINE
  8
_1-0_
  6
CONTINUOUS
 62
    7
 10
1300.4058669985031
 20
700.44324234185524
 11
1300.4378874789793
 21
699.55301174325825
  0
LINE
  8
_1-0_
  6
CONTINUOUS
 62
    7
 10
1300.4378874789793
 20
699.55301174325825
 11
1300.5216131615362
 21
698.68412813164559
  0
LINE
  8
_1-0_
  6
CONTINUOUS
 62
    7
 10
1300.5216131615362
 20
698.68412813164559
 11
1300.6568690708705
 21
697.83654776319111
  0
LINE
  8
_1-0_
  6
CONTINUOUS
 62
    7
 10
1300.6568690708705
 20
697.83654776319111
 11
1300.8438301822853
 21
697.01040186937246
  0
LINE
  8
_1-0_
  6
CONTINUOUS
 62
    7
 10
1300.8438301822853
 20
697.01040186937246
 11
1301.0824090081292
 21
696.20555921871232
  0
LINE
  8
_1-0_
  6
CONTINUOUS
 62
    7
 10
1301.0824090081292
 20
696.20555921871232
 11
1301.3726055484019
 21
695.42206355503617
  0
LINE
  8
_1-0_
  6
CONTINUOUS
 62
    7
 10
1301.3726055484019
 20
695.42206355503617
 11
1301.7145072907554
 21
694.65995862217017
  0
LINE
  8
_1-0_
  6
CONTINUOUS
 62
    7
 10
1301.7145072907554
 20
694.65995862217017
 11
1302.1079392598861
 21
693.91920067628826
  0
LINE
  8
_1-0_
  6
CONTINUOUS
 62
    7
 10
1302.1079392598861
 20
693.91920067628826
 11
1302.5410906228319
 21
693.20538892709146
  0
LINE
  8
_1-0_
  6
CONTINUOUS
 62
    7
 10
1302.5410906228319
 20
693.20538892709146
 11
1303.0018880836751
 21
692.52425381575767
  0
LINE
  8
_1-0_
  6
CONTINUOUS
 62
    7
 10
1303.0018880836751
 20
692.52425381575767
 11
1303.4903316424161
 21
691.87575159846119
  0
LINE
  8
_1-0_
  6
CONTINUOUS
 62
    7
 10
1303.4903316424161
 20
691.87575159846119
 11
1304.0065087867058
 21
691.25983853137632
  0
LINE
  8
_1-0_
  6
CONTINUOUS
 62
    7
 10
1304.0065087867058
 20
691.25983853137632
 11
1304.5503320288933
 21
690.67660210215433
  0
LINE
  8
_1-0_
  6
CONTINUOUS
 62
    7
 10
1304.5503320288933
 20
690.67660210215433
 11
1305.1218013689786
 21
690.12595482314407
  0
LINE
  8
_1-0_
  6
CONTINUOUS
 62
    7
 10
1305.1218013689786
 20
690.12595482314407
 11
1305.720916806961
 21
689.60794043817123
  0
LINE
  8
_1-0_
  6
CONTINUOUS
 62
    7
 10
1305.720916806961
 20
689.60794043817123
 11
1306.3476783428414
 21
689.12255894723546
  0
LINE
  8
_1-0_
  6
CONTINUOUS
 62
    7
 10
1306.3476783428414
 20
689.12255894723546
 11
1306.989312779489
 21
688.67212877310385
  0
LINE
  8
_1-0_
  6
CONTINUOUS
 62
    7
 10
1306.989312779489
 20
688.67212877310385
 11
1307.63278445682
 21
688.25892459471697
  0
LINE
  8
_1-0_
  6
CONTINUOUS
 62
    7
 10
1307.63278445682
 20
688.25892459471697
 11
1308.278093374834
 21
687.8829901559011
  0
LINE
  8
_1-0_
  6
CONTINUOUS
 62
    7
 10
1308.278093374834
 20
687.8829901559011
 11
1308.9254145088341
 21
687.54432545665611
  0
LINE
  8
_1-0_
  6
CONTINUOUS
 62
    7
 10
1308.9254145088341
 20
687.54432545665611
 11
1309.5745728835175
 21
687.24288675315597
  0
LINE
  8
_1-0_
  6
CONTINUOUS
 62
    7
 10
1309.5745728835175
 20
687.24288675315597
 11
1310.2256559865352
 21
686.97871778922649
  0
LINE
  8
_1-0_
  6
CONTINUOUS
 62
    7
 10
1310.2256559865352
 20
686.97871778922649
 11
1310.8785763302365
 21
686.7518185648679
  0
LINE
  8
_1-0_
  6
CONTINUOUS
 62
    7
 10
1310.8785763302365
 20
686.7518185648679
 11
1311.5334214022721
 21
686.56214533625416
  0
LINE
  8
_1-0_
  6
CONTINUOUS
 62
    7
 10
1311.5334214022721
 20
686.56214533625416
 11
1312.1833671658194
 21
686.40178047091797
  0
LINE
  8
_1-0_
  6
CONTINUOUS
 62
    7
 10
1312.1833671658194
 20
686.40178047091797
 11
1312.8216770717074
 21
686.26276259256599
  0
LINE
  8
_1-0_
  6
CONTINUOUS
 62
    7
 10
1312.8216770717074
 20
686.26276259256599
 11
1313.4482636322846
 21
686.14513544502404
  0
LINE
  8
_1-0_
  6
CONTINUOUS
 62
    7
 10
1313.4482636322846
 20
686.14513544502404
 11
1314.0632143352022
 21
686.04885528446619
  0
LINE
  8
_1-0_
  6
CONTINUOUS
 62
    7
 10
1314.0632143352022
 20
686.04885528446619
 11
1314.6663542051574
 21
685.97392211089254
  0
LINE
  8
_1-0_
  6
CONTINUOUS
 62
    7
 10
1314.6663542051574
 20
685.97392211089254
 11
1315.2579457051045
 21
685.92037966812893
  0
LINE
  8
_1-0_
  6
CONTINUOUS
 62
    7
 10
1315.2579457051045
 20
685.92037966812893
 11
1315.837726372089
 21
685.88822795617534
  0
LINE
  8
_1-0_
  6
CONTINUOUS
 62
    7
 10
1315.837726372089
 20
685.88822795617534
 11
1316.4058711814143
 21
685.87737948738004
  0
LINE
  8
_1-0_
  6
CONTINUOUS
 62
    7
 10
1316.4058711814143
 20
685.87737948738004
 11
1316.9741909660429
 21
685.88822795617534
  0
LINE
  8
_1-0_
  6
CONTINUOUS
 62
    7
 10
1316.9741909660429
 20
685.88822795617534
 11
1317.5545840465884
 21
685.92055464343207
  0
LINE
  8
_1-0_
  6
CONTINUOUS
 62
    7
 10
1317.5545840465884
 20
685.92055464343207
 11
1318.1468754477482
 21
685.97427206149882
  0
LINE
  8
_1-0_
  6
CONTINUOUS
 62
    7
 10
1318.1468754477482
 20
685.97427206149882
 11
1318.7512401448253
 21
686.04942395420142
  0
LINE
  8
_1-0_
  6
CONTINUOUS
 62
    7
 10
1318.7512401448253
 20
686.04942395420142
 11
1319.367590650168
 21
686.14601032153973
  0
LINE
  8
_1-0_
  6
CONTINUOUS
 62
    7
 10
1319.367590650168
 20
686.14601032153973
 11
1319.9960144514282
 21
686.2640749073397
  0
LINE
  8
_1-0_
  6
CONTINUOUS
 62
    7
 10
1319.9960144514282
 20
686.2640749073397
 11
1320.6364240609539
 21
686.40353022394947
  0
LINE
  8
_1-0_
  6
CONTINUOUS
 62
    7
 10
1320.6364240609539
 20
686.40353022394947
 11
1321.2888194787456
 21
686.56442001519508
  0
LINE
  8
_1-0_
  6
CONTINUOUS
 62
    7
 10
1321.2888194787456
 20
686.56442001519508
 11
1321.9361406127459
 21
686.74735669463757
  0
LINE
  8
_1-0_
  6
CONTINUOUS
 62
    7
 10
1321.9361406127459
 20
686.74735669463757
 11
1322.5610649079429
 21
686.95295267583776
  0
LINE
  8
_1-0_
  6
CONTINUOUS
 62
    7
 10
1322.5610649079429
 20
686.95295267583776
 11
1323.1637673396401
 21
687.18120795879588
  0
LINE
  8
_1-0_
  6
CONTINUOUS
 62
    7
 10
1323.1637673396401
 20
687.18120795879588
 11
1323.7441604201856
 21
687.432078799686
  0
LINE
  8
_1-0_
  6
CONTINUOUS
 62
    7
 10
1323.7441604201856
 20
687.432078799686
 11
1324.30224414958
 21
687.7056089423337
  0
LINE
  8
_1-0_
  6
CONTINUOUS
 62
    7
 10
1324.30224414958
 20
687.7056089423337
 11
1324.8380185278224
 21
688.00179838673944
  0
LINE
  8
_1-0_
  6
CONTINUOUS
 62
    7
 10
1324.8380185278224
 20
688.00179838673944
 11
1325.3515710425652
 21
688.32060338907706
  0
LINE
  8
_1-0_
  6
CONTINUOUS
 62
    7
 10
1325.3515710425652
 20
688.32060338907706
 11
1325.8427267185048
 21
688.66206769317273
  0
LINE
  8
_1-0_
  6
CONTINUOUS
 62
    7
 10
1325.8427267185048
 20
688.66206769317273
 11
1326.3169972776905
 21
689.01984844428682
  0
LINE
  8
_1-0_
  6
CONTINUOUS
 62
    7
 10
1326.3169972776905
 20
689.01984844428682
 11
1326.779544491565
 21
689.3874715562032
  0
LINE
  8
_1-0_
  6
CONTINUOUS
 62
    7
 10
1326.779544491565
 20
689.3874715562032
 11
1327.2305433354322
 21
689.76506826039906
  0
LINE
  8
_1-0_
  6
CONTINUOUS
 62
    7
 10
1327.2305433354322
 20
689.76506826039906
 11
1327.6698188339881
 21
690.1525510692228
  0
LINE
  8
_1-0_
  6
CONTINUOUS
 62
    7
 10
1327.6698188339881
 20
690.1525510692228
 11
1328.0975459625361
 21
690.5499199826744
  0
LINE
  8
_1-0_
  6
CONTINUOUS
 62
    7
 10
1328.0975459625361
 20
690.5499199826744
 11
1328.5135497457732
 21
690.95721874457979
  0
LINE
  8
_1-0_
  6
CONTINUOUS
 62
    7
 10
1328.5135497457732
 20
690.95721874457979
 11
1328.917917671351
 21
691.37440361111317
  0
LINE
  8
_1-0_
  6
CONTINUOUS
 62
    7
 10
1328.917917671351
 20
691.37440361111317
 11
1329.3106497392691
 21
691.80151832610022
  0
LINE
  8
_1-0_
  6
CONTINUOUS
 62
    7
 10
1329.3106497392691
 20
691.80151832610022
 11
1329.6854468386143
 21
692.24442456219651
  0
LINE
  8
_1-0_
  6
CONTINUOUS
 62
    7
 10
1329.6854468386143
 20
692.24442456219651
 11
1330.0360098584738
 21
692.70907147970888
  0
LINE
  8
_1-0_
  6
CONTINUOUS
 62
    7
 10
1330.0360098584738
 20
692.70907147970888
 11
1330.3623387988468
 21
693.19541533481197
  0
LINE
  8
_1-0_
  6
CONTINUOUS
 62
    7
 10
1330.3623387988468
 20
693.19541533481197
 11
1330.6644336597337
 21
693.70345612750543
  0
LINE
  8
_1-0_
  6
CONTINUOUS
 62
    7
 10
1330.6644336597337
 20
693.70345612750543
 11
1330.9422944411347
 21
694.2332376016152
  0
LINE
  8
_1-0_
  6
CONTINUOUS
 62
    7
 10
1330.9422944411347
 20
694.2332376016152
 11
1331.1958336553976
 21
694.78467226948976
  0
LINE
  8
_1-0_
  6
CONTINUOUS
 62
    7
 10
1331.1958336553976
 20
694.78467226948976
 11
1331.425138790175
 21
695.35789136260632
  0
LINE
  8
_1-0_
  6
CONTINUOUS
 62
    7
 10
1331.425138790175
 20
695.35789136260632
 11
1331.6302973331171
 21
695.95276364948757
  0
LINE
  8
_1-0_
  6
CONTINUOUS
 62
    7
 10
1331.6302973331171
 20
695.95276364948757
 11
1331.8112217965734
 21
696.55297268311483
  0
LINE
  8
_1-0_
  6
CONTINUOUS
 62
    7
 10
1331.8112217965734
 20
696.55297268311483
 11
1331.9681746434981
 21
697.14202704116644
  0
LINE
  8
_1-0_
  6
CONTINUOUS
 62
    7
 10
1331.9681746434981
 20
697.14202704116644
 11
1332.1011558738915
 21
697.7200142112938
  0
LINE
  8
_1-0_
  6
CONTINUOUS
 62
    7
 10
1332.1011558738915
 20
697.7200142112938
 11
1332.2100780001017
 21
698.2868904496712
  0
LINE
  8
_1-0_
  6
CONTINUOUS
 62
    7
 10
1332.2100780001017
 20
698.2868904496712
 11
1332.2950285097806
 21
698.84265575629854
  0
LINE
  8
_1-0_
  6
CONTINUOUS
 62
    7
 10
1332.2950285097806
 20
698.84265575629854
 11
1332.3560074029278
 21
699.38726638735034
  0
LINE
  8
_1-0_
  6
CONTINUOUS
 62
    7
 10
1332.3560074029278
 20
699.38726638735034
 11
1332.3929271918926
 21
699.92080983047776
  0
LINE
  8
_1-0_
  6
CONTINUOUS
 62
    7
 10
1332.3929271918926
 20
699.92080983047776
 11
1332.4058753643258
 21
700.44324234185524
  0
LINE
  8
_1-0_
  6
CONTINUOUS
 62
    7
 10
765.27531038380039
 20
380.07273596686275
 11
765.18029879419032
 21
380.07273596686275
  0
LINE
  8
_1-0_
  6
CONTINUOUS
 62
    7
 10
762.11035710043893
 20
370.07272241658683
 11
761.64089836208973
 21
370.07272241658683
  0
LINE
  8
_1-0_
  6
CONTINUOUS
 62
    7
 10
387.89776275516942
 20
379.57803704103441
 11
387.99273060095345
 21
379.57803704103441
  0
LINE
  8
_1-0_
  6
CONTINUOUS
 62
    7
 10
598.55849159270178
 20
405.76090396601262
 11
598.55849159270178
 21
561.54084768994892
  0
LINE
  8
_1-0_
  6
CONTINUOUS
 62
    7
 10
598.55849159270178
 20
561.54084768994892
 11
550.55847904396785
 21
561.54084768994892
  0
LINE
  8
_1-0_
  6
CONTINUOUS
 62
    7
 10
550.55847904396785
 20
561.54084768994892
 11
550.55847904396785
 21
405.54082877847679
  0
LINE
  8
_1-0_
  6
CONTINUOUS
 62
    7
 10
598.55849159270178
 20
403.57165671683646
 11
598.55849159270178
 21
403.57104430327536
  0
LINE
  8
_1-0_
  6
CONTINUOUS
 62
    7
 10
548.90299395704812
 20
553.54893820626398
 11
548.90299395704812
 21
557.54082477230816
  0
LINE
  8
_1-0_
  6
CONTINUOUS
 62
    7
 10
548.90299395704812
 20
557.54082477230816
 11
547.88385030385598
 21
557.54082477230816
  0
LINE
  8
_1-0_
  6
CONTINUOUS
 62
    7
 10
547.88385030385598
 20
557.54082477230816
 11
547.88385030385598
 21
561.54084768994892
  0
LINE
  8
_1-0_
  6
CONTINUOUS
 62
    7
 10
547.88385030385598
 20
561.54084768994892
 11
601.88385348522525
 21
561.54084768994892
  0
LINE
  8
_1-0_
  6
CONTINUOUS
 62
    7
 10
601.88385348522525
 20
561.54084768994892
 11
601.88385348522525
 21
557.54082477230816
  0
LINE
  8
_1-0_
  6
CONTINUOUS
 62
    7
 10
601.88385348522525
 20
557.54082477230816
 11
600.90302942342282
 21
557.54082477230816
  0
LINE
  8
_1-0_
  6
CONTINUOUS
 62
    7
 10
600.90302942342282
 20
557.54082477230816
 11
600.90302942342282
 21
553.54893820626398
  0
LINE
  8
_1-0_
  6
CONTINUOUS
 62
    7
 10
600.90302942342282
 20
553.54893820626398
 11
548.90299395704812
 21
553.54893820626398
  0
LINE
  8
_1-0_
  6
CONTINUOUS
 62
    7
 10
548.50300041404921
 20
557.54082477230816
 11
600.90302942342282
 21
557.54082477230816
  0
LINE
  8
_1-0_
  6
CONTINUOUS
 62
    7
 10
547.99377853805947
 20
507.50173752832598
 11
550.6685822534746
 21
509.57703211132616
  0
LINE
  8
_1-0_
  6
CONTINUOUS
 62
    7
 10
550.6685822534746
 20
509.57703211132616
 11
599.25633684548632
 21
511.38457073668246
  0
LINE
  8
_1-0_
  6
CONTINUOUS
 62
    7
 10
599.25633684548632
 20
511.38457073668246
 11
600.63050538876814
 21
509.45988614586787
  0
LINE
  8
_1-0_
  6
CONTINUOUS
 62
    7
 10
600.63050538876814
 20
509.45988614586787
 11
597.95565792952721
 21
507.38459156286757
  0
LINE
  8
_1-0_
  6
CONTINUOUS
 62
    7
 10
597.95565792952721
 20
507.38459156286757
 11
549.36790333751549
 21
505.57705293751127
  0
LINE
  8
_1-0_
  6
CONTINUOUS
 62
    7
 10
549.36790333751549
 20
505.57705293751127
 11
547.99377853805947
 21
507.50173752832598
  0
LINE
  8
_1-0_
  6
CONTINUOUS
 62
    7
 10
547.99377853805947
 20
502.50173075318793
 11
550.6685822534746
 21
504.57706908001398
  0
LINE
  8
_1-0_
  6
CONTINUOUS
 62
    7
 10
550.6685822534746
 20
504.57706908001398
 11
599.25633684548632
 21
506.38456396154453
  0
LINE
  8
_1-0_
  6
CONTINUOUS
 62
    7
 10
599.25633684548632
 20
506.38456396154453
 11
600.63050538876814
 21
504.45987937072982
  0
LINE
  8
_1-0_
  6
CONTINUOUS
 62
    7
 10
600.63050538876814
 20
504.45987937072982
 11
597.95565792952721
 21
502.38458478772964
  0
LINE
  8
_1-0_
  6
CONTINUOUS
 62
    7
 10
597.95565792952721
 20
502.38458478772964
 11
549.36790333751549
 21
500.57704616237334
  0
LINE
  8
_1-0_
  6
CONTINUOUS
 62
    7
 10
549.36790333751549
 20
500.57704616237334
 11
547.99377853805947
 21
502.50173075318793
  0
LINE
  8
_1-0_
  6
CONTINUOUS
 62
    7
 10
547.99377853805947
 20
497.50172397804994
 11
550.6685822534746
 21
499.57706230487599
  0
LINE
  8
_1-0_
  6
CONTINUOUS
 62
    7
 10
550.6685822534746
 20
499.57706230487599
 11
599.25633684548632
 21
501.38460093023235
  0
LINE
  8
_1-0_
  6
CONTINUOUS
 62
    7
 10
599.25633684548632
 20
501.38460093023235
 11
600.63050538876814
 21
499.45991633941765
  0
LINE
  8
_1-0_
  6
CONTINUOUS
 62
    7
 10
600.63050538876814
 20
499.45991633941765
 11
597.95565792952721
 21
497.38457801259159
  0
LINE
  8
_1-0_
  6
CONTINUOUS
 62
    7
 10
597.95565792952721
 20
497.38457801259159
 11
549.36790333751549
 21
495.57703938723529
  0
LINE
  8
_1-0_
  6
CONTINUOUS
 62
    7
 10
549.36790333751549
 20
495.57703938723529
 11
547.99377853805947
 21
497.50172397804994
  0
LINE
  8
_1-0_
  6
CONTINUOUS
 62
    7
 10
547.99377853805947
 20
492.50171720291189
 11
550.6685822534746
 21
494.577055529738
  0
LINE
  8
_1-0_
  6
CONTINUOUS
 62
    7
 10
550.6685822534746
 20
494.577055529738
 11
599.25633684548632
 21
496.38459415509431
  0
LINE
  8
_1-0_
  6
CONTINUOUS
 62
    7
 10
599.25633684548632
 20
496.38459415509431
 11
600.63050538876814
 21
494.45990956427966
  0
LINE
  8
_1-0_
  6
CONTINUOUS
 62
    7
 10
600.63050538876814
 20
494.45990956427966
 11
597.95565792952721
 21
492.38457123745366
  0
LINE
  8
_1-0_
  6
CONTINUOUS
 62
    7
 10
597.95565792952721
 20
492.38457123745366
 11
549.36790333751549
 21
490.5770326120973
  0
LINE
  8
_1-0_
  6
CONTINUOUS
 62
    7
 10
549.36790333751549
 20
490.5770326120973
 11
547.99377853805947
 21
492.50171720291189
  0
LINE
  8
_1-0_
  6
CONTINUOUS
 62
    7
 10
547.99377853805947
 20
487.50175417159971
 11
550.6685822534746
 21
489.57704875460001
  0
LINE
  8
_1-0_
  6
CONTINUOUS
 62
    7
 10
550.6685822534746
 20
489.57704875460001
 11
599.25633684548632
 21
491.38458737995626
  0
LINE
  8
_1-0_
  6
CONTINUOUS
 62
    7
 10
599.25633684548632
 20
491.38458737995626
 11
600.63050538876814
 21
489.45990278914167
  0
LINE
  8
_1-0_
  6
CONTINUOUS
 62
    7
 10
600.63050538876814
 20
489.45990278914167
 11
597.95565792952721
 21
487.38456446231561
  0
LINE
  8
_1-0_
  6
CONTINUOUS
 62
    7
 10
597.95565792952721
 20
487.38456446231561
 11
549.36790333751549
 21
485.57706958078506
  0
LINE
  8
_1-0_
  6
CONTINUOUS
 62
    7
 10
549.36790333751549
 20
485.57706958078506
 11
547.99377853805947
 21
487.50175417159971
  0
LINE
  8
_1-0_
  6
CONTINUOUS
 62
    7
 10
547.99377853805947
 20
482.50174739646172
 11
550.6685822534746
 21
484.57704197946202
  0
LINE
  8
_1-0_
  6
CONTINUOUS
 62
    7
 10
550.6685822534746
 20
484.57704197946202
 11
599.25633684548632
 21
486.38458060481832
  0
LINE
  8
_1-0_
  6
CONTINUOUS
 62
    7
 10
599.25633684548632
 20
486.38458060481832
 11
600.63050538876814
 21
484.45989601400362
  0
LINE
  8
_1-0_
  6
CONTINUOUS
 62
    7
 10
600.63050538876814
 20
484.45989601400362
 11
597.95565792952721
 21
482.38460143100338
  0
LINE
  8
_1-0_
  6
CONTINUOUS
 62
    7
 10
597.95565792952721
 20
482.38460143100338
 11
549.36790333751549
 21
480.57706280564707
  0
LINE
  8
_1-0_
  6
CONTINUOUS
 62
    7
 10
549.36790333751549
 20
480.57706280564707
 11
547.99377853805947
 21
482.50174739646172
  0
LINE
  8
_1-0_
  6
CONTINUOUS
 62
    7
 10
547.99377853805947
 20
477.50174062132373
 11
550.6685822534746
 21
479.57703520432398
  0
LINE
  8
_1-0_
  6
CONTINUOUS
 62
    7
 10
550.6685822534746
 20
479.57703520432398
 11
599.25633684548632
 21
481.38457382968028
  0
LINE
  8
_1-0_
  6
CONTINUOUS
 62
    7
 10
599.25633684548632
 20
481.38457382968028
 11
600.63050538876814
 21
479.45988923886569
  0
LINE
  8
_1-0_
  6
CONTINUOUS
 62
    7
 10
600.63050538876814
 20
479.45988923886569
 11
597.95565792952721
 21
477.38459465586538
  0
LINE
  8
_1-0_
  6
CONTINUOUS
 62
    7
 10
597.95565792952721
 20
477.38459465586538
 11
549.36790333751549
 21
475.57705603050908
  0
LINE
  8
_1-0_
  6
CONTINUOUS
 62
    7
 10
549.36790333751549
 20
475.57705603050908
 11
547.99377853805947
 21
477.50174062132373
  0
LINE
  8
_1-0_
  6
CONTINUOUS
 62
    7
 10
547.99377853805947
 20
472.50173384618569
 11
550.6685822534746
 21
474.57707217301174
  0
LINE
  8
_1-0_
  6
CONTINUOUS
 62
    7
 10
550.6685822534746
 20
474.57707217301174
 11
599.25633684548632
 21
476.38456705454234
  0
LINE
  8
_1-0_
  6
CONTINUOUS
 62
    7
 10
599.25633684548632
 20
476.38456705454234
 11
600.63050538876814
 21
474.45988246372764
  0
LINE
  8
_1-0_
  6
CONTINUOUS
 62
    7
 10
600.63050538876814
 20
474.45988246372764
 11
597.95565792952721
 21
472.38458788072739
  0
LINE
  8
_1-0_
  6
CONTINUOUS
 62
    7
 10
597.95565792952721
 20
472.38458788072739
 11
549.36790333751549
 21
470.57704925537109
  0
LINE
  8
_1-0_
  6
CONTINUOUS
 62
    7
 10
549.36790333751549
 20
470.57704925537109
 11
547.99377853805947
 21
472.50173384618569
  0
LINE
  8
_1-0_
  6
CONTINUOUS
 62
    7
 10
547.99377853805947
 20
467.50172707104775
 11
550.6685822534746
 21
469.57706539787381
  0
LINE
  8
_1-0_
  6
CONTINUOUS
 62
    7
 10
550.6685822534746
 20
469.57706539787381
 11
599.25633684548632
 21
471.38460402323011
  0
LINE
  8
_1-0_
  6
CONTINUOUS
 62
    7
 10
599.25633684548632
 20
471.38460402323011
 11
600.63050538876814
 21
469.4598756885897
  0
LINE
  8
_1-0_
  6
CONTINUOUS
 62
    7
 10
600.63050538876814
 20
469.4598756885897
 11
597.95565792952721
 21
467.3845811055894
  0
LINE
  8
_1-0_
  6
CONTINUOUS
 62
    7
 10
597.95565792952721
 20
467.3845811055894
 11
549.36790333751549
 21
465.57704248023305
  0
LINE
  8
_1-0_
  6
CONTINUOUS
 62
    7
 10
549.36790333751549
 20
465.57704248023305
 11
547.99377853805947
 21
467.50172707104775
  0
LINE
  8
_1-0_
  6
CONTINUOUS
 62
    7
 10
547.99377853805947
 20
462.50172029590971
 11
550.6685822534746
 21
464.57705862273576
  0
LINE
  8
_1-0_
  6
CONTINUOUS
 62
    7
 10
550.6685822534746
 20
464.57705862273576
 11
599.25633684548632
 21
466.38459724809206
  0
LINE
  8
_1-0_
  6
CONTINUOUS
 62
    7
 10
599.25633684548632
 20
466.38459724809206
 11
600.63050538876814
 21
464.45991265727741
  0
LINE
  8
_1-0_
  6
CONTINUOUS
 62
    7
 10
600.63050538876814
 20
464.45991265727741
 11
597.95565792952721
 21
462.38457433045136
  0
LINE
  8
_1-0_
  6
CONTINUOUS
 62
    7
 10
597.95565792952721
 20
462.38457433045136
 11
549.36790333751549
 21
460.57703570509511
  0
LINE
  8
_1-0_
  6
CONTINUOUS
 62
    7
 10
549.36790333751549
 20
460.57703570509511
 11
547.99377853805947
 21
462.50172029590971
  0
LINE
  8
_1-0_
  6
CONTINUOUS
 62
    7
 10
547.99377853805947
 20
457.50175726459753
 11
550.6685822534746
 21
459.57705184759777
  0
LINE
  8
_1-0_
  6
CONTINUOUS
 62
    7
 10
550.6685822534746
 20
459.57705184759777
 11
599.25633684548632
 21
461.38459047295407
  0
LINE
  8
_1-0_
  6
CONTINUOUS
 62
    7
 10
599.25633684548632
 20
461.38459047295407
 11
600.63050538876814
 21
459.45990588213942
  0
LINE
  8
_1-0_
  6
CONTINUOUS
 62
    7
 10
600.63050538876814
 20
459.45990588213942
 11
597.95565792952721
 21
457.38456755531337
  0
LINE
  8
_1-0_
  6
CONTINUOUS
 62
    7
 10
597.95565792952721
 20
457.38456755531337
 11
549.36790333751549
 21
455.57707267378282
  0
LINE
  8
_1-0_
  6
CONTINUOUS
 62
    7
 10
549.36790333751549
 20
455.57707267378282
 11
547.99377853805947
 21
457.50175726459753
  0
LINE
  8
_1-0_
  6
CONTINUOUS
 62
    7
 10
547.99377853805947
 20
452.50175048945948
 11
550.6685822534746
 21
454.57704507245978
  0
LINE
  8
_1-0_
  6
CONTINUOUS
 62
    7
 10
550.6685822534746
 20
454.57704507245978
 11
599.25633684548632
 21
456.38458369781608
  0
LINE
  8
_1-0_
  6
CONTINUOUS
 62
    7
 10
599.25633684548632
 20
456.38458369781608
 11
600.63050538876814
 21
454.45989910700143
  0
LINE
  8
_1-0_
  6
CONTINUOUS
 62
    7
 10
600.63050538876814
 20
454.45989910700143
 11
597.95565792952721
 21
452.38460452400119
  0
LINE
  8
_1-0_
  6
CONTINUOUS
 62
    7
 10
597.95565792952721
 20
452.38460452400119
 11
549.36790333751549
 21
450.57706589864489
  0
LINE
  8
_1-0_
  6
CONTINUOUS
 62
    7
 10
549.36790333751549
 20
450.57706589864489
 11
547.99377853805947
 21
452.50175048945948
  0
LINE
  8
_1-0_
  6
CONTINUOUS
 62
    7
 10
547.99377853805947
 20
447.50174371432149
 11
550.6685822534746
 21
449.57703829732174
  0
LINE
  8
_1-0_
  6
CONTINUOUS
 62
    7
 10
550.6685822534746
 20
449.57703829732174
 11
599.25633684548632
 21
451.38457692267809
  0
LINE
  8
_1-0_
  6
CONTINUOUS
 62
    7
 10
599.25633684548632
 20
451.38457692267809
 11
600.63050538876814
 21
449.45989233186344
  0
LINE
  8
_1-0_
  6
CONTINUOUS
 62
    7
 10
600.63050538876814
 20
449.45989233186344
 11
597.95565792952721
 21
447.38459774886314
  0
LINE
  8
_1-0_
  6
CONTINUOUS
 62
    7
 10
597.95565792952721
 20
447.38459774886314
 11
549.36790333751549
 21
445.57705912350684
  0
LINE
  8
_1-0_
  6
CONTINUOUS
 62
    7
 10
549.36790333751549
 20
445.57705912350684
 11
547.99377853805947
 21
447.50174371432149
  0
LINE
  8
_1-0_
  6
CONTINUOUS
 62
    7
 10
547.99377853805947
 20
442.5017369391835
 11
550.6685822534746
 21
444.5770315221838
  0
LINE
  8
_1-0_
  6
CONTINUOUS
 62
    7
 10
550.6685822534746
 20
444.5770315221838
 11
599.25633684548632
 21
446.3845701475401
  0
LINE
  8
_1-0_
  6
CONTINUOUS
 62
    7
 10
599.25633684548632
 20
446.3845701475401
 11
600.63050538876814
 21
444.45988555672545
  0
LINE
  8
_1-0_
  6
CONTINUOUS
 62
    7
 10
600.63050538876814
 20
444.45988555672545
 11
597.95565792952721
 21
442.38459097372521
  0
LINE
  8
_1-0_
  6
CONTINUOUS
 62
    7
 10
597.95565792952721
 20
442.38459097372521
 11
549.36790333751549
 21
440.57705234836885
  0
LINE
  8
_1-0_
  6
CONTINUOUS
 62
    7
 10
549.36790333751549
 20
440.57705234836885
 11
547.99377853805947
 21
442.5017369391835
  0
LINE
  8
_1-0_
  6
CONTINUOUS
 62
    7
 10
547.99377853805947
 20
437.50173016404551
 11
550.6685822534746
 21
439.57706849087162
  0
LINE
  8
_1-0_
  6
CONTINUOUS
 62
    7
 10
550.6685822534746
 20
439.57706849087162
 11
599.25633684548632
 21
441.38456337240206
  0
LINE
  8
_1-0_
  6
CONTINUOUS
 62
    7
 10
599.25633684548632
 20
441.38456337240206
 11
600.63050538876814
 21
439.45987878158746
  0
LINE
  8
_1-0_
  6
CONTINUOUS
 62
    7
 10
600.63050538876814
 20
439.45987878158746
 11
597.95565792952721
 21
437.38458419858716
  0
LINE
  8
_1-0_
  6
CONTINUOUS
 62
    7
 10
597.95565792952721
 20
437.38458419858716
 11
549.36790333751549
 21
435.57704557323086
  0
LINE
  8
_1-0_
  6
CONTINUOUS
 62
    7
 10
549.36790333751549
 20
435.57704557323086
 11
547.99377853805947
 21
437.50173016404551
  0
LINE
  8
_1-0_
  6
CONTINUOUS
 62
    7
 10
547.99377853805947
 20
432.50172338890752
 11
550.6685822534746
 21
434.57706171573358
  0
LINE
  8
_1-0_
  6
CONTINUOUS
 62
    7
 10
550.6685822534746
 20
434.57706171573358
 11
599.25633684548632
 21
436.38460034108988
  0
LINE
  8
_1-0_
  6
CONTINUOUS
 62
    7
 10
599.25633684548632
 20
436.38460034108988
 11
600.63050538876814
 21
434.45991575027517
  0
LINE
  8
_1-0_
  6
CONTINUOUS
 62
    7
 10
600.63050538876814
 20
434.45991575027517
 11
597.95565792952721
 21
432.38457742344912
  0
LINE
  8
_1-0_
  6
CONTINUOUS
 62
    7
 10
597.95565792952721
 20
432.38457742344912
 11
549.36790333751549
 21
430.57703879809281
  0
LINE
  8
_1-0_
  6
CONTINUOUS
 62
    7
 10
549.36790333751549
 20
430.57703879809281
 11
547.99377853805947
 21
432.50172338890752
  0
LINE
  8
_1-0_
  6
CONTINUOUS
 62
    7
 10
547.99377853805947
 20
427.50171661376953
 11
550.6685822534746
 21
429.57705494059553
  0
LINE
  8
_1-0_
  6
CONTINUOUS
 62
    7
 10
550.6685822534746
 20
429.57705494059553
 11
599.25633684548632
 21
431.38459356595183
  0
LINE
  8
_1-0_
  6
CONTINUOUS
 62
    7
 10
599.25633684548632
 20
431.38459356595183
 11
600.63050538876814
 21
429.45990897513724
  0
LINE
  8
_1-0_
  6
CONTINUOUS
 62
    7
 10
600.63050538876814
 20
429.45990897513724
 11
597.95565792952721
 21
427.38457064831118
  0
LINE
  8
_1-0_
  6
CONTINUOUS
 62
    7
 10
597.95565792952721
 20
427.38457064831118
 11
549.36790333751549
 21
425.57703202295488
  0
LINE
  8
_1-0_
  6
CONTINUOUS
 62
    7
 10
549.36790333751549
 20
425.57703202295488
 11
547.99377853805947
 21
427.50171661376953
  0
LINE
  8
_1-0_
  6
CONTINUOUS
 62
    7
 10
547.99377853805947
 20
422.50175358245724
 11
550.6685822534746
 21
424.57704816545754
  0
LINE
  8
_1-0_
  6
CONTINUOUS
 62
    7
 10
550.6685822534746
 20
424.57704816545754
 11
599.25633684548632
 21
426.3845867908139
  0
LINE
  8
_1-0_
  6
CONTINUOUS
 62
    7
 10
599.25633684548632
 20
426.3845867908139
 11
600.63050538876814
 21
424.45990219999919
  0
LINE
  8
_1-0_
  6
CONTINUOUS
 62
    7
 10
600.63050538876814
 20
424.45990219999919
 11
597.95565792952721
 21
422.38456387317314
  0
LINE
  8
_1-0_
  6
CONTINUOUS
 62
    7
 10
597.95565792952721
 20
422.38456387317314
 11
549.36790333751549
 21
420.57706899164265
  0
LINE
  8
_1-0_
  6
CONTINUOUS
 62
    7
 10
549.36790333751549
 20
420.57706899164265
 11
547.99377853805947
 21
422.50175358245724
  0
LINE
  8
_1-0_
  6
CONTINUOUS
 62
    7
 10
547.99377853805947
 20
417.50174680731931
 11
550.6685822534746
 21
419.57704139031955
  0
LINE
  8
_1-0_
  6
CONTINUOUS
 62
    7
 10
550.6685822534746
 20
419.57704139031955
 11
599.25633684548632
 21
421.38458001567585
  0
LINE
  8
_1-0_
  6
CONTINUOUS
 62
    7
 10
599.25633684548632
 20
421.38458001567585
 11
600.63050538876814
 21
419.45989542486126
  0
LINE
  8
_1-0_
  6
CONTINUOUS
 62
    7
 10
600.63050538876814
 20
419.45989542486126
 11
597.95565792952721
 21
417.38460084186096
  0
LINE
  8
_1-0_
  6
CONTINUOUS
 62
    7
 10
597.95565792952721
 20
417.38460084186096
 11
549.36790333751549
 21
415.5770622165046
  0
LINE
  8
_1-0_
  6
CONTINUOUS
 62
    7
 10
549.36790333751549
 20
415.5770622165046
 11
547.99377853805947
 21
417.50174680731931
  0
LINE
  8
_1-0_
  6
CONTINUOUS
 62
    7
 10
547.99377853805947
 20
412.50174003218126
 11
550.6685822534746
 21
414.57703461518156
  0
LINE
  8
_1-0_
  6
CONTINUOUS
 62
    7
 10
550.6685822534746
 20
414.57703461518156
 11
599.25633684548632
 21
416.38457324053786
  0
LINE
  8
_1-0_
  6
CONTINUOUS
 62
    7
 10
599.25633684548632
 20
416.38457324053786
 11
600.63050538876814
 21
414.45988864972321
  0
LINE
  8
_1-0_
  6
CONTINUOUS
 62
    7
 10
600.63050538876814
 20
414.45988864972321
 11
597.95565792952721
 21
412.38459406672297
  0
LINE
  8
_1-0_
  6
CONTINUOUS
 62
    7
 10
597.95565792952721
 20
412.38459406672297
 11
549.36790333751549
 21
410.57705544136667
  0
LINE
  8
_1-0_
  6
CONTINUOUS
 62
    7
 10
549.36790333751549
 20
410.57705544136667
 11
547.99377853805947
 21
412.50174003218126
  0
LINE
  8
_1-0_
  6
CONTINUOUS
 62
    7
 10
547.99377853805947
 20
407.50173325704338
 11
550.6685822534746
 21
409.57707158386938
  0
LINE
  8
_1-0_
  6
CONTINUOUS
 62
    7
 10
550.6685822534746
 20
409.57707158386938
 11
599.25633684548632
 21
411.38456646539987
  0
LINE
  8
_1-0_
  6
CONTINUOUS
 62
    7
 10
599.25633684548632
 20
411.38456646539987
 11
600.63050538876814
 21
409.45988187458522
  0
LINE
  8
_1-0_
  6
CONTINUOUS
 62
    7
 10
600.63050538876814
 20
409.45988187458522
 11
597.95565792952721
 21
407.38458729158492
  0
LINE
  8
_1-0_
  6
CONTINUOUS
 62
    7
 10
597.95565792952721
 20
407.38458729158492
 11
549.36790333751549
 21
405.57704866622856
  0
LINE
  8
_1-0_
  6
CONTINUOUS
 62
    7
 10
549.36790333751549
 20
405.57704866622856
 11
547.99377853805947
 21
407.50173325704338
  0
LINE
  8
_1-0_
  6
CONTINUOUS
 62
    7
 10
547.97846819903395
 20
512.47007377359398
 11
550.65327191444896
 21
514.54536835659417
  0
LINE
  8
_1-0_
  6
CONTINUOUS
 62
    7
 10
550.65327191444896
 20
514.54536835659417
 11
599.24102650646068
 21
516.35290698195047
  0
LINE
  8
_1-0_
  6
CONTINUOUS
 62
    7
 10
599.24102650646068
 20
516.35290698195047
 11
600.6151950497424
 21
514.42822239113593
  0
LINE
  8
_1-0_
  6
CONTINUOUS
 62
    7
 10
600.6151950497424
 20
514.42822239113593
 11
597.94034759050169
 21
512.35292780813563
  0
LINE
  8
_1-0_
  6
CONTINUOUS
 62
    7
 10
597.94034759050169
 20
512.35292780813563
 11
549.35259299848985
 21
510.54538918277927
  0
LINE
  8
_1-0_
  6
CONTINUOUS
 62
    7
 10
549.35259299848985
 20
510.54538918277927
 11
547.97846819903395
 21
512.47007377359398
  0
LINE
  8
_1-0_
  6
CONTINUOUS
 62
    7
 10
574.97444535774605
 20
473.06839136543419
 11
574.97050841342525
 21
473.06839136543419
  0
LINE
  8
_1-0_
  6
CONTINUOUS
 62
    7
 10
574.97050841342525
 20
473.06839136543419
 11
574.96657146910434
 21
473.06839136543419
  0
LINE
  8
_1-0_
  6
CONTINUOUS
 62
    7
 10
574.96657146910434
 20
473.06839136543419
 11
574.96263452478365
 21
473.06834762160838
  0
LINE
  8
_1-0_
  6
CONTINUOUS
 62
    7
 10
574.96263452478365
 20
473.06834762160838
 11
574.95865383663704
 21
473.06834762160838
  0
LINE
  8
_1-0_
  6
CONTINUOUS
 62
    7
 10
574.95865383663704
 20
473.06834762160838
 11
574.95471689231613
 21
473.06834762160838
  0
LINE
  8
_1-0_
  6
CONTINUOUS
 62
    7
 10
574.95471689231613
 20
473.06834762160838
 11
574.95077994799522
 21
473.06834762160838
  0
LINE
  8
_1-0_
  6
CONTINUOUS
 62
    7
 10
574.95077994799522
 20
473.06834762160838
 11
574.9468430036743
 21
473.06834762160838
  0
LINE
  8
_1-0_
  6
CONTINUOUS
 62
    7
 10
574.9468430036743
 20
473.06834762160838
 11
574.9429060593535
 21
473.06834762160838
  0
LINE
  8
_1-0_
  6
CONTINUOUS
 62
    7
 10
600.49966760583834
 20
328.56643706214925
 11
600.49966760583834
 21
351.3267433137047
  0
LINE
  8
_1-0_
  6
CONTINUOUS
 62
    7
 10
600.49966760583834
 20
351.3267433137047
 11
548.49967588328946
 21
351.3267433137047
  0
LINE
  8
_1-0_
  6
CONTINUOUS
 62
    7
 10
548.49967588328946
 20
351.3267433137047
 11
548.49967588328946
 21
328.89180363835521
  0
LINE
  8
_1-0_
  6
CONTINUOUS
 62
    7
 10
547.51487113334042
 20
371.31950893917605
 11
601.51487431470946
 21
371.31950893917605
  0
LINE
  8
_1-0_
  6
CONTINUOUS
 62
    7
 10
601.51487431470946
 20
371.31950893917605
 11
601.51487431470946
 21
352.31950943994707
  0
LINE
  8
_1-0_
  6
CONTINUOUS
 62
    7
 10
601.51487431470946
 20
352.31950943994707
 11
601.49567077518896
 21
352.12443384884864
  0
LINE
  8
_1-0_
  6
CONTINUOUS
 62
    7
 10
601.49567077518896
 20
352.12443384884864
 11
601.43876005783966
 21
351.93683845195994
  0
LINE
  8
_1-0_
  6
CONTINUOUS
 62
    7
 10
601.43876005783966
 20
351.93683845195994
 11
601.3463730977769
 21
351.76394098053561
  0
LINE
  8
_1-0_
  6
CONTINUOUS
 62
    7
 10
601.3463730977769
 20
351.76394098053561
 11
601.22200940106359
 21
351.61241236800845
  0
LINE
  8
_1-0_
  6
CONTINUOUS
 62
    7
 10
601.22200940106359
 20
351.61241236800845
 11
601.07043704471062
 21
351.48804867129525
  0
LINE
  8
_1-0_
  6
CONTINUOUS
 62
    7
 10
601.07043704471062
 20
351.48804867129525
 11
600.89756144519924
 21
351.39563983931964
  0
LINE
  8
_1-0_
  6
CONTINUOUS
 62
    7
 10
600.89756144519924
 20
351.39563983931964
 11
600.70998792022351
 21
351.33872912197035
  0
LINE
  8
_1-0_
  6
CONTINUOUS
 62
    7
 10
600.70998792022351
 20
351.33872912197035
 11
600.51489045721212
 21
351.31952558244973
  0
LINE
  8
_1-0_
  6
CONTINUOUS
 62
    7
 10
600.51489045721212
 20
351.31952558244973
 11
574.51487272402483
 21
351.31952558244973
  0
LINE
  8
_1-0_
  6
CONTINUOUS
 62
    7
 10
574.51487272402483
 20
351.31952558244973
 11
548.51489873466335
 21
351.31952558244973
  0
LINE
  8
_1-0_
  6
CONTINUOUS
 62
    7
 10
548.51489873466335
 20
351.31952558244973
 11
548.31980127165207
 21
351.33872912197035
  0
LINE
  8
_1-0_
  6
CONTINUOUS
 62
    7
 10
548.31980127165207
 20
351.33872912197035
 11
548.13218400285052
 21
351.39563983931964
  0
LINE
  8
_1-0_
  6
CONTINUOUS
 62
    7
 10
548.13218400285052
 20
351.39563983931964
 11
547.95930840333904
 21
351.48804867129525
  0
LINE
  8
_1-0_
  6
CONTINUOUS
 62
    7
 10
547.95930840333904
 20
351.48804867129525
 11
547.80777979081199
 21
351.61241236800845
  0
LINE
  8
_1-0_
  6
CONTINUOUS
 62
    7
 10
547.80777979081199
 20
351.61241236800845
 11
547.68341609409867
 21
351.76394098053561
  0
LINE
  8
_1-0_
  6
CONTINUOUS
 62
    7
 10
547.68341609409867
 20
351.76394098053561
 11
547.59098539021011
 21
351.93683845195994
  0
LINE
  8
_1-0_
  6
CONTINUOUS
 62
    7
 10
547.59098539021011
 20
351.93683845195994
 11
547.53411841668685
 21
352.12443384884864
  0
LINE
  8
_1-0_
  6
CONTINUOUS
 62
    7
 10
547.53411841668685
 20
352.12443384884864
 11
547.51487113334042
 21
352.31950943994707
  0
LINE
  8
_1-0_
  6
CONTINUOUS
 62
    7
 10
547.51487113334042
 20
352.31950943994707
 11
547.51487113334042
 21
371.31950893917605
  0
LINE
  8
_1-0_
  6
CONTINUOUS
 62
    7
 10
546.69104366228851
 20
405.77752661981179
 11
601.8215185334783
 21
405.77752661981179
  0
LINE
  8
_1-0_
  6
CONTINUOUS
 62
    7
 10
546.69904878240743
 20
371.7775505389946
 11
602.03962524885367
 21
371.7775505389946
  0
LINE
  8
_1-0_
  6
CONTINUOUS
 62
    7
 10
606.3590218385674
 20
376.09694712870834
 11
606.3590218385674
 21
401.24002331472269
  0
LINE
  8
_1-0_
  6
CONTINUOUS
 62
    7
 10
542.35904885074797
 20
376.11755047065401
 11
542.35904885074797
 21
401.44553180827131
  0
LINE
  8
_1-0_
  6
CONTINUOUS
 62
    7
 10
574.15906044507119
 20
403.78534530580737
 11
574.15906044507119
 21
403.7598863991991
  0
LINE
  8
_1-0_
  6
CONTINUOUS
 62
    7
 10
574.15906044507119
 20
373.63285742211065
 11
574.15906044507119
 21
373.59230689560576
  0
LINE
  8
_1-0_
  6
CONTINUOUS
 62
    7
 10
562.15903543597483
 20
400.78320654202599
 11
562.15903543597483
 21
376.73035772610802
  0
LINE
  8
_1-0_
  6
CONTINUOUS
 62
    7
 10
574.15906044507119
 20
403.78534530580737
 11
574.15906044507119
 21
403.7598863991991
  0
LINE
  8
_1-0_
  6
CONTINUOUS
 62
    7
 10
574.15906044507119
 20
373.63285742211065
 11
574.15906044507119
 21
373.59230689560576
  0
LINE
  8
_1-0_
  6
CONTINUOUS
 62
    7
 10
586.15904171034174
 20
400.78320654202599
 11
586.15904171034174
 21
376.73035772610802
  0
LINE
  8
_1-0_
  6
CONTINUOUS
 62
    7
 10
574.15906044507119
 20
403.78534530580737
 11
574.15906044507119
 21
403.7598863991991
  0
LINE
  8
_1-0_
  6
CONTINUOUS
 62
    7
 10
586.15904171034174
 20
400.78320654202599
 11
586.15904171034174
 21
376.73035772610802
  0
LINE
  8
_1-0_
  6
CONTINUOUS
 62
    7
 10
594.58165290272837
 20
401.29045994585539
 11
594.58165290272837
 21
376.56115660796286
  0
LINE
  8
_1-0_
  6
CONTINUOUS
 62
    7
 10
554.15903334451912
 20
400.78320654202599
 11
554.15903334451912
 21
376.73035772610802
  0
LINE
  8
_1-0_
  6
CONTINUOUS
 62
    7
 10
542.34295112285827
 20
376.73035772610802
 11
542.42339601848118
 21
376.73035772610802
  0
LINE
  8
_1-0_
  6
CONTINUOUS
 62
    7
 10
554.15903334451912
 20
376.73035772610802
 11
562.21424014411832
 21
376.73035772610802
  0
LINE
  8
_1-0_
  6
CONTINUOUS
 62
    7
 10
586.10444941575918
 20
376.73035772610802
 11
594.58165290272837
 21
376.73035772610802
  0
LINE
  8
_1-0_
  6
CONTINUOUS
 62
    7
 10
606.3590218385674
 20
376.73035772610802
 11
606.44366614146577
 21
376.73035772610802
  0
LINE
  8
_1-0_
  6
CONTINUOUS
 62
    7
 10
542.35821771805809
 20
400.78320654202599
 11
542.36311702654632
 21
400.78320654202599
  0
LINE
  8
_1-0_
  6
CONTINUOUS
 62
    7
 10
554.14306684810686
 20
400.78320654202599
 11
562.17281474109768
 21
400.78320654202599
  0
LINE
  8
_1-0_
  6
CONTINUOUS
 62
    7
 10
586.04421416765013
 20
400.78320654202599
 11
594.58165290272837
 21
400.78320654202599
  0
LINE
  8
_1-0_
  6
CONTINUOUS
 62
    7
 10
606.24813124019647
 20
400.78320654202599
 11
606.3590218385674
 21
400.78320654202599
  0
LINE
  8
_1-0_
  6
CONTINUOUS
 62
    7
 10
562.17228981518838
 20
400.78307531054872
 11
562.22605097708083
 21
400.97126124908556
  0
LINE
  8
_1-0_
  6
CONTINUOUS
 62
    7
 10
562.22605097708083
 20
400.97126124908556
 11
562.32115005434252
 21
401.15656009512065
  0
LINE
  8
_1-0_
  6
CONTINUOUS
 62
    7
 10
562.32115005434252
 20
401.15656009512065
 11
562.457587046973
 21
401.33888436100193
  0
LINE
  8
_1-0_
  6
CONTINUOUS
 62
    7
 10
562.457587046973
 20
401.33888436100193
 11
562.63540569879842
 21
401.51832153438136
  0
LINE
  8
_1-0_
  6
CONTINUOUS
 62
    7
 10
562.63540569879842
 20
401.51832153438136
 11
562.85451852216681
 21
401.69482787143306
  0
LINE
  8
_1-0_
  6
CONTINUOUS
 62
    7
 10
562.85451852216681
 20
401.69482787143306
 11
563.11501300472992
 21
401.86840337215699
  0
LINE
  8
_1-0_
  6
CONTINUOUS
 62
    7
 10
563.11501300472992
 20
401.86840337215699
 11
563.41684540266226
 21
402.0390480365532
  0
LINE
  8
_1-0_
  6
CONTINUOUS
 62
    7
 10
563.41684540266226
 20
402.0390480365532
 11
563.76001571596362
 21
402.20676186462157
  0
LINE
  8
_1-0_
  6
CONTINUOUS
 62
    7
 10
563.76001571596362
 20
402.20676186462157
 11
564.17860038492211
 21
402.38484297940175
  0
LINE
  8
_1-0_
  6
CONTINUOUS
 62
    7
 10
564.17860038492211
 20
402.38484297940175
 11
564.63379863606463
 21
402.55325670868274
  0
LINE
  8
_1-0_
  6
CONTINUOUS
 62
    7
 10
564.63379863606463
 20
402.55325670868274
 11
565.12561046939095
 21
402.71200305246481
  0
LINE
  8
_1-0_
  6
CONTINUOUS
 62
    7
 10
565.12561046939095
 20
402.71200305246481
 11
565.65403588490142
 21
402.86108201074785
  0
LINE
  8
_1-0_
  6
CONTINUOUS
 62
    7
 10
565.65403588490142
 20
402.86108201074785
 11
566.2191186264215
 21
403.00049358353192
  0
LINE
  8
_1-0_
  6
CONTINUOUS
 62
    7
 10
566.2191186264215
 20
403.00049358353192
 11
566.8207712062997
 21
403.13028151464266
  0
LINE
  8
_1-0_
  6
CONTINUOUS
 62
    7
 10
566.8207712062997
 20
403.13028151464266
 11
567.45908111218773
 21
403.25035831642879
  0
LINE
  8
_1-0_
  6
CONTINUOUS
 62
    7
 10
567.45908111218773
 20
403.25035831642879
 11
568.13404834408539
 21
403.3608114765417
  0
LINE
  8
_1-0_
  6
CONTINUOUS
 62
    7
 10
568.13404834408539
 20
403.3608114765417
 11
568.83399330050793
 21
403.45980375429832
  0
LINE
  8
_1-0_
  6
CONTINUOUS
 62
    7
 10
568.83399330050793
 20
403.45980375429832
 11
569.54736761144682
 21
403.54558539666726
  0
LINE
  8
_1-0_
  6
CONTINUOUS
 62
    7
 10
569.54736761144682
 20
403.54558539666726
 11
570.27412753307681
 21
403.61820014747411
  0
LINE
  8
_1-0_
  6
CONTINUOUS
 62
    7
 10
570.27412753307681
 20
403.61820014747411
 11
571.01427306539767
 21
403.67760426289323
  0
LINE
  8
_1-0_
  6
CONTINUOUS
 62
    7
 10
571.01427306539767
 20
403.67760426289323
 11
571.76789169606081
 21
403.72379774292455
  0
LINE
  8
_1-0_
  6
CONTINUOUS
 62
    7
 10
571.76789169606081
 20
403.72379774292455
 11
572.53485219358936
 21
403.75678058756819
  0
LINE
  8
_1-0_
  6
CONTINUOUS
 62
    7
 10
572.53485219358936
 20
403.75678058756819
 11
573.31524204563436
 21
403.77659654064985
  0
LINE
  8
_1-0_
  6
CONTINUOUS
 62
    7
 10
573.31524204563436
 20
403.77659654064985
 11
574.10901750837047
 21
403.78320185834383
  0
LINE
  8
_1-0_
  6
CONTINUOUS
 62
    7
 10
574.10901750837047
 20
403.78320185834383
 11
574.90283671493228
 21
403.77659654064985
  0
LINE
  8
_1-0_
  6
CONTINUOUS
 62
    7
 10
574.90283671493228
 20
403.77659654064985
 11
575.68322656697751
 21
403.75678058756819
  0
LINE
  8
_1-0_
  6
CONTINUOUS
 62
    7
 10
575.68322656697751
 20
403.75678058756819
 11
576.45018706450583
 21
403.72379774292455
  0
LINE
  8
_1-0_
  6
CONTINUOUS
 62
    7
 10
576.45018706450583
 20
403.72379774292455
 11
577.20380569516919
 21
403.67760426289323
  0
LINE
  8
_1-0_
  6
CONTINUOUS
 62
    7
 10
577.20380569516919
 20
403.67760426289323
 11
577.94395122748995
 21
403.61820014747411
  0
LINE
  8
_1-0_
  6
CONTINUOUS
 62
    7
 10
577.94395122748995
 20
403.61820014747411
 11
578.67071114911994
 21
403.54558539666726
  0
LINE
  8
_1-0_
  6
CONTINUOUS
 62
    7
 10
578.67071114911994
 20
403.54558539666726
 11
579.38408546005894
 21
403.45980375429832
  0
LINE
  8
_1-0_
  6
CONTINUOUS
 62
    7
 10
579.38408546005894
 20
403.45980375429832
 11
580.08403041648126
 21
403.3608114765417
  0
LINE
  8
_1-0_
  6
CONTINUOUS
 62
    7
 10
580.08403041648126
 20
403.3608114765417
 11
580.75899764837902
 21
403.25035831642879
  0
LINE
  8
_1-0_
  6
CONTINUOUS
 62
    7
 10
580.75899764837902
 20
403.25035831642879
 11
581.39730755426717
 21
403.13028151464266
  0
LINE
  8
_1-0_
  6
CONTINUOUS
 62
    7
 10
581.39730755426717
 20
403.13028151464266
 11
581.99896013414536
 21
403.00049358353192
  0
LINE
  8
_1-0_
  6
CONTINUOUS
 62
    7
 10
581.99896013414536
 20
403.00049358353192
 11
582.56404287566534
 21
402.86108201074785
  0
LINE
  8
_1-0_
  6
CONTINUOUS
 62
    7
 10
582.56404287566534
 20
402.86108201074785
 11
583.09246829117581
 21
402.71200305246481
  0
LINE
  8
_1-0_
  6
CONTINUOUS
 62
    7
 10
583.09246829117581
 20
402.71200305246481
 11
583.58428012450213
 21
402.55325670868274
  0
LINE
  8
_1-0_
  6
CONTINUOUS
 62
    7
 10
583.58428012450213
 20
402.55325670868274
 11
584.03947837564476
 21
402.38484297940175
  0
LINE
  8
_1-0_
  6
CONTINUOUS
 62
    7
 10
584.03947837564476
 20
402.38484297940175
 11
584.45806304460325
 21
402.20676186462157
  0
LINE
  8
_1-0_
  6
CONTINUOUS
 62
    7
 10
584.45806304460325
 20
402.20676186462157
 11
584.80123335790438
 21
402.0390480365532
  0
LINE
  8
_1-0_
  6
CONTINUOUS
 62
    7
 10
584.80123335790438
 20
402.0390480365532
 11
585.10306575583672
 21
401.86840337215699
  0
LINE
  8
_1-0_
  6
CONTINUOUS
 62
    7
 10
585.10306575583672
 20
401.86840337215699
 11
585.36351649457424
 21
401.69482787143306
  0
LINE
  8
_1-0_
  6
CONTINUOUS
 62
    7
 10
585.36351649457424
 20
401.69482787143306
 11
585.58267306176845
 21
401.51832153438136
  0
LINE
  8
_1-0_
  6
CONTINUOUS
 62
    7
 10
585.58267306176845
 20
401.51832153438136
 11
585.76049171359386
 21
401.33888436100193
  0
LINE
  8
_1-0_
  6
CONTINUOUS
 62
    7
 10
585.76049171359386
 20
401.33888436100193
 11
585.89692870622434
 21
401.15656009512065
  0
LINE
  8
_1-0_
  6
CONTINUOUS
 62
    7
 10
585.89692870622434
 20
401.15656009512065
 11
585.99202778348604
 21
400.97126124908556
  0
LINE
  8
_1-0_
  6
CONTINUOUS
 62
    7
 10
585.99202778348604
 20
400.97126124908556
 11
586.04578894537838
 21
400.78307531054872
  0
LINE
  8
_1-0_
  6
CONTINUOUS
 62
    7
 10
586.10676783852591
 20
376.73053270141122
 11
586.06901691687142
 21
376.52996726017659
  0
LINE
  8
_1-0_
  6
CONTINUOUS
 62
    7
 10
586.06901691687142
 20
376.52996726017659
 11
585.98498502753409
 21
376.33272634970183
  0
LINE
  8
_1-0_
  6
CONTINUOUS
 62
    7
 10
585.98498502753409
 20
376.33272634970183
 11
585.8545846828622
 21
376.1387224823352
  0
LINE
  8
_1-0_
  6
CONTINUOUS
 62
    7
 10
585.8545846828622
 20
376.1387224823352
 11
585.67790337050735
 21
375.94799940190256
  0
LINE
  8
_1-0_
  6
CONTINUOUS
 62
    7
 10
585.67790337050735
 20
375.94799940190256
 11
585.45494109046956
 21
375.7605571084041
  0
LINE
  8
_1-0_
  6
CONTINUOUS
 62
    7
 10
585.45494109046956
 20
375.7605571084041
 11
585.18561035509731
 21
375.57639560183958
  0
LINE
  8
_1-0_
  6
CONTINUOUS
 62
    7
 10
585.18561035509731
 20
375.57639560183958
 11
584.86999865204211
 21
375.39551488220923
  0
LINE
  8
_1-0_
  6
CONTINUOUS
 62
    7
 10
584.86999865204211
 20
375.39551488220923
 11
584.50806223747804
 21
375.21787120568706
  0
LINE
  8
_1-0_
  6
CONTINUOUS
 62
    7
 10
584.50806223747804
 20
375.21787120568706
 11
584.08947756851956
 21
375.0398338347328
  0
LINE
  8
_1-0_
  6
CONTINUOUS
 62
    7
 10
584.08947756851956
 20
375.0398338347328
 11
583.63427931737704
 21
374.8714201054517
  0
LINE
  8
_1-0_
  6
CONTINUOUS
 62
    7
 10
583.63427931737704
 20
374.8714201054517
 11
583.14246748405071
 21
374.71267376166963
  0
LINE
  8
_1-0_
  6
CONTINUOUS
 62
    7
 10
583.14246748405071
 20
374.71267376166963
 11
582.61404206854024
 21
374.56359480338665
  0
LINE
  8
_1-0_
  6
CONTINUOUS
 62
    7
 10
582.61404206854024
 20
374.56359480338665
 11
582.04895932702016
 21
374.42413948677682
  0
LINE
  8
_1-0_
  6
CONTINUOUS
 62
    7
 10
582.04895932702016
 20
374.42413948677682
 11
581.44730674714197
 21
374.29439529949178
  0
LINE
  8
_1-0_
  6
CONTINUOUS
 62
    7
 10
581.44730674714197
 20
374.29439529949178
 11
580.80899684125393
 21
374.17431849770566
  0
LINE
  8
_1-0_
  6
CONTINUOUS
 62
    7
 10
580.80899684125393
 20
374.17431849770566
 11
580.13402960935605
 21
374.06386533759274
  0
LINE
  8
_1-0_
  6
CONTINUOUS
 62
    7
 10
580.13402960935605
 20
374.06386533759274
 11
579.43408465293373
 21
373.96487305983612
  0
LINE
  8
_1-0_
  6
CONTINUOUS
 62
    7
 10
579.43408465293373
 20
373.96487305983612
 11
578.72071034199485
 21
373.87909141746718
  0
LINE
  8
_1-0_
  6
CONTINUOUS
 62
    7
 10
578.72071034199485
 20
373.87909141746718
 11
577.99395042036485
 21
373.80647666666039
  0
LINE
  8
_1-0_
  6
CONTINUOUS
 62
    7
 10
577.99395042036485
 20
373.80647666666039
 11
577.25380488804399
 21
373.74707255124122
  0
LINE
  8
_1-0_
  6
CONTINUOUS
 62
    7
 10
577.25380488804399
 20
373.74707255124122
 11
576.50018625738085
 21
373.7008790712099
  0
LINE
  8
_1-0_
  6
CONTINUOUS
 62
    7
 10
576.50018625738085
 20
373.7008790712099
 11
575.7332257598523
 21
373.66789622656626
  0
LINE
  8
_1-0_
  6
CONTINUOUS
 62
    7
 10
575.7332257598523
 20
373.66789622656626
 11
574.95283590780718
 21
373.6480802734846
  0
LINE
  8
_1-0_
  6
CONTINUOUS
 62
    7
 10
574.95283590780718
 20
373.6480802734846
 11
574.15906044507119
 21
373.64147495579073
  0
LINE
  8
_1-0_
  6
CONTINUOUS
 62
    7
 10
574.15906044507119
 20
373.64147495579073
 11
573.36524123850938
 21
373.6480802734846
  0
LINE
  8
_1-0_
  6
CONTINUOUS
 62
    7
 10
573.36524123850938
 20
373.6480802734846
 11
572.58485138646415
 21
373.66789622656626
  0
LINE
  8
_1-0_
  6
CONTINUOUS
 62
    7
 10
572.58485138646415
 20
373.66789622656626
 11
571.81789088893584
 21
373.7008790712099
  0
LINE
  8
_1-0_
  6
CONTINUOUS
 62
    7
 10
571.81789088893584
 20
373.7008790712099
 11
571.06427225827247
 21
373.74707255124122
  0
LINE
  8
_1-0_
  6
CONTINUOUS
 62
    7
 10
571.06427225827247
 20
373.74707255124122
 11
570.32412672595171
 21
373.80647666666039
  0
LINE
  8
_1-0_
  6
CONTINUOUS
 62
    7
 10
570.32412672595171
 20
373.80647666666039
 11
569.59736680432172
 21
373.87909141746718
  0
LINE
  8
_1-0_
  6
CONTINUOUS
 62
    7
 10
569.59736680432172
 20
373.87909141746718
 11
568.88399249338272
 21
373.96487305983612
  0
LINE
  8
_1-0_
  6
CONTINUOUS
 62
    7
 10
568.88399249338272
 20
373.96487305983612
 11
568.18404753696041
 21
374.06386533759274
  0
LINE
  8
_1-0_
  6
CONTINUOUS
 62
    7
 10
568.18404753696041
 20
374.06386533759274
 11
567.50908030506253
 21
374.17431849770566
  0
LINE
  8
_1-0_
  6
CONTINUOUS
 62
    7
 10
567.50908030506253
 20
374.17431849770566
 11
566.87077039917449
 21
374.29439529949178
  0
LINE
  8
_1-0_
  6
CONTINUOUS
 62
    7
 10
566.87077039917449
 20
374.29439529949178
 11
566.2691178192963
 21
374.42413948677682
  0
LINE
  8
_1-0_
  6
CONTINUOUS
 62
    7
 10
566.2691178192963
 20
374.42413948677682
 11
565.70403507777633
 21
374.56359480338665
  0
LINE
  8
_1-0_
  6
CONTINUOUS
 62
    7
 10
565.70403507777633
 20
374.56359480338665
 11
565.17560966226586
 21
374.71267376166963
  0
LINE
  8
_1-0_
  6
CONTINUOUS
 62
    7
 10
565.17560966226586
 20
374.71267376166963
 11
564.68379782893953
 21
374.8714201054517
  0
LINE
  8
_1-0_
  6
CONTINUOUS
 62
    7
 10
564.68379782893953
 20
374.8714201054517
 11
564.2285995777969
 21
375.0398338347328
  0
LINE
  8
_1-0_
  6
CONTINUOUS
 62
    7
 10
564.2285995777969
 20
375.0398338347328
 11
563.81001490883841
 21
375.21787120568706
  0
LINE
  8
_1-0_
  6
CONTINUOUS
 62
    7
 10
563.81001490883841
 20
375.21787120568706
 11
563.44807849427434
 21
375.39551488220923
  0
LINE
  8
_1-0_
  6
CONTINUOUS
 62
    7
 10
563.44807849427434
 20
375.39551488220923
 11
563.13246679121914
 21
375.57639560183958
  0
LINE
  8
_1-0_
  6
CONTINUOUS
 62
    7
 10
563.13246679121914
 20
375.57639560183958
 11
562.86313605584701
 21
375.7605571084041
  0
LINE
  8
_1-0_
  6
CONTINUOUS
 62
    7
 10
562.86313605584701
 20
375.7605571084041
 11
562.6401737758091
 21
375.94799940190256
  0
LINE
  8
_1-0_
  6
CONTINUOUS
 62
    7
 10
562.6401737758091
 20
375.94799940190256
 11
562.46349246345426
 21
376.1387224823352
  0
LINE
  8
_1-0_
  6
CONTINUOUS
 62
    7
 10
562.46349246345426
 20
376.1387224823352
 11
562.33309211878236
 21
376.33272634970183
  0
LINE
  8
_1-0_
  6
CONTINUOUS
 62
    7
 10
562.33309211878236
 20
376.33272634970183
 11
562.24906022944515
 21
376.52996726017659
  0
LINE
  8
_1-0_
  6
CONTINUOUS
 62
    7
 10
562.24906022944515
 20
376.52996726017659
 11
562.21135305161636
 21
376.73053270141122
  0
LINE
  8
_1-0_
  6
CONTINUOUS
 62
    7
 10
574.19234949649535
 20
379.9471036992017
 11
574.18819383304549
 21
379.9471036992017
  0
LINE
  8
_1-0_
  6
CONTINUOUS
 62
    7
 10
574.18819383304549
 20
379.9471036992017
 11
574.18403816959562
 21
379.9471036992017
  0
LINE
  8
_1-0_
  6
CONTINUOUS
 62
    7
 10
574.18403816959562
 20
379.9471036992017
 11
574.17988250614599
 21
379.9471036992017
  0
LINE
  8
_1-0_
  6
CONTINUOUS
 62
    7
 10
574.17988250614599
 20
379.9471036992017
 11
574.17568309887031
 21
379.9471036992017
  0
LINE
  8
_1-0_
  6
CONTINUOUS
 62
    7
 10
574.17568309887031
 20
379.9471036992017
 11
574.17152743542056
 21
379.94714744302757
  0
LINE
  8
_1-0_
  6
CONTINUOUS
 62
    7
 10
574.17152743542056
 20
379.94714744302757
 11
574.16737177197069
 21
379.94714744302757
  0
LINE
  8
_1-0_
  6
CONTINUOUS
 62
    7
 10
574.16737177197069
 20
379.94714744302757
 11
574.16321610852094
 21
379.94714744302757
  0
LINE
  8
_1-0_
  6
CONTINUOUS
 62
    7
 10
574.16321610852094
 20
379.94714744302757
 11
574.15906044507119
 21
379.94714744302757
  0
LINE
  8
_1-0_
  6
CONTINUOUS
 62
    7
 10
574.15906044507119
 20
379.94714744302757
 11
574.15599837726609
 21
379.94714744302757
  0
LINE
  8
_1-0_
  6
CONTINUOUS
 62
    7
 10
574.15599837726609
 20
379.94714744302757
 11
574.15293630946098
 21
379.94714744302757
  0
LINE
  8
_1-0_
  6
CONTINUOUS
 62
    7
 10
574.15293630946098
 20
379.94714744302757
 11
574.14987424165588
 21
379.94714744302757
  0
LINE
  8
_1-0_
  6
CONTINUOUS
 62
    7
 10
574.14987424165588
 20
379.94714744302757
 11
574.14681217385066
 21
379.94714744302757
  0
LINE
  8
_1-0_
  6
CONTINUOUS
 62
    7
 10
574.14681217385066
 20
379.94714744302757
 11
574.14375010604556
 21
379.94714744302757
  0
LINE
  8
_1-0_
  6
CONTINUOUS
 62
    7
 10
574.14375010604556
 20
379.94714744302757
 11
574.14068803824057
 21
379.9471036992017
  0
LINE
  8
_1-0_
  6
CONTINUOUS
 62
    7
 10
574.14068803824057
 20
379.9471036992017
 11
574.13762597043524
 21
379.9471036992017
  0
LINE
  8
_1-0_
  6
CONTINUOUS
 62
    7
 10
574.13762597043524
 20
379.9471036992017
 11
574.13456390263036
 21
379.9471036992017
  0
LINE
  8
_1-0_
  6
CONTINUOUS
 62
    7
 10
554.15903334451912
 20
400.73032025664929
 11
554.15903334451912
 21
400.73036400047499
  0
LINE
  8
_1-0_
  6
CONTINUOUS
 62
    7
 10
554.15903334451912
 20
400.73036400047499
 11
554.14669758564719
 21
400.93316037682484
  0
LINE
  8
_1-0_
  6
CONTINUOUS
 62
    7
 10
554.14669758564719
 20
400.93316037682484
 11
554.10964656520537
 21
401.13250099093761
  0
LINE
  8
_1-0_
  6
CONTINUOUS
 62
    7
 10
554.10964656520537
 20
401.13250099093761
 11
554.04788028319354
 21
401.32847333046459
  0
LINE
  8
_1-0_
  6
CONTINUOUS
 62
    7
 10
554.04788028319354
 20
401.32847333046459
 11
553.96144248343808
 21
401.52094616392873
  0
LINE
  8
_1-0_
  6
CONTINUOUS
 62
    7
 10
553.96144248343808
 20
401.52094616392873
 11
553.8502894221125
 21
401.71005072280707
  0
LINE
  8
_1-0_
  6
CONTINUOUS
 62
    7
 10
553.8502894221125
 20
401.71005072280707
 11
553.71442109921736
 21
401.89569951944833
  0
LINE
  8
_1-0_
  6
CONTINUOUS
 62
    7
 10
553.71442109921736
 20
401.89569951944833
 11
553.5538375147521
 21
402.07798004150391
  0
LINE
  8
_1-0_
  6
CONTINUOUS
 62
    7
 10
553.5538375147521
 20
402.07798004150391
 11
553.36858241254299
 21
402.25676105749642
  0
LINE
  8
_1-0_
  6
CONTINUOUS
 62
    7
 10
553.36858241254299
 20
402.25676105749642
 11
553.16193657952385
 21
402.42919921875
  0
LINE
  8
_1-0_
  6
CONTINUOUS
 62
    7
 10
553.16193657952385
 20
402.42919921875
 11
552.93718080262875
 21
402.59227620128502
  0
LINE
  8
_1-0_
  6
CONTINUOUS
 62
    7
 10
552.93718080262875
 20
402.59227620128502
 11
552.69435882568359
 21
402.74599200510153
  0
LINE
  8
_1-0_
  6
CONTINUOUS
 62
    7
 10
552.69435882568359
 20
402.74599200510153
 11
552.43347064868829
 21
402.89034663019947
  0
LINE
  8
_1-0_
  6
CONTINUOUS
 62
    7
 10
552.43347064868829
 20
402.89034663019947
 11
552.15447252781701
 21
403.02534007657897
  0
LINE
  8
_1-0_
  6
CONTINUOUS
 62
    7
 10
552.15447252781701
 20
403.02534007657897
 11
551.85740820689546
 21
403.15097234424013
  0
LINE
  8
_1-0_
  6
CONTINUOUS
 62
    7
 10
551.85740820689546
 20
403.15097234424013
 11
551.54227768592386
 21
403.26724343318278
  0
LINE
  8
_1-0_
  6
CONTINUOUS
 62
    7
 10
551.54227768592386
 20
403.26724343318278
 11
551.20903722107641
 21
403.37419708723274
  0
LINE
  8
_1-0_
  6
CONTINUOUS
 62
    7
 10
551.20903722107641
 20
403.37419708723274
 11
550.86346099735692
 21
403.47003980953264
  0
LINE
  8
_1-0_
  6
CONTINUOUS
 62
    7
 10
550.86346099735692
 20
403.47003980953264
 11
550.51123571211758
 21
403.55310933470264
  0
LINE
  8
_1-0_
  6
CONTINUOUS
 62
    7
 10
550.51123571211758
 20
403.55310933470264
 11
550.15244885301036
 21
403.6234056627427
  0
LINE
  8
_1-0_
  6
CONTINUOUS
 62
    7
 10
550.15244885301036
 20
403.6234056627427
 11
549.78696918855758
 21
403.68092879365304
  0
LINE
  8
_1-0_
  6
CONTINUOUS
 62
    7
 10
549.78696918855758
 20
403.68092879365304
 11
549.4149279502368
 21
403.72567872743343
  0
LINE
  8
_1-0_
  6
CONTINUOUS
 62
    7
 10
549.4149279502368
 20
403.72567872743343
 11
549.03623765039629
 21
403.75761172025818
  0
LINE
  8
_1-0_
  6
CONTINUOUS
 62
    7
 10
549.03623765039629
 20
403.75761172025818
 11
548.65094203286185
 21
403.7768152597788
  0
LINE
  8
_1-0_
  6
CONTINUOUS
 62
    7
 10
548.65094203286185
 20
403.7768152597788
 11
548.2590410976336
 21
403.78320185834383
  0
LINE
  8
_1-0_
  6
CONTINUOUS
 62
    7
 10
548.2590410976336
 20
403.78320185834383
 11
547.86714016240524
 21
403.7768152597788
  0
LINE
  8
_1-0_
  6
CONTINUOUS
 62
    7
 10
547.86714016240524
 20
403.7768152597788
 11
547.48184454487102
 21
403.75761172025818
  0
LINE
  8
_1-0_
  6
CONTINUOUS
 62
    7
 10
547.48184454487102
 20
403.75761172025818
 11
547.10315424503051
 21
403.72567872743343
  0
LINE
  8
_1-0_
  6
CONTINUOUS
 62
    7
 10
547.10315424503051
 20
403.72567872743343
 11
546.73106926288381
 21
403.68092879365304
  0
LINE
  8
_1-0_
  6
CONTINUOUS
 62
    7
 10
546.73106926288381
 20
403.68092879365304
 11
546.36563334225684
 21
403.6234056627427
  0
LINE
  8
_1-0_
  6
CONTINUOUS
 62
    7
 10
546.36563334225684
 20
403.6234056627427
 11
546.0068464831495
 21
403.55310933470264
  0
LINE
  8
_1-0_
  6
CONTINUOUS
 62
    7
 10
546.0068464831495
 20
403.55310933470264
 11
545.65462119791039
 21
403.47003980953264
  0
LINE
  8
_1-0_
  6
CONTINUOUS
 62
    7
 10
545.65462119791039
 20
403.47003980953264
 11
545.30904497419078
 21
403.37419708723274
  0
LINE
  8
_1-0_
  6
CONTINUOUS
 62
    7
 10
545.30904497419078
 20
403.37419708723274
 11
544.97580450934322
 21
403.26724343318278
  0
LINE
  8
_1-0_
  6
CONTINUOUS
 62
    7
 10
544.97580450934322
 20
403.26724343318278
 11
544.66067398837163
 21
403.15097234424013
  0
LINE
  8
_1-0_
  6
CONTINUOUS
 62
    7
 10
544.66067398837163
 20
403.15097234424013
 11
544.36356592362449
 21
403.02534007657897
  0
LINE
  8
_1-0_
  6
CONTINUOUS
 62
    7
 10
544.36356592362449
 20
403.02534007657897
 11
544.08461154657903
 21
402.89034663019947
  0
LINE
  8
_1-0_
  6
CONTINUOUS
 62
    7
 10
544.08461154657903
 20
402.89034663019947
 11
543.8236796257579
 21
402.74599200510153
  0
LINE
  8
_1-0_
  6
CONTINUOUS
 62
    7
 10
543.8236796257579
 20
402.74599200510153
 11
543.58090139263845
 21
402.59227620128502
  0
LINE
  8
_1-0_
  6
CONTINUOUS
 62
    7
 10
543.58090139263845
 20
402.59227620128502
 11
543.35614561574346
 21
402.42919921875
  0
LINE
  8
_1-0_
  6
CONTINUOUS
 62
    7
 10
543.35614561574346
 20
402.42919921875
 11
543.14949978272421
 21
402.25676105749642
  0
LINE
  8
_1-0_
  6
CONTINUOUS
 62
    7
 10
543.14949978272421
 20
402.25676105749642
 11
542.96424468051509
 21
402.07798004150391
  0
LINE
  8
_1-0_
  6
CONTINUOUS
 62
    7
 10
542.96424468051509
 20
402.07798004150391
 11
542.80366109604995
 21
401.89569951944833
  0
LINE
  8
_1-0_
  6
CONTINUOUS
 62
    7
 10
542.80366109604995
 20
401.89569951944833
 11
542.66779277315459
 21
401.71005072280707
  0
LINE
  8
_1-0_
  6
CONTINUOUS
 62
    7
 10
542.66779277315459
 20
401.71005072280707
 11
542.55663971182912
 21
401.52094616392873
  0
LINE
  8
_1-0_
  6
CONTINUOUS
 62
    7
 10
542.55663971182912
 20
401.52094616392873
 11
542.47020191207355
 21
401.32847333046459
  0
LINE
  8
_1-0_
  6
CONTINUOUS
 62
    7
 10
542.47020191207355
 20
401.32847333046459
 11
542.40843563006194
 21
401.13250099093761
  0
LINE
  8
_1-0_
  6
CONTINUOUS
 62
    7
 10
542.40843563006194
 20
401.13250099093761
 11
542.37138460962001
 21
400.93316037682484
  0
LINE
  8
_1-0_
  6
CONTINUOUS
 62
    7
 10
542.37138460962001
 20
400.93316037682484
 11
542.35904885074797
 21
400.73036400047499
  0
LINE
  8
_1-0_
  6
CONTINUOUS
 62
    7
 10
542.35904885074797
 20
400.73036400047499
 11
542.35904885074797
 21
400.73032025664929
  0
LINE
  8
_1-0_
  6
CONTINUOUS
 62
    7
 10
542.35904885074797
 20
376.93547252522478
 11
542.35506816260136
 21
376.9060766742956
  0
LINE
  8
_1-0_
  6
CONTINUOUS
 62
    7
 10
542.35506816260136
 20
376.9060766742956
 11
542.35161240036416
 21
376.87659333571503
  0
LINE
  8
_1-0_
  6
CONTINUOUS
 62
    7
 10
542.35161240036416
 20
376.87659333571503
 11
542.3487253078622
 21
376.84706625330864
  0
LINE
  8
_1-0_
  6
CONTINUOUS
 62
    7
 10
542.3487253078622
 20
376.84706625330864
 11
542.34631939744395
 21
376.81740793942481
  0
LINE
  8
_1-0_
  6
CONTINUOUS
 62
    7
 10
542.34631939744395
 20
376.81740793942481
 11
542.34448215676082
 21
376.78774962554098
  0
LINE
  8
_1-0_
  6
CONTINUOUS
 62
    7
 10
542.34448215676082
 20
376.78774962554098
 11
542.34312609816141
 21
376.75796008017983
  0
LINE
  8
_1-0_
  6
CONTINUOUS
 62
    7
 10
542.34312609816141
 20
376.75796008017983
 11
542.34233870929734
 21
376.72812679099297
  0
LINE
  8
_1-0_
  6
CONTINUOUS
 62
    7
 10
542.34233870929734
 20
376.72812679099297
 11
542.34207624634246
 21
376.69820601415438
  0
LINE
  8
_1-0_
  6
CONTINUOUS
 62
    7
 10
542.34207624634246
 20
376.69820601415438
 11
542.3544120052145
 21
376.49540963780453
  0
LINE
  8
_1-0_
  6
CONTINUOUS
 62
    7
 10
542.3544120052145
 20
376.49540963780453
 11
542.39146302565644
 21
376.29606902369204
  0
LINE
  8
_1-0_
  6
CONTINUOUS
 62
    7
 10
542.39146302565644
 20
376.29606902369204
 11
542.45322930766804
 21
376.10009668416495
  0
LINE
  8
_1-0_
  6
CONTINUOUS
 62
    7
 10
542.45322930766804
 20
376.10009668416495
 11
542.53971085124954
 21
375.90758010687523
  0
LINE
  8
_1-0_
  6
CONTINUOUS
 62
    7
 10
542.53971085124954
 20
375.90758010687523
 11
542.65086391257501
 21
375.71851929182259
  0
LINE
  8
_1-0_
  6
CONTINUOUS
 62
    7
 10
542.65086391257501
 20
375.71851929182259
 11
542.78668849164455
 21
375.53282675135551
  0
LINE
  8
_1-0_
  6
CONTINUOUS
 62
    7
 10
542.78668849164455
 20
375.53282675135551
 11
542.94727207610958
 21
375.35058997312575
  0
LINE
  8
_1-0_
  6
CONTINUOUS
 62
    7
 10
542.94727207610958
 20
375.35058997312575
 11
543.13252717831892
 21
375.17176521330725
  0
LINE
  8
_1-0_
  6
CONTINUOUS
 62
    7
 10
543.13252717831892
 20
375.17176521330725
 11
543.33917301133795
 21
374.99937079587966
  0
LINE
  8
_1-0_
  6
CONTINUOUS
 62
    7
 10
543.33917301133795
 20
374.99937079587966
 11
543.56392878823294
 21
374.83629381334453
  0
LINE
  8
_1-0_
  6
CONTINUOUS
 62
    7
 10
543.56392878823294
 20
374.83629381334453
 11
543.80675076517821
 21
374.68257800952813
  0
LINE
  8
_1-0_
  6
CONTINUOUS
 62
    7
 10
543.80675076517821
 20
374.68257800952813
 11
544.06763894217352
 21
374.53822338443001
  0
LINE
  8
_1-0_
  6
CONTINUOUS
 62
    7
 10
544.06763894217352
 20
374.53822338443001
 11
544.34663706304491
 21
374.4032299380504
  0
LINE
  8
_1-0_
  6
CONTINUOUS
 62
    7
 10
544.34663706304491
 20
374.4032299380504
 11
544.64370138396612
 21
374.27759767038935
  0
LINE
  8
_1-0_
  6
CONTINUOUS
 62
    7
 10
544.64370138396612
 20
374.27759767038935
 11
544.95883190493782
 21
374.16128283762106
  0
LINE
  8
_1-0_
  6
CONTINUOUS
 62
    7
 10
544.95883190493782
 20
374.16128283762106
 11
545.29207236978539
 21
374.05437292739691
  0
LINE
  8
_1-0_
  6
CONTINUOUS
 62
    7
 10
545.29207236978539
 20
374.05437292739691
 11
545.63764859350488
 21
373.95853020509691
  0
LINE
  8
_1-0_
  6
CONTINUOUS
 62
    7
 10
545.63764859350488
 20
373.95853020509691
 11
545.98987387874422
 21
373.87541693610103
  0
LINE
  8
_1-0_
  6
CONTINUOUS
 62
    7
 10
545.98987387874422
 20
373.87541693610103
 11
546.34870448167715
 21
373.80512060806097
  0
LINE
  8
_1-0_
  6
CONTINUOUS
 62
    7
 10
546.34870448167715
 20
373.80512060806097
 11
546.71414040230411
 21
373.74764122097645
  0
LINE
  8
_1-0_
  6
CONTINUOUS
 62
    7
 10
546.71414040230411
 20
373.74764122097645
 11
547.086181640625
 21
373.70289128719605
  0
LINE
  8
_1-0_
  6
CONTINUOUS
 62
    7
 10
547.086181640625
 20
373.70289128719605
 11
547.46487194046551
 21
373.67091455054549
  0
LINE
  8
_1-0_
  6
CONTINUOUS
 62
    7
 10
547.46487194046551
 20
373.67091455054549
 11
547.85016755799984
 21
373.65175475485074
  0
LINE
  8
_1-0_
  6
CONTINUOUS
 62
    7
 10
547.85016755799984
 20
373.65175475485074
 11
548.2420684932282
 21
373.64536815628583
  0
LINE
  8
_1-0_
  6
CONTINUOUS
 62
    7
 10
548.2420684932282
 20
373.64536815628583
 11
548.63401317228204
 21
373.65175475485074
  0
LINE
  8
_1-0_
  6
CONTINUOUS
 62
    7
 10
548.63401317228204
 20
373.65175475485074
 11
549.01930878981659
 21
373.67091455054549
  0
LINE
  8
_1-0_
  6
CONTINUOUS
 62
    7
 10
549.01930878981659
 20
373.67091455054549
 11
549.39795534583129
 21
373.70289128719605
  0
LINE
  8
_1-0_
  6
CONTINUOUS
 62
    7
 10
549.39795534583129
 20
373.70289128719605
 11
549.77004032797799
 21
373.74764122097645
  0
LINE
  8
_1-0_
  6
CONTINUOUS
 62
    7
 10
549.77004032797799
 20
373.74764122097645
 11
550.13547624860485
 21
373.80512060806097
  0
LINE
  8
_1-0_
  6
CONTINUOUS
 62
    7
 10
550.13547624860485
 20
373.80512060806097
 11
550.49430685153789
 21
373.87541693610103
  0
LINE
  8
_1-0_
  6
CONTINUOUS
 62
    7
 10
550.49430685153789
 20
373.87541693610103
 11
550.84648839295141
 21
373.95853020509691
  0
LINE
  8
_1-0_
  6
CONTINUOUS
 62
    7
 10
550.84648839295141
 20
373.95853020509691
 11
551.1920646166709
 21
374.05437292739691
  0
LINE
  8
_1-0_
  6
CONTINUOUS
 62
    7
 10
551.1920646166709
 20
374.05437292739691
 11
551.52530508151835
 21
374.16128283762106
  0
LINE
  8
_1-0_
  6
CONTINUOUS
 62
    7
 10
551.52530508151835
 20
374.16128283762106
 11
551.84047934631576
 21
374.27759767038935
  0
LINE
  8
_1-0_
  6
CONTINUOUS
 62
    7
 10
551.84047934631576
 20
374.27759767038935
 11
552.1375436672372
 21
374.4032299380504
  0
LINE
  8
_1-0_
  6
CONTINUOUS
 62
    7
 10
552.1375436672372
 20
374.4032299380504
 11
552.41649804428278
 21
374.53822338443001
  0
LINE
  8
_1-0_
  6
CONTINUOUS
 62
    7
 10
552.41649804428278
 20
374.53822338443001
 11
552.67742996510378
 21
374.68257800952813
  0
LINE
  8
_1-0_
  6
CONTINUOUS
 62
    7
 10
552.67742996510378
 20
374.68257800952813
 11
552.92025194204916
 21
374.83629381334453
  0
LINE
  8
_1-0_
  6
CONTINUOUS
 62
    7
 10
552.92025194204916
 20
374.83629381334453
 11
553.14496397511846
 21
374.99937079587966
  0
LINE
  8
_1-0_
  6
CONTINUOUS
 62
    7
 10
553.14496397511846
 20
374.99937079587966
 11
553.35160980813748
 21
375.17176521330725
  0
LINE
  8
_1-0_
  6
CONTINUOUS
 62
    7
 10
553.35160980813748
 20
375.17176521330725
 11
553.53690865417229
 21
375.35058997312575
  0
LINE
  8
_1-0_
  6
CONTINUOUS
 62
    7
 10
553.53690865417229
 20
375.35058997312575
 11
553.69744849481185
 21
375.53282675135551
  0
LINE
  8
_1-0_
  6
CONTINUOUS
 62
    7
 10
553.69744849481185
 20
375.53282675135551
 11
553.83331681770699
 21
375.71851929182259
  0
LINE
  8
_1-0_
  6
CONTINUOUS
 62
    7
 10
553.83331681770699
 20
375.71851929182259
 11
553.94446987903257
 21
375.90758010687523
  0
LINE
  8
_1-0_
  6
CONTINUOUS
 62
    7
 10
553.94446987903257
 20
375.90758010687523
 11
554.03090767878825
 21
376.10009668416495
  0
LINE
  8
_1-0_
  6
CONTINUOUS
 62
    7
 10
554.03090767878825
 20
376.10009668416495
 11
554.09267396079986
 21
376.29606902369204
  0
LINE
  8
_1-0_
  6
CONTINUOUS
 62
    7
 10
554.09267396079986
 20
376.29606902369204
 11
554.12972498124168
 21
376.49540963780453
  0
LINE
  8
_1-0_
  6
CONTINUOUS
 62
    7
 10
554.12972498124168
 20
376.49540963780453
 11
554.14206074011361
 21
376.69820601415438
  0
LINE
  8
_1-0_
  6
CONTINUOUS
 62
    7
 10
554.14206074011361
 20
376.69820601415438
 11
554.14206074011361
 21
376.70240542143006
  0
LINE
  8
_1-0_
  6
CONTINUOUS
 62
    7
 10
554.14206074011361
 20
376.70240542143006
 11
554.14206074011361
 21
376.70660482870574
  0
LINE
  8
_1-0_
  6
CONTINUOUS
 62
    7
 10
554.14206074011361
 20
376.70660482870574
 11
554.14201699628791
 21
376.71076049215543
  0
LINE
  8
_1-0_
  6
CONTINUOUS
 62
    7
 10
554.14201699628791
 20
376.71076049215543
 11
554.14201699628791
 21
376.71495989943111
  0
LINE
  8
_1-0_
  6
CONTINUOUS
 62
    7
 10
554.14201699628791
 20
376.71495989943111
 11
554.14192950863617
 21
376.7191593067065
  0
LINE
  8
_1-0_
  6
CONTINUOUS
 62
    7
 10
554.14192950863617
 20
376.7191593067065
 11
554.14188576481047
 21
376.72331497015648
  0
LINE
  8
_1-0_
  6
CONTINUOUS
 62
    7
 10
554.14188576481047
 20
376.72331497015648
 11
554.14184202098477
 21
376.72751437743187
  0
LINE
  8
_1-0_
  6
CONTINUOUS
 62
    7
 10
554.14184202098477
 20
376.72751437743187
 11
554.14175453333314
 21
376.73171378470755
  0
LINE
  8
_1-0_
  6
CONTINUOUS
 62
    7
 10
594.58165290272837
 20
376.88018032942949
 11
594.57985940587093
 21
376.86040812017382
  0
LINE
  8
_1-0_
  6
CONTINUOUS
 62
    7
 10
594.57985940587093
 20
376.86040812017382
 11
594.5783283719685
 21
376.84054842326634
  0
LINE
  8
_1-0_
  6
CONTINUOUS
 62
    7
 10
594.5783283719685
 20
376.84054842326634
 11
594.57701605719478
 21
376.82068872635881
  0
LINE
  8
_1-0_
  6
CONTINUOUS
 62
    7
 10
594.57701605719478
 20
376.82068872635881
 11
594.57596620537606
 21
376.80078528562575
  0
LINE
  8
_1-0_
  6
CONTINUOUS
 62
    7
 10
594.57596620537606
 20
376.80078528562575
 11
594.57513507268595
 21
376.78083810106671
  0
LINE
  8
_1-0_
  6
CONTINUOUS
 62
    7
 10
594.57513507268595
 20
376.78083810106671
 11
594.57452265912502
 21
376.76084717268196
  0
LINE
  8
_1-0_
  6
CONTINUOUS
 62
    7
 10
594.57452265912502
 20
376.76084717268196
 11
594.57417270851863
 21
376.74085624429711
  0
LINE
  8
_1-0_
  6
CONTINUOUS
 62
    7
 10
594.57417270851863
 20
376.74085624429711
 11
594.57404147704119
 21
376.72082157208649
  0
LINE
  8
_1-0_
  6
CONTINUOUS
 62
    7
 10
594.57404147704119
 20
376.72082157208649
 11
594.58642097973916
 21
376.51802519573664
  0
LINE
  8
_1-0_
  6
CONTINUOUS
 62
    7
 10
594.58642097973916
 20
376.51802519573664
 11
594.62347200018087
 21
376.31864083779817
  0
LINE
  8
_1-0_
  6
CONTINUOUS
 62
    7
 10
594.62347200018087
 20
376.31864083779817
 11
594.68519453836677
 21
376.12271224209707
  0
LINE
  8
_1-0_
  6
CONTINUOUS
 62
    7
 10
594.68519453836677
 20
376.12271224209707
 11
594.77167608194827
 21
375.93019566480706
  0
LINE
  8
_1-0_
  6
CONTINUOUS
 62
    7
 10
594.77167608194827
 20
375.93019566480706
 11
594.88282914327385
 21
375.74113484975442
  0
LINE
  8
_1-0_
  6
CONTINUOUS
 62
    7
 10
594.88282914327385
 20
375.74113484975442
 11
595.01869746616899
 21
375.55544230928746
  0
LINE
  8
_1-0_
  6
CONTINUOUS
 62
    7
 10
595.01869746616899
 20
375.55544230928746
 11
595.17923730680832
 21
375.37320553105758
  0
LINE
  8
_1-0_
  6
CONTINUOUS
 62
    7
 10
595.17923730680832
 20
375.37320553105758
 11
595.36449240901766
 21
375.19438077123937
  0
LINE
  8
_1-0_
  6
CONTINUOUS
 62
    7
 10
595.36449240901766
 20
375.19438077123937
 11
595.57113824203668
 21
375.02198635381149
  0
LINE
  8
_1-0_
  6
CONTINUOUS
 62
    7
 10
595.57113824203668
 20
375.02198635381149
 11
595.79589401893168
 21
374.85890937127664
  0
LINE
  8
_1-0_
  6
CONTINUOUS
 62
    7
 10
595.79589401893168
 20
374.85890937127664
 11
596.03871599587694
 21
374.70519356746013
  0
LINE
  8
_1-0_
  6
CONTINUOUS
 62
    7
 10
596.03871599587694
 20
374.70519356746013
 11
596.29960417287236
 21
374.56083894236201
  0
LINE
  8
_1-0_
  6
CONTINUOUS
 62
    7
 10
596.29960417287236
 20
374.56083894236201
 11
596.57860229374364
 21
374.42584549598251
  0
LINE
  8
_1-0_
  6
CONTINUOUS
 62
    7
 10
596.57860229374364
 20
374.42584549598251
 11
596.87566661466485
 21
374.30021322832147
  0
LINE
  8
_1-0_
  6
CONTINUOUS
 62
    7
 10
596.87566661466485
 20
374.30021322832147
 11
597.19079713563656
 21
374.183898395553
  0
LINE
  8
_1-0_
  6
CONTINUOUS
 62
    7
 10
597.19079713563656
 20
374.183898395553
 11
597.52403760048412
 21
374.07698848532891
  0
LINE
  8
_1-0_
  6
CONTINUOUS
 62
    7
 10
597.52403760048412
 20
374.07698848532891
 11
597.86961382420373
 21
373.98114576302902
  0
LINE
  8
_1-0_
  6
CONTINUOUS
 62
    7
 10
597.86961382420373
 20
373.98114576302902
 11
598.22183910944295
 21
373.89803249403315
  0
LINE
  8
_1-0_
  6
CONTINUOUS
 62
    7
 10
598.22183910944295
 20
373.89803249403315
 11
598.58066971237588
 21
373.82773616599297
  0
LINE
  8
_1-0_
  6
CONTINUOUS
 62
    7
 10
598.58066971237588
 20
373.82773616599297
 11
598.94610563300284
 21
373.77025677890856
  0
LINE
  8
_1-0_
  6
CONTINUOUS
 62
    7
 10
598.94610563300284
 20
373.77025677890856
 11
599.31814687132373
 21
373.72550684512817
  0
LINE
  8
_1-0_
  6
CONTINUOUS
 62
    7
 10
599.31814687132373
 20
373.72550684512817
 11
599.69683717116425
 21
373.6935301084776
  0
LINE
  8
_1-0_
  6
CONTINUOUS
 62
    7
 10
599.69683717116425
 20
373.6935301084776
 11
600.08213278869857
 21
373.67437031278286
  0
LINE
  8
_1-0_
  6
CONTINUOUS
 62
    7
 10
600.08213278869857
 20
373.67437031278286
 11
600.47403372392694
 21
373.66798371421783
  0
LINE
  8
_1-0_
  6
CONTINUOUS
 62
    7
 10
600.47403372392694
 20
373.66798371421783
 11
600.86597840298077
 21
373.67437031278286
  0
LINE
  8
_1-0_
  6
CONTINUOUS
 62
    7
 10
600.86597840298077
 20
373.67437031278286
 11
601.25127402051532
 21
373.6935301084776
  0
LINE
  8
_1-0_
  6
CONTINUOUS
 62
    7
 10
601.25127402051532
 20
373.6935301084776
 11
601.62992057653014
 21
373.72550684512817
  0
LINE
  8
_1-0_
  6
CONTINUOUS
 62
    7
 10
601.62992057653014
 20
373.72550684512817
 11
602.00200555867673
 21
373.77025677890856
  0
LINE
  8
_1-0_
  6
CONTINUOUS
 62
    7
 10
602.00200555867673
 20
373.77025677890856
 11
602.36744147930358
 21
373.82773616599297
  0
LINE
  8
_1-0_
  6
CONTINUOUS
 62
    7
 10
602.36744147930358
 20
373.82773616599297
 11
602.72627208223662
 21
373.89803249403315
  0
LINE
  8
_1-0_
  6
CONTINUOUS
 62
    7
 10
602.72627208223662
 20
373.89803249403315
 11
603.07845362365015
 21
373.98114576302902
  0
LINE
  8
_1-0_
  6
CONTINUOUS
 62
    7
 10
603.07845362365015
 20
373.98114576302902
 11
603.42402984736964
 21
374.07698848532891
  0
LINE
  8
_1-0_
  6
CONTINUOUS
 62
    7
 10
603.42402984736964
 20
374.07698848532891
 11
603.75727031221709
 21
374.183898395553
  0
LINE
  8
_1-0_
  6
CONTINUOUS
 62
    7
 10
603.75727031221709
 20
374.183898395553
 11
604.07244457701449
 21
374.30021322832147
  0
LINE
  8
_1-0_
  6
CONTINUOUS
 62
    7
 10
604.07244457701449
 20
374.30021322832147
 11
604.36950889793593
 21
374.42584549598251
  0
LINE
  8
_1-0_
  6
CONTINUOUS
 62
    7
 10
604.36950889793593
 20
374.42584549598251
 11
604.64850701880721
 21
374.56083894236201
  0
LINE
  8
_1-0_
  6
CONTINUOUS
 62
    7
 10
604.64850701880721
 20
374.56083894236201
 11
604.90939519580263
 21
374.70519356746013
  0
LINE
  8
_1-0_
  6
CONTINUOUS
 62
    7
 10
604.90939519580263
 20
374.70519356746013
 11
605.1522171727479
 21
374.85890937127664
  0
LINE
  8
_1-0_
  6
CONTINUOUS
 62
    7
 10
605.1522171727479
 20
374.85890937127664
 11
605.37692920581719
 21
375.02198635381149
  0
LINE
  8
_1-0_
  6
CONTINUOUS
 62
    7
 10
605.37692920581719
 20
375.02198635381149
 11
605.58361878266192
 21
375.19438077123937
  0
LINE
  8
_1-0_
  6
CONTINUOUS
 62
    7
 10
605.58361878266192
 20
375.19438077123937
 11
605.76887388487103
 21
375.37320553105758
  0
LINE
  8
_1-0_
  6
CONTINUOUS
 62
    7
 10
605.76887388487103
 20
375.37320553105758
 11
605.92941372551059
 21
375.55544230928746
  0
LINE
  8
_1-0_
  6
CONTINUOUS
 62
    7
 10
605.92941372551059
 20
375.55544230928746
 11
606.06528204840572
 21
375.74113484975442
  0
LINE
  8
_1-0_
  6
CONTINUOUS
 62
    7
 10
606.06528204840572
 20
375.74113484975442
 11
606.1764351097313
 21
375.93019566480706
  0
LINE
  8
_1-0_
  6
CONTINUOUS
 62
    7
 10
606.1764351097313
 20
375.93019566480706
 11
606.26287290948699
 21
376.12271224209707
  0
LINE
  8
_1-0_
  6
CONTINUOUS
 62
    7
 10
606.26287290948699
 20
376.12271224209707
 11
606.32463919149859
 21
376.31864083779817
  0
LINE
  8
_1-0_
  6
CONTINUOUS
 62
    7
 10
606.32463919149859
 20
376.31864083779817
 11
606.36169021194041
 21
376.51802519573664
  0
LINE
  8
_1-0_
  6
CONTINUOUS
 62
    7
 10
606.36169021194041
 20
376.51802519573664
 11
606.37406971463838
 21
376.72082157208649
  0
LINE
  8
_1-0_
  6
CONTINUOUS
 62
    7
 10
606.37406971463838
 20
376.72082157208649
 11
606.3738072516835
 21
376.74894885206783
  0
LINE
  8
_1-0_
  6
CONTINUOUS
 62
    7
 10
606.3738072516835
 20
376.74894885206783
 11
606.37310735047095
 21
376.77703238822318
  0
LINE
  8
_1-0_
  6
CONTINUOUS
 62
    7
 10
606.37310735047095
 20
376.77703238822318
 11
606.37192626717467
 21
376.80507218055283
  0
LINE
  8
_1-0_
  6
CONTINUOUS
 62
    7
 10
606.37192626717467
 20
376.80507218055283
 11
606.37030774562049
 21
376.83302448523079
  0
LINE
  8
_1-0_
  6
CONTINUOUS
 62
    7
 10
606.37030774562049
 20
376.83302448523079
 11
606.3681642981569
 21
376.86088930225736
  0
LINE
  8
_1-0_
  6
CONTINUOUS
 62
    7
 10
606.3681642981569
 20
376.86088930225736
 11
606.36562715626133
 21
376.88871037545812
  0
LINE
  8
_1-0_
  6
CONTINUOUS
 62
    7
 10
606.36562715626133
 20
376.88871037545812
 11
606.36256508845622
 21
376.91648770483312
  0
LINE
  8
_1-0_
  6
CONTINUOUS
 62
    7
 10
606.36256508845622
 20
376.91648770483312
 11
606.3590218385674
 21
376.94417754655632
  0
LINE
  8
_1-0_
  6
CONTINUOUS
 62
    7
 10
606.25469281406481
 20
400.78316279820029
 11
606.23058996605596
 21
400.96916154544783
  0
LINE
  8
_1-0_
  6
CONTINUOUS
 62
    7
 10
606.23058996605596
 20
400.96916154544783
 11
606.18527136254033
 21
401.15227320019346
  0
LINE
  8
_1-0_
  6
CONTINUOUS
 62
    7
 10
606.18527136254033
 20
401.15227320019346
 11
606.11878074734364
 21
401.33241027478533
  0
LINE
  8
_1-0_
  6
CONTINUOUS
 62
    7
 10
606.11878074734364
 20
401.33241027478533
 11
606.03111812046586
 21
401.50961651304982
  0
LINE
  8
_1-0_
  6
CONTINUOUS
 62
    7
 10
606.03111812046586
 20
401.50961651304982
 11
605.92223973808132
 21
401.68389191498619
  0
LINE
  8
_1-0_
  6
CONTINUOUS
 62
    7
 10
605.92223973808132
 20
401.68389191498619
 11
605.79223308784151
 21
401.85523648059501
  0
LINE
  8
_1-0_
  6
CONTINUOUS
 62
    7
 10
605.79223308784151
 20
401.85523648059501
 11
605.64101068209493
 21
402.023650209876
  0
LINE
  8
_1-0_
  6
CONTINUOUS
 62
    7
 10
605.64101068209493
 20
402.023650209876
 11
605.46857252084146
 21
402.18913310282943
  0
LINE
  8
_1-0_
  6
CONTINUOUS
 62
    7
 10
605.46857252084146
 20
402.18913310282943
 11
605.26192668782244
 21
402.36157126408284
  0
LINE
  8
_1-0_
  6
CONTINUOUS
 62
    7
 10
605.26192668782244
 20
402.36157126408284
 11
605.03721465475314
 21
402.52460450279204
  0
LINE
  8
_1-0_
  6
CONTINUOUS
 62
    7
 10
605.03721465475314
 20
402.52460450279204
 11
604.79439267780776
 21
402.67832030660855
  0
LINE
  8
_1-0_
  6
CONTINUOUS
 62
    7
 10
604.79439267780776
 20
402.67832030660855
 11
604.53346075698676
 21
402.8226749317065
  0
LINE
  8
_1-0_
  6
CONTINUOUS
 62
    7
 10
604.53346075698676
 20
402.8226749317065
 11
604.25450637994118
 21
402.95766837808617
  0
LINE
  8
_1-0_
  6
CONTINUOUS
 62
    7
 10
604.25450637994118
 20
402.95766837808617
 11
603.95744205901974
 21
403.08334438957303
  0
LINE
  8
_1-0_
  6
CONTINUOUS
 62
    7
 10
603.95744205901974
 20
403.08334438957303
 11
603.64226779422233
 21
403.19961547851562
  0
LINE
  8
_1-0_
  6
CONTINUOUS
 62
    7
 10
603.64226779422233
 20
403.19961547851562
 11
603.30902732937489
 21
403.30652538873977
  0
LINE
  8
_1-0_
  6
CONTINUOUS
 62
    7
 10
603.30902732937489
 20
403.30652538873977
 11
602.96345110565539
 21
403.40241185486548
  0
LINE
  8
_1-0_
  6
CONTINUOUS
 62
    7
 10
602.96345110565539
 20
403.40241185486548
 11
602.61126956424187
 21
403.48548138003548
  0
LINE
  8
_1-0_
  6
CONTINUOUS
 62
    7
 10
602.61126956424187
 20
403.48548138003548
 11
602.25243896130883
 21
403.55577770807571
  0
LINE
  8
_1-0_
  6
CONTINUOUS
 62
    7
 10
602.25243896130883
 20
403.55577770807571
 11
601.88700304068198
 21
403.61330083898594
  0
LINE
  8
_1-0_
  6
CONTINUOUS
 62
    7
 10
601.88700304068198
 20
403.61330083898594
 11
601.51491805853527
 21
403.65805077276633
  0
LINE
  8
_1-0_
  6
CONTINUOUS
 62
    7
 10
601.51491805853527
 20
403.65805077276633
 11
601.13627150252057
 21
403.68998376559102
  0
LINE
  8
_1-0_
  6
CONTINUOUS
 62
    7
 10
601.13627150252057
 20
403.68998376559102
 11
600.75097588498602
 21
403.70914356128594
  0
LINE
  8
_1-0_
  6
CONTINUOUS
 62
    7
 10
600.75097588498602
 20
403.70914356128594
 11
600.35903120593218
 21
403.71553015985086
  0
LINE
  8
_1-0_
  6
CONTINUOUS
 62
    7
 10
600.35903120593218
 20
403.71553015985086
 11
599.96713027070382
 21
403.70914356128594
  0
LINE
  8
_1-0_
  6
CONTINUOUS
 62
    7
 10
599.96713027070382
 20
403.70914356128594
 11
599.58183465316949
 21
403.68998376559102
  0
LINE
  8
_1-0_
  6
CONTINUOUS
 62
    7
 10
599.58183465316949
 20
403.68998376559102
 11
599.20314435332898
 21
403.65805077276633
  0
LINE
  8
_1-0_
  6
CONTINUOUS
 62
    7
 10
599.20314435332898
 20
403.65805077276633
 11
598.83110311500809
 21
403.61330083898594
  0
LINE
  8
_1-0_
  6
CONTINUOUS
 62
    7
 10
598.83110311500809
 20
403.61330083898594
 11
598.46566719438113
 21
403.55577770807571
  0
LINE
  8
_1-0_
  6
CONTINUOUS
 62
    7
 10
598.46566719438113
 20
403.55577770807571
 11
598.1068365914482
 21
403.48548138003548
  0
LINE
  8
_1-0_
  6
CONTINUOUS
 62
    7
 10
598.1068365914482
 20
403.48548138003548
 11
597.75461130620886
 21
403.40241185486548
  0
LINE
  8
_1-0_
  6
CONTINUOUS
 62
    7
 10
597.75461130620886
 20
403.40241185486548
 11
597.40903508248937
 21
403.30652538873977
  0
LINE
  8
_1-0_
  6
CONTINUOUS
 62
    7
 10
597.40903508248937
 20
403.30652538873977
 11
597.0757946176418
 21
403.19961547851562
  0
LINE
  8
_1-0_
  6
CONTINUOUS
 62
    7
 10
597.0757946176418
 20
403.19961547851562
 11
596.7606640966701
 21
403.08334438957303
  0
LINE
  8
_1-0_
  6
CONTINUOUS
 62
    7
 10
596.7606640966701
 20
403.08334438957303
 11
596.46359977574889
 21
402.95766837808617
  0
LINE
  8
_1-0_
  6
CONTINUOUS
 62
    7
 10
596.46359977574889
 20
402.95766837808617
 11
596.1846016548775
 21
402.8226749317065
  0
LINE
  8
_1-0_
  6
CONTINUOUS
 62
    7
 10
596.1846016548775
 20
402.8226749317065
 11
595.92371347788219
 21
402.67832030660855
  0
LINE
  8
_1-0_
  6
CONTINUOUS
 62
    7
 10
595.92371347788219
 20
402.67832030660855
 11
595.68089150093692
 21
402.52460450279204
  0
LINE
  8
_1-0_
  6
CONTINUOUS
 62
    7
 10
595.68089150093692
 20
402.52460450279204
 11
595.45613572404193
 21
402.36157126408284
  0
LINE
  8
_1-0_
  6
CONTINUOUS
 62
    7
 10
595.45613572404193
 20
402.36157126408284
 11
595.2494898910229
 21
402.18913310282943
  0
LINE
  8
_1-0_
  6
CONTINUOUS
 62
    7
 10
595.2494898910229
 20
402.18913310282943
 11
595.06423478881356
 21
402.01030834301093
  0
LINE
  8
_1-0_
  6
CONTINUOUS
 62
    7
 10
595.06423478881356
 20
402.01030834301093
 11
594.90365120434853
 21
401.82807156478106
  0
LINE
  8
_1-0_
  6
CONTINUOUS
 62
    7
 10
594.90365120434853
 20
401.82807156478106
 11
594.76782662527899
 21
401.64242276813991
  0
LINE
  8
_1-0_
  6
CONTINUOUS
 62
    7
 10
594.76782662527899
 20
401.64242276813991
 11
594.6566298201277
 21
401.45331820926145
  0
LINE
  8
_1-0_
  6
CONTINUOUS
 62
    7
 10
594.6566298201277
 20
401.45331820926145
 11
594.57019202037202
 21
401.26080163197173
  0
LINE
  8
_1-0_
  6
CONTINUOUS
 62
    7
 10
594.57019202037202
 20
401.26080163197173
 11
594.50842573836042
 21
401.06487303627034
  0
LINE
  8
_1-0_
  6
CONTINUOUS
 62
    7
 10
594.50842573836042
 20
401.06487303627034
 11
594.47137471791848
 21
400.86548867833187
  0
LINE
  8
_1-0_
  6
CONTINUOUS
 62
    7
 10
594.47137471791848
 20
400.86548867833187
 11
594.45903895904644
 21
400.662736045808
  0
LINE
  8
_1-0_
  6
CONTINUOUS
 62
    7
 10
594.45903895904644
 20
400.662736045808
 11
594.46096368738131
 21
400.58242238166247
  0
LINE
  8
_1-0_
  6
CONTINUOUS
 62
    7
 10
594.46096368738131
 20
400.58242238166247
 11
594.46669412855931
 21
400.50267738725222
  0
LINE
  8
_1-0_
  6
CONTINUOUS
 62
    7
 10
594.46669412855931
 20
400.50267738725222
 11
594.47627402640683
 21
400.42350106257732
  0
LINE
  8
_1-0_
  6
CONTINUOUS
 62
    7
 10
594.47627402640683
 20
400.42350106257732
 11
594.48970338092352
 21
400.34480591998602
  0
LINE
  8
_1-0_
  6
CONTINUOUS
 62
    7
 10
594.48970338092352
 20
400.34480591998602
 11
594.50693844828368
 21
400.26663570330413
  0
LINE
  8
_1-0_
  6
CONTINUOUS
 62
    7
 10
594.50693844828368
 20
400.26663570330413
 11
594.52802297231301
 21
400.18903415635748
  0
LINE
  8
_1-0_
  6
CONTINUOUS
 62
    7
 10
594.52802297231301
 20
400.18903415635748
 11
594.55291320918604
 21
400.11195753532024
  0
LINE
  8
_1-0_
  6
CONTINUOUS
 62
    7
 10
594.55291320918604
 20
400.11195753532024
 11
594.58165290272837
 21
400.03540584019248
  0
LINE
  8
_1-0_
  6
CONTINUOUS
 62
    7
 10
542.35904885074797
 20
376.11755047065401
 11
546.69904878240743
 21
371.7775505389946
  0
LINE
  8
_1-0_
  6
CONTINUOUS
 62
    7
 10
542.29903232176775
 20
401.38555902311708
 11
546.69104366228851
 21
405.77752661981179
  0
LINE
  8
_1-0_
  6
CONTINUOUS
 62
    7
 10
606.39029867400518
 20
376.1281802203203
 11
602.03962524885367
 21
371.7775505389946
  0
LINE
  8
_1-0_
  6
CONTINUOUS
 62
    7
 10
606.38150616502207
 20
401.21753898826796
 11
601.8215185334783
 21
405.77752661981179
  0
LINE
  8
_1-0_
  6
CONTINUOUS
 62
    7
 10
572.60226142912757
 20
306.4374854481818
 11
548.28769330352429
 21
329.08930701178463
  0
LINE
  8
_1-0_
  6
CONTINUOUS
 62
    7
 10
575.28616386030626
 20
306.39881590618586
 11
601.09440866124203
 21
329.08930701178463
  0
LINE
  8
_1-0_
  6
CONTINUOUS
 62
    7
 10
532.08257432149651
 20
303.08931115051024
 11
532.08257432149651
 21
327.08931742487721
  0
LINE
  8
_1-0_
  6
CONTINUOUS
 62
    7
 10
532.08257432149651
 20
327.08931742487721
 11
532.12102514436333
 21
327.47949047898686
  0
LINE
  8
_1-0_
  6
CONTINUOUS
 62
    7
 10
532.12102514436333
 20
327.47949047898686
 11
532.23484657906192
 21
327.85468127276442
  0
LINE
  8
_1-0_
  6
CONTINUOUS
 62
    7
 10
532.23484657906192
 20
327.85468127276442
 11
532.41966424301324
 21
328.20045434370002
  0
LINE
  8
_1-0_
  6
CONTINUOUS
 62
    7
 10
532.41966424301324
 20
328.20045434370002
 11
532.66839163643965
 21
328.50353344066718
  0
LINE
  8
_1-0_
  6
CONTINUOUS
 62
    7
 10
532.66839163643965
 20
328.50353344066718
 11
532.97144886149397
 21
328.7522608340937
  0
LINE
  8
_1-0_
  6
CONTINUOUS
 62
    7
 10
532.97144886149397
 20
328.7522608340937
 11
533.31724380434252
 21
328.93707849804503
  0
LINE
  8
_1-0_
  6
CONTINUOUS
 62
    7
 10
533.31724380434252
 20
328.93707849804503
 11
533.69239085429422
 21
329.0508780608306
  0
LINE
  8
_1-0_
  6
CONTINUOUS
 62
    7
 10
533.69239085429422
 20
329.0508780608306
 11
534.08258578031678
 21
329.08930701178463
  0
LINE
  8
_1-0_
  6
CONTINUOUS
 62
    7
 10
534.08258578031678
 20
329.08930701178463
 11
577.08259155391261
 21
329.08930701178463
  0
LINE
  8
_1-0_
  6
CONTINUOUS
 62
    7
 10
577.08259155391261
 20
329.08930701178463
 11
620.08259732750844
 21
329.08930701178463
  0
LINE
  8
_1-0_
  6
CONTINUOUS
 62
    7
 10
620.08259732750844
 20
329.08930701178463
 11
620.472792253531
 21
329.0508780608306
  0
LINE
  8
_1-0_
  6
CONTINUOUS
 62
    7
 10
620.472792253531
 20
329.0508780608306
 11
620.84793930348269
 21
328.93707849804503
  0
LINE
  8
_1-0_
  6
CONTINUOUS
 62
    7
 10
620.84793930348269
 20
328.93707849804503
 11
621.19373424633125
 21
328.7522608340937
  0
LINE
  8
_1-0_
  6
CONTINUOUS
 62
    7
 10
621.19373424633125
 20
328.7522608340937
 11
621.49679147138556
 21
328.50353344066718
  0
LINE
  8
_1-0_
  6
CONTINUOUS
 62
    7
 10
621.49679147138556
 20
328.50353344066718
 11
621.74551886481197
 21
328.20045434370002
  0
LINE
  8
_1-0_
  6
CONTINUOUS
 62
    7
 10
621.74551886481197
 20
328.20045434370002
 11
621.93033652876329
 21
327.85468127276442
  0
LINE
  8
_1-0_
  6
CONTINUOUS
 62
    7
 10
621.93033652876329
 20
327.85468127276442
 11
622.04415796346188
 21
327.47949047898686
  0
LINE
  8
_1-0_
  6
CONTINUOUS
 62
    7
 10
622.04415796346188
 20
327.47949047898686
 11
622.08260878632882
 21
327.08931742487721
  0
LINE
  8
_1-0_
  6
CONTINUOUS
 62
    7
 10
622.08260878632882
 20
327.08931742487721
 11
622.08260878632882
 21
303.08931115051024
  0
LINE
  8
_1-0_
  6
CONTINUOUS
 62
    7
 10
622.08260878632882
 20
303.08931115051024
 11
622.08260878632882
 21
279.08930487614339
  0
LINE
  8
_1-0_
  6
CONTINUOUS
 62
    7
 10
622.08260878632882
 20
279.08930487614339
 11
622.04415796346188
 21
278.69913182203379
  0
LINE
  8
_1-0_
  6
CONTINUOUS
 62
    7
 10
622.04415796346188
 20
278.69913182203379
 11
621.93033652876329
 21
278.32394102825617
  0
LINE
  8
_1-0_
  6
CONTINUOUS
 62
    7
 10
621.93033652876329
 20
278.32394102825617
 11
621.74551886481197
 21
277.97816795732058
  0
LINE
  8
_1-0_
  6
CONTINUOUS
 62
    7
 10
621.74551886481197
 20
277.97816795732058
 11
621.49679147138556
 21
277.67511073226626
  0
LINE
  8
_1-0_
  6
CONTINUOUS
 62
    7
 10
621.49679147138556
 20
277.67511073226626
 11
621.19373424633125
 21
277.42638333883986
  0
LINE
  8
_1-0_
  6
CONTINUOUS
 62
    7
 10
621.19373424633125
 20
277.42638333883986
 11
620.84793930348269
 21
277.24156567488848
  0
LINE
  8
_1-0_
  6
CONTINUOUS
 62
    7
 10
620.84793930348269
 20
277.24156567488848
 11
620.472792253531
 21
277.12774424019005
  0
LINE
  8
_1-0_
  6
CONTINUOUS
 62
    7
 10
620.472792253531
 20
277.12774424019005
 11
620.08259732750844
 21
277.08931528923586
  0
LINE
  8
_1-0_
  6
CONTINUOUS
 62
    7
 10
620.08259732750844
 20
277.08931528923586
 11
577.08259155391261
 21
277.08931528923586
  0
LINE
  8
_1-0_
  6
CONTINUOUS
 62
    7
 10
577.08259155391261
 20
277.08931528923586
 11
534.08258578031678
 21
277.08931528923586
  0
LINE
  8
_1-0_
  6
CONTINUOUS
 62
    7
 10
534.08258578031678
 20
277.08931528923586
 11
533.69239085429422
 21
277.12774424019005
  0
LINE
  8
_1-0_
  6
CONTINUOUS
 62
    7
 10
533.69239085429422
 20
277.12774424019005
 11
533.31724380434252
 21
277.24156567488848
  0
LINE
  8
_1-0_
  6
CONTINUOUS
 62
    7
 10
533.31724380434252
 20
277.24156567488848
 11
532.97144886149397
 21
277.42638333883986
  0
LINE
  8
_1-0_
  6
CONTINUOUS
 62
    7
 10
532.97144886149397
 20
277.42638333883986
 11
532.66839163643965
 21
277.67511073226626
  0
LINE
  8
_1-0_
  6
CONTINUOUS
 62
    7
 10
532.66839163643965
 20
277.67511073226626
 11
532.41966424301324
 21
277.97816795732058
  0
LINE
  8
_1-0_
  6
CONTINUOUS
 62
    7
 10
532.41966424301324
 20
277.97816795732058
 11
532.23484657906192
 21
278.32394102825617
  0
LINE
  8
_1-0_
  6
CONTINUOUS
 62
    7
 10
532.23484657906192
 20
278.32394102825617
 11
532.12102514436333
 21
278.69913182203379
  0
LINE
  8
_1-0_
  6
CONTINUOUS
 62
    7
 10
532.12102514436333
 20
278.69913182203379
 11
532.08257432149651
 21
279.08930487614339
  0
LINE
  8
_1-0_
  6
CONTINUOUS
 62
    7
 10
532.08257432149651
 20
279.08930487614339
 11
532.08257432149651
 21
303.08931115051024
  0
LINE
  8
_1-0_
  6
CONTINUOUS
 62
    7
 10
614.32608482920523
 20
444.324454672088
 11
615.32606868670257
 21
443.32447081459071
  0
LINE
  8
_1-2_
  6
CONTINUOUS
 62
    7
 10
648.76686744248082
 20
324.46162580983525
 11
648.76686744248082
 21
318.21161734091265
  0
LINE
  8
_1-2_
  6
CONTINUOUS
 62
    7
 10
648.59241706524119
 20
279.10743669193221
 11
648.59241706524119
 21
329.10743882757345
  0
LINE
  8
_1-2_
  6
CONTINUOUS
 62
    7
 10
678.16687403498463
 20
321.00212347553509
 11
683.16683706629692
 21
321.00212347553509
  0
LINE
  8
_1-2_
  6
CONTINUOUS
 62
    7
 10
678.16687403498463
 20
288.95679650619684
 11
683.16683706629692
 21
288.95679650619684
  0
LINE
  8
_1-2_
  6
CONTINUOUS
 62
    7
 10
675.16687871866691
 20
319.40210555971362
 11
678.16687403498463
 21
321.00212347553509
  0
LINE
  8
_1-2_
  6
CONTINUOUS
 62
    7
 10
651.16687244430011
 20
320.82084906147259
 11
655.16685161811495
 21
320.82084906147259
  0
LINE
  8
_1-2_
  6
CONTINUOUS
 62
    7
 10
648.76686744248082
 20
320.09078648099575
 11
651.16687244430011
 21
320.09078648099575
  0
LINE
  8
_1-2_
  6
CONTINUOUS
 62
    7
 10
658.16684693443267
 20
319.22085301756397
 11
655.16685161811495
 21
320.82084906147259
  0
LINE
  8
_1-2_
  6
CONTINUOUS
 62
    7
 10
658.16684693443267
 20
316.10489281908428
 11
675.16687871866691
 21
316.10489281908428
  0
LINE
  8
_1-2_
  6
CONTINUOUS
 62
    7
 10
658.16684693443267
 20
319.25982876634038
 11
675.16687871866691
 21
319.25982876634038
  0
LINE
  8
_1-2_
  6
CONTINUOUS
 62
    7
 10
625.56684825411162
 20
321.0026484014445
 11
646.76685598366043
 21
321.0026484014445
  0
LINE
  8
_1-2_
  6
CONTINUOUS
 62
    7
 10
675.16687871866691
 20
290.55679255010546
 11
678.16687403498463
 21
288.95679650619684
  0
LINE
  8
_1-2_
  6
CONTINUOUS
 62
    7
 10
651.16687244430011
 20
288.98897009006333
 11
655.16685161811495
 21
288.98897009006333
  0
LINE
  8
_1-2_
  6
CONTINUOUS
 62
    7
 10
648.76686744248082
 20
289.57089420451155
 11
651.16687244430011
 21
289.57089420451155
  0
LINE
  8
_1-2_
  6
CONTINUOUS
 62
    7
 10
658.16684693443267
 20
290.58896613397195
 11
655.16685161811495
 21
288.98897009006333
  0
LINE
  8
_1-2_
  6
CONTINUOUS
 62
    7
 10
648.76686744248082
 20
291.8116279366393
 11
648.76686744248082
 21
285.56161946771681
  0
LINE
  8
_1-2_
  6
CONTINUOUS
 62
    7
 10
658.16684693443267
 20
293.74390208122804
 11
675.16687871866691
 21
293.74390208122804
  0
LINE
  8
_1-2_
  6
CONTINUOUS
 62
    7
 10
658.16684693443267
 20
290.58896613397195
 11
675.16687871866691
 21
290.58896613397195
  0
LINE
  8
_1-2_
  6
CONTINUOUS
 62
    7
 10
625.56684825411162
 20
272.50848372470455
 11
646.76685598366043
 21
272.50848372470455
  0
LINE
  8
_1-2_
  6
CONTINUOUS
 62
    7
 10
625.39239787687188
 20
286.92732358070873
 11
646.5924056064207
 21
286.92732358070873
  0
LINE
  8
_1-2_
  6
CONTINUOUS
 62
    7
 10
655.16685161811495
 20
316.21011859201559
 11
655.16685161811495
 21
293.81310481362362
  0
LINE
  8
_1-2_
  6
CONTINUOUS
 62
    7
 10
658.16684693443267
 20
317.01161484000295
 11
658.16684693443267
 21
293.01160856563615
  0
LINE
  8
_1-2_
  6
CONTINUOUS
 62
    7
 10
651.16687244430011
 20
318.61161088391157
 11
651.16687244430011
 21
291.41161252172753
  0
LINE
  8
_1-2_
  6
CONTINUOUS
 62
    7
 10
678.16687403498463
 20
316.21011859201559
 11
678.16687403498463
 21
293.81310481362362
  0
LINE
  8
_1-2_
  6
CONTINUOUS
 62
    7
 10
675.16687871866691
 20
317.01161484000295
 11
675.16687871866691
 21
293.01160856563615
  0
LINE
  8
_1-2_
  6
CONTINUOUS
 62
    7
 10
648.76686744248082
 20
318.21161734091265
 11
648.76686744248082
 21
291.8116279366393
  0
LINE
  8
_1-2_
  6
CONTINUOUS
 62
    7
 10
625.39239787687188
 20
334.72370862040282
 11
646.5924056064207
 21
334.72370862040282
  0
LINE
  8
_1-2_
  6
CONTINUOUS
 62
    7
 10
623.47357495871279
 20
278.65103548558068
 11
623.47357495871279
 21
328.65103762122203
  0
LINE
  8
_1-0_
  6
CONTINUOUS
 62
    7
 10
705.31201763963145
 20
288.9944599401997
 11
683.09465975374781
 21
288.9944599401997
  0
LINE
  8
_1-0_
  6
CONTINUOUS
 62
    7
 10
683.09465975374781
 20
288.9944599401997
 11
683.09465975374781
 21
320.99446830602233
  0
LINE
  8
_1-0_
  6
CONTINUOUS
 62
    7
 10
683.09465975374781
 20
320.99446830602233
 11
695.71199763235427
 21
320.99446830602233
  0
LINE
  8
_1-0_
  6
CONTINUOUS
 62
    7
 10
651.16687244430011
 20
317.61162702641428
 11
651.16687244430011
 21
320.66590843053405
  0
LINE
  8
_1-0_
  6
CONTINUOUS
 62
    7
 10
651.16687244430011
 20
293.41162398054792
 11
651.16687244430011
 21
289.14391072100187
  0
LINE
  8
_1-0_
  6
CONTINUOUS
 62
    7
 10
655.16685161811495
 20
293.91161590929653
 11
655.16685161811495
 21
289.14391072100187
  0
LINE
  8
_1-0_
  6
CONTINUOUS
 62
    7
 10
655.16685161811495
 20
315.51161718184414
 11
655.16685161811495
 21
320.55923911135164
  0
LINE
  8
_1-0_
  6
CONTINUOUS
 62
    7
 10
658.16684693443267
 20
316.91161645425325
 11
658.16684693443267
 21
319.10488813540184
  0
LINE
  8
_1-0_
  6
CONTINUOUS
 62
    7
 10
658.16684693443267
 20
293.41162398054792
 11
658.16684693443267
 21
290.81162220722916
  0
LINE
  8
_1-0_
  6
CONTINUOUS
 62
    7
 10
675.16687871866691
 20
293.11160695138585
 11
675.16687871866691
 21
290.74390676491049
  0
LINE
  8
_1-0_
  6
CONTINUOUS
 62
    7
 10
678.16687403498463
 20
294.01161429504623
 11
678.16687403498463
 21
289.51162132056982
  0
LINE
  8
_1-0_
  6
CONTINUOUS
 62
    7
 10
678.16687403498463
 20
316.11160749634251
 11
678.16687403498463
 21
321.05376306187691
  0
LINE
  8
_1-0_
  6
CONTINUOUS
 62
    7
 10
675.16687871866691
 20
316.81161806850355
 11
675.16687871866691
 21
319.10488813540184
  0
LINE
  8
_1-2_
  6
CONTINUOUS
 62
    7
 10
417.86083987320706
 20
465.61059399461192
 11
417.86083987320706
 21
459.36060739760228
  0
LINE
  8
_1-2_
  6
CONTINUOUS
 62
    7
 10
417.68638949596749
 20
420.25642674862183
 11
417.68638949596749
 21
470.25645075617604
  0
LINE
  8
_1-2_
  6
CONTINUOUS
 62
    7
 10
447.26084646571098
 20
462.1511135322246
 11
452.26085324084892
 21
462.1511135322246
  0
LINE
  8
_1-2_
  6
CONTINUOUS
 62
    7
 10
447.26084646571098
 20
430.10578656288646
 11
452.26085324084892
 21
430.10578656288646
  0
LINE
  8
_1-2_
  6
CONTINUOUS
 62
    7
 10
444.26085114939326
 20
460.55109561640325
 11
447.26084646571098
 21
462.1511135322246
  0
LINE
  8
_1-2_
  6
CONTINUOUS
 62
    7
 10
420.26084487502629
 20
461.9698391181621
 11
424.2608240488413
 21
461.9698391181621
  0
LINE
  8
_1-2_
  6
CONTINUOUS
 62
    7
 10
417.86083987320706
 20
461.23979840959817
 11
420.26084487502629
 21
461.23979840959817
  0
LINE
  8
_1-2_
  6
CONTINUOUS
 62
    7
 10
427.26081936515897
 20
460.3698649461665
 11
424.2608240488413
 21
461.9698391181621
  0
LINE
  8
_1-2_
  6
CONTINUOUS
 62
    7
 10
427.26081936515897
 20
457.25390474768676
 11
444.26085114939326
 21
457.25390474768676
  0
LINE
  8
_1-2_
  6
CONTINUOUS
 62
    7
 10
427.26081936515897
 20
460.40884069494297
 11
444.26085114939326
 21
460.40884069494297
  0
LINE
  8
_1-2_
  6
CONTINUOUS
 62
    7
 10
394.66082068483797
 20
462.15163845813407
 11
415.86082841438667
 21
462.15163845813407
  0
LINE
  8
_1-2_
  6
CONTINUOUS
 62
    7
 10
444.26085114939326
 20
431.70580447870793
 11
447.26084646571098
 21
430.10578656288646
  0
LINE
  8
_1-2_
  6
CONTINUOUS
 62
    7
 10
420.26084487502629
 20
430.13793827484005
 11
424.2608240488413
 21
430.13793827484005
  0
LINE
  8
_1-2_
  6
CONTINUOUS
 62
    7
 10
417.86083987320706
 20
430.71990613311414
 11
420.26084487502629
 21
430.71990613311414
  0
LINE
  8
_1-2_
  6
CONTINUOUS
 62
    7
 10
427.26081936515897
 20
431.73795619066152
 11
424.2608240488413
 21
430.13793827484005
  0
LINE
  8
_1-2_
  6
CONTINUOUS
 62
    7
 10
417.86083987320706
 20
432.96059612141613
 11
417.86083987320706
 21
426.71060952440649
  0
LINE
  8
_1-2_
  6
CONTINUOUS
 62
    7
 10
427.26081936515897
 20
434.89289213791773
 11
444.26085114939326
 21
434.89289213791773
  0
LINE
  8
_1-2_
  6
CONTINUOUS
 62
    7
 10
427.26081936515897
 20
431.73795619066152
 11
444.26085114939326
 21
431.73795619066152
  0
LINE
  8
_1-2_
  6
CONTINUOUS
 62
    7
 10
394.66082068483797
 20
413.65749565330708
 11
415.86082841438667
 21
413.65749565330708
  0
LINE
  8
_1-2_
  6
CONTINUOUS
 62
    7
 10
394.48641405142411
 20
428.07633550931121
 11
415.68637803714705
 21
428.07633550931121
  0
LINE
  8
_1-2_
  6
CONTINUOUS
 62
    7
 10
424.2608240488413
 20
457.35910864870516
 11
424.2608240488413
 21
434.96209487031319
  0
LINE
  8
_1-2_
  6
CONTINUOUS
 62
    7
 10
427.26081936515897
 20
458.16062676860554
 11
427.26081936515897
 21
434.16062049423863
  0
LINE
  8
_1-2_
  6
CONTINUOUS
 62
    7
 10
420.26084487502629
 20
459.76060094060125
 11
420.26084487502629
 21
432.56060257841716
  0
LINE
  8
_1-2_
  6
CONTINUOUS
 62
    7
 10
447.26084646571098
 20
457.35910864870516
 11
447.26084646571098
 21
434.96209487031319
  0
LINE
  8
_1-2_
  6
CONTINUOUS
 62
    7
 10
444.26085114939326
 20
458.16062676860554
 11
444.26085114939326
 21
434.16062049423863
  0
LINE
  8
_1-2_
  6
CONTINUOUS
 62
    7
 10
417.86083987320706
 20
459.36060739760228
 11
417.86083987320706
 21
432.96059612141613
  0
LINE
  8
_1-2_
  6
CONTINUOUS
 62
    7
 10
394.48641405142411
 20
475.87272054900529
 11
415.68637803714705
 21
475.87272054900529
  0
LINE
  8
_1-2_
  6
CONTINUOUS
 62
    7
 10
392.56754738943926
 20
419.80004741418315
 11
392.56754738943926
 21
469.80002767791154
  0
LINE
  8
_1-0_
  6
CONTINUOUS
 62
    7
 10
474.40599007035769
 20
430.14344999688933
 11
452.1886321844741
 21
430.14344999688933
  0
LINE
  8
_1-0_
  6
CONTINUOUS
 62
    7
 10
452.1886321844741
 20
430.14344999688933
 11
452.1886321844741
 21
462.14345836271184
  0
LINE
  8
_1-0_
  6
CONTINUOUS
 62
    7
 10
452.1886321844741
 20
462.14345836271184
 11
464.80597006308074
 21
462.14345836271184
  0
LINE
  8
_1-0_
  6
CONTINUOUS
 62
    7
 10
420.26084487502629
 20
458.76061708310397
 11
420.26084487502629
 21
461.81489848722356
  0
LINE
  8
_1-0_
  6
CONTINUOUS
 62
    7
 10
420.26084487502629
 20
434.56061403723754
 11
420.26084487502629
 21
430.29292264960446
  0
LINE
  8
_1-0_
  6
CONTINUOUS
 62
    7
 10
424.2608240488413
 20
435.06060596598616
 11
424.2608240488413
 21
430.29292264960446
  0
LINE
  8
_1-0_
  6
CONTINUOUS
 62
    7
 10
424.2608240488413
 20
456.66060723853383
 11
424.2608240488413
 21
461.70825103995418
  0
LINE
  8
_1-0_
  6
CONTINUOUS
 62
    7
 10
427.26081936515897
 20
458.06062838285584
 11
427.26081936515897
 21
460.25390006400443
  0
LINE
  8
_1-0_
  6
CONTINUOUS
 62
    7
 10
427.26081936515897
 20
434.56061403723754
 11
427.26081936515897
 21
431.96061226391885
  0
LINE
  8
_1-0_
  6
CONTINUOUS
 62
    7
 10
444.26085114939326
 20
434.26061887998833
 11
444.26085114939326
 21
431.89289682160006
  0
LINE
  8
_1-0_
  6
CONTINUOUS
 62
    7
 10
447.26084646571098
 20
435.16060435173591
 11
447.26084646571098
 21
430.66063324917241
  0
LINE
  8
_1-0_
  6
CONTINUOUS
 62
    7
 10
447.26084646571098
 20
457.2605975530322
 11
447.26084646571098
 21
462.20277499047944
  0
LINE
  8
_1-0_
  6
CONTINUOUS
 62
    7
 10
444.26085114939326
 20
457.96062999710614
 11
444.26085114939326
 21
460.25390006400443
  0
LINE
  8
_1-2_
  6
CONTINUOUS
 62
    7
 10
505.65373586411636
 20
283.16937899497475
 11
505.65373586411636
 21
289.41936559198439
  0
LINE
  8
_1-2_
  6
CONTINUOUS
 62
    7
 10
505.82814249753028
 20
328.52354624096495
 11
505.82814249753028
 21
278.52354410532359
  0
LINE
  8
_1-2_
  6
CONTINUOUS
 62
    7
 10
476.25372927161254
 20
286.62888132927492
 11
471.25372249647455
 21
286.62888132927492
  0
LINE
  8
_1-2_
  6
CONTINUOUS
 62
    7
 10
476.25372927161254
 20
318.67418642670032
 11
471.25372249647455
 21
318.67418642670032
  0
LINE
  8
_1-2_
  6
CONTINUOUS
 62
    7
 10
479.25372458793021
 20
288.22887737318354
 11
476.25372927161254
 21
286.62888132927492
  0
LINE
  8
_1-2_
  6
CONTINUOUS
 62
    7
 10
503.25373086229718
 20
286.81013387142457
 11
499.25370794465636
 21
286.81013387142457
  0
LINE
  8
_1-2_
  6
CONTINUOUS
 62
    7
 10
505.65373586411636
 20
287.54019645190141
 11
503.25373086229718
 21
287.54019645190141
  0
LINE
  8
_1-2_
  6
CONTINUOUS
 62
    7
 10
496.2537126283388
 20
288.41012991533319
 11
499.25370794465636
 21
286.81013387142457
  0
LINE
  8
_1-2_
  6
CONTINUOUS
 62
    7
 10
496.2537126283388
 20
291.52611198572572
 11
479.25372458793021
 21
291.52611198572572
  0
LINE
  8
_1-2_
  6
CONTINUOUS
 62
    7
 10
496.2537126283388
 20
288.37115416655661
 11
479.25372458793021
 21
288.37115416655661
  0
LINE
  8
_1-2_
  6
CONTINUOUS
 62
    7
 10
528.85371130865963
 20
286.6283564033655
 11
507.65370357911092
 21
286.6283564033655
  0
LINE
  8
_1-2_
  6
CONTINUOUS
 62
    7
 10
479.25372458793021
 20
317.0741903827917
 11
476.25372927161254
 21
318.67418642670032
  0
LINE
  8
_1-2_
  6
CONTINUOUS
 62
    7
 10
503.25373086229718
 20
318.64203471474667
 11
499.25370794465636
 21
318.64203471474667
  0
LINE
  8
_1-2_
  6
CONTINUOUS
 62
    7
 10
505.65373586411636
 20
318.06008872838561
 11
503.25373086229718
 21
318.06008872838561
  0
LINE
  8
_1-2_
  6
CONTINUOUS
 62
    7
 10
496.2537126283388
 20
317.04203867083805
 11
499.25370794465636
 21
318.64203471474667
  0
LINE
  8
_1-2_
  6
CONTINUOUS
 62
    7
 10
505.65373586411636
 20
315.81937686817071
 11
505.65373586411636
 21
322.06938533709319
  0
LINE
  8
_1-2_
  6
CONTINUOUS
 62
    7
 10
496.2537126283388
 20
313.887080851669
 11
479.25372458793021
 21
313.887080851669
  0
LINE
  8
_1-2_
  6
CONTINUOUS
 62
    7
 10
496.2537126283388
 20
317.04203867083805
 11
479.25372458793021
 21
317.04203867083805
  0
LINE
  8
_1-2_
  6
CONTINUOUS
 62
    7
 10
528.85371130865963
 20
335.12249920819261
 11
507.65370357911092
 21
335.12249920819261
  0
LINE
  8
_1-2_
  6
CONTINUOUS
 62
    7
 10
529.02816168589936
 20
320.70368122410127
 11
507.82815395635055
 21
320.70368122410127
  0
LINE
  8
_1-2_
  6
CONTINUOUS
 62
    7
 10
499.25370794465636
 20
291.42086434088156
 11
499.25370794465636
 21
313.81787811927353
  0
LINE
  8
_1-2_
  6
CONTINUOUS
 62
    7
 10
496.2537126283388
 20
290.61936809289409
 11
496.2537126283388
 21
314.619374367261
  0
LINE
  8
_1-2_
  6
CONTINUOUS
 62
    7
 10
503.25373086229718
 20
289.01937204898559
 11
503.25373086229718
 21
316.21937041116951
  0
LINE
  8
_1-2_
  6
CONTINUOUS
 62
    7
 10
476.25372927161254
 20
291.42086434088156
 11
476.25372927161254
 21
313.81787811927353
  0
LINE
  8
_1-2_
  6
CONTINUOUS
 62
    7
 10
479.25372458793021
 20
290.61936809289409
 11
479.25372458793021
 21
314.619374367261
  0
LINE
  8
_1-2_
  6
CONTINUOUS
 62
    7
 10
505.65373586411636
 20
289.41936559198439
 11
505.65373586411636
 21
315.81937686817071
  0
LINE
  8
_1-2_
  6
CONTINUOUS
 62
    7
 10
529.02816168589936
 20
272.90727431249434
 11
507.82815395635055
 21
272.90727431249434
  0
LINE
  8
_1-2_
  6
CONTINUOUS
 62
    7
 10
530.94698460405857
 20
328.97994744731648
 11
530.94698460405857
 21
278.97994531167512
  0
LINE
  8
_1-0_
  6
CONTINUOUS
 62
    7
 10
449.10858566696572
 20
318.63652299269745
 11
471.32589980902355
 21
318.63652299269745
  0
LINE
  8
_1-0_
  6
CONTINUOUS
 62
    7
 10
471.32589980902355
 20
318.63652299269745
 11
471.32589980902355
 21
286.63653649878768
  0
LINE
  8
_1-0_
  6
CONTINUOUS
 62
    7
 10
471.32589980902355
 20
286.63653649878768
 11
458.70856193041703
 21
286.63653649878768
  0
LINE
  8
_1-0_
  6
CONTINUOUS
 62
    7
 10
503.25373086229718
 20
290.01937777839572
 11
503.25373086229718
 21
286.96509637427596
  0
LINE
  8
_1-0_
  6
CONTINUOUS
 62
    7
 10
503.25373086229718
 20
314.21938082426209
 11
503.25373086229718
 21
318.48709408380813
  0
LINE
  8
_1-0_
  6
CONTINUOUS
 62
    7
 10
499.25370794465636
 20
313.71936702360063
 11
499.25370794465636
 21
318.48709408380813
  0
LINE
  8
_1-0_
  6
CONTINUOUS
 62
    7
 10
499.25370794465636
 20
292.11936575105284
 11
499.25370794465636
 21
287.07176569345836
  0
LINE
  8
_1-0_
  6
CONTINUOUS
 62
    7
 10
496.2537126283388
 20
290.71936647864379
 11
496.2537126283388
 21
288.52611666940817
  0
LINE
  8
_1-0_
  6
CONTINUOUS
 62
    7
 10
496.2537126283388
 20
314.21938082426209
 11
496.2537126283388
 21
316.81938259758084
  0
LINE
  8
_1-0_
  6
CONTINUOUS
 62
    7
 10
479.25372458793021
 20
314.51937598151119
 11
479.25372458793021
 21
316.88707616798666
  0
LINE
  8
_1-0_
  6
CONTINUOUS
 62
    7
 10
476.25372927161254
 20
313.61936863785076
 11
476.25372927161254
 21
318.11938348424019
  0
LINE
  8
_1-0_
  6
CONTINUOUS
 62
    7
 10
476.25372927161254
 20
291.51937543655447
 11
476.25372927161254
 21
286.57721987102025
  0
LINE
  8
_1-0_
  6
CONTINUOUS
 62
    7
 10
479.25372458793021
 20
290.81938673630646
 11
479.25372458793021
 21
288.52611666940817
  0
LINE
  8
_1-2_
  6
CONTINUOUS
 62
    7
 10
735.1760587360867
 20
423.41381235012216
 11
735.1760587360867
 21
429.66379894713168
  0
LINE
  8
_1-2_
  6
CONTINUOUS
 62
    7
 10
735.35050911332644
 20
468.76797959611218
 11
735.35050911332644
 21
418.76799933238374
  0
LINE
  8
_1-2_
  6
CONTINUOUS
 62
    7
 10
705.77605214358289
 20
426.87329281250936
 11
700.7760453684449
 21
426.87329281250936
  0
LINE
  8
_1-2_
  6
CONTINUOUS
 62
    7
 10
705.77605214358289
 20
458.91861978184755
 11
700.7760453684449
 21
458.91861978184755
  0
LINE
  8
_1-2_
  6
CONTINUOUS
 62
    7
 10
708.77604745990061
 20
428.47331072833083
 11
705.77605214358289
 21
426.87329281250936
  0
LINE
  8
_1-2_
  6
CONTINUOUS
 62
    7
 10
732.77605373426752
 20
427.05456722657186
 11
728.77607456045257
 21
427.05456722657186
  0
LINE
  8
_1-2_
  6
CONTINUOUS
 62
    7
 10
735.1760587360867
 20
427.78465167896167
 11
732.77605373426752
 21
427.78465167896167
  0
LINE
  8
_1-2_
  6
CONTINUOUS
 62
    7
 10
725.77603550030915
 20
428.65458514239333
 11
728.77607456045257
 21
427.05456722657186
  0
LINE
  8
_1-2_
  6
CONTINUOUS
 62
    7
 10
725.77603550030915
 20
431.77054534087301
 11
708.77604745990061
 21
431.77054534087301
  0
LINE
  8
_1-2_
  6
CONTINUOUS
 62
    7
 10
725.77603550030915
 20
428.61560939361686
 11
708.77604745990061
 21
428.61560939361686
  0
LINE
  8
_1-2_
  6
CONTINUOUS
 62
    7
 10
758.37603418063009
 20
426.87276788659995
 11
737.17602645108127
 21
426.87276788659995
  0
LINE
  8
_1-2_
  6
CONTINUOUS
 62
    7
 10
708.77604745990061
 20
457.31860186602614
 11
705.77605214358289
 21
458.91861978184755
  0
LINE
  8
_1-2_
  6
CONTINUOUS
 62
    7
 10
732.77605373426752
 20
458.88646806989391
 11
728.77607456045257
 21
458.88646806989391
  0
LINE
  8
_1-2_
  6
CONTINUOUS
 62
    7
 10
735.1760587360867
 20
458.30454395544569
 11
732.77605373426752
 21
458.30454395544569
  0
LINE
  8
_1-2_
  6
CONTINUOUS
 62
    7
 10
725.77603550030915
 20
457.28645015407255
 11
728.77607456045257
 21
458.88646806989391
  0
LINE
  8
_1-2_
  6
CONTINUOUS
 62
    7
 10
735.1760587360867
 20
456.06381022331794
 11
735.1760587360867
 21
462.31379682032752
  0
LINE
  8
_1-2_
  6
CONTINUOUS
 62
    7
 10
725.77603550030915
 20
454.13151420681629
 11
708.77604745990061
 21
454.13151420681629
  0
LINE
  8
_1-2_
  6
CONTINUOUS
 62
    7
 10
725.77603550030915
 20
457.28645015407255
 11
708.77604745990061
 21
457.28645015407255
  0
LINE
  8
_1-2_
  6
CONTINUOUS
 62
    7
 10
758.37603418063009
 20
475.36695443525275
 11
737.17602645108127
 21
475.36695443525275
  0
LINE
  8
_1-2_
  6
CONTINUOUS
 62
    7
 10
758.55048455786971
 20
460.94811457924857
 11
737.35047682832101
 21
460.94811457924857
  0
LINE
  8
_1-2_
  6
CONTINUOUS
 62
    7
 10
728.77607456045257
 20
431.66529769602892
 11
728.77607456045257
 21
454.06231147442088
  0
LINE
  8
_1-2_
  6
CONTINUOUS
 62
    7
 10
725.77603550030915
 20
430.86382331995429
 11
725.77603550030915
 21
454.86378585049545
  0
LINE
  8
_1-2_
  6
CONTINUOUS
 62
    7
 10
732.77605373426752
 20
429.26380540413282
 11
732.77605373426752
 21
456.4638037663168
  0
LINE
  8
_1-2_
  6
CONTINUOUS
 62
    7
 10
705.77605214358289
 20
431.66529769602892
 11
705.77605214358289
 21
454.06231147442088
  0
LINE
  8
_1-2_
  6
CONTINUOUS
 62
    7
 10
708.77604745990061
 20
430.86382331995429
 11
708.77604745990061
 21
454.86378585049545
  0
LINE
  8
_1-2_
  6
CONTINUOUS
 62
    7
 10
735.1760587360867
 20
429.66379894713168
 11
735.1760587360867
 21
456.06381022331794
  0
LINE
  8
_1-2_
  6
CONTINUOUS
 62
    7
 10
758.55048455786971
 20
413.15168579572878
 11
737.35047682832101
 21
413.15168579572878
  0
LINE
  8
_1-2_
  6
CONTINUOUS
 62
    7
 10
760.46935121985473
 20
469.22435893055092
 11
760.46935121985473
 21
419.22437866682253
  0
LINE
  8
_1-0_
  6
CONTINUOUS
 62
    7
 10
678.63090853893607
 20
458.88095634784474
 11
700.84826642481971
 21
458.88095634784474
  0
LINE
  8
_1-0_
  6
CONTINUOUS
 62
    7
 10
700.84826642481971
 20
458.88095634784474
 11
700.84826642481971
 21
426.88094798202212
  0
LINE
  8
_1-0_
  6
CONTINUOUS
 62
    7
 10
700.84826642481971
 20
426.88094798202212
 11
688.23092854621325
 21
426.88094798202212
  0
LINE
  8
_1-0_
  6
CONTINUOUS
 62
    7
 10
732.77605373426752
 20
430.26378926163011
 11
732.77605373426752
 21
427.2095078575104
  0
LINE
  8
_1-0_
  6
CONTINUOUS
 62
    7
 10
732.77605373426752
 20
454.46379230749648
 11
732.77605373426752
 21
458.73152743895537
  0
LINE
  8
_1-0_
  6
CONTINUOUS
 62
    7
 10
728.77607456045257
 20
453.96380037874786
 11
728.77607456045257
 21
458.73152743895537
  0
LINE
  8
_1-0_
  6
CONTINUOUS
 62
    7
 10
728.77607456045257
 20
432.36379910620025
 11
728.77607456045257
 21
427.31619904860565
  0
LINE
  8
_1-0_
  6
CONTINUOUS
 62
    7
 10
725.77603550030915
 20
430.96382170570399
 11
725.77603550030915
 21
428.7705500245554
  0
LINE
  8
_1-0_
  6
CONTINUOUS
 62
    7
 10
725.77603550030915
 20
454.46379230749648
 11
725.77603550030915
 21
457.06379408081523
  0
LINE
  8
_1-0_
  6
CONTINUOUS
 62
    7
 10
708.77604745990061
 20
454.76378746474563
 11
708.77604745990061
 21
457.1315095231339
  0
LINE
  8
_1-0_
  6
CONTINUOUS
 62
    7
 10
705.77605214358289
 20
453.86380199299816
 11
705.77605214358289
 21
458.36381683938748
  0
LINE
  8
_1-0_
  6
CONTINUOUS
 62
    7
 10
705.77605214358289
 20
431.76380879170182
 11
705.77605214358289
 21
426.82167509808039
  0
LINE
  8
_1-0_
  6
CONTINUOUS
 62
    7
 10
708.77604745990061
 20
431.06382009145369
 11
708.77604745990061
 21
428.7705500245554
  0
LINE
  8
_1-0_
  6
CONTINUOUS
 62
    7
 10
394.81436151335146
 20
304.21431486210764
 11
454.81435532735588
 21
304.21431486210764
  0
LINE
  8
_1-0_
  6
CONTINUOUS
 62
    7
 10
704.81434413364946
 20
304.21431486210764
 11
750.61719180073976
 21
304.21431486210764
  0
LINE
  8
_1-0_
  6
CONTINUOUS
 62
    7
 10
645.80309201391503
 20
394.21432745502727
 11
690.81435140955864
 21
394.21432745502727
  0
LINE
  8
_1-0_
  6
CONTINUOUS
 62
    7
 10
645.80309201391503
 20
345.07271041280973
 11
750.26216691065019
 21
345.07271041280973
  0
LINE
  8
_1-0_
  6
CONTINUOUS
 62
    7
 10
770.26219401120215
 20
325.07270518417056
 11
770.26219401120215
 21
324.21432009074681
  0
LINE
  8
_1-0_
  6
CONTINUOUS
 62
    7
 10
625.80310865718866
 20
374.21434409830101
 11
625.80310865718866
 21
365.07271564144889
  0
LINE
  8
_1-0_
  6
CONTINUOUS
 62
    7
 10
474.81433868408203
 20
394.21432745502727
 11
504.81433559108427
 21
394.21432745502727
  0
LINE
  8
_1-0_
  6
CONTINUOUS
 62
    7
 10
394.81436151335146
 20
345.07271041280973
 11
504.81433559108427
 21
345.07271041280973
  0
LINE
  8
_1-0_
  6
CONTINUOUS
 62
    7
 10
524.81436269163623
 20
374.21434409830101
 11
524.81436269163623
 21
365.07271564144889
  0
LINE
  8
_1-0_
  6
CONTINUOUS
 62
    7
 10
694.81437432719929
 20
345.07271041280973
 11
750.26216691065019
 21
345.07271041280973
  0
LINE
  8
_1-0_
  6
CONTINUOUS
 62
    7
 10
524.81436269163623
 20
483.67495680407666
 11
525.81434654913346
 21
484.6749844053997
  0
LINE
  8
_1-0_
  6
CONTINUOUS
 62
    7
 10
525.81434654913346
 20
484.6749844053997
 11
623.81433936159578
 21
484.6749844053997
  0
LINE
  8
_1-0_
  6
CONTINUOUS
 62
    7
 10
623.81433936159578
 20
484.6749844053997
 11
624.81436696291894
 21
483.67495680407666
  0
LINE
  8
_1-0_
  6
CONTINUOUS
 62
    7
 10
624.81436696291894
 20
483.67495680407666
 11
624.81436696291894
 21
478.67495002893867
  0
LINE
  8
_1-0_
  6
CONTINUOUS
 62
    7
 10
624.81436696291894
 20
478.67495002893867
 11
623.81433936159578
 21
477.67496617144133
  0
LINE
  8
_1-0_
  6
CONTINUOUS
 62
    7
 10
623.81433936159578
 20
477.67496617144133
 11
525.81434654913346
 21
477.67496617144133
  0
LINE
  8
_1-0_
  6
CONTINUOUS
 62
    7
 10
525.81434654913346
 20
477.67496617144133
 11
524.81436269163623
 21
478.67495002893867
  0
LINE
  8
_1-0_
  6
CONTINUOUS
 62
    7
 10
524.81436269163623
 20
478.67495002893867
 11
524.81436269163623
 21
483.67495680407666
  0
LINE
  8
_1-0_
  6
CONTINUOUS
 62
    7
 10
537.71170479910711
 20
477.51901943250971
 11
611.71169133720241
 21
477.51901943250971
  0
LINE
  8
_1-0_
  6
CONTINUOUS
 62
    7
 10
611.71169133720241
 20
477.51901943250971
 11
611.71169133720241
 21
468.51903348355677
  0
LINE
  8
_1-0_
  6
CONTINUOUS
 62
    7
 10
611.71169133720241
 20
468.51903348355677
 11
609.71172362220784
 21
466.51902202473644
  0
LINE
  8
_1-0_
  6
CONTINUOUS
 62
    7
 10
609.71172362220784
 20
466.51902202473644
 11
539.71171625792749
 21
466.51902202473644
  0
LINE
  8
_1-0_
  6
CONTINUOUS
 62
    7
 10
539.71171625792749
 20
466.51902202473644
 11
537.71170479910711
 21
468.51903348355677
  0
LINE
  8
_1-0_
  6
CONTINUOUS
 62
    7
 10
537.71170479910711
 20
468.51903348355677
 11
537.71170479910711
 21
477.51901943250971
  0
LINE
  8
_1-0_
  6
CONTINUOUS
 62
    7
 10
518.77583374848223
 20
489.14779059214936
 11
630.77581928503548
 21
489.14779059214936
  0
LINE
  8
_1-0_
  6
CONTINUOUS
 62
    7
 10
630.77581928503548
 20
489.14779059214936
 11
630.77581928503548
 21
485.14781141833447
  0
LINE
  8
_1-0_
  6
CONTINUOUS
 62
    7
 10
630.77581928503548
 20
485.14781141833447
 11
518.77583374848223
 21
485.14781141833447
  0
LINE
  8
_1-0_
  6
CONTINUOUS
 62
    7
 10
518.77583374848223
 20
485.14781141833447
 11
518.77583374848223
 21
489.14779059214936
  0
LINE
  8
_1-0_
  6
CONTINUOUS
 62
    7
 10
574.76863065741691
 20
477.67890311576224
 11
574.76863065741691
 21
468.52257673344553
  0
LINE
  8
_1-0_
  6
CONTINUOUS
 62
    7
 10
552.0631791633989
 20
466.51902202473644
 11
552.55232262335221
 21
466.50581138934865
  0
LINE
  8
_1-0_
  6
CONTINUOUS
 62
    7
 10
552.55232262335221
 20
466.50581138934865
 11
553.04496558936864
 21
466.49435050699242
  0
LINE
  8
_1-0_
  6
CONTINUOUS
 62
    7
 10
553.04496558936864
 20
466.49435050699242
 11
553.54110806144809
 21
466.48463937766763
  0
LINE
  8
_1-0_
  6
CONTINUOUS
 62
    7
 10
553.54110806144809
 20
466.48463937766763
 11
554.04070629576449
 21
466.47667800137435
  0
LINE
  8
_1-0_
  6
CONTINUOUS
 62
    7
 10
554.04070629576449
 20
466.47667800137435
 11
554.54376029231844
 21
466.47051012193833
  0
LINE
  8
_1-0_
  6
CONTINUOUS
 62
    7
 10
554.54376029231844
 20
466.47051012193833
 11
555.05027005110924
 21
466.46609199553382
  0
LINE
  8
_1-0_
  6
CONTINUOUS
 62
    7
 10
555.05027005110924
 20
466.46609199553382
 11
555.56032305978897
 21
466.46342362216075
  0
LINE
  8
_1-0_
  6
CONTINUOUS
 62
    7
 10
555.56032305978897
 20
466.46342362216075
 11
556.07378808688009
 21
466.46254874564505
  0
LINE
  8
_1-0_
  6
CONTINUOUS
 62
    7
 10
556.07378808688009
 20
466.46254874564505
 11
557.34253401001433
 21
466.46801672386846
  0
LINE
  8
_1-0_
  6
CONTINUOUS
 62
    7
 10
557.34253401001433
 20
466.46801672386846
 11
558.58984545851297
 21
466.48433317088711
  0
LINE
  8
_1-0_
  6
CONTINUOUS
 62
    7
 10
558.58984545851297
 20
466.48433317088711
 11
559.81572243237588
 21
466.51154183052677
  0
LINE
  8
_1-0_
  6
CONTINUOUS
 62
    7
 10
559.81572243237588
 20
466.51154183052677
 11
561.02020867542876
 21
466.54964270278754
  0
LINE
  8
_1-0_
  6
CONTINUOUS
 62
    7
 10
561.02020867542876
 20
466.54964270278754
 11
562.20326044384569
 21
466.59863578766925
  0
LINE
  8
_1-0_
  6
CONTINUOUS
 62
    7
 10
562.20326044384569
 20
466.59863578766925
 11
563.36483399380108
 21
466.65847734134627
  0
LINE
  8
_1-0_
  6
CONTINUOUS
 62
    7
 10
563.36483399380108
 20
466.65847734134627
 11
564.50501681294668
 21
466.7292548514701
  0
LINE
  8
_1-0_
  6
CONTINUOUS
 62
    7
 10
564.50501681294668
 20
466.7292548514701
 11
565.62380890128225
 21
466.81088083038912
  0
LINE
  8
_1-0_
  6
CONTINUOUS
 62
    7
 10
565.62380890128225
 20
466.81088083038912
 11
566.70257538902251
 21
466.90195547567834
  0
LINE
  8
_1-0_
  6
CONTINUOUS
 62
    7
 10
566.70257538902251
 20
466.90195547567834
 11
567.72281263785931
 21
467.00099149726071
  0
LINE
  8
_1-0_
  6
CONTINUOUS
 62
    7
 10
567.72281263785931
 20
467.00099149726071
 11
568.68447690396692
 21
467.10798889513637
  0
LINE
  8
_1-0_
  6
CONTINUOUS
 62
    7
 10
568.68447690396692
 20
467.10798889513637
 11
569.587655674997
 21
467.22299141313113
  0
LINE
  8
_1-0_
  6
CONTINUOUS
 62
    7
 10
569.587655674997
 20
467.22299141313113
 11
570.43226146329766
 21
467.3459115635934
  0
LINE
  8
_1-0_
  6
CONTINUOUS
 62
    7
 10
570.43226146329766
 20
467.3459115635934
 11
571.21833801269531
 21
467.47683683417478
  0
LINE
  8
_1-0_
  6
CONTINUOUS
 62
    7
 10
571.21833801269531
 20
467.47683683417478
 11
571.94588532318926
 21
467.61572348104943
  0
LINE
  8
_1-0_
  6
CONTINUOUS
 62
    7
 10
571.94588532318926
 20
467.61572348104943
 11
572.61485965095426
 21
467.76257150421725
  0
LINE
  8
_1-0_
  6
CONTINUOUS
 62
    7
 10
572.61485965095426
 20
467.76257150421725
 11
572.98554483067562
 21
467.85390861246117
  0
LINE
  8
_1-0_
  6
CONTINUOUS
 62
    7
 10
572.98554483067562
 20
467.85390861246117
 11
573.32727159772594
 21
467.94629557252387
  0
LINE
  8
_1-0_
  6
CONTINUOUS
 62
    7
 10
573.32727159772594
 20
467.94629557252387
 11
573.63995246445347
 21
468.03977612823132
  0
LINE
  8
_1-0_
  6
CONTINUOUS
 62
    7
 10
573.63995246445347
 20
468.03977612823132
 11
573.92367491850973
 21
468.1342627919318
  0
LINE
  8
_1-0_
  6
CONTINUOUS
 62
    7
 10
573.92367491850973
 20
468.1342627919318
 11
574.17839521606902
 21
468.22984305127704
  0
LINE
  8
_1-0_
  6
CONTINUOUS
 62
    7
 10
574.17839521606902
 20
468.22984305127704
 11
574.40415710095726
 21
468.32647316244112
  0
LINE
  8
_1-0_
  6
CONTINUOUS
 62
    7
 10
574.40415710095726
 20
468.32647316244112
 11
574.60087308552261
 21
468.42415312542414
  0
LINE
  8
_1-0_
  6
CONTINUOUS
 62
    7
 10
574.60087308552261
 20
468.42415312542414
 11
574.76863065741691
 21
468.52292668405187
  0
LINE
  8
_1-0_
  6
CONTINUOUS
 62
    7
 10
538.02176103628744
 20
468.20910847785387
 11
537.96633760901489
 21
468.2309803907475
  0
LINE
  8
_1-0_
  6
CONTINUOUS
 62
    7
 10
537.96633760901489
 20
468.2309803907475
 11
537.91244521564499
 21
468.25289604746695
  0
LINE
  8
_1-0_
  6
CONTINUOUS
 62
    7
 10
537.91244521564499
 20
468.25289604746695
 11
537.86008385617743
 21
468.27489919183796
  0
LINE
  8
_1-0_
  6
CONTINUOUS
 62
    7
 10
537.86008385617743
 20
468.27489919183796
 11
537.80916604296124
 21
468.29690233620897
  0
LINE
  8
_1-0_
  6
CONTINUOUS
 62
    7
 10
537.80916604296124
 20
468.29690233620897
 11
537.75982300747296
 21
468.31899296823156
  0
LINE
  8
_1-0_
  6
CONTINUOUS
 62
    7
 10
537.75982300747296
 20
468.31899296823156
 11
537.71192351823606
 21
468.34112734407989
  0
LINE
  8
_1-0_
  6
CONTINUOUS
 62
    7
 10
537.71192351823606
 20
468.34112734407989
 11
537.6655550629016
 21
468.36334920757986
  0
LINE
  8
_1-0_
  6
CONTINUOUS
 62
    7
 10
537.6655550629016
 20
468.36334920757986
 11
537.62067389764388
 21
468.38557107107977
  0
LINE
  8
_1-0_
  6
CONTINUOUS
 62
    7
 10
597.59862082345137
 20
466.47107879167356
 11
597.10943361967225
 21
466.45786815628577
  0
LINE
  8
_1-0_
  6
CONTINUOUS
 62
    7
 10
597.10943361967225
 20
466.45786815628577
 11
596.6167906536557
 21
466.44636353010378
  0
LINE
  8
_1-0_
  6
CONTINUOUS
 62
    7
 10
596.6167906536557
 20
466.44636353010378
 11
596.12069192540218
 21
466.43665240077894
  0
LINE
  8
_1-0_
  6
CONTINUOUS
 62
    7
 10
596.12069192540218
 20
466.43665240077894
 11
595.62109369108566
 21
466.42873476831147
  0
LINE
  8
_1-0_
  6
CONTINUOUS
 62
    7
 10
595.62109369108566
 20
466.42873476831147
 11
595.11803969453194
 21
466.42256688887539
  0
LINE
  8
_1-0_
  6
CONTINUOUS
 62
    7
 10
595.11803969453194
 20
466.42256688887539
 11
594.61148619191533
 21
466.41814876247099
  0
LINE
  8
_1-0_
  6
CONTINUOUS
 62
    7
 10
594.61148619191533
 20
466.41814876247099
 11
594.1014769270613
 21
466.41548038909787
  0
LINE
  8
_1-0_
  6
CONTINUOUS
 62
    7
 10
594.1014769270613
 20
466.41548038909787
 11
593.58796815614437
 21
466.41460551258217
  0
LINE
  8
_1-0_
  6
CONTINUOUS
 62
    7
 10
593.58796815614437
 20
466.41460551258217
 11
592.31922223301012
 21
466.42002974697982
  0
LINE
  8
_1-0_
  6
CONTINUOUS
 62
    7
 10
592.31922223301012
 20
466.42002974697982
 11
591.07191078451137
 21
466.43638993782423
  0
LINE
  8
_1-0_
  6
CONTINUOUS
 62
    7
 10
591.07191078451137
 20
466.43638993782423
 11
589.84603381064858
 21
466.46359859746389
  0
LINE
  8
_1-0_
  6
CONTINUOUS
 62
    7
 10
589.84603381064858
 20
466.46359859746389
 11
588.64154756759581
 21
466.5016994697246
  0
LINE
  8
_1-0_
  6
CONTINUOUS
 62
    7
 10
588.64154756759581
 20
466.5016994697246
 11
587.45853954300458
 21
466.55069255460637
  0
LINE
  8
_1-0_
  6
CONTINUOUS
 62
    7
 10
587.45853954300458
 20
466.55069255460637
 11
586.29692224922326
 21
466.61053410828339
  0
LINE
  8
_1-0_
  6
CONTINUOUS
 62
    7
 10
586.29692224922326
 20
466.61053410828339
 11
585.15673943007766
 21
466.68131161840728
  0
LINE
  8
_1-0_
  6
CONTINUOUS
 62
    7
 10
585.15673943007766
 20
466.68131161840728
 11
584.03799108556791
 21
466.7629375973263
  0
LINE
  8
_1-0_
  6
CONTINUOUS
 62
    7
 10
584.03799108556791
 20
466.7629375973263
 11
582.95922459782787
 21
466.8540122426154
  0
LINE
  8
_1-0_
  6
CONTINUOUS
 62
    7
 10
582.95922459782787
 20
466.8540122426154
 11
581.93898734899108
 21
466.95304826419783
  0
LINE
  8
_1-0_
  6
CONTINUOUS
 62
    7
 10
581.93898734899108
 20
466.95304826419783
 11
580.97727933905753
 21
467.06004566207355
  0
LINE
  8
_1-0_
  6
CONTINUOUS
 62
    7
 10
580.97727933905753
 20
467.06004566207355
 11
580.07414431185339
 21
467.17500443624255
  0
LINE
  8
_1-0_
  6
CONTINUOUS
 62
    7
 10
580.07414431185339
 20
467.17500443624255
 11
579.22949477972668
 21
467.29796833053058
  0
LINE
  8
_1-0_
  6
CONTINUOUS
 62
    7
 10
579.22949477972668
 20
467.29796833053058
 11
578.44341823032914
 21
467.42889360111189
  0
LINE
  8
_1-0_
  6
CONTINUOUS
 62
    7
 10
578.44341823032914
 20
467.42889360111189
 11
577.7159146636609
 21
467.56773650416073
  0
LINE
  8
_1-0_
  6
CONTINUOUS
 62
    7
 10
577.7159146636609
 20
467.56773650416073
 11
577.0468965920702
 21
467.71458452732867
  0
LINE
  8
_1-0_
  6
CONTINUOUS
 62
    7
 10
577.0468965920702
 20
467.71458452732867
 11
576.67621141234872
 21
467.80596537939829
  0
LINE
  8
_1-0_
  6
CONTINUOUS
 62
    7
 10
576.67621141234872
 20
467.80596537939829
 11
576.33452838912433
 21
467.89835233946098
  0
LINE
  8
_1-0_
  6
CONTINUOUS
 62
    7
 10
576.33452838912433
 20
467.89835233946098
 11
576.0218037785711
 21
467.9918328951685
  0
LINE
  8
_1-0_
  6
CONTINUOUS
 62
    7
 10
576.0218037785711
 20
467.9918328951685
 11
575.73808132451461
 21
468.08631955886892
  0
LINE
  8
_1-0_
  6
CONTINUOUS
 62
    7
 10
575.73808132451461
 20
468.08631955886892
 11
575.48336102695544
 21
468.18189981821422
  0
LINE
  8
_1-0_
  6
CONTINUOUS
 62
    7
 10
575.48336102695544
 20
468.18189981821422
 11
575.25764288589301
 21
468.27852992937829
  0
LINE
  8
_1-0_
  6
CONTINUOUS
 62
    7
 10
575.25764288589301
 20
468.27852992937829
 11
575.06088315750173
 21
468.37620989236132
  0
LINE
  8
_1-0_
  6
CONTINUOUS
 62
    7
 10
575.06088315750173
 20
468.37620989236132
 11
574.89312558560755
 21
468.47498345098899
  0
LINE
  8
_1-0_
  6
CONTINUOUS
 62
    7
 10
547.97846819903395
 20
517.47008054873186
 11
550.65327191444896
 21
519.54537513173227
  0
LINE
  8
_1-0_
  6
CONTINUOUS
 62
    7
 10
550.65327191444896
 20
519.54537513173227
 11
599.24102650646068
 21
521.35291375708857
  0
LINE
  8
_1-0_
  6
CONTINUOUS
 62
    7
 10
599.24102650646068
 20
521.35291375708857
 11
600.6151950497424
 21
519.42822916627381
  0
LINE
  8
_1-0_
  6
CONTINUOUS
 62
    7
 10
600.6151950497424
 20
519.42822916627381
 11
597.94034759050169
 21
517.35289083944781
  0
LINE
  8
_1-0_
  6
CONTINUOUS
 62
    7
 10
597.94034759050169
 20
517.35289083944781
 11
549.35259299848985
 21
515.54539595791732
  0
LINE
  8
_1-0_
  6
CONTINUOUS
 62
    7
 10
549.35259299848985
 20
515.54539595791732
 11
547.97846819903395
 21
517.47008054873186
  0
LINE
  8
_1-0_
  6
CONTINUOUS
 62
    7
 10
547.97846819903395
 20
522.47004358004415
 11
550.65327191444896
 21
524.54538190687026
  0
LINE
  8
_1-0_
  6
CONTINUOUS
 62
    7
 10
550.65327191444896
 20
524.54538190687026
 11
599.24102650646068
 21
526.35292053222656
  0
LINE
  8
_1-0_
  6
CONTINUOUS
 62
    7
 10
599.24102650646068
 20
526.35292053222656
 11
600.6151950497424
 21
524.42823594141191
  0
LINE
  8
_1-0_
  6
CONTINUOUS
 62
    7
 10
600.6151950497424
 20
524.42823594141191
 11
597.94034759050169
 21
522.3528976145858
  0
LINE
  8
_1-0_
  6
CONTINUOUS
 62
    7
 10
597.94034759050169
 20
522.3528976145858
 11
549.35259299848985
 21
520.5453589892295
  0
LINE
  8
_1-0_
  6
CONTINUOUS
 62
    7
 10
549.35259299848985
 20
520.5453589892295
 11
547.97846819903395
 21
522.47004358004415
  0
LINE
  8
_1-0_
  6
CONTINUOUS
 62
    7
 10
547.97846819903395
 20
527.47005035518214
 11
550.65327191444896
 21
529.54538868200825
  0
LINE
  8
_1-0_
  6
CONTINUOUS
 62
    7
 10
550.65327191444896
 20
529.54538868200825
 11
599.24102650646068
 21
531.35292730736455
  0
LINE
  8
_1-0_
  6
CONTINUOUS
 62
    7
 10
599.24102650646068
 20
531.35292730736455
 11
600.6151950497424
 21
529.42819897272409
  0
LINE
  8
_1-0_
  6
CONTINUOUS
 62
    7
 10
600.6151950497424
 20
529.42819897272409
 11
597.94034759050169
 21
527.35290438972379
  0
LINE
  8
_1-0_
  6
CONTINUOUS
 62
    7
 10
597.94034759050169
 20
527.35290438972379
 11
549.35259299848985
 21
525.54536576436749
  0
LINE
  8
_1-0_
  6
CONTINUOUS
 62
    7
 10
549.35259299848985
 20
525.54536576436749
 11
547.97846819903395
 21
527.47005035518214
  0
LINE
  8
_1-0_
  6
CONTINUOUS
 62
    7
 10
547.97846819903395
 20
532.47005713032013
 11
550.65327191444896
 21
534.54539545714624
  0
LINE
  8
_1-0_
  6
CONTINUOUS
 62
    7
 10
550.65327191444896
 20
534.54539545714624
 11
599.24102650646068
 21
536.35289033867673
  0
LINE
  8
_1-0_
  6
CONTINUOUS
 62
    7
 10
599.24102650646068
 20
536.35289033867673
 11
600.6151950497424
 21
534.42820574786208
  0
LINE
  8
_1-0_
  6
CONTINUOUS
 62
    7
 10
600.6151950497424
 20
534.42820574786208
 11
597.94034759050169
 21
532.35291116486178
  0
LINE
  8
_1-0_
  6
CONTINUOUS
 62
    7
 10
597.94034759050169
 20
532.35291116486178
 11
549.35259299848985
 21
530.54537253950548
  0
LINE
  8
_1-0_
  6
CONTINUOUS
 62
    7
 10
549.35259299848985
 20
530.54537253950548
 11
547.97846819903395
 21
532.47005713032013
  0
LINE
  8
_1-0_
  6
CONTINUOUS
 62
    7
 10
547.97846819903395
 20
537.47006390545812
 11
550.65327191444896
 21
539.54535848845842
  0
LINE
  8
_1-0_
  6
CONTINUOUS
 62
    7
 10
550.65327191444896
 20
539.54535848845842
 11
599.24102650646068
 21
541.35289711381472
  0
LINE
  8
_1-0_
  6
CONTINUOUS
 62
    7
 10
599.24102650646068
 20
541.35289711381472
 11
600.6151950497424
 21
539.42821252300007
  0
LINE
  8
_1-0_
  6
CONTINUOUS
 62
    7
 10
600.6151950497424
 20
539.42821252300007
 11
597.94034759050169
 21
537.35291793999988
  0
LINE
  8
_1-0_
  6
CONTINUOUS
 62
    7
 10
597.94034759050169
 20
537.35291793999988
 11
549.35259299848985
 21
535.54537931464347
  0
LINE
  8
_1-0_
  6
CONTINUOUS
 62
    7
 10
549.35259299848985
 20
535.54537931464347
 11
547.97846819903395
 21
537.47006390545812
  0
LINE
  8
_1-0_
  6
CONTINUOUS
 62
    7
 10
547.97846819903395
 20
542.47007068059611
 11
550.65327191444896
 21
544.54536526359652
  0
LINE
  8
_1-0_
  6
CONTINUOUS
 62
    7
 10
550.65327191444896
 20
544.54536526359652
 11
599.24102650646068
 21
546.35290388895271
  0
LINE
  8
_1-0_
  6
CONTINUOUS
 62
    7
 10
599.24102650646068
 20
546.35290388895271
 11
600.6151950497424
 21
544.42821929813806
  0
LINE
  8
_1-0_
  6
CONTINUOUS
 62
    7
 10
600.6151950497424
 20
544.42821929813806
 11
597.94034759050169
 21
542.35292471513776
  0
LINE
  8
_1-0_
  6
CONTINUOUS
 62
    7
 10
597.94034759050169
 20
542.35292471513776
 11
549.35259299848985
 21
540.54538608978146
  0
LINE
  8
_1-0_
  6
CONTINUOUS
 62
    7
 10
549.35259299848985
 20
540.54538608978146
 11
547.97846819903395
 21
542.47007068059611
  0
LINE
  8
_1-0_
  6
CONTINUOUS
 62
    7
 10
547.97846819903395
 20
547.4700774557341
 11
550.65327191444896
 21
549.5453720387344
  0
LINE
  8
_1-0_
  6
CONTINUOUS
 62
    7
 10
550.65327191444896
 20
549.5453720387344
 11
599.24102650646068
 21
551.3529106640907
  0
LINE
  8
_1-0_
  6
CONTINUOUS
 62
    7
 10
599.24102650646068
 20
551.3529106640907
 11
600.6151950497424
 21
549.42822607327605
  0
LINE
  8
_1-0_
  6
CONTINUOUS
 62
    7
 10
600.6151950497424
 20
549.42822607327605
 11
597.94034759050169
 21
547.35288774645005
  0
LINE
  8
_1-0_
  6
CONTINUOUS
 62
    7
 10
597.94034759050169
 20
547.35288774645005
 11
549.35259299848985
 21
545.54539286491956
  0
LINE
  8
_1-0_
  6
CONTINUOUS
 62
    7
 10
549.35259299848985
 20
545.54539286491956
 11
547.97846819903395
 21
547.4700774557341
  0
LINE
  8
_1-0_
  6
CONTINUOUS
 62
    7
 10
787.04967454593611
 20
498.11934305434056
 11
787.04967454593611
 21
469.54084551012193
  0
LINE
  8
_1-0_
  6
CONTINUOUS
 62
    7
 10
787.04967454593611
 20
469.54084551012193
 11
842.04966158480249
 21
469.54084551012193
  0
LINE
  8
_1-0_
  6
CONTINUOUS
 62
    7
 10
842.04966158480249
 20
469.54084551012193
 11
842.04966158480249
 21
498.11934305434056
  0
LINE
  8
_1-0_
  6
CONTINUOUS
 62
    7
 10
787.04967454593611
 20
518.35326839137724
 11
787.04967454593611
 21
561.54084768994892
  0
LINE
  8
_1-0_
  6
CONTINUOUS
 62
    7
 10
787.04967454593611
 20
561.54084768994892
 11
842.04966158480249
 21
561.54084768994892
  0
LINE
  8
_1-0_
  6
CONTINUOUS
 62
    7
 10
842.04966158480249
 20
561.54084768994892
 11
842.04966158480249
 21
518.35326839137724
  0
LINE
  8
_1-0_
  6
CONTINUOUS
 62
    7
 10
842.51588328004345
 20
559.54083623112854
 11
786.51582489602811
 21
559.54083623112854
  0
LINE
  8
_1-0_
  6
CONTINUOUS
 62
    7
 10
786.51582489602811
 20
559.54083623112854
 11
786.51582489602811
 21
557.54082477230816
  0
LINE
  8
_1-0_
  6
CONTINUOUS
 62
    7
 10
786.51582489602811
 20
557.54082477230816
 11
842.51588328004345
 21
557.54082477230816
  0
LINE
  8
_1-0_
  6
CONTINUOUS
 62
    7
 10
842.51588328004345
 20
557.54082477230816
 11
842.51588328004345
 21
559.54083623112854
  0
LINE
  8
_1-0_
  6
CONTINUOUS
 62
    7
 10
842.39934972814603
 20
555.54081331348789
 11
786.3992913441308
 21
555.54081331348789
  0
LINE
  8
_1-0_
  6
CONTINUOUS
 62
    7
 10
786.3992913441308
 20
555.54081331348789
 11
786.3992913441308
 21
553.54084559849321
  0
LINE
  8
_1-0_
  6
CONTINUOUS
 62
    7
 10
786.3992913441308
 20
553.54084559849321
 11
842.39934972814603
 21
553.54084559849321
  0
LINE
  8
_1-0_
  6
CONTINUOUS
 62
    7
 10
842.39934972814603
 20
553.54084559849321
 11
842.39934972814603
 21
555.54081331348789
  0
LINE
  8
_1-0_
  6
CONTINUOUS
 62
    7
 10
842.51588328004345
 20
551.54083413967294
 11
786.51582489602811
 21
551.54083413967294
  0
LINE
  8
_1-0_
  6
CONTINUOUS
 62
    7
 10
786.51582489602811
 20
551.54083413967294
 11
786.51582489602811
 21
549.54082268085256
  0
LINE
  8
_1-0_
  6
CONTINUOUS
 62
    7
 10
786.51582489602811
 20
549.54082268085256
 11
842.51588328004345
 21
549.54082268085256
  0
LINE
  8
_1-0_
  6
CONTINUOUS
 62
    7
 10
842.51588328004345
 20
549.54082268085256
 11
842.51588328004345
 21
551.54083413967294
  0
LINE
  8
_1-0_
  6
CONTINUOUS
 62
    7
 10
842.51588328004345
 20
547.54085496585799
 11
786.51582489602811
 21
547.54085496585799
  0
LINE
  8
_1-0_
  6
CONTINUOUS
 62
    7
 10
786.51582489602811
 20
547.54085496585799
 11
786.51582489602811
 21
545.54084350703761
  0
LINE
  8
_1-0_
  6
CONTINUOUS
 62
    7
 10
786.51582489602811
 20
545.54084350703761
 11
842.51588328004345
 21
545.54084350703761
  0
LINE
  8
_1-0_
  6
CONTINUOUS
 62
    7
 10
842.51588328004345
 20
545.54084350703761
 11
842.51588328004345
 21
547.54085496585799
  0
LINE
  8
_1-0_
  6
CONTINUOUS
 62
    7
 10
842.51588328004345
 20
543.54083204821723
 11
786.51582489602811
 21
543.54083204821723
  0
LINE
  8
_1-0_
  6
CONTINUOUS
 62
    7
 10
786.51582489602811
 20
543.54083204821723
 11
786.51582489602811
 21
541.54082058939696
  0
LINE
  8
_1-0_
  6
CONTINUOUS
 62
    7
 10
786.51582489602811
 20
541.54082058939696
 11
842.51588328004345
 21
541.54082058939696
  0
LINE
  8
_1-0_
  6
CONTINUOUS
 62
    7
 10
842.51588328004345
 20
541.54082058939696
 11
842.51588328004345
 21
543.54083204821723
  0
LINE
  8
_1-0_
  6
CONTINUOUS
 62
    7
 10
842.51588328004345
 20
539.54085287440239
 11
786.51582489602811
 21
539.54085287440239
  0
LINE
  8
_1-0_
  6
CONTINUOUS
 62
    7
 10
786.51582489602811
 20
539.54085287440239
 11
786.51582489602811
 21
537.54084141558201
  0
LINE
  8
_1-0_
  6
CONTINUOUS
 62
    7
 10
786.51582489602811
 20
537.54084141558201
 11
842.51588328004345
 21
537.54084141558201
  0
LINE
  8
_1-0_
  6
CONTINUOUS
 62
    7
 10
842.51588328004345
 20
537.54084141558201
 11
842.51588328004345
 21
539.54085287440239
  0
LINE
  8
_1-0_
  6
CONTINUOUS
 62
    7
 10
842.51588328004345
 20
535.54082995676163
 11
786.51582489602811
 21
535.54082995676163
  0
LINE
  8
_1-0_
  6
CONTINUOUS
 62
    7
 10
786.51582489602811
 20
535.54082995676163
 11
786.51582489602811
 21
533.54081849794125
  0
LINE
  8
_1-0_
  6
CONTINUOUS
 62
    7
 10
786.51582489602811
 20
533.54081849794125
 11
842.51588328004345
 21
533.54081849794125
  0
LINE
  8
_1-0_
  6
CONTINUOUS
 62
    7
 10
842.51588328004345
 20
533.54081849794125
 11
842.51588328004345
 21
535.54082995676163
  0
LINE
  8
_1-0_
  6
CONTINUOUS
 62
    7
 10
842.51588328004345
 20
531.54085078294668
 11
786.51582489602811
 21
531.54085078294668
  0
LINE
  8
_1-0_
  6
CONTINUOUS
 62
    7
 10
786.51582489602811
 20
531.54085078294668
 11
786.51582489602811
 21
529.54083932412641
  0
LINE
  8
_1-0_
  6
CONTINUOUS
 62
    7
 10
786.51582489602811
 20
529.54083932412641
 11
842.51588328004345
 21
529.54083932412641
  0
LINE
  8
_1-0_
  6
CONTINUOUS
 62
    7
 10
842.51588328004345
 20
529.54083932412641
 11
842.51588328004345
 21
531.54085078294668
  0
LINE
  8
_1-0_
  6
CONTINUOUS
 62
    7
 10
842.51588328004345
 20
527.54082786530591
 11
786.51582489602811
 21
527.54082786530591
  0
LINE
  8
_1-0_
  6
CONTINUOUS
 62
    7
 10
786.51582489602811
 20
527.54082786530591
 11
786.51582489602811
 21
525.54081640648565
  0
LINE
  8
_1-0_
  6
CONTINUOUS
 62
    7
 10
786.51582489602811
 20
525.54081640648565
 11
842.51588328004345
 21
525.54081640648565
  0
LINE
  8
_1-0_
  6
CONTINUOUS
 62
    7
 10
842.51588328004345
 20
525.54081640648565
 11
842.51588328004345
 21
527.54082786530591
  0
LINE
  8
_1-0_
  6
CONTINUOUS
 62
    7
 10
842.51588328004345
 20
523.54084869149108
 11
786.51582489602811
 21
523.54084869149108
  0
LINE
  8
_1-0_
  6
CONTINUOUS
 62
    7
 10
786.51582489602811
 20
523.54084869149108
 11
786.51582489602811
 21
521.5408372326707
  0
LINE
  8
_1-0_
  6
CONTINUOUS
 62
    7
 10
786.51582489602811
 20
521.5408372326707
 11
842.51588328004345
 21
521.5408372326707
  0
LINE
  8
_1-0_
  6
CONTINUOUS
 62
    7
 10
842.51588328004345
 20
521.5408372326707
 11
842.51588328004345
 21
523.54084869149108
  0
LINE
  8
_1-0_
  6
CONTINUOUS
 62
    7
 10
842.51588328004345
 20
495.5408194994834
 11
786.51582489602811
 21
495.5408194994834
  0
LINE
  8
_1-0_
  6
CONTINUOUS
 62
    7
 10
786.51582489602811
 20
495.5408194994834
 11
786.51582489602811
 21
493.54085178448884
  0
LINE
  8
_1-0_
  6
CONTINUOUS
 62
    7
 10
786.51582489602811
 20
493.54085178448884
 11
842.51588328004345
 21
493.54085178448884
  0
LINE
  8
_1-0_
  6
CONTINUOUS
 62
    7
 10
842.51588328004345
 20
493.54085178448884
 11
842.51588328004345
 21
495.5408194994834
  0
LINE
  8
_1-0_
  6
CONTINUOUS
 62
    7
 10
842.51588328004345
 20
491.54084032566851
 11
786.51582489602811
 21
491.54084032566851
  0
LINE
  8
_1-0_
  6
CONTINUOUS
 62
    7
 10
786.51582489602811
 20
491.54084032566851
 11
786.51582489602811
 21
489.54082886684819
  0
LINE
  8
_1-0_
  6
CONTINUOUS
 62
    7
 10
786.51582489602811
 20
489.54082886684819
 11
842.51588328004345
 21
489.54082886684819
  0
LINE
  8
_1-0_
  6
CONTINUOUS
 62
    7
 10
842.51588328004345
 20
489.54082886684819
 11
842.51588328004345
 21
491.54084032566851
  0
LINE
  8
_1-0_
  6
CONTINUOUS
 62
    7
 10
842.51588328004345
 20
487.54081740802775
 11
786.51582489602811
 21
487.54081740802775
  0
LINE
  8
_1-0_
  6
CONTINUOUS
 62
    7
 10
786.51582489602811
 20
487.54081740802775
 11
786.51582489602811
 21
485.54084969303318
  0
LINE
  8
_1-0_
  6
CONTINUOUS
 62
    7
 10
786.51582489602811
 20
485.54084969303318
 11
842.51588328004345
 21
485.54084969303318
  0
LINE
  8
_1-0_
  6
CONTINUOUS
 62
    7
 10
842.51588328004345
 20
485.54084969303318
 11
842.51588328004345
 21
487.54081740802775
  0
LINE
  8
_1-0_
  6
CONTINUOUS
 62
    7
 10
842.51588328004345
 20
483.54083823421286
 11
786.51582489602811
 21
483.54083823421286
  0
LINE
  8
_1-0_
  6
CONTINUOUS
 62
    7
 10
786.51582489602811
 20
483.54083823421286
 11
786.51582489602811
 21
481.54082677539247
  0
LINE
  8
_1-0_
  6
CONTINUOUS
 62
    7
 10
786.51582489602811
 20
481.54082677539247
 11
842.51588328004345
 21
481.54082677539247
  0
LINE
  8
_1-0_
  6
CONTINUOUS
 62
    7
 10
842.51588328004345
 20
481.54082677539247
 11
842.51588328004345
 21
483.54083823421286
  0
LINE
  8
_1-0_
  6
CONTINUOUS
 62
    7
 10
842.51588328004345
 20
479.54081531657209
 11
786.51582489602811
 21
479.54081531657209
  0
LINE
  8
_1-0_
  6
CONTINUOUS
 62
    7
 10
786.51582489602811
 20
479.54081531657209
 11
786.51582489602811
 21
477.54084760157752
  0
LINE
  8
_1-0_
  6
CONTINUOUS
 62
    7
 10
786.51582489602811
 20
477.54084760157752
 11
842.51588328004345
 21
477.54084760157752
  0
LINE
  8
_1-0_
  6
CONTINUOUS
 62
    7
 10
842.51588328004345
 20
477.54084760157752
 11
842.51588328004345
 21
479.54081531657209
  0
LINE
  8
_1-0_
  6
CONTINUOUS
 62
    7
 10
842.51588328004345
 20
475.5408361427572
 11
786.51582489602811
 21
475.5408361427572
  0
LINE
  8
_1-0_
  6
CONTINUOUS
 62
    7
 10
786.51582489602811
 20
475.5408361427572
 11
786.51582489602811
 21
473.54082468393688
  0
LINE
  8
_1-0_
  6
CONTINUOUS
 62
    7
 10
786.51582489602811
 20
473.54082468393688
 11
842.51588328004345
 21
473.54082468393688
  0
LINE
  8
_1-0_
  6
CONTINUOUS
 62
    7
 10
842.51588328004345
 20
473.54082468393688
 11
842.51588328004345
 21
475.5408361427572
  0
LINE
  8
_1-0_
  6
CONTINUOUS
 62
    7
 10
834.4970275996734
 20
411.42743541467144
 11
794.49706088622088
 21
411.42743541467144
  0
LINE
  8
_1-0_
  6
CONTINUOUS
 62
    7
 10
794.49706088622088
 20
411.42743541467144
 11
794.49706088622088
 21
381.42743850766919
  0
LINE
  8
_1-0_
  6
CONTINUOUS
 62
    7
 10
794.49706088622088
 20
381.42743850766919
 11
834.4970275996734
 21
381.42743850766919
  0
LINE
  8
_1-0_
  6
CONTINUOUS
 62
    7
 10
834.4970275996734
 20
381.42743850766919
 11
834.4970275996734
 21
411.42743541467144
  0
LINE
  8
_1-0_
  6
CONTINUOUS
 62
    7
 10
835.49701145717063
 20
387.42742914030458
 11
793.49707702872365
 21
387.42742914030458
  0
LINE
  8
_1-0_
  6
CONTINUOUS
 62
    7
 10
793.49707702872365
 20
387.42742914030458
 11
793.49707702872365
 21
385.42741768148403
  0
LINE
  8
_1-0_
  6
CONTINUOUS
 62
    7
 10
793.49707702872365
 20
385.42741768148403
 11
835.49701145717063
 21
385.42741768148403
  0
LINE
  8
_1-0_
  6
CONTINUOUS
 62
    7
 10
835.49701145717063
 20
385.42741768148403
 11
835.49701145717063
 21
387.42742914030458
  0
LINE
  8
_1-0_
  6
CONTINUOUS
 62
    7
 10
835.49701145717063
 20
391.42740831411942
 11
793.49707702872365
 21
391.42740831411942
  0
LINE
  8
_1-0_
  6
CONTINUOUS
 62
    7
 10
793.49707702872365
 20
391.42740831411942
 11
793.49707702872365
 21
389.42744059912485
  0
LINE
  8
_1-0_
  6
CONTINUOUS
 62
    7
 10
793.49707702872365
 20
389.42744059912485
 11
835.49701145717063
 21
389.42744059912485
  0
LINE
  8
_1-0_
  6
CONTINUOUS
 62
    7
 10
835.49701145717063
 20
389.42744059912485
 11
835.49701145717063
 21
391.42740831411942
  0
LINE
  8
_1-0_
  6
CONTINUOUS
 62
    7
 10
835.49701145717063
 20
395.42743123176012
 11
793.49707702872365
 21
395.42743123176012
  0
LINE
  8
_1-0_
  6
CONTINUOUS
 62
    7
 10
793.49707702872365
 20
395.42743123176012
 11
793.49707702872365
 21
393.42741977293969
  0
LINE
  8
_1-0_
  6
CONTINUOUS
 62
    7
 10
793.49707702872365
 20
393.42741977293969
 11
835.49701145717063
 21
393.42741977293969
  0
LINE
  8
_1-0_
  6
CONTINUOUS
 62
    7
 10
835.49701145717063
 20
393.42741977293969
 11
835.49701145717063
 21
395.42743123176012
  0
LINE
  8
_1-0_
  6
CONTINUOUS
 62
    7
 10
835.49701145717063
 20
399.42741040557507
 11
793.49707702872365
 21
399.42741040557507
  0
LINE
  8
_1-0_
  6
CONTINUOUS
 62
    7
 10
793.49707702872365
 20
399.42741040557507
 11
793.49707702872365
 21
397.42744269058051
  0
LINE
  8
_1-0_
  6
CONTINUOUS
 62
    7
 10
793.49707702872365
 20
397.42744269058051
 11
835.49701145717063
 21
397.42744269058051
  0
LINE
  8
_1-0_
  6
CONTINUOUS
 62
    7
 10
835.49701145717063
 20
397.42744269058051
 11
835.49701145717063
 21
399.42741040557507
  0
LINE
  8
_1-0_
  6
CONTINUOUS
 62
    7
 10
835.49701145717063
 20
403.42743332321572
 11
793.49707702872365
 21
403.42743332321572
  0
LINE
  8
_1-0_
  6
CONTINUOUS
 62
    7
 10
793.49707702872365
 20
403.42743332321572
 11
793.49707702872365
 21
401.42742186439534
  0
LINE
  8
_1-0_
  6
CONTINUOUS
 62
    7
 10
793.49707702872365
 20
401.42742186439534
 11
835.49701145717063
 21
401.42742186439534
  0
LINE
  8
_1-0_
  6
CONTINUOUS
 62
    7
 10
835.49701145717063
 20
401.42742186439534
 11
835.49701145717063
 21
403.42743332321572
  0
LINE
  8
_1-0_
  6
CONTINUOUS
 62
    7
 10
835.49701145717063
 20
407.42741249703073
 11
793.49707702872365
 21
407.42741249703073
  0
LINE
  8
_1-0_
  6
CONTINUOUS
 62
    7
 10
793.49707702872365
 20
407.42741249703073
 11
793.49707702872365
 21
405.42744478203616
  0
LINE
  8
_1-0_
  6
CONTINUOUS
 62
    7
 10
793.49707702872365
 20
405.42744478203616
 11
835.49701145717063
 21
405.42744478203616
  0
LINE
  8
_1-0_
  6
CONTINUOUS
 62
    7
 10
835.49701145717063
 20
405.42744478203616
 11
835.49701145717063
 21
407.42741249703073
  0
LINE
  8
_1-0_
  6
CONTINUOUS
 62
    7
 10
835.49701145717063
 20
411.42743541467144
 11
793.49707702872365
 21
411.42743541467144
  0
LINE
  8
_1-0_
  6
CONTINUOUS
 62
    7
 10
793.49707702872365
 20
411.42743541467144
 11
793.49707702872365
 21
409.427423955851
  0
LINE
  8
_1-0_
  6
CONTINUOUS
 62
    7
 10
793.49707702872365
 20
409.427423955851
 11
835.49701145717063
 21
409.427423955851
  0
LINE
  8
_1-0_
  6
CONTINUOUS
 62
    7
 10
835.49701145717063
 20
409.427423955851
 11
835.49701145717063
 21
411.42743541467144
  0
LINE
  8
_1-1_
  6
CONTINUOUS
 62
    7
 10
799.46793427338457
 20
508.11935660461654
 11
799.46793427338457
 21
502.45041924553948
  0
LINE
  8
_1-1_
  6
CONTINUOUS
 62
    7
 10
801.06230923567955
 20
508.11935660461654
 11
801.06230923567955
 21
502.45041924553948
  0
LINE
  8
_1-1_
  6
CONTINUOUS
 62
    7
 10
829.51600564492708
 20
508.11935660461654
 11
829.51600564492708
 21
502.45041924553948
  0
LINE
  8
_1-1_
  6
CONTINUOUS
 62
    7
 10
831.07004879984618
 20
508.11935660461654
 11
831.07004879984618
 21
502.45041924553948
  0
LINE
  8
_1-1_
  6
CONTINUOUS
 62
    7
 10
801.05548519885679
 20
502.11932222815551
 11
803.52858613356659
 21
500.47061743423285
  0
LINE
  8
_1-1_
  6
CONTINUOUS
 62
    7
 10
831.06847402211781
 20
502.3103077715428
 11
833.8280095280827
 21
500.47061743423285
  0
LINE
  8
_1-1_
  6
CONTINUOUS
 62
    7
 10
829.5499508537381
 20
502.3888279388309
 11
826.6726569687537
 21
500.47061743423285
  0
LINE
  8
_1-1_
  6
CONTINUOUS
 62
    7
 10
799.50196696984722
 20
502.15331118079223
 11
796.977948221921
 21
500.47061743423285
  0
LINE
  8
_1-1_
  6
CONTINUOUS
 62
    7
 10
799.46793427338457
 20
502.34657140312044
 11
801.06799593303197
 21
502.34657140312044
  0
LINE
  8
_1-1_
  6
CONTINUOUS
 62
    7
 10
829.47374910921656
 20
502.40689413888111
 11
831.07372328121232
 21
502.40689413888111
  0
LINE
  8
_1-1_
  6
CONTINUOUS
 62
    7
 10
793.49707702872365
 20
411.50893016211313
 11
793.49707702872365
 21
426.15860618679676
  0
LINE
  8
_1-1_
  6
CONTINUOUS
 62
    7
 10
793.49707702872365
 20
457.35552165499064
 11
793.49707702872365
 21
457.35595909324849
  0
LINE
  8
_1-1_
  6
CONTINUOUS
 62
    7
 10
842.168819766247
 20
469.65895383974754
 11
835.49701145717063
 21
462.98714553067123
  0
LINE
  8
_1-0_
  6
CONTINUOUS
 62
    7
 10
835.44766842168269
 20
383.78330598926908
 11
793.44764650558409
 21
383.78330598926908
  0
LINE
  8
_1-0_
  6
CONTINUOUS
 62
    7
 10
793.44764650558409
 20
383.78330598926908
 11
793.44764650558409
 21
381.78333827427451
  0
LINE
  8
_1-0_
  6
CONTINUOUS
 62
    7
 10
793.44764650558409
 20
381.78333827427451
 11
835.44766842168269
 21
381.78333827427451
  0
LINE
  8
_1-0_
  6
CONTINUOUS
 62
    7
 10
835.44766842168269
 20
381.78333827427451
 11
835.44766842168269
 21
383.78330598926908
  0
LINE
  8
_1-1_
  6
CONTINUOUS
 62
    7
 10
787.04967454593611
 20
469.54084551012193
 11
788.53705211035526
 21
468.05351168952853
  0
LINE
  8
_1-1_
  6
CONTINUOUS
 62
    7
 10
788.53705211035526
 20
468.05351168952853
 11
788.53705211035526
 21
460.31466023802295
  0
LINE
  8
_1-1_
  6
CONTINUOUS
 62
    7
 10
793.33959925588942
 20
457.52699745207678
 11
793.90441953445486
 21
456.87902016068972
  0
LINE
  8
_1-1_
  6
CONTINUOUS
 62
    7
 10
793.90441953445486
 20
456.87902016068972
 11
794.43853164731763
 21
456.17435087108242
  0
LINE
  8
_1-1_
  6
CONTINUOUS
 62
    7
 10
794.43853164731763
 20
456.17435087108242
 11
794.94202308212925
 21
455.41294583942897
  0
LINE
  8
_1-1_
  6
CONTINUOUS
 62
    7
 10
794.94202308212925
 20
455.41294583942897
 11
795.41489383888972
 21
454.59489255338099
  0
LINE
  8
_1-1_
  6
CONTINUOUS
 62
    7
 10
795.41489383888972
 20
454.59489255338099
 11
795.85714391759916
 21
453.7201035252869
  0
LINE
  8
_1-1_
  6
CONTINUOUS
 62
    7
 10
795.85714391759916
 20
453.7201035252869
 11
796.26868583060605
 21
452.78862249897253
  0
LINE
  8
_1-1_
  6
CONTINUOUS
 62
    7
 10
796.26868583060605
 20
452.78862249897253
 11
796.64960706556155
 21
451.80044947443776
  0
LINE
  8
_1-1_
  6
CONTINUOUS
 62
    7
 10
796.64960706556155
 20
451.80044947443776
 11
796.99982013481463
 21
450.75554070785699
  0
LINE
  8
_1-1_
  6
CONTINUOUS
 62
    7
 10
796.99982013481463
 20
450.75554070785699
 11
797.31381331631565
 21
449.67191865545436
  0
LINE
  8
_1-1_
  6
CONTINUOUS
 62
    7
 10
797.31381331631565
 20
449.67191865545436
 11
797.58598740036416
 21
448.56756202962862
  0
LINE
  8
_1-1_
  6
CONTINUOUS
 62
    7
 10
797.58598740036416
 20
448.56756202962862
 11
797.81625489930843
 21
447.44247083037976
  0
LINE
  8
_1-1_
  6
CONTINUOUS
 62
    7
 10
797.81625489930843
 20
447.44247083037976
 11
798.00461581314846
 21
446.29655757005605
  0
LINE
  8
_1-1_
  6
CONTINUOUS
 62
    7
 10
798.00461581314846
 20
446.29655757005605
 11
798.15115762953587
 21
445.12995348013504
  0
LINE
  8
_1-1_
  6
CONTINUOUS
 62
    7
 10
798.15115762953587
 20
445.12995348013504
 11
798.25588034847055
 21
443.94257107296505
  0
LINE
  8
_1-1_
  6
CONTINUOUS
 62
    7
 10
798.25588034847055
 20
443.94257107296505
 11
798.31869648230111
 21
442.73445409237183
  0
LINE
  8
_1-1_
  6
CONTINUOUS
 62
    7
 10
798.31869648230111
 20
442.73445409237183
 11
798.33960603102753
 21
441.50555879452975
  0
LINE
  8
_1-1_
  6
CONTINUOUS
 62
    7
 10
798.33960603102753
 20
441.50555879452975
 11
798.31922140821064
 21
440.27832576206748
  0
LINE
  8
_1-1_
  6
CONTINUOUS
 62
    7
 10
798.31922140821064
 20
440.27832576206748
 11
798.25798005210845
 21
439.07523932143988
  0
LINE
  8
_1-1_
  6
CONTINUOUS
 62
    7
 10
798.25798005210845
 20
439.07523932143988
 11
798.15588196272085
 21
437.89625572882102
  0
LINE
  8
_1-1_
  6
CONTINUOUS
 62
    7
 10
798.15588196272085
 20
437.89625572882102
 11
798.0130146276997
 21
436.74137498421095
  0
LINE
  8
_1-1_
  6
CONTINUOUS
 62
    7
 10
798.0130146276997
 20
436.74137498421095
 11
797.82937804704466
 21
435.61059708760973
  0
LINE
  8
_1-1_
  6
CONTINUOUS
 62
    7
 10
797.82937804704466
 20
435.61059708760973
 11
797.6047972454528
 21
434.5039220390172
  0
LINE
  8
_1-1_
  6
CONTINUOUS
 62
    7
 10
797.6047972454528
 20
434.5039220390172
 11
797.33953468587856
 21
433.42134983843357
  0
LINE
  8
_1-1_
  6
CONTINUOUS
 62
    7
 10
797.33953468587856
 20
433.42134983843357
 11
797.03332790536763
 21
432.3629242296845
  0
LINE
  8
_1-1_
  6
CONTINUOUS
 62
    7
 10
797.03332790536763
 20
432.3629242296845
 11
796.69343837900044
 21
431.34378057649235
  0
LINE
  8
_1-1_
  6
CONTINUOUS
 62
    7
 10
796.69343837900044
 20
431.34378057649235
 11
796.32686511890302
 21
430.37905424257963
  0
LINE
  8
_1-1_
  6
CONTINUOUS
 62
    7
 10
796.32686511890302
 20
430.37905424257963
 11
795.93369561272698
 21
429.4688764594236
  0
LINE
  8
_1-1_
  6
CONTINUOUS
 62
    7
 10
795.93369561272698
 20
429.4688764594236
 11
795.51384237282059
 21
428.61311599554705
  0
LINE
  8
_1-1_
  6
CONTINUOUS
 62
    7
 10
795.51384237282059
 20
428.61311599554705
 11
795.06721791153245
 21
427.81181659477556
  0
LINE
  8
_1-1_
  6
CONTINUOUS
 62
    7
 10
795.06721791153245
 20
427.81181659477556
 11
794.59399720416559
 21
427.06502200093502
  0
LINE
  8
_1-1_
  6
CONTINUOUS
 62
    7
 10
794.59399720416559
 20
427.06502200093502
 11
794.09418025072011
 21
426.37268847019976
  0
LINE
  8
_1-1_
  6
CONTINUOUS
 62
    7
 10
794.09418025072011
 20
426.37268847019976
 11
793.56759207589278
 21
425.73481600256957
  0
LINE
  8
_1-1_
  6
CONTINUOUS
 62
    7
 10
793.56759207589278
 20
425.73481600256957
 11
793.56759207589278
 21
422.97624286077195
  0
LINE
  8
_1-1_
  6
CONTINUOUS
 62
    7
 10
793.56759207589278
 20
422.97624286077195
 11
788.49707025358566
 21
422.97624286077195
  0
LINE
  8
_1-1_
  6
CONTINUOUS
 62
    7
 10
788.49707025358566
 20
422.97624286077195
 11
788.49707025358566
 21
422.97283084236057
  0
LINE
  8
_1-1_
  6
CONTINUOUS
 62
    7
 10
788.49707025358566
 20
422.97283084236057
 11
778.4970567033098
 21
422.97283084236057
  0
LINE
  8
_1-1_
  6
CONTINUOUS
 62
    7
 10
778.4970567033098
 20
422.97283084236057
 11
778.4970567033098
 21
438.18496497901708
  0
LINE
  8
_1-1_
  6
CONTINUOUS
 62
    7
 10
778.4970567033098
 20
438.18496497901708
 11
778.46013691434518
 21
438.59130137675515
  0
LINE
  8
_1-1_
  6
CONTINUOUS
 62
    7
 10
778.46013691434518
 20
438.59130137675515
 11
778.42811643386892
 21
439.00008742873729
  0
LINE
  8
_1-1_
  6
CONTINUOUS
 62
    7
 10
778.42811643386892
 20
439.00008742873729
 11
778.40108274953241
 21
439.41132313496354
  0
LINE
  8
_1-1_
  6
CONTINUOUS
 62
    7
 10
778.40108274953241
 20
439.41132313496354
 11
778.37894837368412
 21
439.82505223925966
  0
LINE
  8
_1-1_
  6
CONTINUOUS
 62
    7
 10
778.37894837368412
 20
439.82505223925966
 11
778.36171330632385
 21
440.24123099779985
  0
LINE
  8
_1-1_
  6
CONTINUOUS
 62
    7
 10
778.36171330632385
 20
440.24123099779985
 11
778.34946503510332
 21
440.65990315441002
  0
LINE
  8
_1-1_
  6
CONTINUOUS
 62
    7
 10
778.34946503510332
 20
440.65990315441002
 11
778.34202858471951
 21
441.08102496526413
  0
LINE
  8
_1-1_
  6
CONTINUOUS
 62
    7
 10
778.34202858471951
 20
441.08102496526413
 11
778.33957893047557
 21
441.50464017418818
  0
LINE
  8
_1-1_
  6
CONTINUOUS
 62
    7
 10
778.33957893047557
 20
441.50464017418818
 11
778.34202858471951
 21
441.92825538311229
  0
LINE
  8
_1-1_
  6
CONTINUOUS
 62
    7
 10
778.34202858471951
 20
441.92825538311229
 11
778.34946503510332
 21
442.34946468161797
  0
LINE
  8
_1-1_
  6
CONTINUOUS
 62
    7
 10
778.34946503510332
 20
442.34946468161797
 11
778.36171330632385
 21
442.76826806970541
  0
LINE
  8
_1-1_
  6
CONTINUOUS
 62
    7
 10
778.36171330632385
 20
442.76826806970541
 11
778.37894837368412
 21
443.18466554737455
  0
LINE
  8
_1-1_
  6
CONTINUOUS
 62
    7
 10
778.37894837368412
 20
443.18466554737455
 11
778.40108274953241
 21
443.59865711462538
  0
LINE
  8
_1-1_
  6
CONTINUOUS
 62
    7
 10
778.40108274953241
 20
443.59865711462538
 11
778.42811643386892
 21
444.01019902763215
  0
LINE
  8
_1-1_
  6
CONTINUOUS
 62
    7
 10
778.42811643386892
 20
444.01019902763215
 11
778.46013691434518
 21
444.41937877404644
  0
LINE
  8
_1-1_
  6
CONTINUOUS
 62
    7
 10
778.46013691434518
 20
444.41937877404644
 11
778.4970567033098
 21
444.82615261004236
  0
LINE
  8
_1-1_
  6
CONTINUOUS
 62
    7
 10
778.4970567033098
 20
444.82615261004236
 11
778.4970567033098
 21
459.97284598332106
  0
LINE
  8
_1-1_
  6
CONTINUOUS
 62
    7
 10
778.4970567033098
 20
459.97284598332106
 11
787.72857872215468
 21
459.97284598332106
  0
LINE
  8
_1-1_
  6
CONTINUOUS
 62
    7
 10
787.72857872215468
 20
459.97284598332106
 11
787.80416805311518
 21
459.98050115283388
  0
LINE
  8
_1-1_
  6
CONTINUOUS
 62
    7
 10
787.80416805311518
 20
459.98050115283388
 11
787.87975738407556
 21
459.98715021435351
  0
LINE
  8
_1-1_
  6
CONTINUOUS
 62
    7
 10
787.87975738407556
 20
459.98715021435351
 11
787.95552169033908
 21
459.99274942405435
  0
LINE
  8
_1-1_
  6
CONTINUOUS
 62
    7
 10
787.95552169033908
 20
459.99274942405435
 11
788.03128599660272
 21
459.99734252576195
  0
LINE
  8
_1-1_
  6
CONTINUOUS
 62
    7
 10
788.03128599660272
 20
459.99734252576195
 11
788.10713779051775
 21
460.00092951947659
  0
LINE
  8
_1-1_
  6
CONTINUOUS
 62
    7
 10
788.10713779051775
 20
460.00092951947659
 11
788.18298958443302
 21
460.00351040519803
  0
LINE
  8
_1-1_
  6
CONTINUOUS
 62
    7
 10
788.18298958443302
 20
460.00351040519803
 11
788.25892886599968
 21
460.00504143910058
  0
LINE
  8
_1-1_
  6
CONTINUOUS
 62
    7
 10
788.25892886599968
 20
460.00504143910058
 11
788.33486814756634
 21
460.00556636501005
  0
LINE
  8
_1-1_
  6
CONTINUOUS
 62
    7
 10
788.33486814756634
 20
460.00556636501005
 11
788.33959248075143
 21
460.00556636501005
  0
LINE
  8
_1-1_
  6
CONTINUOUS
 62
    7
 10
788.33959248075143
 20
460.00556636501005
 11
789.00388621915704
 21
459.96680933536248
  0
LINE
  8
_1-1_
  6
CONTINUOUS
 62
    7
 10
789.00388621915704
 20
459.96680933536248
 11
789.65689405050966
 21
459.8506257340714
  0
LINE
  8
_1-1_
  6
CONTINUOUS
 62
    7
 10
789.65689405050966
 20
459.8506257340714
 11
790.29870346246071
 21
459.65701556113692
  0
LINE
  8
_1-1_
  6
CONTINUOUS
 62
    7
 10
790.29870346246071
 20
459.65701556113692
 11
790.92931445501017
 21
459.3859350727331
  0
LINE
  8
_1-1_
  6
CONTINUOUS
 62
    7
 10
790.92931445501017
 20
459.3859350727331
 11
791.54872702815805
 21
459.03738426886008
  0
LINE
  8
_1-1_
  6
CONTINUOUS
 62
    7
 10
791.54872702815805
 20
459.03738426886008
 11
792.15694118190459
 21
458.61136314951773
  0
LINE
  8
_1-1_
  6
CONTINUOUS
 62
    7
 10
792.15694118190459
 20
458.61136314951773
 11
792.7538694285978
 21
458.10791545853192
  0
LINE
  8
_1-1_
  6
CONTINUOUS
 62
    7
 10
792.7538694285978
 20
458.10791545853192
 11
793.33959925588942
 21
457.52699745207678
  0
LINE
  8
_1-0_
  6
CONTINUOUS
 62
    7
 10
778.4970567033098
 20
461.47282176956708
 11
762.49705252039848
 21
461.47282176956708
  0
LINE
  8
_1-0_
  6
CONTINUOUS
 62
    7
 10
762.49705252039848
 20
461.47282176956708
 11
762.49705252039848
 21
421.47285505611467
  0
LINE
  8
_1-0_
  6
CONTINUOUS
 62
    7
 10
762.49705252039848
 20
421.47285505611467
 11
778.4970567033098
 21
421.47285505611467
  0
LINE
  8
_1-0_
  6
CONTINUOUS
 62
    7
 10
778.4970567033098
 20
421.47285505611467
 11
778.4970567033098
 21
461.47282176956708
  0
LINE
  8
_1-0_
  6
CONTINUOUS
 62
    7
 10
778.4970567033098
 20
462.47284937089012
 11
776.49700150066349
 21
462.47284937089012
  0
LINE
  8
_1-0_
  6
CONTINUOUS
 62
    7
 10
776.49700150066349
 20
462.47284937089012
 11
776.49700150066349
 21
420.47282745479151
  0
LINE
  8
_1-0_
  6
CONTINUOUS
 62
    7
 10
776.49700150066349
 20
420.47282745479151
 11
778.4970567033098
 21
420.47282745479151
  0
LINE
  8
_1-0_
  6
CONTINUOUS
 62
    7
 10
778.4970567033098
 20
420.47282745479151
 11
778.4970567033098
 21
462.47284937089012
  0
LINE
  8
_1-0_
  6
CONTINUOUS
 62
    7
 10
774.49703378566892
 20
462.47284937089012
 11
772.49706607067435
 21
462.47284937089012
  0
LINE
  8
_1-0_
  6
CONTINUOUS
 62
    7
 10
772.49706607067435
 20
462.47284937089012
 11
772.49706607067435
 21
420.47282745479151
  0
LINE
  8
_1-0_
  6
CONTINUOUS
 62
    7
 10
772.49706607067435
 20
420.47282745479151
 11
774.49703378566892
 21
420.47282745479151
  0
LINE
  8
_1-0_
  6
CONTINUOUS
 62
    7
 10
774.49703378566892
 20
420.47282745479151
 11
774.49703378566892
 21
462.47284937089012
  0
LINE
  8
_1-0_
  6
CONTINUOUS
 62
    7
 10
770.49701086802827
 20
462.47284937089012
 11
768.4970431530337
 21
462.47284937089012
  0
LINE
  8
_1-0_
  6
CONTINUOUS
 62
    7
 10
768.4970431530337
 20
462.47284937089012
 11
768.4970431530337
 21
420.47282745479151
  0
LINE
  8
_1-0_
  6
CONTINUOUS
 62
    7
 10
768.4970431530337
 20
420.47282745479151
 11
770.49701086802827
 21
420.47282745479151
  0
LINE
  8
_1-0_
  6
CONTINUOUS
 62
    7
 10
770.49701086802827
 20
420.47282745479151
 11
770.49701086802827
 21
462.47284937089012
  0
LINE
  8
_1-0_
  6
CONTINUOUS
 62
    7
 10
766.49707543803913
 20
462.47284937089012
 11
764.49702023539305
 21
462.47284937089012
  0
LINE
  8
_1-0_
  6
CONTINUOUS
 62
    7
 10
764.49702023539305
 20
462.47284937089012
 11
764.49702023539305
 21
420.47282745479151
  0
LINE
  8
_1-0_
  6
CONTINUOUS
 62
    7
 10
764.49702023539305
 20
420.47282745479151
 11
766.49707543803913
 21
420.47282745479151
  0
LINE
  8
_1-0_
  6
CONTINUOUS
 62
    7
 10
766.49707543803913
 20
420.47282745479151
 11
766.49707543803913
 21
462.47284937089012
  0
LINE
  8
_1-1_
  6
CONTINUOUS
 62
    7
 10
835.49701145717063
 20
462.98714553067123
 11
814.49700049912144
 21
462.98714553067123
  0
LINE
  8
_1-1_
  6
CONTINUOUS
 62
    7
 10
814.54966806536936
 20
469.54084551012193
 11
814.54966806536936
 21
426.15860618679676
  0
LINE
  8
_1-1_
  6
CONTINUOUS
 62
    7
 10
814.54966806536936
 20
426.15860618679676
 11
793.49707702872365
 21
426.15860618679676
  0
LINE
  8
_1-1_
  6
CONTINUOUS
 62
    7
 10
835.49701145717063
 20
462.98714553067123
 11
835.49701145717063
 21
409.89368939491771
  0
LINE
  8
_1-0_
  6
CONTINUOUS
 62
    7
 10
863.34643065699265
 20
518.35326839137724
 11
765.34643784453033
 21
518.35326839137724
  0
LINE
  8
_1-0_
  6
CONTINUOUS
 62
    7
 10
765.34643784453033
 20
518.35326839137724
 11
765.34643784453033
 21
514.35324547373648
  0
LINE
  8
_1-0_
  6
CONTINUOUS
 62
    7
 10
765.34643784453033
 20
514.35324547373648
 11
863.34643065699265
 21
514.35324547373648
  0
LINE
  8
_1-0_
  6
CONTINUOUS
 62
    7
 10
863.34643065699265
 20
514.35324547373648
 11
863.34643065699265
 21
518.35326839137724
  0
LINE
  8
_1-0_
  6
CONTINUOUS
 62
    7
 10
860.49993242536266
 20
514.11934723725187
 11
768.49993024553567
 21
514.11934723725187
  0
LINE
  8
_1-0_
  6
CONTINUOUS
 62
    7
 10
768.49993024553567
 20
514.11934723725187
 11
768.49993024553567
 21
508.11935660461654
  0
LINE
  8
_1-0_
  6
CONTINUOUS
 62
    7
 10
768.49993024553567
 20
508.11935660461654
 11
860.49993242536266
 21
508.11935660461654
  0
LINE
  8
_1-0_
  6
CONTINUOUS
 62
    7
 10
860.49993242536266
 20
508.11935660461654
 11
860.49993242536266
 21
514.11934723725187
  0
LINE
  8
_1-1_
  6
CONTINUOUS
 62
    7
 10
780.6454909630263
 20
508.11935660461654
 11
848.64544312466069
 21
508.11935660461654
  0
LINE
  8
_1-1_
  6
CONTINUOUS
 62
    7
 10
848.64544312466069
 20
508.11935660461654
 11
848.64544312466069
 21
502.11932222815551
  0
LINE
  8
_1-1_
  6
CONTINUOUS
 62
    7
 10
848.64544312466069
 20
502.11932222815551
 11
842.64545249202524
 21
498.11934305434056
  0
LINE
  8
_1-1_
  6
CONTINUOUS
 62
    7
 10
842.64545249202524
 20
498.11934305434056
 11
786.64548159566164
 21
498.11934305434056
  0
LINE
  8
_1-1_
  6
CONTINUOUS
 62
    7
 10
786.64548159566164
 20
498.11934305434056
 11
780.6454909630263
 21
502.11932222815551
  0
LINE
  8
_1-1_
  6
CONTINUOUS
 62
    7
 10
780.6454909630263
 20
502.11932222815551
 11
780.6454909630263
 21
508.11935660461654
  0
LINE
  8
_1-0_
  6
CONTINUOUS
 62
    7
 10
307.06728717995418
 20
498.11934305434056
 11
307.06728717995418
 21
469.54084551012193
  0
LINE
  8
_1-0_
  6
CONTINUOUS
 62
    7
 10
307.06728717995418
 20
469.54084551012193
 11
362.06729609073363
 21
469.54084551012193
  0
LINE
  8
_1-0_
  6
CONTINUOUS
 62
    7
 10
362.06729609073363
 20
469.54084551012193
 11
362.06729609073363
 21
498.11934305434056
  0
LINE
  8
_1-0_
  6
CONTINUOUS
 62
    7
 10
307.06728717995418
 20
518.35326839137724
 11
307.06728717995418
 21
561.54084768994892
  0
LINE
  8
_1-0_
  6
CONTINUOUS
 62
    7
 10
307.06728717995418
 20
561.54084768994892
 11
362.06729609073363
 21
561.54084768994892
  0
LINE
  8
_1-0_
  6
CONTINUOUS
 62
    7
 10
362.06729609073363
 20
561.54084768994892
 11
362.06729609073363
 21
518.35326839137724
  0
LINE
  8
_1-0_
  6
CONTINUOUS
 62
    7
 10
362.60112386872862
 20
559.54083623112854
 11
306.60113110045199
 21
559.54083623112854
  0
LINE
  8
_1-0_
  6
CONTINUOUS
 62
    7
 10
306.60113110045199
 20
559.54083623112854
 11
306.60113110045199
 21
557.54082477230816
  0
LINE
  8
_1-0_
  6
CONTINUOUS
 62
    7
 10
306.60113110045199
 20
557.54082477230816
 11
362.60112386872862
 21
557.54082477230816
  0
LINE
  8
_1-0_
  6
CONTINUOUS
 62
    7
 10
362.60112386872862
 20
557.54082477230816
 11
362.60112386872862
 21
559.54083623112854
  0
LINE
  8
_1-0_
  6
CONTINUOUS
 62
    7
 10
362.71767929253883
 20
555.54081331348789
 11
306.71766465234941
 21
555.54081331348789
  0
LINE
  8
_1-0_
  6
CONTINUOUS
 62
    7
 10
306.71766465234941
 20
555.54081331348789
 11
306.71766465234941
 21
553.54084559849321
  0
LINE
  8
_1-0_
  6
CONTINUOUS
 62
    7
 10
306.71766465234941
 20
553.54084559849321
 11
362.71767929253883
 21
553.54084559849321
  0
LINE
  8
_1-0_
  6
CONTINUOUS
 62
    7
 10
362.71767929253883
 20
553.54084559849321
 11
362.71767929253883
 21
555.54081331348789
  0
LINE
  8
_1-0_
  6
CONTINUOUS
 62
    7
 10
362.60112386872862
 20
551.54083413967294
 11
306.60113110045199
 21
551.54083413967294
  0
LINE
  8
_1-0_
  6
CONTINUOUS
 62
    7
 10
306.60113110045199
 20
551.54083413967294
 11
306.60113110045199
 21
549.54082268085256
  0
LINE
  8
_1-0_
  6
CONTINUOUS
 62
    7
 10
306.60113110045199
 20
549.54082268085256
 11
362.60112386872862
 21
549.54082268085256
  0
LINE
  8
_1-0_
  6
CONTINUOUS
 62
    7
 10
362.60112386872862
 20
549.54082268085256
 11
362.60112386872862
 21
551.54083413967294
  0
LINE
  8
_1-0_
  6
CONTINUOUS
 62
    7
 10
362.60112386872862
 20
547.54085496585799
 11
306.60113110045199
 21
547.54085496585799
  0
LINE
  8
_1-0_
  6
CONTINUOUS
 62
    7
 10
306.60113110045199
 20
547.54085496585799
 11
306.60113110045199
 21
545.54084350703761
  0
LINE
  8
_1-0_
  6
CONTINUOUS
 62
    7
 10
306.60113110045199
 20
545.54084350703761
 11
362.60112386872862
 21
545.54084350703761
  0
LINE
  8
_1-0_
  6
CONTINUOUS
 62
    7
 10
362.60112386872862
 20
545.54084350703761
 11
362.60112386872862
 21
547.54085496585799
  0
LINE
  8
_1-0_
  6
CONTINUOUS
 62
    7
 10
362.60112386872862
 20
543.54083204821723
 11
306.60113110045199
 21
543.54083204821723
  0
LINE
  8
_1-0_
  6
CONTINUOUS
 62
    7
 10
306.60113110045199
 20
543.54083204821723
 11
306.60113110045199
 21
541.54082058939696
  0
LINE
  8
_1-0_
  6
CONTINUOUS
 62
    7
 10
306.60113110045199
 20
541.54082058939696
 11
362.60112386872862
 21
541.54082058939696
  0
LINE
  8
_1-0_
  6
CONTINUOUS
 62
    7
 10
362.60112386872862
 20
541.54082058939696
 11
362.60112386872862
 21
543.54083204821723
  0
LINE
  8
_1-0_
  6
CONTINUOUS
 62
    7
 10
362.60112386872862
 20
539.54085287440239
 11
306.60113110045199
 21
539.54085287440239
  0
LINE
  8
_1-0_
  6
CONTINUOUS
 62
    7
 10
306.60113110045199
 20
539.54085287440239
 11
306.60113110045199
 21
537.54084141558201
  0
LINE
  8
_1-0_
  6
CONTINUOUS
 62
    7
 10
306.60113110045199
 20
537.54084141558201
 11
362.60112386872862
 21
537.54084141558201
  0
LINE
  8
_1-0_
  6
CONTINUOUS
 62
    7
 10
362.60112386872862
 20
537.54084141558201
 11
362.60112386872862
 21
539.54085287440239
  0
LINE
  8
_1-0_
  6
CONTINUOUS
 62
    7
 10
362.60112386872862
 20
535.54082995676163
 11
306.60113110045199
 21
535.54082995676163
  0
LINE
  8
_1-0_
  6
CONTINUOUS
 62
    7
 10
306.60113110045199
 20
535.54082995676163
 11
306.60113110045199
 21
533.54081849794125
  0
LINE
  8
_1-0_
  6
CONTINUOUS
 62
    7
 10
306.60113110045199
 20
533.54081849794125
 11
362.60112386872862
 21
533.54081849794125
  0
LINE
  8
_1-0_
  6
CONTINUOUS
 62
    7
 10
362.60112386872862
 20
533.54081849794125
 11
362.60112386872862
 21
535.54082995676163
  0
LINE
  8
_1-0_
  6
CONTINUOUS
 62
    7
 10
362.60112386872862
 20
531.54085078294668
 11
306.60113110045199
 21
531.54085078294668
  0
LINE
  8
_1-0_
  6
CONTINUOUS
 62
    7
 10
306.60113110045199
 20
531.54085078294668
 11
306.60113110045199
 21
529.54083932412641
  0
LINE
  8
_1-0_
  6
CONTINUOUS
 62
    7
 10
306.60113110045199
 20
529.54083932412641
 11
362.60112386872862
 21
529.54083932412641
  0
LINE
  8
_1-0_
  6
CONTINUOUS
 62
    7
 10
362.60112386872862
 20
529.54083932412641
 11
362.60112386872862
 21
531.54085078294668
  0
LINE
  8
_1-0_
  6
CONTINUOUS
 62
    7
 10
362.60112386872862
 20
527.54082786530591
 11
306.60113110045199
 21
527.54082786530591
  0
LINE
  8
_1-0_
  6
CONTINUOUS
 62
    7
 10
306.60113110045199
 20
527.54082786530591
 11
306.60113110045199
 21
525.54081640648565
  0
LINE
  8
_1-0_
  6
CONTINUOUS
 62
    7
 10
306.60113110045199
 20
525.54081640648565
 11
362.60112386872862
 21
525.54081640648565
  0
LINE
  8
_1-0_
  6
CONTINUOUS
 62
    7
 10
362.60112386872862
 20
525.54081640648565
 11
362.60112386872862
 21
527.54082786530591
  0
LINE
  8
_1-0_
  6
CONTINUOUS
 62
    7
 10
362.60112386872862
 20
523.54084869149108
 11
306.60113110045199
 21
523.54084869149108
  0
LINE
  8
_1-0_
  6
CONTINUOUS
 62
    7
 10
306.60113110045199
 20
523.54084869149108
 11
306.60113110045199
 21
521.5408372326707
  0
LINE
  8
_1-0_
  6
CONTINUOUS
 62
    7
 10
306.60113110045199
 20
521.5408372326707
 11
362.60112386872862
 21
521.5408372326707
  0
LINE
  8
_1-0_
  6
CONTINUOUS
 62
    7
 10
362.60112386872862
 20
521.5408372326707
 11
362.60112386872862
 21
523.54084869149108
  0
LINE
  8
_1-0_
  6
CONTINUOUS
 62
    7
 10
362.60112386872862
 20
495.5408194994834
 11
306.60113110045199
 21
495.5408194994834
  0
LINE
  8
_1-0_
  6
CONTINUOUS
 62
    7
 10
306.60113110045199
 20
495.5408194994834
 11
306.60113110045199
 21
493.54085178448884
  0
LINE
  8
_1-0_
  6
CONTINUOUS
 62
    7
 10
306.60113110045199
 20
493.54085178448884
 11
362.60112386872862
 21
493.54085178448884
  0
LINE
  8
_1-0_
  6
CONTINUOUS
 62
    7
 10
362.60112386872862
 20
493.54085178448884
 11
362.60112386872862
 21
495.5408194994834
  0
LINE
  8
_1-0_
  6
CONTINUOUS
 62
    7
 10
362.60112386872862
 20
491.54084032566851
 11
306.60113110045199
 21
491.54084032566851
  0
LINE
  8
_1-0_
  6
CONTINUOUS
 62
    7
 10
306.60113110045199
 20
491.54084032566851
 11
306.60113110045199
 21
489.54082886684819
  0
LINE
  8
_1-0_
  6
CONTINUOUS
 62
    7
 10
306.60113110045199
 20
489.54082886684819
 11
362.60112386872862
 21
489.54082886684819
  0
LINE
  8
_1-0_
  6
CONTINUOUS
 62
    7
 10
362.60112386872862
 20
489.54082886684819
 11
362.60112386872862
 21
491.54084032566851
  0
LINE
  8
_1-0_
  6
CONTINUOUS
 62
    7
 10
362.60112386872862
 20
487.54081740802775
 11
306.60113110045199
 21
487.54081740802775
  0
LINE
  8
_1-0_
  6
CONTINUOUS
 62
    7
 10
306.60113110045199
 20
487.54081740802775
 11
306.60113110045199
 21
485.54084969303318
  0
LINE
  8
_1-0_
  6
CONTINUOUS
 62
    7
 10
306.60113110045199
 20
485.54084969303318
 11
362.60112386872862
 21
485.54084969303318
  0
LINE
  8
_1-0_
  6
CONTINUOUS
 62
    7
 10
362.60112386872862
 20
485.54084969303318
 11
362.60112386872862
 21
487.54081740802775
  0
LINE
  8
_1-0_
  6
CONTINUOUS
 62
    7
 10
362.60112386872862
 20
483.54083823421286
 11
306.60113110045199
 21
483.54083823421286
  0
LINE
  8
_1-0_
  6
CONTINUOUS
 62
    7
 10
306.60113110045199
 20
483.54083823421286
 11
306.60113110045199
 21
481.54082677539247
  0
LINE
  8
_1-0_
  6
CONTINUOUS
 62
    7
 10
306.60113110045199
 20
481.54082677539247
 11
362.60112386872862
 21
481.54082677539247
  0
LINE
  8
_1-0_
  6
CONTINUOUS
 62
    7
 10
362.60112386872862
 20
481.54082677539247
 11
362.60112386872862
 21
483.54083823421286
  0
LINE
  8
_1-0_
  6
CONTINUOUS
 62
    7
 10
362.60112386872862
 20
479.54081531657209
 11
306.60113110045199
 21
479.54081531657209
  0
LINE
  8
_1-0_
  6
CONTINUOUS
 62
    7
 10
306.60113110045199
 20
479.54081531657209
 11
306.60113110045199
 21
477.54084760157752
  0
LINE
  8
_1-0_
  6
CONTINUOUS
 62
    7
 10
306.60113110045199
 20
477.54084760157752
 11
362.60112386872862
 21
477.54084760157752
  0
LINE
  8
_1-0_
  6
CONTINUOUS
 62
    7
 10
362.60112386872862
 20
477.54084760157752
 11
362.60112386872862
 21
479.54081531657209
  0
LINE
  8
_1-0_
  6
CONTINUOUS
 62
    7
 10
362.60112386872862
 20
475.5408361427572
 11
306.60113110045199
 21
475.5408361427572
  0
LINE
  8
_1-0_
  6
CONTINUOUS
 62
    7
 10
306.60113110045199
 20
475.5408361427572
 11
306.60113110045199
 21
473.54082468393688
  0
LINE
  8
_1-0_
  6
CONTINUOUS
 62
    7
 10
306.60113110045199
 20
473.54082468393688
 11
362.60112386872862
 21
473.54082468393688
  0
LINE
  8
_1-0_
  6
CONTINUOUS
 62
    7
 10
362.60112386872862
 20
473.54082468393688
 11
362.60112386872862
 21
475.5408361427572
  0
LINE
  8
_1-0_
  6
CONTINUOUS
 62
    7
 10
354.6199534942744
 20
411.42743541467144
 11
314.61994303699623
 21
411.42743541467144
  0
LINE
  8
_1-0_
  6
CONTINUOUS
 62
    7
 10
314.61994303699623
 20
411.42743541467144
 11
314.61994303699623
 21
381.42743850766919
  0
LINE
  8
_1-0_
  6
CONTINUOUS
 62
    7
 10
314.61994303699623
 20
381.42743850766919
 11
354.6199534942744
 21
381.42743850766919
  0
LINE
  8
_1-0_
  6
CONTINUOUS
 62
    7
 10
354.6199534942744
 20
381.42743850766919
 11
354.6199534942744
 21
411.42743541467144
  0
LINE
  8
_1-0_
  6
CONTINUOUS
 62
    7
 10
355.61995922368453
 20
387.42742914030458
 11
313.61995917949901
 21
387.42742914030458
  0
LINE
  8
_1-0_
  6
CONTINUOUS
 62
    7
 10
313.61995917949901
 20
387.42742914030458
 11
313.61995917949901
 21
385.42741768148403
  0
LINE
  8
_1-0_
  6
CONTINUOUS
 62
    7
 10
313.61995917949901
 20
385.42741768148403
 11
355.61995922368453
 21
385.42741768148403
  0
LINE
  8
_1-0_
  6
CONTINUOUS
 62
    7
 10
355.61995922368453
 20
385.42741768148403
 11
355.61995922368453
 21
387.42742914030458
  0
LINE
  8
_1-0_
  6
CONTINUOUS
 62
    7
 10
355.61995922368453
 20
391.42740831411942
 11
313.61995917949901
 21
391.42740831411942
  0
LINE
  8
_1-0_
  6
CONTINUOUS
 62
    7
 10
313.61995917949901
 20
391.42740831411942
 11
313.61995917949901
 21
389.42744059912485
  0
LINE
  8
_1-0_
  6
CONTINUOUS
 62
    7
 10
313.61995917949901
 20
389.42744059912485
 11
355.61995922368453
 21
389.42744059912485
  0
LINE
  8
_1-0_
  6
CONTINUOUS
 62
    7
 10
355.61995922368453
 20
389.42744059912485
 11
355.61995922368453
 21
391.42740831411942
  0
LINE
  8
_1-0_
  6
CONTINUOUS
 62
    7
 10
355.61995922368453
 20
395.42743123176012
 11
313.61995917949901
 21
395.42743123176012
  0
LINE
  8
_1-0_
  6
CONTINUOUS
 62
    7
 10
313.61995917949901
 20
395.42743123176012
 11
313.61995917949901
 21
393.42741977293969
  0
LINE
  8
_1-0_
  6
CONTINUOUS
 62
    7
 10
313.61995917949901
 20
393.42741977293969
 11
355.61995922368453
 21
393.42741977293969
  0
LINE
  8
_1-0_
  6
CONTINUOUS
 62
    7
 10
355.61995922368453
 20
393.42741977293969
 11
355.61995922368453
 21
395.42743123176012
  0
LINE
  8
_1-0_
  6
CONTINUOUS
 62
    7
 10
355.61995922368453
 20
399.42741040557507
 11
313.61995917949901
 21
399.42741040557507
  0
LINE
  8
_1-0_
  6
CONTINUOUS
 62
    7
 10
313.61995917949901
 20
399.42741040557507
 11
313.61995917949901
 21
397.42744269058051
  0
LINE
  8
_1-0_
  6
CONTINUOUS
 62
    7
 10
313.61995917949901
 20
397.42744269058051
 11
355.61995922368453
 21
397.42744269058051
  0
LINE
  8
_1-0_
  6
CONTINUOUS
 62
    7
 10
355.61995922368453
 20
397.42744269058051
 11
355.61995922368453
 21
399.42741040557507
  0
LINE
  8
_1-0_
  6
CONTINUOUS
 62
    7
 10
355.61995922368453
 20
403.42743332321572
 11
313.61995917949901
 21
403.42743332321572
  0
LINE
  8
_1-0_
  6
CONTINUOUS
 62
    7
 10
313.61995917949901
 20
403.42743332321572
 11
313.61995917949901
 21
401.42742186439534
  0
LINE
  8
_1-0_
  6
CONTINUOUS
 62
    7
 10
313.61995917949901
 20
401.42742186439534
 11
355.61995922368453
 21
401.42742186439534
  0
LINE
  8
_1-0_
  6
CONTINUOUS
 62
    7
 10
355.61995922368453
 20
401.42742186439534
 11
355.61995922368453
 21
403.42743332321572
  0
LINE
  8
_1-0_
  6
CONTINUOUS
 62
    7
 10
355.61995922368453
 20
407.42741249703073
 11
313.61995917949901
 21
407.42741249703073
  0
LINE
  8
_1-0_
  6
CONTINUOUS
 62
    7
 10
313.61995917949901
 20
407.42741249703073
 11
313.61995917949901
 21
405.42744478203616
  0
LINE
  8
_1-0_
  6
CONTINUOUS
 62
    7
 10
313.61995917949901
 20
405.42744478203616
 11
355.61995922368453
 21
405.42744478203616
  0
LINE
  8
_1-0_
  6
CONTINUOUS
 62
    7
 10
355.61995922368453
 20
405.42744478203616
 11
355.61995922368453
 21
407.42741249703073
  0
LINE
  8
_1-0_
  6
CONTINUOUS
 62
    7
 10
355.61995922368453
 20
411.42743541467144
 11
313.61995917949901
 21
411.42743541467144
  0
LINE
  8
_1-0_
  6
CONTINUOUS
 62
    7
 10
313.61995917949901
 20
411.42743541467144
 11
313.61995917949901
 21
409.427423955851
  0
LINE
  8
_1-0_
  6
CONTINUOUS
 62
    7
 10
313.61995917949901
 20
409.427423955851
 11
355.61995922368453
 21
409.427423955851
  0
LINE
  8
_1-0_
  6
CONTINUOUS
 62
    7
 10
355.61995922368453
 20
409.427423955851
 11
355.61995922368453
 21
411.42743541467144
  0
LINE
  8
_1-1_
  6
CONTINUOUS
 62
    7
 10
349.64903636328501
 20
508.11935660461654
 11
349.64903636328501
 21
502.45041924553948
  0
LINE
  8
_1-1_
  6
CONTINUOUS
 62
    7
 10
348.05463952907729
 20
508.11935660461654
 11
348.05463952907729
 21
502.45041924553948
  0
LINE
  8
_1-1_
  6
CONTINUOUS
 62
    7
 10
319.60100873556837
 20
508.11935660461654
 11
319.60100873556837
 21
502.45041924553948
  0
LINE
  8
_1-1_
  6
CONTINUOUS
 62
    7
 10
318.04694370873648
 20
508.11935660461654
 11
318.04694370873648
 21
502.45041924553948
  0
LINE
  8
_1-1_
  6
CONTINUOUS
 62
    7
 10
348.06148543781291
 20
502.11932222815551
 11
345.58842824692886
 21
500.47061743423285
  0
LINE
  8
_1-1_
  6
CONTINUOUS
 62
    7
 10
318.04854035837764
 20
502.3103077715428
 11
315.2890048524128
 21
500.47061743423285
  0
LINE
  8
_1-1_
  6
CONTINUOUS
 62
    7
 10
319.56701978293165
 20
502.3888279388309
 11
322.44431366791588
 21
500.47061743423285
  0
LINE
  8
_1-1_
  6
CONTINUOUS
 62
    7
 10
349.61502553873544
 20
502.15331118079223
 11
352.13908803048741
 21
500.47061743423285
  0
LINE
  8
_1-1_
  6
CONTINUOUS
 62
    7
 10
349.64903636328501
 20
502.34657140312044
 11
348.04901844746354
 21
502.34657140312044
  0
LINE
  8
_1-1_
  6
CONTINUOUS
 62
    7
 10
319.64322152745308
 20
502.40689413888111
 11
318.04322548354446
 21
502.40689413888111
  0
LINE
  8
_1-1_
  6
CONTINUOUS
 62
    7
 10
355.61995922368453
 20
411.50893016211313
 11
355.61995922368453
 21
426.15860618679676
  0
LINE
  8
_1-1_
  6
CONTINUOUS
 62
    7
 10
355.61995922368453
 20
457.35552165499064
 11
355.61995922368453
 21
457.35595909324849
  0
LINE
  8
_1-1_
  6
CONTINUOUS
 62
    7
 10
306.94815087042258
 20
469.65895383974754
 11
313.61995917949901
 21
462.98714553067123
  0
LINE
  8
_1-0_
  6
CONTINUOUS
 62
    7
 10
355.66934600299845
 20
383.78330598926908
 11
313.66934595881276
 21
383.78330598926908
  0
LINE
  8
_1-0_
  6
CONTINUOUS
 62
    7
 10
313.66934595881276
 20
383.78330598926908
 11
313.66934595881276
 21
381.78333827427451
  0
LINE
  8
_1-0_
  6
CONTINUOUS
 62
    7
 10
313.66934595881276
 20
381.78333827427451
 11
355.66934600299845
 21
381.78333827427451
  0
LINE
  8
_1-0_
  6
CONTINUOUS
 62
    7
 10
355.66934600299845
 20
381.78333827427451
 11
355.66934600299845
 21
383.78330598926908
  0
LINE
  8
_1-1_
  6
CONTINUOUS
 62
    7
 10
362.06729609073363
 20
469.54084551012193
 11
360.57996227014019
 21
468.05351168952853
  0
LINE
  8
_1-1_
  6
CONTINUOUS
 62
    7
 10
360.57996227014019
 20
468.05351168952853
 11
360.57996227014019
 21
460.31466023802295
  0
LINE
  8
_1-1_
  6
CONTINUOUS
 62
    7
 10
355.77739325269306
 20
457.52699745207678
 11
355.21259484604059
 21
456.87902016068972
  0
LINE
  8
_1-1_
  6
CONTINUOUS
 62
    7
 10
355.21259484604059
 20
456.87902016068972
 11
354.678438989352
 21
456.17435087108242
  0
LINE
  8
_1-1_
  6
CONTINUOUS
 62
    7
 10
354.678438989352
 20
456.17435087108242
 11
354.17492568262759
 21
455.41294583942897
  0
LINE
  8
_1-1_
  6
CONTINUOUS
 62
    7
 10
354.17492568262759
 20
455.41294583942897
 11
353.70207679777991
 21
454.59489255338099
  0
LINE
  8
_1-1_
  6
CONTINUOUS
 62
    7
 10
353.70207679777991
 20
454.59489255338099
 11
353.25987046289629
 21
453.7201035252869
  0
LINE
  8
_1-1_
  6
CONTINUOUS
 62
    7
 10
353.25987046289629
 20
453.7201035252869
 11
352.84830667797667
 21
452.78862249897253
  0
LINE
  8
_1-1_
  6
CONTINUOUS
 62
    7
 10
352.84830667797667
 20
452.78862249897253
 11
352.46740731493389
 21
451.80044947443776
  0
LINE
  8
_1-1_
  6
CONTINUOUS
 62
    7
 10
352.46740731493389
 20
451.80044947443776
 11
352.11712862994216
 21
450.75554070785699
  0
LINE
  8
_1-1_
  6
CONTINUOUS
 62
    7
 10
352.11712862994216
 20
450.75554070785699
 11
351.80313544844097
 21
449.67191865545436
  0
LINE
  8
_1-1_
  6
CONTINUOUS
 62
    7
 10
351.80313544844097
 20
449.67191865545436
 11
351.53100510821844
 21
448.56756202962862
  0
LINE
  8
_1-1_
  6
CONTINUOUS
 62
    7
 10
351.53100510821844
 20
448.56756202962862
 11
351.30073760927417
 21
447.44247083037976
  0
LINE
  8
_1-1_
  6
CONTINUOUS
 62
    7
 10
351.30073760927417
 20
447.44247083037976
 11
351.11233295160832
 21
446.29655757005605
  0
LINE
  8
_1-1_
  6
CONTINUOUS
 62
    7
 10
351.11233295160832
 20
446.29655757005605
 11
350.96579113522097
 21
445.12995348013504
  0
LINE
  8
_1-1_
  6
CONTINUOUS
 62
    7
 10
350.96579113522097
 20
445.12995348013504
 11
350.86113403202489
 21
443.94257107296505
  0
LINE
  8
_1-1_
  6
CONTINUOUS
 62
    7
 10
350.86113403202489
 20
443.94257107296505
 11
350.79831789819423
 21
442.73445409237183
  0
LINE
  8
_1-1_
  6
CONTINUOUS
 62
    7
 10
350.79831789819423
 20
442.73445409237183
 11
350.77738647755507
 21
441.50555879452975
  0
LINE
  8
_1-1_
  6
CONTINUOUS
 62
    7
 10
350.77738647755507
 20
441.50555879452975
 11
350.79779297228481
 21
440.27832576206748
  0
LINE
  8
_1-1_
  6
CONTINUOUS
 62
    7
 10
350.79779297228481
 20
440.27832576206748
 11
350.85903432838705
 21
439.07523932143988
  0
LINE
  8
_1-1_
  6
CONTINUOUS
 62
    7
 10
350.85903432838705
 20
439.07523932143988
 11
350.96108867394878
 21
437.89625572882102
  0
LINE
  8
_1-1_
  6
CONTINUOUS
 62
    7
 10
350.96108867394878
 20
437.89625572882102
 11
351.10395600896993
 21
436.74137498421095
  0
LINE
  8
_1-1_
  6
CONTINUOUS
 62
    7
 10
351.10395600896993
 20
436.74137498421095
 11
351.28763633345073
 21
435.61059708760973
  0
LINE
  8
_1-1_
  6
CONTINUOUS
 62
    7
 10
351.28763633345073
 20
435.61059708760973
 11
351.51215151930415
 21
434.5039220390172
  0
LINE
  8
_1-1_
  6
CONTINUOUS
 62
    7
 10
351.51215151930415
 20
434.5039220390172
 11
351.77747969461677
 21
433.42134983843357
  0
LINE
  8
_1-1_
  6
CONTINUOUS
 62
    7
 10
351.77747969461677
 20
433.42134983843357
 11
352.08362085938916
 21
432.3629242296845
  0
LINE
  8
_1-1_
  6
CONTINUOUS
 62
    7
 10
352.08362085938916
 20
432.3629242296845
 11
352.42353225766919
 21
431.34378057649235
  0
LINE
  8
_1-1_
  6
CONTINUOUS
 62
    7
 10
352.42353225766919
 20
431.34378057649235
 11
352.79008364585366
 21
430.37905424257963
  0
LINE
  8
_1-1_
  6
CONTINUOUS
 62
    7
 10
352.79008364585366
 20
430.37905424257963
 11
353.18329689585568
 21
429.4688764594236
  0
LINE
  8
_1-1_
  6
CONTINUOUS
 62
    7
 10
353.18329689585568
 20
429.4688764594236
 11
353.60319387958782
 21
428.61311599554705
  0
LINE
  8
_1-1_
  6
CONTINUOUS
 62
    7
 10
353.60319387958782
 20
428.61311599554705
 11
354.04973085322439
 21
427.81181659477556
  0
LINE
  8
_1-1_
  6
CONTINUOUS
 62
    7
 10
354.04973085322439
 20
427.81181659477556
 11
354.52295156059108
 21
427.06502200093502
  0
LINE
  8
_1-1_
  6
CONTINUOUS
 62
    7
 10
354.52295156059108
 20
427.06502200093502
 11
355.02283412977533
 21
426.37268847019976
  0
LINE
  8
_1-1_
  6
CONTINUOUS
 62
    7
 10
355.02283412977533
 20
426.37268847019976
 11
355.54937856077686
 21
425.73481600256957
  0
LINE
  8
_1-1_
  6
CONTINUOUS
 62
    7
 10
355.54937856077686
 20
425.73481600256957
 11
355.54937856077686
 21
422.97624286077195
  0
LINE
  8
_1-1_
  6
CONTINUOUS
 62
    7
 10
355.54937856077686
 20
422.97624286077195
 11
360.61994412690979
 21
422.97624286077195
  0
LINE
  8
_1-1_
  6
CONTINUOUS
 62
    7
 10
360.61994412690979
 20
422.97624286077195
 11
360.61994412690979
 21
422.97283084236057
  0
LINE
  8
_1-1_
  6
CONTINUOUS
 62
    7
 10
360.61994412690979
 20
422.97283084236057
 11
370.61995767718571
 21
422.97283084236057
  0
LINE
  8
_1-1_
  6
CONTINUOUS
 62
    7
 10
370.61995767718571
 20
422.97283084236057
 11
370.61995767718571
 21
438.18496497901708
  0
LINE
  8
_1-1_
  6
CONTINUOUS
 62
    7
 10
370.61995767718571
 20
438.18496497901708
 11
370.65683372232445
 21
438.59130137675515
  0
LINE
  8
_1-1_
  6
CONTINUOUS
 62
    7
 10
370.65683372232445
 20
438.59130137675515
 11
370.68881045897484
 21
439.00008742873729
  0
LINE
  8
_1-1_
  6
CONTINUOUS
 62
    7
 10
370.68881045897484
 20
439.00008742873729
 11
370.71588788713723
 21
439.41132313496354
  0
LINE
  8
_1-1_
  6
CONTINUOUS
 62
    7
 10
370.71588788713723
 20
439.41132313496354
 11
370.73802226298568
 21
439.82505223925966
  0
LINE
  8
_1-1_
  6
CONTINUOUS
 62
    7
 10
370.73802226298568
 20
439.82505223925966
 11
370.75525733034578
 21
440.24123099779985
  0
LINE
  8
_1-1_
  6
CONTINUOUS
 62
    7
 10
370.75525733034578
 20
440.24123099779985
 11
370.76754934539196
 21
440.65990315441002
  0
LINE
  8
_1-1_
  6
CONTINUOUS
 62
    7
 10
370.76754934539196
 20
440.65990315441002
 11
370.77494205195012
 21
441.08102496526413
  0
LINE
  8
_1-1_
  6
CONTINUOUS
 62
    7
 10
370.77494205195012
 20
441.08102496526413
 11
370.77739170619424
 21
441.50464017418818
  0
LINE
  8
_1-1_
  6
CONTINUOUS
 62
    7
 10
370.77739170619424
 20
441.50464017418818
 11
370.77494205195012
 21
441.92825538311229
  0
LINE
  8
_1-1_
  6
CONTINUOUS
 62
    7
 10
370.77494205195012
 20
441.92825538311229
 11
370.76754934539196
 21
442.34946468161797
  0
LINE
  8
_1-1_
  6
CONTINUOUS
 62
    7
 10
370.76754934539196
 20
442.34946468161797
 11
370.75525733034578
 21
442.76826806970541
  0
LINE
  8
_1-1_
  6
CONTINUOUS
 62
    7
 10
370.75525733034578
 20
442.76826806970541
 11
370.73802226298568
 21
443.18466554737455
  0
LINE
  8
_1-1_
  6
CONTINUOUS
 62
    7
 10
370.73802226298568
 20
443.18466554737455
 11
370.71588788713723
 21
443.59865711462538
  0
LINE
  8
_1-1_
  6
CONTINUOUS
 62
    7
 10
370.71588788713723
 20
443.59865711462538
 11
370.68881045897484
 21
444.01019902763215
  0
LINE
  8
_1-1_
  6
CONTINUOUS
 62
    7
 10
370.68881045897484
 20
444.01019902763215
 11
370.65683372232445
 21
444.41937877404644
  0
LINE
  8
_1-1_
  6
CONTINUOUS
 62
    7
 10
370.65683372232445
 20
444.41937877404644
 11
370.61995767718571
 21
444.82615261004236
  0
LINE
  8
_1-1_
  6
CONTINUOUS
 62
    7
 10
370.61995767718571
 20
444.82615261004236
 11
370.61995767718571
 21
459.97284598332106
  0
LINE
  8
_1-1_
  6
CONTINUOUS
 62
    7
 10
370.61995767718571
 20
459.97284598332106
 11
361.38839191451495
 21
459.97284598332106
  0
LINE
  8
_1-1_
  6
CONTINUOUS
 62
    7
 10
361.38839191451495
 20
459.97284598332106
 11
361.31284632738027
 21
459.98050115283388
  0
LINE
  8
_1-1_
  6
CONTINUOUS
 62
    7
 10
361.31284632738027
 20
459.98050115283388
 11
361.23721325259407
 21
459.98715021435351
  0
LINE
  8
_1-1_
  6
CONTINUOUS
 62
    7
 10
361.23721325259407
 20
459.98715021435351
 11
361.16149269015636
 21
459.99274942405435
  0
LINE
  8
_1-1_
  6
CONTINUOUS
 62
    7
 10
361.16149269015636
 20
459.99274942405435
 11
361.08570651197994
 21
459.99734252576195
  0
LINE
  8
_1-1_
  6
CONTINUOUS
 62
    7
 10
361.08570651197994
 20
459.99734252576195
 11
361.00985471806467
 21
460.00092951947659
  0
LINE
  8
_1-1_
  6
CONTINUOUS
 62
    7
 10
361.00985471806467
 20
460.00092951947659
 11
360.93398105223656
 21
460.00351040519803
  0
LINE
  8
_1-1_
  6
CONTINUOUS
 62
    7
 10
360.93398105223656
 20
460.00351040519803
 11
360.85806364258275
 21
460.00504143910058
  0
LINE
  8
_1-1_
  6
CONTINUOUS
 62
    7
 10
360.85806364258275
 20
460.00504143910058
 11
360.78214623292894
 21
460.00556636501005
  0
LINE
  8
_1-1_
  6
CONTINUOUS
 62
    7
 10
360.78214623292894
 20
460.00556636501005
 11
360.77740002783116
 21
460.00556636501005
  0
LINE
  8
_1-1_
  6
CONTINUOUS
 62
    7
 10
360.77740002783116
 20
460.00556636501005
 11
360.11312816133824
 21
459.96680933536248
  0
LINE
  8
_1-1_
  6
CONTINUOUS
 62
    7
 10
360.11312816133824
 20
459.96680933536248
 11
359.46007658615997
 21
459.8506257340714
  0
LINE
  8
_1-1_
  6
CONTINUOUS
 62
    7
 10
359.46007658615997
 20
459.8506257340714
 11
358.81824530229608
 21
459.65701556113692
  0
LINE
  8
_1-1_
  6
CONTINUOUS
 62
    7
 10
358.81824530229608
 20
459.65701556113692
 11
358.18765618165941
 21
459.3859350727331
  0
LINE
  8
_1-1_
  6
CONTINUOUS
 62
    7
 10
358.18765618165941
 20
459.3859350727331
 11
357.56826548042443
 21
459.03738426886008
  0
LINE
  8
_1-1_
  6
CONTINUOUS
 62
    7
 10
357.56826548042443
 20
459.03738426886008
 11
356.96007319859092
 21
458.61136314951773
  0
LINE
  8
_1-1_
  6
CONTINUOUS
 62
    7
 10
356.96007319859092
 20
458.61136314951773
 11
356.3631230799848
 21
458.10791545853192
  0
LINE
  8
_1-1_
  6
CONTINUOUS
 62
    7
 10
356.3631230799848
 20
458.10791545853192
 11
355.77739325269306
 21
457.52699745207678
  0
LINE
  8
_1-0_
  6
CONTINUOUS
 62
    7
 10
386.61996186009702
 20
461.47282176956708
 11
370.61995767718571
 21
461.47282176956708
  0
LINE
  8
_1-0_
  6
CONTINUOUS
 62
    7
 10
370.61995767718571
 20
461.47282176956708
 11
370.61995767718571
 21
421.47285505611467
  0
LINE
  8
_1-0_
  6
CONTINUOUS
 62
    7
 10
370.61995767718571
 20
421.47285505611467
 11
386.61996186009702
 21
421.47285505611467
  0
LINE
  8
_1-0_
  6
CONTINUOUS
 62
    7
 10
386.61996186009702
 20
421.47285505611467
 11
386.61996186009702
 21
461.47282176956708
  0
LINE
  8
_1-0_
  6
CONTINUOUS
 62
    7
 10
372.61996913600615
 20
462.47284937089012
 11
370.61995767718571
 21
462.47284937089012
  0
LINE
  8
_1-0_
  6
CONTINUOUS
 62
    7
 10
370.61995767718571
 20
462.47284937089012
 11
370.61995767718571
 21
420.47282745479151
  0
LINE
  8
_1-0_
  6
CONTINUOUS
 62
    7
 10
370.61995767718571
 20
420.47282745479151
 11
372.61996913600615
 21
420.47282745479151
  0
LINE
  8
_1-0_
  6
CONTINUOUS
 62
    7
 10
372.61996913600615
 20
420.47282745479151
 11
372.61996913600615
 21
462.47284937089012
  0
LINE
  8
_1-0_
  6
CONTINUOUS
 62
    7
 10
376.6199483098211
 20
462.47284937089012
 11
374.61993685100072
 21
462.47284937089012
  0
LINE
  8
_1-0_
  6
CONTINUOUS
 62
    7
 10
374.61993685100072
 20
462.47284937089012
 11
374.61993685100072
 21
420.47282745479151
  0
LINE
  8
_1-0_
  6
CONTINUOUS
 62
    7
 10
374.61993685100072
 20
420.47282745479151
 11
376.6199483098211
 21
420.47282745479151
  0
LINE
  8
_1-0_
  6
CONTINUOUS
 62
    7
 10
376.6199483098211
 20
420.47282745479151
 11
376.6199483098211
 21
462.47284937089012
  0
LINE
  8
_1-0_
  6
CONTINUOUS
 62
    7
 10
380.61997122746175
 20
462.47284937089012
 11
378.61995976864137
 21
462.47284937089012
  0
LINE
  8
_1-0_
  6
CONTINUOUS
 62
    7
 10
378.61995976864137
 20
462.47284937089012
 11
378.61995976864137
 21
420.47282745479151
  0
LINE
  8
_1-0_
  6
CONTINUOUS
 62
    7
 10
378.61995976864137
 20
420.47282745479151
 11
380.61997122746175
 21
420.47282745479151
  0
LINE
  8
_1-0_
  6
CONTINUOUS
 62
    7
 10
380.61997122746175
 20
420.47282745479151
 11
380.61997122746175
 21
462.47284937089012
  0
LINE
  8
_1-0_
  6
CONTINUOUS
 62
    7
 10
384.61995040127675
 20
462.47284937089012
 11
382.61993894245632
 21
462.47284937089012
  0
LINE
  8
_1-0_
  6
CONTINUOUS
 62
    7
 10
382.61993894245632
 20
462.47284937089012
 11
382.61993894245632
 21
420.47282745479151
  0
LINE
  8
_1-0_
  6
CONTINUOUS
 62
    7
 10
382.61993894245632
 20
420.47282745479151
 11
384.61995040127675
 21
420.47282745479151
  0
LINE
  8
_1-0_
  6
CONTINUOUS
 62
    7
 10
384.61995040127675
 20
420.47282745479151
 11
384.61995040127675
 21
462.47284937089012
  0
LINE
  8
_1-1_
  6
CONTINUOUS
 62
    7
 10
313.61995917949901
 20
462.98714553067123
 11
334.6199482656354
 21
462.98714553067123
  0
LINE
  8
_1-1_
  6
CONTINUOUS
 62
    7
 10
334.56730257130033
 20
469.54084551012193
 11
334.56730257130033
 21
426.15860618679676
  0
LINE
  8
_1-1_
  6
CONTINUOUS
 62
    7
 10
334.56730257130033
 20
426.15860618679676
 11
355.61995922368453
 21
426.15860618679676
  0
LINE
  8
_1-1_
  6
CONTINUOUS
 62
    7
 10
313.61995917949901
 20
462.98714553067123
 11
313.61995917949901
 21
409.89368939491771
  0
LINE
  8
_1-0_
  6
CONTINUOUS
 62
    7
 10
383.77053279213925
 20
518.35326839137724
 11
285.77053997967698
 21
518.35326839137724
  0
LINE
  8
_1-0_
  6
CONTINUOUS
 62
    7
 10
285.77053997967698
 20
518.35326839137724
 11
285.77053997967698
 21
514.35324547373648
  0
LINE
  8
_1-0_
  6
CONTINUOUS
 62
    7
 10
285.77053997967698
 20
514.35324547373648
 11
383.77053279213925
 21
514.35324547373648
  0
LINE
  8
_1-0_
  6
CONTINUOUS
 62
    7
 10
383.77053279213925
 20
514.35324547373648
 11
383.77053279213925
 21
518.35326839137724
  0
LINE
  8
_1-0_
  6
CONTINUOUS
 62
    7
 10
380.61708413495978
 20
514.11934723725187
 11
288.61708195513273
 21
514.11934723725187
  0
LINE
  8
_1-0_
  6
CONTINUOUS
 62
    7
 10
288.61708195513273
 20
514.11934723725187
 11
288.61708195513273
 21
508.11935660461654
  0
LINE
  8
_1-0_
  6
CONTINUOUS
 62
    7
 10
288.61708195513273
 20
508.11935660461654
 11
380.61708413495978
 21
508.11935660461654
  0
LINE
  8
_1-0_
  6
CONTINUOUS
 62
    7
 10
380.61708413495978
 20
508.11935660461654
 11
380.61708413495978
 21
514.11934723725187
  0
LINE
  8
_1-1_
  6
CONTINUOUS
 62
    7
 10
368.4715234174692
 20
508.11935660461654
 11
300.47152751200912
 21
508.11935660461654
  0
LINE
  8
_1-1_
  6
CONTINUOUS
 62
    7
 10
300.47152751200912
 20
508.11935660461654
 11
300.47152751200912
 21
502.11932222815551
  0
LINE
  8
_1-1_
  6
CONTINUOUS
 62
    7
 10
300.47152751200912
 20
502.11932222815551
 11
306.47151814464439
 21
498.11934305434056
  0
LINE
  8
_1-1_
  6
CONTINUOUS
 62
    7
 10
306.47151814464439
 20
498.11934305434056
 11
362.47153278483381
 21
498.11934305434056
  0
LINE
  8
_1-1_
  6
CONTINUOUS
 62
    7
 10
362.47153278483381
 20
498.11934305434056
 11
368.4715234174692
 21
502.11932222815551
  0
LINE
  8
_1-1_
  6
CONTINUOUS
 62
    7
 10
368.4715234174692
 20
502.11932222815551
 11
368.4715234174692
 21
508.11935660461654
  0
LINE
  8
_1-0_
  6
CONTINUOUS
 62
    7
 10
872.54969416437916
 20
561.54084768994892
 11
756.54972945401096
 21
561.54084768994892
  0
LINE
  8
_1-0_
  6
CONTINUOUS
 62
    7
 10
756.54972945401096
 20
561.54084768994892
 11
756.54972945401096
 21
589.54083313813078
  0
LINE
  8
_1-0_
  6
CONTINUOUS
 62
    7
 10
756.54972945401096
 20
589.54083313813078
 11
872.54969416437916
 21
589.54083313813078
  0
LINE
  8
_1-0_
  6
CONTINUOUS
 62
    7
 10
872.54969416437916
 20
589.54083313813078
 11
872.54969416437916
 21
561.54084768994892
  0
LINE
  8
_1-0_
  6
CONTINUOUS
 62
    7
 10
846.54967643119198
 20
589.54083313813078
 11
782.54965969954674
 21
589.54083313813078
  0
LINE
  8
_1-0_
  6
CONTINUOUS
 62
    7
 10
782.54965969954674
 20
589.54083313813078
 11
782.54965969954674
 21
659.44324802707979
  0
LINE
  8
_1-0_
  6
CONTINUOUS
 62
    7
 10
782.54965969954674
 20
659.44324802707979
 11
846.54967643119198
 21
659.44324802707979
  0
LINE
  8
_1-0_
  6
CONTINUOUS
 62
    7
 10
846.54967643119198
 20
659.44324802707979
 11
846.54967643119198
 21
589.54083313813078
  0
LINE
  8
_1-0_
  6
CONTINUOUS
 62
    7
 10
798.54966388245793
 20
659.44324802707979
 11
798.54966388245793
 21
711.44323974962856
  0
LINE
  8
_1-0_
  6
CONTINUOUS
 62
    7
 10
830.54967224828056
 20
689.44324493408203
 11
830.54967224828056
 21
659.44324802707979
  0
LINE
  8
_1-0_
  6
CONTINUOUS
 62
    7
 10
798.54966388245793
 20
711.44323974962856
 11
830.54967224828056
 21
689.44324493408203
  0
LINE
  8
_1-0_
  6
CONTINUOUS
 62
    7
 10
989.79137111354521
 20
715.00910519633055
 11
976.5496776094767
 21
685.87737948738004
  0
LINE
  8
_1-0_
  6
CONTINUOUS
 62
    7
 10
276.56729834420332
 20
561.54084768994892
 11
392.56728492648449
 21
561.54084768994892
  0
LINE
  8
_1-0_
  6
CONTINUOUS
 62
    7
 10
392.56728492648449
 20
561.54084768994892
 11
392.56728492648449
 21
589.54083313813078
  0
LINE
  8
_1-0_
  6
CONTINUOUS
 62
    7
 10
392.56728492648449
 20
589.54083313813078
 11
276.56729834420332
 21
589.54083313813078
  0
LINE
  8
_1-0_
  6
CONTINUOUS
 62
    7
 10
276.56729834420332
 20
589.54083313813078
 11
276.56729834420332
 21
561.54084768994892
  0
LINE
  8
_1-0_
  6
CONTINUOUS
 62
    7
 10
302.56729420547771
 20
589.54083313813078
 11
366.5672890652101
 21
589.54083313813078
  0
LINE
  8
_1-0_
  6
CONTINUOUS
 62
    7
 10
366.5672890652101
 20
589.54083313813078
 11
366.5672890652101
 21
659.44324802707979
  0
LINE
  8
_1-0_
  6
CONTINUOUS
 62
    7
 10
366.5672890652101
 20
659.44324802707979
 11
302.56729420547771
 21
659.44324802707979
  0
LINE
  8
_1-0_
  6
CONTINUOUS
 62
    7
 10
302.56729420547771
 20
659.44324802707979
 11
302.56729420547771
 21
589.54083313813078
  0
LINE
  8
_1-0_
  6
CONTINUOUS
 62
    7
 10
350.56728488229879
 20
659.44324802707979
 11
350.56728488229879
 21
711.44323974962856
  0
LINE
  8
_1-0_
  6
CONTINUOUS
 62
    7
 10
318.56729838838902
 20
689.44324493408203
 11
318.56729838838902
 21
659.44324802707979
  0
LINE
  8
_1-0_
  6
CONTINUOUS
 62
    7
 10
350.56728488229879
 20
711.44323974962856
 11
318.56729838838902
 21
689.44324493408203
  0
LINE
  8
_1-0_
  6
CONTINUOUS
 62
    7
 10
159.32559952312459
 20
715.00910519633055
 11
172.56729302719293
 21
685.87737948738004
  0
LINE
  8
_1-1_
  6
CONTINUOUS
 62
    7
 10
624.55850932588896
 20
561.54084768994892
 11
658.4056007355797
 21
561.54084768994892
  0
LINE
  8
_1-1_
  6
CONTINUOUS
 62
    7
 10
542.35904885074797
 20
398.78153281782573
 11
542.35904885074797
 21
400.79764200453582
  0
LINE
  8
_1-1_
  6
CONTINUOUS
 62
    7
 10
606.3590218385674
 20
398.66849877199144
 11
606.3590218385674
 21
400.79764200453582
  0
LINE
  8
_1-1_
  6
CONTINUOUS
 62
    7
 10
537.35904207561009
 20
395.797635229398
 11
542.35904885074797
 21
395.797635229398
  0
LINE
  8
_1-1_
  6
CONTINUOUS
 62
    7
 10
606.3590218385674
 20
395.797635229398
 11
611.35902861370539
 21
395.797635229398
  0
LINE
  8
_1-1_
  6
CONTINUOUS
 62
    7
 10
306.60113110045199
 20
537.54084141558201
 11
306.60113110045199
 21
518.54084191635309
  0
LINE
  8
_1-1_
  6
CONTINUOUS
 62
    7
 10
362.60112386872862
 20
537.54084141558201
 11
362.60112386872862
 21
518.54084191635309
  0
LINE
  8
_1-0_
  6
CONTINUOUS
 62
    7
 10
541.55849309501491
 20
1723.919852709678
 11
541.55849309501491
 21
1334.1052355085098
  0
LINE
  8
_1-0_
  6
CONTINUOUS
 62
    7
 10
607.55847754165472
 20
1334.1052355085098
 11
607.55847754165472
 21
1723.919852709678
  0
LINE
  8
_1-0_
  6
CONTINUOUS
 62
    7
 10
812.74969712187408
 20
1739.9199443802408
 11
971.99139598713873
 21
1739.9199443802408
  0
LINE
  8
_1-0_
  6
CONTINUOUS
 62
    7
 10
812.74969712187408
 20
1707.9199360144185
 11
971.99139598713873
 21
1707.9199360144185
  0
LINE
  8
_1-0_
  6
CONTINUOUS
 62
    7
 10
336.36729538670835
 20
1739.9199443802408
 11
177.12559652144392
 21
1739.9199443802408
  0
LINE
  8
_1-0_
  6
CONTINUOUS
 62
    7
 10
336.36729538670835
 20
1707.9199360144185
 11
177.12559652144392
 21
1707.9199360144185
  0
ARC
  8
_1-1_
  6
CONTINUOUS
 62
    7
 10
1341.6908523382826
 20
512.11933577843149
 40
13.999999559063706
 50
236.30992126464844
 51
270
  0
ARC
  8
_1-1_
  6
CONTINUOUS
 62
    7
 10
1289.3091082480883
 20
512.11933577843149
 40
13.999999559063706
 50
270
 51
303.6900634765625
  0
ARC
  8
_1-1_
  6
CONTINUOUS
 62
    7
 10
1311.9960561037983
 20
512.11933577843149
 40
13.999999559063706
 50
236.30992126464844
 51
270
  0
ARC
  8
_1-1_
  6
CONTINUOUS
 62
    7
 10
1319.6086191302561
 20
512.11933577843149
 40
13.999999559063706
 50
270
 51
303.6900634765625
  0
CIRCLE
  8
_1-1_
  6
CONTINUOUS
 62
    7
 10
1316.5670234356148
 20
440.93623290190817
 40
21.000000022092841
  0
CIRCLE
  8
_1-1_
  6
CONTINUOUS
 62
    7
 10
1316.5670234356148
 20
440.93623290190817
 40
19.499999629944906
  0
ARC
  8
_1-0_
  6
CONTINUOUS
 62
    7
 10
574.55848531833476
 20
842.54081726074219
 40
32.999986755341631
 50
0
 51
180
  0
ARC
  8
_1-0_
  6
CONTINUOUS
 62
    7
 10
1511.4742882923729
 20
447.60226702598067
 40
427.71636756690771
 50
57.801986694335938
 51
122.197998046875
  0
ARC
  8
_1-0_
  6
CONTINUOUS
 62
    7
 10
1511.4742882923729
 20
461.8661225072205
 40
347.67474627402754
 50
62.24534606933593
 51
117.754638671875
  0
ARC
  8
_1-0_
  6
CONTINUOUS
 62
    7
 10
1316.4058711814143
 20
717.81505290145572
 40
16.00000008192762
 50
0
 51
180
  0
ARC
  8
_1-0_
  6
CONTINUOUS
 62
    7
 10
573.96558150361398
 20
307.90084765224378
 40
2.0000000102409525
 50
227.02761840820315
 51
311.32174682617187
  0
ARC
  8
_1-2_
  6
CONTINUOUS
 62
    7
 10
634.15804815108243
 20
328.47372202339318
 40
10.765624824177804
 50
144.5106506347656
 51
222.52287292480469
  0
ARC
  8
_1-2_
  6
CONTINUOUS
 62
    7
 10
637.82679907603608
 20
328.47372202339318
 40
10.765624824177804
 50
317.81713867187506
 51
35.489334106445348
  0
ARC
  8
_1-2_
  6
CONTINUOUS
 62
    7
 10
634.33249852832216
 20
278.75849219362703
 40
10.765624824177804
 50
137.46154785156247
 51
215.48933410644528
  0
ARC
  8
_1-2_
  6
CONTINUOUS
 62
    7
 10
638.00124945327582
 20
278.75849219362703
 40
10.765624824177804
 50
324.51065063476562
 51
40.437164306640632
  0
ARC
  8
_1-2_
  6
CONTINUOUS
 62
    7
 10
671.44121707636418
 20
305.01161170281961
 40
48.148697812584835
 50
160.70854187011719
 51
201.77572631835937
  0
ARC
  8
_1-2_
  6
CONTINUOUS
 62
    7
 10
604.20686935365893
 20
305.01161170281961
 40
44.560000822811048
 50
336.383056640625
 51
22.233718872070313
  0
ARC
  8
_1-2_
  6
CONTINUOUS
 62
    7
 10
403.25202058180878
 20
469.62273395199566
 40
10.765624824177804
 50
144.5106506347656
 51
222.52287292480469
  0
ARC
  8
_1-2_
  6
CONTINUOUS
 62
    7
 10
406.92077150676243
 20
469.62273395199566
 40
10.765624824177804
 50
317.81713867187506
 51
35.489334106445348
  0
ARC
  8
_1-2_
  6
CONTINUOUS
 62
    7
 10
403.42647095904852
 20
419.90748225031666
 40
10.765624824177804
 50
137.46154785156247
 51
215.48933410644528
  0
ARC
  8
_1-2_
  6
CONTINUOUS
 62
    7
 10
407.095221884002
 20
419.90748225031666
 40
10.765624824177804
 50
324.51065063476562
 51
40.437164306640632
  0
ARC
  8
_1-2_
  6
CONTINUOUS
 62
    7
 10
440.53518950709048
 20
446.16060175950918
 40
48.148697812584835
 50
160.70854187011719
 51
201.77572631835937
  0
ARC
  8
_1-2_
  6
CONTINUOUS
 62
    7
 10
373.30084178438511
 20
446.16060175950918
 40
44.560000822811048
 50
336.383056640625
 51
22.233718872070313
  0
ARC
  8
_1-2_
  6
CONTINUOUS
 62
    7
 10
520.26251141168905
 20
279.15728278141682
 40
10.765624824177804
 50
324.51065063476562
 51
42.522872924804702
  0
ARC
  8
_1-2_
  6
CONTINUOUS
 62
    7
 10
516.59376048673516
 20
279.15728278141682
 40
10.765624824177804
 50
137.81713867187497
 51
215.48933410644528
  0
ARC
  8
_1-2_
  6
CONTINUOUS
 62
    7
 10
520.08810477827501
 20
328.87251261118297
 40
10.765624824177804
 50
317.4615478515625
 51
35.48933410644532
  0
ARC
  8
_1-2_
  6
CONTINUOUS
 62
    7
 10
516.41935385332147
 20
328.87251261118297
 40
10.765624824177804
 50
144.5106506347656
 51
220.4371643066406
  0
ARC
  8
_1-2_
  6
CONTINUOUS
 62
    7
 10
482.97938623023299
 20
302.61937123007755
 40
48.148697812584835
 50
340.70854187011713
 51
21.775726318359339
  0
ARC
  8
_1-2_
  6
CONTINUOUS
 62
    7
 10
550.21373395293836
 20
302.61937123007755
 40
44.560000822811048
 50
156.383056640625
 51
202.23371887207031
  0
ARC
  8
_1-2_
  6
CONTINUOUS
 62
    7
 10
749.78483428365939
 20
419.40171613656412
 40
10.765624824177804
 50
324.51065063476562
 51
42.522872924804702
  0
ARC
  8
_1-2_
  6
CONTINUOUS
 62
    7
 10
746.11612710253144
 20
419.40171613656412
 40
10.765624824177804
 50
137.81713867187497
 51
215.48933410644528
  0
ARC
  8
_1-2_
  6
CONTINUOUS
 62
    7
 10
749.61047139407117
 20
469.11692409441736
 40
10.765624824177804
 50
317.4615478515625
 51
35.48933410644532
  0
ARC
  8
_1-2_
  6
CONTINUOUS
 62
    7
 10
745.94167672529181
 20
469.11692409441736
 40
10.765624824177804
 50
144.5106506347656
 51
220.4371643066406
  0
ARC
  8
_1-2_
  6
CONTINUOUS
 62
    7
 10
712.50170910220345
 20
442.8638045852249
 40
48.148697812584835
 50
340.70854187011713
 51
21.775726318359339
  0
ARC
  8
_1-2_
  6
CONTINUOUS
 62
    7
 10
779.7360568249087
 20
442.8638045852249
 40
44.560000822811048
 50
156.383056640625
 51
202.23371887207031
  0
ARC
  8
_1-0_
  6
CONTINUOUS
 62
    7
 10
504.81433559108427
 20
374.21434409830101
 40
19.999999760660884
 50
0
 51
90
  0
ARC
  8
_1-0_
  6
CONTINUOUS
 62
    7
 10
504.81433559108427
 20
365.07271564144889
 40
19.999999760660884
 50
270
 51
0
  0
ARC
  8
_1-0_
  6
CONTINUOUS
 62
    7
 10
394.81436151335146
 20
325.07270518417056
 40
19.999999760660884
 50
90
 51
180
  0
ARC
  8
_1-0_
  6
CONTINUOUS
 62
    7
 10
394.81436151335146
 20
324.21432009074681
 40
19.999999760660884
 50
180
 51
270
  0
ARC
  8
_1-0_
  6
CONTINUOUS
 62
    7
 10
645.80309201391503
 20
374.21434409830101
 40
19.999999760660884
 50
90
 51
180
  0
ARC
  8
_1-0_
  6
CONTINUOUS
 62
    7
 10
645.80309201391503
 20
365.07271564144889
 40
19.999999760660884
 50
180
 51
270
  0
ARC
  8
_1-0_
  6
CONTINUOUS
 62
    7
 10
750.26216691065019
 20
325.07270518417056
 40
19.999999760660884
 50
0
 51
90
  0
ARC
  8
_1-0_
  6
CONTINUOUS
 62
    7
 10
750.26216691065019
 20
324.21432009074681
 40
19.999999760660884
 50
270
 51
0
  0
ARC
  8
_1-1_
  6
CONTINUOUS
 62
    7
 10
789.21210682990466
 20
512.11933577843149
 40
13.999999559063706
 50
270
 51
303.6900634765625
  0
ARC
  8
_1-1_
  6
CONTINUOUS
 62
    7
 10
841.59376343244742
 20
512.11933577843149
 40
13.999999559063706
 50
236.30992126464844
 51
270
  0
ARC
  8
_1-1_
  6
CONTINUOUS
 62
    7
 10
818.90690306438898
 20
512.11933577843149
 40
13.999999559063706
 50
270
 51
303.6900634765625
  0
ARC
  8
_1-1_
  6
CONTINUOUS
 62
    7
 10
811.29434003793131
 20
512.11933577843149
 40
13.999999559063706
 50
236.30992126464844
 51
270
  0
ARC
  8
_1-1_
  6
CONTINUOUS
 62
    7
 10
359.904885678678
 20
512.11933577843149
 40
13.999999559063706
 50
236.30992126464844
 51
270
  0
ARC
  8
_1-1_
  6
CONTINUOUS
 62
    7
 10
307.52318533230937
 20
512.11933577843149
 40
13.999999559063706
 50
270
 51
303.6900634765625
  0
ARC
  8
_1-1_
  6
CONTINUOUS
 62
    7
 10
330.21011131610646
 20
512.11933577843149
 40
13.999999559063706
 50
236.30992126464844
 51
270
  0
ARC
  8
_1-1_
  6
CONTINUOUS
 62
    7
 10
337.82263059873827
 20
512.11933577843149
 40
13.999999559063706
 50
270
 51
303.6900634765625
  0
ARC
  8
_1-0_
  6
CONTINUOUS
 62
    7
 10
898.12732151576438
 20
501.01719653744487
 40
232.79783867500922
 50
66.811981201171875
 51
115.32440185546875
  0
ARC
  8
_1-0_
  6
CONTINUOUS
 62
    7
 10
898.99362424165577
 20
501.11767610527829
 40
200.37740839954509
 50
67.228927612304688
 51
109.97285461425783
  0
ARC
  8
_1-0_
  6
CONTINUOUS
 62
    7
 10
250.98962724899224
 20
501.01719653744487
 40
232.79783867500922
 50
64.675582885742188
 51
113.18800354003905
  0
ARC
  8
_1-0_
  6
CONTINUOUS
 62
    7
 10
250.12336826692675
 20
501.11767610527829
 40
200.37740839954509
 50
70.027130126953125
 51
112.77105712890624
  0
ARC
  8
_1-0_
  6
CONTINUOUS
 62
    7
 10
574.55848531833476
 20
1723.919852709678
 40
57.999708956272904
 50
304.67831420898437
 51
235.3216552734375
  0
ARC
  8
_1-0_
  6
CONTINUOUS
 62
    7
 10
574.55848531833476
 20
1723.919852709678
 40
33.000000425287197
 50
0
 51
180
  0
ARC
  8
_1-0_
  6
CONTINUOUS
 62
    7
 10
574.55848531833476
 20
1334.1052355085098
 40
33.000000425287197
 50
180
 51
0
  0
ARC
  8
_1-0_
  6
CONTINUOUS
 62
    7
 10
812.74969712187408
 20
1723.919852709678
 40
57.999998759118739
 50
16.013381958007813
 51
343.98660278320312
  0
ARC
  8
_1-0_
  6
CONTINUOUS
 62
    7
 10
812.74969712187408
 20
1723.919852709678
 40
32.00000016385524
 50
29.999999999999996
 51
329.99998474121094
  0
ARC
  8
_1-0_
  6
CONTINUOUS
 62
    7
 10
812.74969712187408
 20
1723.919852709678
 40
16.00000008192762
 50
90
 51
270
  0
ARC
  8
_1-0_
  6
CONTINUOUS
 62
    7
 10
971.99139598713873
 20
1723.919852709678
 40
16.00000008192762
 50
270
 51
90
  0
ARC
  8
_1-0_
  6
CONTINUOUS
 62
    7
 10
336.36729538670835
 20
1723.919852709678
 40
57.999998759118739
 50
196.01338195800781
 51
163.9866027832031
  0
ARC
  8
_1-0_
  6
CONTINUOUS
 62
    7
 10
336.36729538670835
 20
1723.919852709678
 40
32.00000016385524
 50
209.99998474121094
 51
150
  0
ARC
  8
_1-0_
  6
CONTINUOUS
 62
    7
 10
336.36729538670835
 20
1723.919852709678
 40
16.00000008192762
 50
270
 51
90
  0
ARC
  8
_1-0_
  6
CONTINUOUS
 62
    7
 10
177.12559652144392
 20
1723.919852709678
 40
16.00000008192762
 50
90
 51
270
  0
TEXT
  8
_0-0_
 62
    6
 10
2107.3454102033811
 20
1755.0075398448812
 40
100
 41
1
 50
0
  1
BX-7611_
  0
ENDSEC
  0
EOF
