  0
SECTION
  2
HEADER
  9
$ACADVER
  1
AC1015
  9
$ACADMAINTVER
 70
               6
  9
$DWGCODEPAGE
  3
ANSI_932
  9
$INSBASE
 10
0.0
 20
0.0
 30
0.0
  9
$EXTMIN
 10
1051.9800167066001
 20
746.85787383106913
 30
-7.4083333333333323
  9
$EXTMAX
 10
1836.3324811575601
 20
1299.3742251572467
 30
7.4083333333333323
  9
$LIMMIN
 10
0.0
 20
0.0
  9
$LIMMAX
 10
0.0
 20
0.0
  9
$ORTHOMODE
 70
               0
  9
$REGENMODE
 70
               1
  9
$FILLMODE
 70
               1
  9
$QTEXTMODE
 70
               0
  9
$MIRRTEXT
 70
               1
  9
$LTSCALE
 40
25.399999999999999
  9
$ATTMODE
 70
               1
  9
$TEXTSIZE
 40
0.2
  9
$TRACEWID
 40
1.0
  9
$TEXTSTYLE
  7
Standard
  9
$CLAYER
  8
一般
  9
$CELTYPE
  6
Continuous
  9
$CECOLOR
 62
             256
  9
$CELTSCALE
 40
1.0
  9
$DISPSILH
 70
               0
  9
$DIMSCALE
 40
1.0
  9
$DIMASZ
 40
0.18
  9
$DIMEXO
 40
0.0625
  9
$DIMDLI
 40
0.38
  9
$DIMRND
 40
0.0
  9
$DIMDLE
 40
0.0
  9
$DIMEXE
 40
0.18
  9
$DIMTP
 40
0.0
  9
$DIMTM
 40
0.0
  9
$DIMTXT
 40
0.18
  9
$DIMCEN
 40
0.09
  9
$DIMTSZ
 40
0.0
  9
$DIMTOL
 70
               0
  9
$DIMLIM
 70
               0
  9
$DIMTIH
 70
               1
  9
$DIMTOH
 70
               1
  9
$DIMSE1
 70
               0
  9
$DIMSE2
 70
               0
  9
$DIMTAD
 70
               0
  9
$DIMZIN
 70
               0
  9
$DIMBLK
  1

  9
$DIMASO
 70
               1
  9
$DIMSHO
 70
               1
  9
$DIMPOST
  1

  9
$DIMAPOST
  1

  9
$DIMALT
 70
               0
  9
$DIMALTD
 70
               2
  9
$DIMALTF
 40
25.399999999999999
  9
$DIMLFAC
 40
1.0
  9
$DIMTOFL
 70
               0
  9
$DIMTVP
 40
0.0
  9
$DIMTIX
 70
               0
  9
$DIMSOXD
 70
               0
  9
$DIMSAH
 70
               0
  9
$DIMBLK1
  1

  9
$DIMBLK2
  1

  9
$DIMSTYLE
  2
Standard
  9
$DIMCLRD
 70
               0
  9
$DIMCLRE
 70
               0
  9
$DIMCLRT
 70
               0
  9
$DIMTFAC
 40
1.0
  9
$DIMGAP
 40
0.09
  9
$DIMJUST
 70
               0
  9
$DIMSD1
 70
               0
  9
$DIMSD2
 70
               0
  9
$DIMTOLJ
 70
               1
  9
$DIMTZIN
 70
               0
  9
$DIMALTZ
 70
               0
  9
$DIMALTTZ
 70
               0
  9
$DIMUPT
 70
               0
  9
$DIMDEC
 70
               4
  9
$DIMTDEC
 70
               4
  9
$DIMALTU
 70
               2
  9
$DIMALTTD
 70
               2
  9
$DIMTXSTY
  7
Standard
  9
$DIMAUNIT
 70
               0
  9
$DIMADEC
 70
               0
  9
$DIMALTRND
 40
0.0
  9
$DIMAZIN
 70
               0
  9
$DIMDSEP
 70
               0
  9
$DIMATFIT
 70
               3
  9
$DIMFRAC
 70
               0
  9
$DIMLDRBLK
  1

  9
$DIMLUNIT
 70
               2
  9
$DIMLWD
 70
               0
  9
$DIMLWE
 70
               0
  9
$DIMTMOVE
 70
               0
  9
$LUNITS
 70
               2
  9
$LUPREC
 70
               4
  9
$SKETCHINC
 40
0.1
  9
$FILLETRAD
 40
0.0
  9
$AUNITS
 70
               0
  9
$AUPREC
 70
               0
  9
$MENU
  1
acad
  9
$ELEVATION
 40
0.0
  9
$PELEVATION
 40
0.0
  9
$THICKNESS
 40
0.0
  9
$LIMCHECK
 70
               0
  9
$CHAMFERA
 40
0.0
  9
$CHAMFERB
 40
0.0
  9
$CHAMFERC
 40
0.0
  9
$CHAMFERD
 40
0.0
  9
$SKPOLY
 70
               0
  9
$TDCREATE
 40
2455119.812152778
  9
$TDUCREATE
 40
0.000000000
  9
$TDUPDATE
 40
2455119.812152778
  9
$TDUUPDATE
 40
0.000000000
  9
$TDINDWG
 40
0.0000000000
  9
$TDUSRTIMER
 40
0.0000000000
  9
$USRTIMER
 70
               1
  9
$ANGBASE
 50
0.0
  9
$ANGDIR
 70
               0
  9
$PDMODE
 70
               1
  9
$PDSIZE
 40
-2.0
  9
$PLINEWID
 40
0.0
  9
$SPLFRAME
 70
               0
  9
$SPLINETYPE
 70
               6
  9
$SPLINESEGS
 70
               8
  9
$HANDSEED
  5
373
  9
$SURFTAB1
 70
               6
  9
$SURFTAB2
 70
               6
  9
$SURFTYPE
 70
               6
  9
$SURFU
 70
               6
  9
$SURFV
 70
               6
  9
$UCSBASE
  2

  9
$UCSNAME
  2

  9
$UCSORG
 10
0.0
 20
0.0
 30
0.0
  9
$UCSXDIR
 10
1.0
 20
0.0
 30
0.0
  9
$UCSYDIR
 10
0.0
 20
1.0
 30
0.0
  9
$UCSORTHOREF
  2

  9
$UCSORTHOVIEW
 70
               0
  9
$UCSORGTOP
 10
0.0
 20
0.0
 30
0.0
  9
$UCSORGBOTTOM
 10
0.0
 20
0.0
 30
0.0
  9
$UCSORGLEFT
 10
0.0
 20
0.0
 30
0.0
  9
$UCSORGRIGHT
 10
0.0
 20
0.0
 30
0.0
  9
$UCSORGFRONT
 10
0.0
 20
0.0
 30
0.0
  9
$UCSORGBACK
 10
0.0
 20
0.0
 30
0.0
  9
$PUCSBASE
  2

  9
$PUCSNAME
  2

  9
$PUCSORG
 10
0.0
 20
0.0
 30
0.0
  9
$PUCSXDIR
 10
1.0
 20
0.0
 30
0.0
  9
$PUCSYDIR
 10
0.0
 20
1.0
 30
0.0
  9
$PUCSORTHOREF
  2

  9
$PUCSORTHOVIEW
 70
               0
  9
$PUCSORGTOP
 10
0.0
 20
0.0
 30
0.0
  9
$PUCSORGBOTTOM
 10
0.0
 20
0.0
 30
0.0
  9
$PUCSORGLEFT
 10
0.0
 20
0.0
 30
0.0
  9
$PUCSORGRIGHT
 10
0.0
 20
0.0
 30
0.0
  9
$PUCSORGFRONT
 10
0.0
 20
0.0
 30
0.0
  9
$PUCSORGBACK
 10
0.0
 20
0.0
 30
0.0
  9
$USERI1
 70
               0
  9
$USERI2
 70
               0
  9
$USERI3
 70
               0
  9
$USERI4
 70
               0
  9
$USERI5
 70
               0
  9
$USERR1
 40
0.0
  9
$USERR2
 40
0.0
  9
$USERR3
 40
0.0
  9
$USERR4
 40
0.0
  9
$USERR5
 40
0.0
  9
$WORLDVIEW
 70
               1
  9
$SHADEDGE
 70
               3
  9
$SHADEDIF
 70
              70
  9
$TILEMODE
 70
               1
  9
$MAXACTVP
 70
              64
  9
$PINSBASE
 10
0.0
 20
0.0
 30
0.0
  9
$PLIMCHECK
 70
               0
  9
$PEXTMIN
 10
1.0000000000000000E+20
 20
1.0000000000000000E+20
 30
1.0000000000000000E+20
  9
$PEXTMAX
 10
-1.0000000000000000E+20
 20
-1.0000000000000000E+20
 30
-1.0000000000000000E+20
  9
$PLIMMIN
 10
0.0
 20
0.0
  9
$PLIMMAX
 10
12.0
 20
9.0
  9
$UNITMODE
 70
               0
  9
$VISRETAIN
 70
               0
  9
$PLINEGEN
 70
               1
  9
$PSLTSCALE
 70
               0
  9
$TREEDEPTH
 70
            3020
  9
$CMLSTYLE
  2
Standard
  9
$CMLJUST
 70
               0
  9
$CMLSCALE
 40
1.0
  9
$PROXYGRAPHICS
 70
               0
  9
$MEASUREMENT
 70
               1
  9
$CELWEIGHT
370
               0
  9
$ENDCAPS
280
               0
  9
$JOINSTYLE
280
               0
  9
$LWDISPLAY
290
               1
  9
$INSUNITS
 70
               4
  9
$HYPERLINKBASE
  1

  9
$STYLESHEET
  1

  9
$XEDIT
290
               1
  9
$CEPSNTYPE
380
               0
  9
$PSTYLEMODE
290
               1
  9
$FINGERPRINTGUID
  2

  9
$VERSIONGUID
  2

  9
$EXTNAMES
290
               1
  9
$PSVPSCALE
 40
0.0
  0
ENDSEC
  0
SECTION
  2
CLASSES
  0
CLASS
  1
LWPOLYLINE
  2
AcDbPolyline
  3
AutoCAD 2000
 90
        0
280
               0
281
               1
  0
CLASS
  1
IMAGE
  2
AcDbRasterImage
  3
ISM
 90
    32895
280
               0
281
               1
  0
CLASS
  1
OLE2FRAME
  2
AcDbOle2Frame
  3
AutoCAD 2000
 90
    32768
280
               0
281
               1
  0
CLASS
  1
HATCH
  2
AcDbHatch
  3
AutoCAD 2000
 90
    32768
280
               0
281
               1
  0
CLASS
  1
DICTIONARYVAR
  2
AcDbDictionaryVar
  3
AutoCAD 2000
 90
    32768
280
               0
281
               0
  0
CLASS
  1
RASTERVARIABLES
  2
AcDbRasterVariables
  3
ISM
 90
    32768
280
               0
281
               0
  0
CLASS
  1
IMAGEDEF
  2
AcDbRasterImageDef
  3
ISM
 90
    32768
280
               0
281
               0
  0
CLASS
  1
IMAGEDEF_REACTOR
  2
AcDbRasterImageDefReactor
  3
ISM
 90
    32769
280
               0
281
               0
  0
CLASS
  1
IDBUFFER
  2
AcDbIdBuffer
  3
AutoCAD 2000
 90
    32768
280
               0
281
               0
  0
CLASS
  1
SPATIAL_FILTER
  2
AcDbSpatialFilter
  3
AutoCAD 2000
 90
    32768
280
               0
281
               0
  0
CLASS
  1
XRECORD
  2
AcDbXrecord
  3
AutoCAD 2000
 90
    32768
280
               0
281
               0
  0
CLASS
  1
SORTENTSTABLE
  2
AcDbSortentsTable
  3
AutoCAD 2000
 90
    32768
280
               0
281
               0
  0
CLASS
  1
LAYER_INDEX
  2
AcDbLayerIndex
  3
AutoCAD 2000
 90
    32768
280
               0
281
               0
  0
CLASS
  1
SPATIAL_INDEX
  2
AcDbSpatialIndex
  3
AutoCAD 2000
 90
    32768
280
               0
281
               0
  0
CLASS
  1
OBJECT_PTR
  2
CAseDLPNTableRecord
  3
"ASE-LPNTableRecord"
 90
    32769
280
               0
281
               0
  0
CLASS
  1
LAYOUT
  2
AcDbLayout
  3
AutoCAD 2000
 90
        0
280
               0
281
               0
  0
CLASS
  1
PLOTSETTINGS
  2
AcDbPlotSettings
  3
AutoCAD 2000
 90
    32768
280
               0
281
               0
  0
CLASS
  1
ACDBDICTIONARYWDFLT
  2
AcDbDictionaryWithDefault
  3
AutoCAD 2000
 90
        0
280
               0
281
               0
  0
CLASS
  1
ACDBPLACEHOLDER
  2
AcDbPlaceHolder
  3
AutoCAD 2000
 90
        0
280
               0
281
               0
  0
CLASS
  1
VBA_PROJECT
  2
AcDbVbaProject
  3
acadvba
 90
    32768
280
               0
281
               0
  0
CLASS
  1
WIPEOUT
  2
AcDbWipeout
  3
WipeOut|AutoCAD Express Tool|expresstools@autodesk.com
 90
    32895
280
               0
281
               1
  0
CLASS
  1
WIPEOUTVARIABLES
  2
AcDbWipeoutVariables
  3
WipeOut|AutoCAD Express Tool|expresstools@autodesk.com
 90
        0
280
               0
281
               0
  0
CLASS
  1
RTEXT
  2
RText
  3
RText|AutoCAD Express Tool|expresstools@autodesk.com
 90
    32768
280
               0
281
               1
  0
CLASS
  1
ARCALIGNEDTEXT
  2
AcDbArcAlignedText
  3
ATEXT|AutoCAD Express Tool|expresstools@autodesk.com
 90
    32768
280
               0
281
               1
  0
ENDSEC
  0
SECTION
  2
TABLES
  0
TABLE
  2
VPORT
  5
7
100
AcDbSymbolTable
 70
               1
  0
VPORT
  5
15
100
AcDbSymbolTableRecord
100
AcDbViewportTableRecord
  2
*ACTIVE
 70
               0
 10
0.0
 20
0.0
 11
1.0
 21
1.0
 12
1444.15624893208
 22
1023.1160494941579
 13
0.0
 23
0.0
 14
1.0
 24
1.0
 15
0.0
 25
0.0
 16
0.0
 26
0.0
 36
1.0
 17
0.0
 27
0.0
 37
0.0
 40
552.51635132617753
 41
0.688564
 42
50.0
 43
0.0
 44
0.0
 50
0.0
 51
0.0
 71
               0
 72
            2000
 73
               1
 74
               1
 75
               0
 76
               0
 77
               0
 78
               0
281
               0
 65
               0
110
0.0
120
0.0
130
0.0
111
1.0
121
0.0
131
0.0
112
0.0
122
1.0
132
0.0
345
0
346
0
 79
               0
146
0.0
  0
ENDTAB
  0
TABLE
  2
LTYPE
  5
4
100
AcDbSymbolTable
 70
              15
  0
LTYPE
  5
11
100
AcDbSymbolTableRecord
100
AcDbLinetypeTableRecord
  2
ByBlock
 70
              64
  3

 72
              65
 73
               0
 40
0.0
  0
LTYPE
  5
12
100
AcDbSymbolTableRecord
100
AcDbLinetypeTableRecord
  2
ByLayer
 70
              64
  3

 72
              65
 73
               0
 40
0.0
  0
LTYPE
  5
13
100
AcDbSymbolTableRecord
100
AcDbLinetypeTableRecord
  2
Continuous
 70
              64
  3
Solid line
 72
              65
 73
               0
 40
0.0
  0
LTYPE
  5
2B
100
AcDbSymbolTableRecord
100
AcDbLinetypeTableRecord
  2
STYLE_01
 70
               0
  3

 72
              65
 73
               2
 40
0.41664
 49
0.20828
 74
               0
 49
-0.20836
 74
               0
  0
LTYPE
  5
2C
100
AcDbSymbolTableRecord
100
AcDbLinetypeTableRecord
  2
STYLE_02
 70
               0
  3

 72
              65
 73
               2
 40
0.6944250000000001
 49
0.48607
 74
               0
 49
-0.2083550000000001
 74
               0
  0
LTYPE
  5
2D
100
AcDbSymbolTableRecord
100
AcDbLinetypeTableRecord
  2
STYLE_03
 70
               0
  3

 72
              65
 73
               2
 40
1.25
 49
1.0416400000000001
 74
               0
 49
-0.2083599999999999
 74
               0
  0
LTYPE
  5
2E
100
AcDbSymbolTableRecord
100
AcDbLinetypeTableRecord
  2
STYLE_04
 70
               0
  3

 72
              65
 73
               2
 40
1.5277099999999999
 49
1.3194249999999998
 74
               0
 49
-0.208285
 74
               0
  0
LTYPE
  5
2F
100
AcDbSymbolTableRecord
100
AcDbLinetypeTableRecord
  2
STYLE_05
 70
               0
  3

 72
              65
 73
               2
 40
0.20828
 49
0.069425
 74
               0
 49
-0.138855
 74
               0
  0
LTYPE
  5
30
100
AcDbSymbolTableRecord
100
AcDbLinetypeTableRecord
  2
STYLE_06
 70
               0
  3

 72
              65
 73
               4
 40
1.0416400000000001
 49
0.625
 74
               0
 49
-0.20828
 74
               0
 49
0.06943
 74
               0
 49
-0.13893
 74
               0
  0
LTYPE
  5
31
100
AcDbSymbolTableRecord
100
AcDbLinetypeTableRecord
  2
STYLE_07
 70
               0
  3

 72
              65
 73
               6
 40
1.875
 49
0.625
 74
               0
 49
-0.20828
 74
               0
 49
0.6250000000000001
 74
               0
 49
-0.2083599999999999
 74
               0
 49
0.06943
 74
               0
 49
-0.1389299999999999
 74
               0
  0
LTYPE
  5
32
100
AcDbSymbolTableRecord
100
AcDbLinetypeTableRecord
  2
STYLE_08
 70
               0
  3

 72
              65
 73
               6
 40
1.25
 49
0.625
 74
               0
 49
-0.20828
 74
               0
 49
0.06943
 74
               0
 49
-0.13893
 74
               0
 49
0.0694299999999999
 74
               0
 49
-0.13893
 74
               0
  0
LTYPE
  5
33
100
AcDbSymbolTableRecord
100
AcDbLinetypeTableRecord
  2
STYLE_09
 70
               0
  3

 72
              65
 73
               4
 40
5.0
 49
3.75
 74
               0
 49
-0.2777849999999998
 74
               0
 49
0.6944300000000003
 74
               0
 49
-0.2777849999999998
 74
               0
  0
LTYPE
  5
34
100
AcDbSymbolTableRecord
100
AcDbLinetypeTableRecord
  2
STYLE_10
 70
               0
  3

 72
              65
 73
               6
 40
5.9375
 49
3.75
 74
               0
 49
-0.2777849999999998
 74
               0
 49
0.6944300000000003
 74
               0
 49
-0.2777849999999998
 74
               0
 49
0.625
 74
               0
 49
-0.3125
 74
               0
  0
LTYPE
  5
35
100
AcDbSymbolTableRecord
100
AcDbLinetypeTableRecord
  2
STYLE_11
 70
               0
  3

 72
              65
 73
               2
 40
0.0643110236220472
 49
0.0321555118110236
 74
               0
 49
-0.0321555118110236
 74
               0
  0
LTYPE
  5
36
100
AcDbSymbolTableRecord
100
AcDbLinetypeTableRecord
  2
STYLE_12
 70
               0
  3

 72
              65
 73
               2
 40
0.1286220472440945
 49
0.0643110236220472
 74
               0
 49
-0.0643110236220472
 74
               0
  0
ENDTAB
  0
TABLE
  2
LAYER
  5
2
100
AcDbSymbolTable
 70
               8
  0
LAYER
  5
14
100
AcDbSymbolTableRecord
100
AcDbLayerTableRecord
  2
0
 70
               0
 62
               7
  6
Continuous
290
               1
370
              15
390
1D
  0
LAYER
  5
37
100
AcDbSymbolTableRecord
100
AcDbLayerTableRecord
  2
一般
 70
               0
 62
               7
  6
Continuous
290
               1
370
               5
390
1D
  0
LAYER
  5
38
100
AcDbSymbolTableRecord
100
AcDbLayerTableRecord
  2
寸法
 70
               0
 62
               7
  6
Continuous
290
               1
370
               5
390
1D
  0
LAYER
  5
39
100
AcDbSymbolTableRecord
100
AcDbLayerTableRecord
  2
HATCH
 70
               0
 62
               7
  6
Continuous
290
               1
370
              15
390
1D
  0
LAYER
  5
3A
100
AcDbSymbolTableRecord
100
AcDbLayerTableRecord
  2
dim
 70
               0
 62
               7
  6
Continuous
290
               1
370
              15
390
1D
  0
LAYER
  5
3B
100
AcDbSymbolTableRecord
100
AcDbLayerTableRecord
  2
DEFAULT_2
 70
               0
 62
               7
  6
STYLE_11
290
               1
370
              15
390
1D
  0
LAYER
  5
3C
100
AcDbSymbolTableRecord
100
AcDbLayerTableRecord
  2
1
 70
               0
 62
               7
  6
Continuous
290
               1
370
              15
390
1D
  0
LAYER
  5
3D
100
AcDbSymbolTableRecord
100
AcDbLayerTableRecord
  2
排水
 70
               0
 62
               7
  6
Continuous
290
               1
370
              15
390
1D
  0
ENDTAB
  0
TABLE
  2
STYLE
  5
3
100
AcDbSymbolTable
 70
               3
  0
STYLE
  5
17
100
AcDbSymbolTableRecord
100
AcDbTextStyleTableRecord
  2
Standard
 70
               0
 40
0.0
 41
1.0
 50
0.0
 71
               0
 42
0.0
  3
txt
  4
BIGFONT.SHX
  0
STYLE
  5
29
100
AcDbSymbolTableRecord
100
AcDbTextStyleTableRecord
  2
Arial
 70
               0
 40
0.0
 41
1.0
 50
0.0
 71
               0
 42
0.0
  3

  4
Arial
1001
ACAD
1000
Arial
1071
        0
  0
STYLE
  5
2A
100
AcDbSymbolTableRecord
100
AcDbTextStyleTableRecord
  2
ＭＳ ゴシック
 70
               0
 40
0.0
 41
1.0
 50
0.0
 71
               0
 42
0.0
  3

  4
ＭＳ ゴシック
1001
ACAD
1000
ＭＳ ゴシック
1071
        0
  0
ENDTAB
  0
TABLE
  2
VIEW
  5
5
100
AcDbSymbolTable
 70
               0
  0
ENDTAB
  0
TABLE
  2
UCS
  5
6
100
AcDbSymbolTable
 70
               0
  0
ENDTAB
  0
TABLE
  2
APPID
  5
8
100
AcDbSymbolTable
 70
               1
  0
APPID
  5
16
100
AcDbSymbolTableRecord
100
AcDbRegAppTableRecord
  2
ACAD
 70
               0
  0
ENDTAB
  0
TABLE
  2
DIMSTYLE
  5
9
100
AcDbSymbolTable
 70
               1
100
AcDbDimStyleTable
 71
               0
  0
DIMSTYLE
105
18
100
AcDbSymbolTableRecord
100
AcDbDimStyleTableRecord
  2
Standard
 70
               0
  3

  4

 40
1.0
 41
0.18
 42
0.0625
 43
0.38
 44
0.18
 45
0.0
 46
0.0
 47
0.0
 48
0.0
 71
               0
 72
               0
 73
               1
 74
               1
 75
               0
 76
               0
 77
               0
 78
               0
 79
               0
140
0.18
141
0.09
142
0.0
143
25.399999999999999
144
1.0
145
0.0
146
1.0
147
0.09
148
0.0
170
               0
171
               2
172
               0
173
               0
174
               0
175
               0
176
               0
177
               0
178
               0
179
               0
271
               4
272
               4
273
               2
274
               2
275
               0
276
               0
277
               2
278
              46
279
               0
280
               0
281
               0
282
               0
283
               1
284
               0
285
               0
286
               0
288
               0
340
17
341
0
342
0
343
0
344
0
371
              -2
372
              -2
  0
ENDTAB
  0
TABLE
  2
BLOCK_RECORD
  5
1
100
AcDbSymbolTable
 70
               5
  0
BLOCK_RECORD
  5
A
100
AcDbSymbolTableRecord
100
AcDbBlockTableRecord
  2
*MODEL_SPACE
340
20
  0
BLOCK_RECORD
  5
B
100
AcDbSymbolTableRecord
100
AcDbBlockTableRecord
  2
*PAPER_SPACE
340
21
  0
BLOCK_RECORD
  5
24
100
AcDbSymbolTableRecord
100
AcDbBlockTableRecord
  2
グループ
340
0
102
{BLKREFS
331
59
102
}
  0
BLOCK_RECORD
  5
25
100
AcDbSymbolTableRecord
100
AcDbBlockTableRecord
  2
グループ-1
340
0
102
{BLKREFS
331
4F
102
}
  0
BLOCK_RECORD
  5
26
100
AcDbSymbolTableRecord
100
AcDbBlockTableRecord
  2
グループ-2
340
0
102
{BLKREFS
331
5A
102
}
  0
BLOCK_RECORD
  5
27
100
AcDbSymbolTableRecord
100
AcDbBlockTableRecord
  2
グループ-3
340
0
102
{BLKREFS
331
56
102
}
  0
BLOCK_RECORD
  5
28
100
AcDbSymbolTableRecord
100
AcDbBlockTableRecord
  2
グループ-4
340
0
102
{BLKREFS
331
372
102
}
  0
ENDTAB
  0
ENDSEC
  0
SECTION
  2
BLOCKS
  0
BLOCK
  5
D
100
AcDbEntity
  8
0
100
AcDbBlockBegin
  2
*MODEL_SPACE
 70
               0
 10
0.0
 20
0.0
 30
0.0
  3
*MODEL_SPACE
  1

  0
ENDBLK
  5
E
100
AcDbEntity
  8
0
100
AcDbBlockEnd
  0
BLOCK
  5
F
100
AcDbEntity
 67
               1
  8
0
100
AcDbBlockBegin
  2
*PAPER_SPACE
 70
               0
 10
0.0
 20
0.0
 30
0.0
  3
*PAPER_SPACE
  1

  0
ENDBLK
  5
10
100
AcDbEntity
 67
               1
  8
0
100
AcDbBlockEnd
  0
BLOCK
  5
3E
100
AcDbEntity
  8
一般
100
AcDbBlockBegin
  2
グループ
 70
               0
 10
0.0
 20
0.0
 30
0.0
  3
グループ
  1

  0
MTEXT
  5
3F
100
AcDbEntity
  8
一般
 62
               8
100
AcDbMText
 10
-93.680607966083699
 20
125.49839812341696
 30
0.0
 40
8.1442057291666661
 41
7.3612159321675676
 71
               1
 72
               1
  1
0
  7
ＭＳ ゴシック
 73
               1
 44
0.7828267384257843
  0
MTEXT
  5
40
100
AcDbEntity
  8
一般
 62
               8
100
AcDbMText
 10
-45.0
 20
125.49839812341696
 30
0.0
 40
8.1442057291666661
 41
12.75
 71
               1
 72
               1
  1
50
  7
ＭＳ ゴシック
 73
               1
 44
0.7828267384257843
  0
MTEXT
  5
41
100
AcDbEntity
  8
一般
 62
               8
100
AcDbMText
 10
1.5
 20
125.49839812341696
 30
0.0
 40
8.1442057291666661
 41
27.999999999999972
 71
               1
 72
               1
  1
100mm
  7
ＭＳ ゴシック
 73
               1
 44
0.7828267384257843
  0
LINE
  5
42
100
AcDbEntity
  8
寸法
370
              15
 62
               8
100
AcDbLine
 10
-40.0
 20
115.87252572758365
 30
0.0
 11
-40.0
 21
107.87252572758365
 31
0.0
  0
POLYLINE
  5
43
100
AcDbEntity
  8
一般
370
              15
  6
Continuous
 62
               8
100
AcDb2dPolyline
 66
               1
 10
0.0
 20
0.0
 30
0.0
 75
               5
  0
VERTEX
  5
44
100
AcDbEntity
  8
一般
370
              15
  6
Continuous
 62
               8
100
AcDbVertex
100
AcDb2dVertex
 10
-90.0
 20
115.87252572758365
 30
0.0
  0
VERTEX
  5
45
100
AcDbEntity
  8
一般
370
              15
  6
Continuous
 62
               8
100
AcDbVertex
100
AcDb2dVertex
 10
-90.0
 20
107.87252572758365
 30
0.0
  0
VERTEX
  5
46
100
AcDbEntity
  8
一般
370
              15
  6
Continuous
 62
               8
100
AcDbVertex
100
AcDb2dVertex
 10
10.0
 20
107.87252572758365
 30
0.0
  0
VERTEX
  5
47
100
AcDbEntity
  8
一般
370
              15
  6
Continuous
 62
               8
100
AcDbVertex
100
AcDb2dVertex
 10
10.0
 20
115.87252572758365
 30
0.0
  0
SEQEND
  5
48
100
AcDbEntity
  8
一般
370
              15
  6
Continuous
 62
               8
  0
ENDBLK
  5
49
100
AcDbEntity
  8
一般
100
AcDbBlockEnd
  0
BLOCK
  5
4A
100
AcDbEntity
  8
一般
100
AcDbBlockBegin
  2
グループ-1
 70
               0
 10
0.0
 20
0.0
 30
0.0
  3
グループ-1
  1

  0
LINE
  5
4B
100
AcDbEntity
  8
一般
370
               5
  6
Continuous
 62
               7
100
AcDbLine
 10
-282.92893795073456
 20
-258.99999054519992
 30
0.0
 11
-297.07107357446552
 21
-273.14212616893087
 31
0.0
  0
LINE
  5
4C
100
AcDbEntity
  8
一般
370
               5
  6
Continuous
 62
               7
100
AcDbLine
 10
-282.92893795073456
 20
-273.14212616893087
 30
0.0
 11
-297.07107357446552
 21
-258.99999054519992
 31
0.0
  0
ENDBLK
  5
4D
100
AcDbEntity
  8
一般
100
AcDbBlockEnd
  0
BLOCK
  5
4E
100
AcDbEntity
  8
一般
100
AcDbBlockBegin
  2
グループ-2
 70
               0
 10
0.0
 20
0.0
 30
0.0
  3
グループ-2
  1

  0
INSERT
  5
4F
100
AcDbEntity
  8
一般
 62
               7
100
AcDbBlockReference
  2
グループ-1
 10
0.0
 20
0.0
 30
0.0
  0
ENDBLK
  5
50
100
AcDbEntity
  8
一般
100
AcDbBlockEnd
  0
BLOCK
  5
51
100
AcDbEntity
  8
一般
100
AcDbBlockBegin
  2
グループ-3
 70
               0
 10
0.0
 20
0.0
 30
0.0
  3
グループ-3
  1

  0
LINE
  5
52
100
AcDbEntity
  8
一般
370
               5
  6
Continuous
 62
               7
100
AcDbLine
 10
-60.020740243334501
 20
-258.99999054519992
 30
0.0
 11
-74.162875867065452
 21
-273.14212616893087
 31
0.0
  0
LINE
  5
53
100
AcDbEntity
  8
一般
370
               5
  6
Continuous
 62
               7
100
AcDbLine
 10
-60.020740243334501
 20
-273.14212616893087
 30
0.0
 11
-74.162875867065452
 21
-258.99999054519992
 31
0.0
  0
ENDBLK
  5
54
100
AcDbEntity
  8
一般
100
AcDbBlockEnd
  0
BLOCK
  5
55
100
AcDbEntity
  8
一般
100
AcDbBlockBegin
  2
グループ-4
 70
               0
 10
0.0
 20
0.0
 30
0.0
  3
グループ-4
  1

  0
INSERT
  5
56
100
AcDbEntity
  8
一般
 62
               7
100
AcDbBlockReference
  2
グループ-3
 10
0.0
 20
0.0
 30
0.0
  0
ENDBLK
  5
57
100
AcDbEntity
  8
一般
100
AcDbBlockEnd
  0
ENDSEC
  0
SECTION
  2
ENTITIES
  0
MTEXT
  5
58
100
AcDbEntity
  8
一般
 62
               7
100
AcDbMText
 10
1671.2324838490408
 20
1291.5910654350243
 30
0.0
 40
30.316840277777771
 41
0.0
 71
               1
 72
               1
  1
BX-7501
  7
Arial
 73
               1
 44
0.9673603504928806
  0
INSERT
  5
59
100
AcDbEntity
  8
一般
 62
               7
100
AcDbBlockReference
  2
グループ
 10
1450.0
 20
1020.0
 30
0.0
  0
INSERT
  5
5A
100
AcDbEntity
  8
一般
 62
               7
100
AcDbBlockReference
  2
グループ-2
 10
1450.0
 20
1020.0
 30
0.0
  0
POLYLINE
  5
5B
100
AcDbEntity
  8
0
370
              15
  6
Continuous
 62
               7
100
AcDb2dPolyline
 66
               1
 10
0.0
 20
0.0
 30
0.0
 75
               5
  0
VERTEX
  5
5C
100
AcDbEntity
  8
0
370
              15
  6
Continuous
 62
               7
100
AcDbVertex
100
AcDb2dVertex
 10
1150.2689401958
 20
964.70660325983454
 30
0.0
  0
VERTEX
  5
5D
100
AcDbEntity
  8
0
370
              15
  6
Continuous
 62
               7
100
AcDbVertex
100
AcDb2dVertex
 10
1151.1008072991999
 20
965.27150771473453
 30
0.0
  0
VERTEX
  5
5E
100
AcDbEntity
  8
0
370
              15
  6
Continuous
 62
               7
100
AcDbVertex
100
AcDb2dVertex
 10
1152.2218196443
 20
965.82620974313454
 30
0.0
  0
VERTEX
  5
5F
100
AcDbEntity
  8
0
370
              15
  6
Continuous
 62
               7
100
AcDbVertex
100
AcDb2dVertex
 10
1153.5343564621
 20
966.29997003183462
 30
0.0
  0
VERTEX
  5
60
100
AcDbEntity
  8
0
370
              15
  6
Continuous
 62
               7
100
AcDbVertex
100
AcDb2dVertex
 10
1155.0060987402001
 20
966.68112303013459
 30
0.0
  0
VERTEX
  5
61
100
AcDbEntity
  8
0
370
              15
  6
Continuous
 62
               7
100
AcDbVertex
100
AcDb2dVertex
 10
1156.6008072991999
 20
966.96028348623463
 30
0.0
  0
VERTEX
  5
62
100
AcDbEntity
  8
0
370
              15
  6
Continuous
 62
               7
100
AcDbVertex
100
AcDb2dVertex
 10
1158.2792151219001
 20
967.13057754323461
 30
0.0
  0
VERTEX
  5
63
100
AcDbEntity
  8
0
370
              15
  6
Continuous
 62
               7
100
AcDbVertex
100
AcDb2dVertex
 10
1159.9999942374
 20
967.18781199623459
 30
0.0
  0
SEQEND
  5
64
100
AcDbEntity
  8
0
370
              15
  6
Continuous
 62
               7
  0
POLYLINE
  5
65
100
AcDbEntity
  8
0
370
              15
  6
Continuous
 62
               7
100
AcDb2dPolyline
 66
               1
 10
0.0
 20
0.0
 30
0.0
 75
               5
  0
VERTEX
  5
66
100
AcDbEntity
  8
0
370
              15
  6
Continuous
 62
               7
100
AcDbVertex
100
AcDb2dVertex
 10
1052.0754455604001
 20
831.62135879203458
 30
0.0
  0
VERTEX
  5
67
100
AcDbEntity
  8
0
370
              15
  6
Continuous
 62
               7
100
AcDbVertex
100
AcDb2dVertex
 10
1052.0342087312001
 20
831.55604905173459
 30
0.0
  0
VERTEX
  5
68
100
AcDbEntity
  8
0
370
              15
  6
Continuous
 62
               7
100
AcDbVertex
100
AcDb2dVertex
 10
1052.0151698445
 20
831.48732365373462
 30
0.0
  0
VERTEX
  5
69
100
AcDbEntity
  8
0
370
              15
  6
Continuous
 62
               7
100
AcDbVertex
100
AcDb2dVertex
 10
1052.0212273981999
 20
831.42564541663455
 30
0.0
  0
VERTEX
  5
6A
100
AcDbEntity
  8
0
370
              15
  6
Continuous
 62
               7
100
AcDbVertex
100
AcDb2dVertex
 10
1052.0514591847
 20
831.38040429313457
 30
0.0
  0
SEQEND
  5
6B
100
AcDbEntity
  8
0
370
              15
  6
Continuous
 62
               7
  0
LINE
  5
6C
100
AcDbEntity
  8
0
370
              15
  6
Continuous
 62
               7
100
AcDbLine
 10
1131.9999942374
 20
753.92894164293466
 30
0.0
 11
1187.9999942374
 21
753.92894164293466
 31
0.0
  0
LINE
  5
6D
100
AcDbEntity
  8
0
370
              15
  6
Continuous
 62
               7
100
AcDbLine
 10
1131.9999942374
 20
759.92894164293466
 30
0.0
 11
1187.9999942374
 21
759.92894164293466
 31
0.0
  0
POLYLINE
  5
6E
100
AcDbEntity
  8
0
370
              15
  6
Continuous
 62
               7
100
AcDb2dPolyline
 66
               1
 10
0.0
 20
0.0
 30
0.0
 75
               5
  0
VERTEX
  5
6F
100
AcDbEntity
  8
0
370
              15
  6
Continuous
 62
               7
100
AcDbVertex
100
AcDb2dVertex
 10
1100.4569712681
 20
875.5388674629346
 30
0.0
  0
VERTEX
  5
70
100
AcDbEntity
  8
0
370
              15
  6
Continuous
 62
               7
100
AcDbVertex
100
AcDb2dVertex
 10
1100.4379892571001
 20
875.46990373853464
 30
0.0
  0
VERTEX
  5
71
100
AcDbEntity
  8
0
370
              15
  6
Continuous
 62
               7
100
AcDbVertex
100
AcDb2dVertex
 10
1100.3966496493999
 20
875.4043651537346
 30
0.0
  0
SEQEND
  5
72
100
AcDbEntity
  8
0
370
              15
  6
Continuous
 62
               7
  0
LINE
  5
73
100
AcDbEntity
  8
0
370
              15
  6
Continuous
 62
               7
100
AcDbLine
 10
1052.026807818
 20
831.66217070373455
 30
0.0
 11
1093.5508874037
 21
881.14864172923455
 31
0.0
  0
LINE
  5
74
100
AcDbEntity
  8
0
370
              15
  6
Continuous
 62
               7
100
AcDbLine
 10
1052.0754455604001
 20
831.62135879203458
 30
0.0
 11
1069.6429785555999
 21
852.55752931303459
 31
0.0
  0
LINE
  5
75
100
AcDbEntity
  8
0
370
              15
  6
Continuous
 62
               7
100
AcDbLine
 10
1076.0319925930999
 20
860.17165993863455
 30
0.0
 11
1093.5995251460999
 21
881.10782981753459
 31
0.0
  0
LINE
  5
76
100
AcDbEntity
  8
0
370
              15
  6
Continuous
 62
               7
100
AcDbLine
 10
1100.3966496493999
 20
875.4043651537346
 30
0.0
 11
1082.8291168175001
 21
854.46819440423462
 31
0.0
  0
LINE
  5
77
100
AcDbEntity
  8
0
370
              15
  6
Continuous
 62
               7
100
AcDbLine
 10
1076.4401012410999
 20
846.85406452503457
 30
0.0
 11
1058.8725700636001
 21
825.91789412823459
 31
0.0
  0
LINE
  5
78
100
AcDbEntity
  8
0
370
              15
  6
Continuous
 62
               7
100
AcDbLine
 10
1100.4452873917999
 20
875.36355324203464
 30
0.0
 11
1082.8942082173
 21
854.44699158193453
 31
0.0
  0
LINE
  5
79
100
AcDbEntity
  8
0
370
              15
  6
Continuous
 62
               7
100
AcDbLine
 10
1076.4722900453
 20
846.79370264093461
 30
0.0
 11
1058.921207806
 21
825.87708221653463
 31
0.0
  0
LINE
  5
7A
100
AcDbEntity
  8
0
370
              15
  6
Continuous
 62
               7
100
AcDbLine
 10
1082.7421060332999
 20
853.79900610963455
 30
0.0
 11
1077.0840158303999
 21
847.05595678313466
 31
0.0
  0
POLYLINE
  5
7B
100
AcDbEntity
  8
0
370
              15
  6
Continuous
 62
               7
100
AcDb2dPolyline
 66
               1
 10
0.0
 20
0.0
 30
0.0
 75
               5
  0
VERTEX
  5
7C
100
AcDbEntity
  8
0
370
              15
  6
Continuous
 62
               7
100
AcDbVertex
100
AcDb2dVertex
 10
1093.7215093239001
 20
881.19059109613454
 30
0.0
  0
VERTEX
  5
7D
100
AcDbEntity
  8
0
370
              15
  6
Continuous
 62
               7
100
AcDbVertex
100
AcDb2dVertex
 10
1093.656889505
 20
881.1599220394346
 30
0.0
  0
VERTEX
  5
7E
100
AcDbEntity
  8
0
370
              15
  6
Continuous
 62
               7
100
AcDbVertex
100
AcDb2dVertex
 10
1093.5995251460999
 20
881.10782981753459
 30
0.0
  0
SEQEND
  5
7F
100
AcDbEntity
  8
0
370
              15
  6
Continuous
 62
               7
  0
LINE
  5
80
100
AcDbEntity
  8
0
370
              15
  6
Continuous
 62
               7
100
AcDbLine
 10
1052.0514591847
 20
831.38040429313457
 30
0.0
 11
1058.6394413954999
 21
825.8524308498346
 31
0.0
  0
LINE
  5
81
100
AcDbEntity
  8
0
370
              15
  6
Continuous
 62
               7
100
AcDbLine
 10
1147.3259313789999
 20
984.25147997703459
 30
0.0
 11
1146.9999942374
 21
983.02894164293457
 31
0.0
  0
POLYLINE
  5
82
100
AcDbEntity
  8
0
370
              15
  6
Continuous
 62
               7
100
AcDb2dPolyline
 66
               1
 10
0.0
 20
0.0
 30
0.0
 75
               5
  0
VERTEX
  5
83
100
AcDbEntity
  8
0
370
              15
  6
Continuous
 62
               7
100
AcDbVertex
100
AcDb2dVertex
 10
1168.1635715702
 20
965.63550383123459
 30
0.0
  0
VERTEX
  5
84
100
AcDbEntity
  8
0
370
              15
  6
Continuous
 62
               7
100
AcDbVertex
100
AcDb2dVertex
 10
1167.9151115113
 20
965.15333365313461
 30
0.0
  0
VERTEX
  5
85
100
AcDbEntity
  8
0
370
              15
  6
Continuous
 62
               7
100
AcDbVertex
100
AcDb2dVertex
 10
1167.5029065326999
 20
964.68680786423465
 30
0.0
  0
VERTEX
  5
86
100
AcDbEntity
  8
0
370
              15
  6
Continuous
 62
               7
100
AcDbVertex
100
AcDb2dVertex
 10
1166.9376270401999
 20
964.2498503911346
 30
0.0
  0
VERTEX
  5
87
100
AcDbEntity
  8
0
370
              15
  6
Continuous
 62
               7
100
AcDbVertex
100
AcDb2dVertex
 10
1166.2308513307999
 20
963.85140443053456
 30
0.0
  0
VERTEX
  5
88
100
AcDbEntity
  8
0
370
              15
  6
Continuous
 62
               7
100
AcDbVertex
100
AcDb2dVertex
 10
1165.3970505544
 20
963.49960356323459
 30
0.0
  0
VERTEX
  5
89
100
AcDbEntity
  8
0
370
              15
  6
Continuous
 62
               7
100
AcDbVertex
100
AcDb2dVertex
 10
1164.4529563767001
 20
963.20152705263456
 30
0.0
  0
VERTEX
  5
8A
100
AcDbEntity
  8
0
370
              15
  6
Continuous
 62
               7
100
AcDbVertex
100
AcDb2dVertex
 10
1163.4175852897001
 20
962.96325923213453
 30
0.0
  0
VERTEX
  5
8B
100
AcDbEntity
  8
0
370
              15
  6
Continuous
 62
               7
100
AcDbVertex
100
AcDb2dVertex
 10
1162.3134901753001
 20
962.78992409043462
 30
0.0
  0
VERTEX
  5
8C
100
AcDbEntity
  8
0
370
              15
  6
Continuous
 62
               7
100
AcDbVertex
100
AcDb2dVertex
 10
1161.1657454077999
 20
962.68501135093459
 30
0.0
  0
VERTEX
  5
8D
100
AcDbEntity
  8
0
370
              15
  6
Continuous
 62
               7
100
AcDbVertex
100
AcDb2dVertex
 10
1159.9999942374
 20
962.65002850273459
 30
0.0
  0
SEQEND
  5
8E
100
AcDbEntity
  8
0
370
              15
  6
Continuous
 62
               7
  0
LINE
  5
8F
100
AcDbEntity
  8
0
370
              15
  6
Continuous
 62
               7
100
AcDbLine
 10
1082.0216788215
 20
830.38243890223453
 30
0.0
 11
1100.0197318927001
 21
851.83168330963463
 31
0.0
  0
POLYLINE
  5
90
100
AcDbEntity
  8
0
370
              15
  6
Continuous
 62
               7
100
AcDb2dPolyline
 66
               1
 10
0.0
 20
0.0
 30
0.0
 75
               5
  0
VERTEX
  5
91
100
AcDbEntity
  8
0
370
              15
  6
Continuous
 62
               7
100
AcDbVertex
100
AcDb2dVertex
 10
1058.8725700636001
 20
825.91789412823459
 30
0.0
  0
VERTEX
  5
92
100
AcDbEntity
  8
0
370
              15
  6
Continuous
 62
               7
100
AcDbVertex
100
AcDb2dVertex
 10
1058.8152057048001
 20
825.86580190623454
 30
0.0
  0
VERTEX
  5
93
100
AcDbEntity
  8
0
370
              15
  6
Continuous
 62
               7
100
AcDbVertex
100
AcDb2dVertex
 10
1058.7505858858999
 20
825.8351328495346
 30
0.0
  0
VERTEX
  5
94
100
AcDbEntity
  8
0
370
              15
  6
Continuous
 62
               7
100
AcDbVertex
100
AcDb2dVertex
 10
1058.6886571461
 20
825.83060635453467
 30
0.0
  0
VERTEX
  5
95
100
AcDbEntity
  8
0
370
              15
  6
Continuous
 62
               7
100
AcDbVertex
100
AcDb2dVertex
 10
1058.6394413954999
 20
825.8524308498346
 30
0.0
  0
SEQEND
  5
96
100
AcDbEntity
  8
0
370
              15
  6
Continuous
 62
               7
  0
LINE
  5
97
100
AcDbEntity
  8
0
370
              15
  6
Continuous
 62
               7
100
AcDbLine
 10
1141.9999942374
 20
778.74924926883455
 30
0.0
 11
1086.3581800920999
 21
825.43827499613462
 31
0.0
  0
LINE
  5
98
100
AcDbEntity
  8
0
370
              15
  6
Continuous
 62
               7
100
AcDbLine
 10
1082.0216788215
 20
830.38243890223453
 30
0.0
 11
1087.0009677017001
 21
826.20431943933454
 31
0.0
  0
LINE
  5
99
100
AcDbEntity
  8
0
370
              15
  6
Continuous
 62
               7
100
AcDbLine
 10
1075.7349414688999
 20
845.44819256613459
 30
0.0
 11
1086.8425858941
 21
836.12777222563454
 31
0.0
  0
POLYLINE
  5
9A
100
AcDbEntity
  8
0
370
              15
  6
Continuous
 62
               7
100
AcDb2dPolyline
 66
               1
 10
0.0
 20
0.0
 30
0.0
 75
               5
  0
VERTEX
  5
9B
100
AcDbEntity
  8
0
370
              15
  6
Continuous
 62
               7
100
AcDbVertex
100
AcDb2dVertex
 10
1146.9999942374
 20
982.93093632543457
 30
0.0
  0
VERTEX
  5
9C
100
AcDbEntity
  8
0
370
              15
  6
Continuous
 62
               7
100
AcDbVertex
100
AcDb2dVertex
 10
1147.1112110394999
 20
983.64805210753457
 30
0.0
  0
VERTEX
  5
9D
100
AcDbEntity
  8
0
370
              15
  6
Continuous
 62
               7
100
AcDbVertex
100
AcDb2dVertex
 10
1147.4429584956001
 20
984.35289783973462
 30
0.0
  0
VERTEX
  5
9E
100
AcDbEntity
  8
0
370
              15
  6
Continuous
 62
               7
100
AcDbVertex
100
AcDb2dVertex
 10
1147.9895603146999
 20
985.03341341623468
 30
0.0
  0
VERTEX
  5
9F
100
AcDbEntity
  8
0
370
              15
  6
Continuous
 62
               7
100
AcDbVertex
100
AcDb2dVertex
 10
1148.7416639881999
 20
985.67795502673459
 30
0.0
  0
VERTEX
  5
A0
100
AcDbEntity
  8
0
370
              15
  6
Continuous
 62
               7
100
AcDbVertex
100
AcDb2dVertex
 10
1149.6864008135999
 20
986.27549438573465
 30
0.0
  0
VERTEX
  5
A1
100
AcDbEntity
  8
0
370
              15
  6
Continuous
 62
               7
100
AcDbVertex
100
AcDb2dVertex
 10
1150.8076060819001
 20
986.81580742893459
 30
0.0
  0
VERTEX
  5
A2
100
AcDbEntity
  8
0
370
              15
  6
Continuous
 62
               7
100
AcDbVertex
100
AcDb2dVertex
 10
1152.0860956602
 20
987.28964925053458
 30
0.0
  0
VERTEX
  5
A3
100
AcDbEntity
  8
0
370
              15
  6
Continuous
 62
               7
100
AcDbVertex
100
AcDb2dVertex
 10
1153.4999942374
 20
987.68891228543453
 30
0.0
  0
VERTEX
  5
A4
100
AcDbEntity
  8
0
370
              15
  6
Continuous
 62
               7
100
AcDbVertex
100
AcDb2dVertex
 10
1155.0251096166
 20
988.00676503253453
 30
0.0
  0
VERTEX
  5
A5
100
AcDbEntity
  8
0
370
              15
  6
Continuous
 62
               7
100
AcDbVertex
100
AcDb2dVertex
 10
1156.635346651
 20
988.23776894323464
 30
0.0
  0
VERTEX
  5
A6
100
AcDbEntity
  8
0
370
              15
  6
Continuous
 62
               7
100
AcDbVertex
100
AcDb2dVertex
 10
1158.3031537385
 20
988.3779714764346
 30
0.0
  0
VERTEX
  5
A7
100
AcDbEntity
  8
0
370
              15
  6
Continuous
 62
               7
100
AcDbVertex
100
AcDb2dVertex
 10
1159.9999942374
 20
988.42497372803462
 30
0.0
  0
SEQEND
  5
A8
100
AcDbEntity
  8
0
370
              15
  6
Continuous
 62
               7
  0
POLYLINE
  5
A9
100
AcDbEntity
  8
0
370
              15
  6
Continuous
 62
               7
100
AcDb2dPolyline
 66
               1
 10
0.0
 20
0.0
 30
0.0
 75
               5
  0
VERTEX
  5
AA
100
AcDbEntity
  8
0
370
              15
  6
Continuous
 62
               7
100
AcDbVertex
100
AcDb2dVertex
 10
1146.9999942374
 20
962.53901111713458
 30
0.0
  0
VERTEX
  5
AB
100
AcDbEntity
  8
0
370
              15
  6
Continuous
 62
               7
100
AcDbVertex
100
AcDb2dVertex
 10
1147.1112110394999
 20
963.25612689923457
 30
0.0
  0
VERTEX
  5
AC
100
AcDbEntity
  8
0
370
              15
  6
Continuous
 62
               7
100
AcDbVertex
100
AcDb2dVertex
 10
1147.4429584956001
 20
963.96097263143463
 30
0.0
  0
VERTEX
  5
AD
100
AcDbEntity
  8
0
370
              15
  6
Continuous
 62
               7
100
AcDbVertex
100
AcDb2dVertex
 10
1147.9895603146999
 20
964.64148820793457
 30
0.0
  0
VERTEX
  5
AE
100
AcDbEntity
  8
0
370
              15
  6
Continuous
 62
               7
100
AcDbVertex
100
AcDb2dVertex
 10
1148.7416639881999
 20
965.2860298184346
 30
0.0
  0
VERTEX
  5
AF
100
AcDbEntity
  8
0
370
              15
  6
Continuous
 62
               7
100
AcDbVertex
100
AcDb2dVertex
 10
1149.6864008135999
 20
965.88356917733461
 30
0.0
  0
VERTEX
  5
B0
100
AcDbEntity
  8
0
370
              15
  6
Continuous
 62
               7
100
AcDbVertex
100
AcDb2dVertex
 10
1150.8076060819001
 20
966.4238822206346
 30
0.0
  0
VERTEX
  5
B1
100
AcDbEntity
  8
0
370
              15
  6
Continuous
 62
               7
100
AcDbVertex
100
AcDb2dVertex
 10
1152.0860956602
 20
966.89772404213454
 30
0.0
  0
VERTEX
  5
B2
100
AcDbEntity
  8
0
370
              15
  6
Continuous
 62
               7
100
AcDbVertex
100
AcDb2dVertex
 10
1153.4999942374
 20
967.29698707713465
 30
0.0
  0
VERTEX
  5
B3
100
AcDbEntity
  8
0
370
              15
  6
Continuous
 62
               7
100
AcDbVertex
100
AcDb2dVertex
 10
1155.0251096166
 20
967.61483982423465
 30
0.0
  0
VERTEX
  5
B4
100
AcDbEntity
  8
0
370
              15
  6
Continuous
 62
               7
100
AcDbVertex
100
AcDb2dVertex
 10
1156.635346651
 20
967.84584373493453
 30
0.0
  0
VERTEX
  5
B5
100
AcDbEntity
  8
0
370
              15
  6
Continuous
 62
               7
100
AcDbVertex
100
AcDb2dVertex
 10
1158.3031537385
 20
967.9860462681346
 30
0.0
  0
VERTEX
  5
B6
100
AcDbEntity
  8
0
370
              15
  6
Continuous
 62
               7
100
AcDbVertex
100
AcDb2dVertex
 10
1159.9999942374
 20
968.03304851973462
 30
0.0
  0
SEQEND
  5
B7
100
AcDbEntity
  8
0
370
              15
  6
Continuous
 62
               7
  0
LINE
  5
B8
100
AcDbEntity
  8
0
370
              15
  6
Continuous
 62
               7
100
AcDbLine
 10
1086.3581800920999
 20
825.43827499613462
 30
0.0
 11
1105.6418083825999
 21
848.41960828973458
 31
0.0
  0
LINE
  5
B9
100
AcDbEntity
  8
0
370
              15
  6
Continuous
 62
               7
100
AcDbLine
 10
1084.0911803947999
 20
855.40677032663461
 30
0.0
 11
1095.19882482
 21
846.08634998623461
 31
0.0
  0
LINE
  5
BA
100
AcDbEntity
  8
0
370
              15
  6
Continuous
 62
               7
100
AcDbLine
 10
1141.9999942374
 20
852.92894164293466
 30
0.0
 11
1141.9999942374
 21
759.92894164293466
 31
0.0
  0
POLYLINE
  5
BB
100
AcDbEntity
  8
0
370
              15
  6
Continuous
 62
               7
100
AcDb2dPolyline
 66
               1
 10
0.0
 20
0.0
 30
0.0
 75
               5
  0
VERTEX
  5
BC
100
AcDbEntity
  8
0
370
              15
  6
Continuous
 62
               7
100
AcDbVertex
100
AcDb2dVertex
 10
1149.9999942374
 20
963.44531890413464
 30
0.0
  0
VERTEX
  5
BD
100
AcDbEntity
  8
0
370
              15
  6
Continuous
 62
               7
100
AcDbVertex
100
AcDb2dVertex
 10
1150.0341493073001
 20
963.79431429853457
 30
0.0
  0
VERTEX
  5
BE
100
AcDbEntity
  8
0
370
              15
  6
Continuous
 62
               7
100
AcDbVertex
100
AcDb2dVertex
 10
1150.305991578
 20
964.48278540273463
 30
0.0
  0
VERTEX
  5
BF
100
AcDbEntity
  8
0
370
              15
  6
Continuous
 62
               7
100
AcDbVertex
100
AcDb2dVertex
 10
1150.7570687662001
 20
965.03808169293461
 30
0.0
  0
SEQEND
  5
C0
100
AcDbEntity
  8
0
370
              15
  6
Continuous
 62
               7
  0
LINE
  5
C1
100
AcDbEntity
  8
0
370
              15
  6
Continuous
 62
               7
100
AcDbLine
 10
1172.9903846948
 20
982.99289777843455
 30
0.0
 11
1172.9999942374
 21
983.02894164293457
 31
0.0
  0
LINE
  5
C2
100
AcDbEntity
  8
0
370
              15
  6
Continuous
 62
               7
100
AcDbLine
 10
1100.0197318927001
 20
851.83168330963463
 30
0.0
 11
1104.999020773
 21
847.6535638466346
 31
0.0
  0
LINE
  5
C3
100
AcDbEntity
  8
0
370
              15
  6
Continuous
 62
               7
100
AcDbLine
 10
1105.6418083825999
 20
848.41960828973458
 30
0.0
 11
1141.9999942374
 21
817.91146794883457
 31
0.0
  0
POLYLINE
  5
C4
100
AcDbEntity
  8
0
370
              15
  6
Continuous
 62
               7
100
AcDb2dPolyline
 66
               1
 10
0.0
 20
0.0
 30
0.0
 75
               5
  0
VERTEX
  5
C5
100
AcDbEntity
  8
0
370
              15
  6
Continuous
 62
               7
100
AcDbVertex
100
AcDb2dVertex
 10
1100.4206360251001
 20
875.64531965263461
 30
0.0
  0
VERTEX
  5
C6
100
AcDbEntity
  8
0
370
              15
  6
Continuous
 62
               7
100
AcDbVertex
100
AcDb2dVertex
 10
1100.4506751827
 20
875.60064138373457
 30
0.0
  0
VERTEX
  5
C7
100
AcDbEntity
  8
0
370
              15
  6
Continuous
 62
               7
100
AcDbVertex
100
AcDb2dVertex
 10
1100.4569712681
 20
875.5388674629346
 30
0.0
  0
SEQEND
  5
C8
100
AcDbEntity
  8
0
370
              15
  6
Continuous
 62
               7
  0
LINE
  5
C9
100
AcDbEntity
  8
0
370
              15
  6
Continuous
 62
               7
100
AcDbLine
 10
1146.9999942374
 20
852.92894164293466
 30
0.0
 11
1146.9999942374
 21
1047.8368147501346
 31
0.0
  0
LINE
  5
CA
100
AcDbEntity
  8
0
370
              15
  6
Continuous
 62
               7
100
AcDbLine
 10
1093.8326538143001
 20
881.17329309593458
 30
0.0
 11
1100.4206360251001
 21
875.64531965263461
 31
0.0
  0
LINE
  5
CB
100
AcDbEntity
  8
0
370
              15
  6
Continuous
 62
               7
100
AcDbLine
 10
1172.9999942374
 20
852.92894164293466
 30
0.0
 11
1172.9999942374
 21
1047.8368147501346
 31
0.0
  0
LINE
  5
CC
100
AcDbEntity
  8
0
370
              15
  6
Continuous
 62
               7
100
AcDbLine
 10
1177.9999942374
 20
759.92894164293466
 30
0.0
 11
1177.9999942374
 21
852.92894164293466
 31
0.0
  0
LINE
  5
CD
100
AcDbEntity
  8
0
370
              15
  6
Continuous
 62
               7
100
AcDbLine
 10
1226.2439391047001
 20
881.23757185683462
 30
0.0
 11
1219.6559568939001
 21
875.70959841353465
 31
0.0
  0
LINE
  5
CE
100
AcDbEntity
  8
0
370
              15
  6
Continuous
 62
               7
100
AcDbLine
 10
1226.5257055152999
 20
881.21292049013459
 30
0.0
 11
1219.6313055271999
 21
875.42783200303461
 31
0.0
  0
LINE
  5
CF
100
AcDbEntity
  8
0
370
              15
  6
Continuous
 62
               7
100
AcDbLine
 10
1177.9999942374
 20
852.92894164293466
 30
0.0
 11
1141.9999942374
 21
852.92894164293466
 31
0.0
  0
LINE
  5
D0
100
AcDbEntity
  8
0
370
              15
  6
Continuous
 62
               7
100
AcDbLine
 10
1172.9999942374
 20
853.02894164293457
 30
0.0
 11
1146.9999942374
 21
853.02894164293457
 31
0.0
  0
POLYLINE
  5
D1
100
AcDbEntity
  8
0
370
              15
  6
Continuous
 62
               7
100
AcDb2dPolyline
 66
               1
 10
0.0
 20
0.0
 30
0.0
 75
               5
  0
VERTEX
  5
D2
100
AcDbEntity
  8
0
370
              15
  6
Continuous
 62
               7
100
AcDbVertex
100
AcDb2dVertex
 10
1093.8326538143001
 20
881.17329309593458
 30
0.0
  0
VERTEX
  5
D3
100
AcDbEntity
  8
0
370
              15
  6
Continuous
 62
               7
100
AcDbVertex
100
AcDb2dVertex
 10
1093.7834380637
 20
881.19511759113459
 30
0.0
  0
VERTEX
  5
D4
100
AcDbEntity
  8
0
370
              15
  6
Continuous
 62
               7
100
AcDbVertex
100
AcDb2dVertex
 10
1093.7215093239001
 20
881.19059109613454
 30
0.0
  0
SEQEND
  5
D5
100
AcDbEntity
  8
0
370
              15
  6
Continuous
 62
               7
  0
POLYLINE
  5
D6
100
AcDbEntity
  8
0
370
              15
  6
Continuous
 62
               7
100
AcDb2dPolyline
 66
               1
 10
0.0
 20
0.0
 30
0.0
 75
               5
  0
VERTEX
  5
D7
100
AcDbEntity
  8
0
370
              15
  6
Continuous
 62
               7
100
AcDbVertex
100
AcDb2dVertex
 10
1169.9999942374
 20
963.44531890413464
 30
0.0
  0
VERTEX
  5
D8
100
AcDbEntity
  8
0
370
              15
  6
Continuous
 62
               7
100
AcDbVertex
100
AcDb2dVertex
 10
1169.9658391674
 20
963.79431429853457
 30
0.0
  0
VERTEX
  5
D9
100
AcDbEntity
  8
0
370
              15
  6
Continuous
 62
               7
100
AcDbVertex
100
AcDb2dVertex
 10
1169.6939968966999
 20
964.48278540273463
 30
0.0
  0
VERTEX
  5
DA
100
AcDbEntity
  8
0
370
              15
  6
Continuous
 62
               7
100
AcDbVertex
100
AcDb2dVertex
 10
1169.2429197085
 20
965.03808169293461
 30
0.0
  0
SEQEND
  5
DB
100
AcDbEntity
  8
0
370
              15
  6
Continuous
 62
               7
  0
LINE
  5
DC
100
AcDbEntity
  8
0
370
              15
  6
Continuous
 62
               7
100
AcDbLine
 10
1187.9999942374
 20
753.92894164293466
 30
0.0
 11
1187.9999942374
 21
759.92894164293466
 31
0.0
  0
LINE
  5
DD
100
AcDbEntity
  8
0
370
              15
  6
Continuous
 62
               7
100
AcDbLine
 10
1214.3581800920999
 20
848.41960828973458
 30
0.0
 11
1177.9999942374
 21
817.91146794883457
 31
0.0
  0
LINE
  5
DE
100
AcDbEntity
  8
0
370
              15
  6
Continuous
 62
               7
100
AcDbLine
 10
1219.980256582
 20
851.83168330963463
 30
0.0
 11
1215.0009677017001
 21
847.6535638466346
 31
0.0
  0
POLYLINE
  5
DF
100
AcDbEntity
  8
0
370
              15
  6
Continuous
 62
               7
100
AcDb2dPolyline
 66
               1
 10
0.0
 20
0.0
 30
0.0
 75
               5
  0
VERTEX
  5
E0
100
AcDbEntity
  8
0
370
              15
  6
Continuous
 62
               7
100
AcDbVertex
100
AcDb2dVertex
 10
1261.3260070331
 20
825.89941161053457
 30
0.0
  0
VERTEX
  5
E1
100
AcDbEntity
  8
0
370
              15
  6
Continuous
 62
               7
100
AcDbVertex
100
AcDb2dVertex
 10
1261.2613872142001
 20
825.93008066723462
 30
0.0
  0
VERTEX
  5
E2
100
AcDbEntity
  8
0
370
              15
  6
Continuous
 62
               7
100
AcDbVertex
100
AcDb2dVertex
 10
1261.2040228554001
 20
825.98217288923456
 30
0.0
  0
SEQEND
  5
E3
100
AcDbEntity
  8
0
370
              15
  6
Continuous
 62
               7
  0
LINE
  5
E4
100
AcDbEntity
  8
0
370
              15
  6
Continuous
 62
               7
100
AcDbLine
 10
1146.9999942374
 20
983.02894164293457
 30
0.0
 11
1147.0096037798999
 21
982.99289777843455
 31
0.0
  0
POLYLINE
  5
E5
100
AcDbEntity
  8
0
370
              15
  6
Continuous
 62
               7
100
AcDb2dPolyline
 66
               1
 10
0.0
 20
0.0
 30
0.0
 75
               5
  0
VERTEX
  5
E6
100
AcDbEntity
  8
0
370
              15
  6
Continuous
 62
               7
100
AcDbVertex
100
AcDb2dVertex
 10
1172.9999942374
 20
962.53901111713458
 30
0.0
  0
VERTEX
  5
E7
100
AcDbEntity
  8
0
370
              15
  6
Continuous
 62
               7
100
AcDbVertex
100
AcDb2dVertex
 10
1172.8887774352002
 20
963.25612689923457
 30
0.0
  0
VERTEX
  5
E8
100
AcDbEntity
  8
0
370
              15
  6
Continuous
 62
               7
100
AcDbVertex
100
AcDb2dVertex
 10
1172.5570299791
 20
963.96097263143463
 30
0.0
  0
VERTEX
  5
E9
100
AcDbEntity
  8
0
370
              15
  6
Continuous
 62
               7
100
AcDbVertex
100
AcDb2dVertex
 10
1172.0104281599999
 20
964.64148820793457
 30
0.0
  0
VERTEX
  5
EA
100
AcDbEntity
  8
0
370
              15
  6
Continuous
 62
               7
100
AcDbVertex
100
AcDb2dVertex
 10
1171.2583244865
 20
965.2860298184346
 30
0.0
  0
VERTEX
  5
EB
100
AcDbEntity
  8
0
370
              15
  6
Continuous
 62
               7
100
AcDbVertex
100
AcDb2dVertex
 10
1170.3135876611
 20
965.88356917733461
 30
0.0
  0
VERTEX
  5
EC
100
AcDbEntity
  8
0
370
              15
  6
Continuous
 62
               7
100
AcDbVertex
100
AcDb2dVertex
 10
1169.1923823928
 20
966.4238822206346
 30
0.0
  0
VERTEX
  5
ED
100
AcDbEntity
  8
0
370
              15
  6
Continuous
 62
               7
100
AcDbVertex
100
AcDb2dVertex
 10
1167.9138928145001
 20
966.89772404213454
 30
0.0
  0
VERTEX
  5
EE
100
AcDbEntity
  8
0
370
              15
  6
Continuous
 62
               7
100
AcDbVertex
100
AcDb2dVertex
 10
1166.4999942374
 20
967.29698707713465
 30
0.0
  0
VERTEX
  5
EF
100
AcDbEntity
  8
0
370
              15
  6
Continuous
 62
               7
100
AcDbVertex
100
AcDb2dVertex
 10
1164.9748788581001
 20
967.61483982423465
 30
0.0
  0
VERTEX
  5
F0
100
AcDbEntity
  8
0
370
              15
  6
Continuous
 62
               7
100
AcDbVertex
100
AcDb2dVertex
 10
1163.3646418236999
 20
967.84584373493453
 30
0.0
  0
VERTEX
  5
F1
100
AcDbEntity
  8
0
370
              15
  6
Continuous
 62
               7
100
AcDbVertex
100
AcDb2dVertex
 10
1161.6968347361999
 20
967.9860462681346
 30
0.0
  0
VERTEX
  5
F2
100
AcDbEntity
  8
0
370
              15
  6
Continuous
 62
               7
100
AcDbVertex
100
AcDb2dVertex
 10
1159.9999942374
 20
968.03304851973462
 30
0.0
  0
SEQEND
  5
F3
100
AcDbEntity
  8
0
370
              15
  6
Continuous
 62
               7
  0
POLYLINE
  5
F4
100
AcDbEntity
  8
0
370
              15
  6
Continuous
 62
               7
100
AcDb2dPolyline
 66
               1
 10
0.0
 20
0.0
 30
0.0
 75
               5
  0
VERTEX
  5
F5
100
AcDbEntity
  8
0
370
              15
  6
Continuous
 62
               7
100
AcDbVertex
100
AcDb2dVertex
 10
1172.9999942374
 20
982.93093632543457
 30
0.0
  0
VERTEX
  5
F6
100
AcDbEntity
  8
0
370
              15
  6
Continuous
 62
               7
100
AcDbVertex
100
AcDb2dVertex
 10
1172.8887774352002
 20
983.64805210753457
 30
0.0
  0
VERTEX
  5
F7
100
AcDbEntity
  8
0
370
              15
  6
Continuous
 62
               7
100
AcDbVertex
100
AcDb2dVertex
 10
1172.5570299791
 20
984.35289783973462
 30
0.0
  0
VERTEX
  5
F8
100
AcDbEntity
  8
0
370
              15
  6
Continuous
 62
               7
100
AcDbVertex
100
AcDb2dVertex
 10
1172.0104281599999
 20
985.03341341623468
 30
0.0
  0
VERTEX
  5
F9
100
AcDbEntity
  8
0
370
              15
  6
Continuous
 62
               7
100
AcDbVertex
100
AcDb2dVertex
 10
1171.2583244865
 20
985.67795502673459
 30
0.0
  0
VERTEX
  5
FA
100
AcDbEntity
  8
0
370
              15
  6
Continuous
 62
               7
100
AcDbVertex
100
AcDb2dVertex
 10
1170.3135876611
 20
986.27549438573465
 30
0.0
  0
VERTEX
  5
FB
100
AcDbEntity
  8
0
370
              15
  6
Continuous
 62
               7
100
AcDbVertex
100
AcDb2dVertex
 10
1169.1923823928
 20
986.81580742893459
 30
0.0
  0
VERTEX
  5
FC
100
AcDbEntity
  8
0
370
              15
  6
Continuous
 62
               7
100
AcDbVertex
100
AcDb2dVertex
 10
1167.9138928145001
 20
987.28964925053458
 30
0.0
  0
VERTEX
  5
FD
100
AcDbEntity
  8
0
370
              15
  6
Continuous
 62
               7
100
AcDbVertex
100
AcDb2dVertex
 10
1166.4999942374
 20
987.68891228543453
 30
0.0
  0
VERTEX
  5
FE
100
AcDbEntity
  8
0
370
              15
  6
Continuous
 62
               7
100
AcDbVertex
100
AcDb2dVertex
 10
1164.9748788581001
 20
988.00676503253453
 30
0.0
  0
VERTEX
  5
FF
100
AcDbEntity
  8
0
370
              15
  6
Continuous
 62
               7
100
AcDbVertex
100
AcDb2dVertex
 10
1163.3646418236999
 20
988.23776894323464
 30
0.0
  0
VERTEX
  5
100
100
AcDbEntity
  8
0
370
              15
  6
Continuous
 62
               7
100
AcDbVertex
100
AcDb2dVertex
 10
1161.6968347361999
 20
988.3779714764346
 30
0.0
  0
VERTEX
  5
101
100
AcDbEntity
  8
0
370
              15
  6
Continuous
 62
               7
100
AcDbVertex
100
AcDb2dVertex
 10
1159.9999942374
 20
988.42497372803462
 30
0.0
  0
SEQEND
  5
102
100
AcDbEntity
  8
0
370
              15
  6
Continuous
 62
               7
  0
LINE
  5
103
100
AcDbEntity
  8
0
370
              15
  6
Continuous
 62
               7
100
AcDbLine
 10
1235.9854125242
 20
855.47104908763458
 30
0.0
 11
1224.8011636546998
 21
846.08634998623461
 31
0.0
  0
LINE
  5
104
100
AcDbEntity
  8
0
370
              15
  6
Continuous
 62
               7
100
AcDbLine
 10
1244.3416514501
 20
845.51247132703452
 30
0.0
 11
1233.1574025805999
 21
836.12777222563454
 31
0.0
  0
POLYLINE
  5
105
100
AcDbEntity
  8
0
370
              15
  6
Continuous
 62
               7
100
AcDb2dPolyline
 66
               1
 10
0.0
 20
0.0
 30
0.0
 75
               5
  0
VERTEX
  5
106
100
AcDbEntity
  8
0
370
              15
  6
Continuous
 62
               7
100
AcDbVertex
100
AcDb2dVertex
 10
1226.3555356976999
 20
881.25474352833453
 30
0.0
  0
VERTEX
  5
107
100
AcDbEntity
  8
0
370
              15
  6
Continuous
 62
               7
100
AcDbVertex
100
AcDb2dVertex
 10
1226.2937426086
 20
881.25948831593462
 30
0.0
  0
VERTEX
  5
108
100
AcDbEntity
  8
0
370
              15
  6
Continuous
 62
               7
100
AcDbVertex
100
AcDb2dVertex
 10
1226.2439391047001
 20
881.23757185683462
 30
0.0
  0
SEQEND
  5
109
100
AcDbEntity
  8
0
370
              15
  6
Continuous
 62
               7
  0
LINE
  5
10A
100
AcDbEntity
  8
0
370
              15
  6
Continuous
 62
               7
100
AcDbLine
 10
1233.6418083825999
 20
825.43827499613462
 30
0.0
 11
1214.3581800920999
 21
848.41960828973458
 31
0.0
  0
POLYLINE
  5
10B
100
AcDbEntity
  8
0
370
              15
  6
Continuous
 62
               7
100
AcDb2dPolyline
 66
               1
 10
0.0
 20
0.0
 30
0.0
 75
               5
  0
VERTEX
  5
10C
100
AcDbEntity
  8
0
370
              15
  6
Continuous
 62
               7
100
AcDbVertex
100
AcDb2dVertex
 10
1172.9999942374
 20
983.02894164293457
 30
0.0
  0
VERTEX
  5
10D
100
AcDbEntity
  8
0
370
              15
  6
Continuous
 62
               7
100
AcDbVertex
100
AcDb2dVertex
 10
1172.6740570956999
 20
984.25147997703459
 30
0.0
  0
VERTEX
  5
10E
100
AcDbEntity
  8
0
370
              15
  6
Continuous
 62
               7
100
AcDbVertex
100
AcDb2dVertex
 10
1171.7125895201
 20
985.41271513403467
 30
0.0
  0
VERTEX
  5
10F
100
AcDbEntity
  8
0
370
              15
  6
Continuous
 62
               7
100
AcDbVertex
100
AcDb2dVertex
 10
1170.1638035093999
 20
986.4544179345346
 30
0.0
  0
VERTEX
  5
110
100
AcDbEntity
  8
0
370
              15
  6
Continuous
 62
               7
100
AcDbVertex
100
AcDb2dVertex
 10
1168.1053616615
 20
987.32435305023455
 30
0.0
  0
VERTEX
  5
111
100
AcDbEntity
  8
0
370
              15
  6
Continuous
 62
               7
100
AcDbVertex
100
AcDb2dVertex
 10
1165.6404828458999
 20
987.97889830183453
 30
0.0
  0
VERTEX
  5
112
100
AcDbEntity
  8
0
370
              15
  6
Continuous
 62
               7
100
AcDbVertex
100
AcDb2dVertex
 10
1162.8927663787999
 20
988.38523205733463
 30
0.0
  0
VERTEX
  5
113
100
AcDbEntity
  8
0
370
              15
  6
Continuous
 62
               7
100
AcDbVertex
100
AcDb2dVertex
 10
1159.9999942374
 20
988.52297904563466
 30
0.0
  0
SEQEND
  5
114
100
AcDbEntity
  8
0
370
              15
  6
Continuous
 62
               7
  0
POLYLINE
  5
115
100
AcDbEntity
  8
0
370
              15
  6
Continuous
 62
               7
100
AcDb2dPolyline
 66
               1
 10
0.0
 20
0.0
 30
0.0
 75
               5
  0
VERTEX
  5
116
100
AcDbEntity
  8
0
370
              15
  6
Continuous
 62
               7
100
AcDbVertex
100
AcDb2dVertex
 10
1219.6196675536999
 20
875.60267905303454
 30
0.0
  0
VERTEX
  5
117
100
AcDbEntity
  8
0
370
              15
  6
Continuous
 62
               7
100
AcDbVertex
100
AcDb2dVertex
 10
1219.6257251074001
 20
875.66435729003456
 30
0.0
  0
VERTEX
  5
118
100
AcDbEntity
  8
0
370
              15
  6
Continuous
 62
               7
100
AcDbVertex
100
AcDb2dVertex
 10
1219.6559568939001
 20
875.70959841353465
 30
0.0
  0
SEQEND
  5
119
100
AcDbEntity
  8
0
370
              15
  6
Continuous
 62
               7
  0
LINE
  5
11A
100
AcDbEntity
  8
0
370
              15
  6
Continuous
 62
               7
100
AcDbLine
 10
1237.9783096532001
 20
830.38243890223453
 30
0.0
 11
1232.999020773
 21
826.20431943933454
 31
0.0
  0
LINE
  5
11B
100
AcDbEntity
  8
0
370
              15
  6
Continuous
 62
               7
100
AcDbLine
 10
1177.9999942374
 20
778.74924926883455
 30
0.0
 11
1233.6418083825999
 21
825.43827499613462
 31
0.0
  0
POLYLINE
  5
11C
100
AcDbEntity
  8
0
370
              15
  6
Continuous
 62
               7
100
AcDb2dPolyline
 66
               1
 10
0.0
 20
0.0
 30
0.0
 75
               5
  0
VERTEX
  5
11D
100
AcDbEntity
  8
0
370
              15
  6
Continuous
 62
               7
100
AcDbVertex
100
AcDb2dVertex
 10
1261.4371515235
 20
825.91670961083457
 30
0.0
  0
VERTEX
  5
11E
100
AcDbEntity
  8
0
370
              15
  6
Continuous
 62
               7
100
AcDbVertex
100
AcDb2dVertex
 10
1261.387935773
 20
825.89488511553463
 30
0.0
  0
VERTEX
  5
11F
100
AcDbEntity
  8
0
370
              15
  6
Continuous
 62
               7
100
AcDbVertex
100
AcDb2dVertex
 10
1261.3260070331
 20
825.89941161053457
 30
0.0
  0
SEQEND
  5
120
100
AcDbEntity
  8
0
370
              15
  6
Continuous
 62
               7
  0
LINE
  5
121
100
AcDbEntity
  8
0
370
              15
  6
Continuous
 62
               7
100
AcDbLine
 10
1219.980256582
 20
851.83168330963463
 30
0.0
 11
1237.9783096532001
 21
830.38243890223453
 31
0.0
  0
LINE
  5
122
100
AcDbEntity
  8
0
370
              15
  6
Continuous
 62
               7
100
AcDbLine
 10
1261.155385113
 20
825.9413609775346
 30
0.0
 11
1268.049785101
 21
831.72644946473463
 31
0.0
  0
LINE
  5
123
100
AcDbEntity
  8
0
370
              15
  6
Continuous
 62
               7
100
AcDbLine
 10
1268.0251337344
 20
831.44468305413466
 30
0.0
 11
1261.4371515235
 21
825.91670961083457
 31
0.0
  0
POLYLINE
  5
124
100
AcDbEntity
  8
0
370
              15
  6
Continuous
 62
               7
100
AcDb2dPolyline
 66
               1
 10
0.0
 20
0.0
 30
0.0
 75
               5
  0
VERTEX
  5
125
100
AcDbEntity
  8
0
370
              15
  6
Continuous
 62
               7
100
AcDbVertex
100
AcDb2dVertex
 10
1226.4770677729
 20
881.17210857843463
 30
0.0
  0
VERTEX
  5
126
100
AcDbEntity
  8
0
370
              15
  6
Continuous
 62
               7
100
AcDbVertex
100
AcDb2dVertex
 10
1226.4199109346
 20
881.22405984493457
 30
0.0
  0
VERTEX
  5
127
100
AcDbEntity
  8
0
370
              15
  6
Continuous
 62
               7
100
AcDbVertex
100
AcDb2dVertex
 10
1226.3555356976999
 20
881.25474352833453
 30
0.0
  0
SEQEND
  5
128
100
AcDbEntity
  8
0
370
              15
  6
Continuous
 62
               7
  0
LINE
  5
129
100
AcDbEntity
  8
0
370
              15
  6
Continuous
 62
               7
100
AcDbLine
 10
1261.155385113
 20
825.9413609775346
 30
0.0
 11
1243.6098534912999
 21
846.85131132153458
 31
0.0
  0
LINE
  5
12A
100
AcDbEntity
  8
0
370
              15
  6
Continuous
 62
               7
100
AcDbLine
 10
1237.1768371488999
 20
854.51788165893458
 30
0.0
 11
1219.6313055271999
 21
875.42783200303461
 31
0.0
  0
LINE
  5
12B
100
AcDbEntity
  8
0
370
              15
  6
Continuous
 62
               7
100
AcDbLine
 10
1237.4337289063001
 20
854.21172998413454
 30
0.0
 11
1243.3529617339
 21
847.15746299643456
 31
0.0
  0
LINE
  5
12C
100
AcDbEntity
  8
0
370
              15
  6
Continuous
 62
               7
100
AcDbLine
 10
1237.2474762546999
 20
854.53247268923462
 30
0.0
 11
1219.6799432696
 21
875.46864391473457
 31
0.0
  0
LINE
  5
12D
100
AcDbEntity
  8
0
370
              15
  6
Continuous
 62
               7
100
AcDbLine
 10
1261.2040228554001
 20
825.98217288923456
 30
0.0
 11
1243.6364949571
 21
846.91834114063454
 31
0.0
  0
LINE
  5
12E
100
AcDbEntity
  8
0
370
              15
  6
Continuous
 62
               7
100
AcDbLine
 10
1237.5871408990999
 20
854.34004545593461
 30
0.0
 11
1243.5059299645
 21
847.28630732343458
 31
0.0
  0
LINE
  5
12F
100
AcDbEntity
  8
0
370
              15
  6
Continuous
 62
               7
100
AcDbLine
 10
1250.0943850809999
 20
852.81371717973457
 30
0.0
 11
1244.1746847309
 21
859.86854133893462
 31
0.0
  0
LINE
  5
130
100
AcDbEntity
  8
0
370
              15
  6
Continuous
 62
               7
100
AcDbLine
 10
1226.4770677729
 20
881.17210857843463
 30
0.0
 11
1244.0446007035
 21
860.23593803503456
 31
0.0
  0
LINE
  5
131
100
AcDbEntity
  8
0
370
              15
  6
Continuous
 62
               7
100
AcDbLine
 10
1250.4336144039999
 20
852.62180806893457
 30
0.0
 11
1268.0011473586001
 21
831.68563755293462
 31
0.0
  0
LINE
  5
132
100
AcDbEntity
  8
0
370
              15
  6
Continuous
 62
               7
100
AcDbLine
 10
1226.5257055152999
 20
881.21292049013459
 30
0.0
 11
1244.3210952320001
 21
860.00520086363463
 31
0.0
  0
LINE
  5
133
100
AcDbEntity
  8
0
370
              15
  6
Continuous
 62
               7
100
AcDbLine
 10
1244.3281288943999
 20
859.99681847123463
 30
0.0
 11
1268.049785101
 21
831.72644946473463
 31
0.0
  0
POLYLINE
  5
134
100
AcDbEntity
  8
0
370
              15
  6
Continuous
 62
               7
100
AcDb2dPolyline
 66
               1
 10
0.0
 20
0.0
 30
0.0
 75
               5
  0
VERTEX
  5
135
100
AcDbEntity
  8
0
370
              15
  6
Continuous
 62
               7
100
AcDbVertex
100
AcDb2dVertex
 10
1219.6799432696
 20
875.46864391473457
 30
0.0
  0
VERTEX
  5
136
100
AcDbEntity
  8
0
370
              15
  6
Continuous
 62
               7
100
AcDbVertex
100
AcDb2dVertex
 10
1219.6387064404
 20
875.53395365493463
 30
0.0
  0
VERTEX
  5
137
100
AcDbEntity
  8
0
370
              15
  6
Continuous
 62
               7
100
AcDbVertex
100
AcDb2dVertex
 10
1219.6196675536999
 20
875.60267905303454
 30
0.0
  0
SEQEND
  5
138
100
AcDbEntity
  8
0
370
              15
  6
Continuous
 62
               7
  0
POLYLINE
  5
139
100
AcDbEntity
  8
0
370
              15
  6
Continuous
 62
               7
100
AcDb2dPolyline
 66
               1
 10
0.0
 20
0.0
 30
0.0
 75
               5
  0
VERTEX
  5
13A
100
AcDbEntity
  8
0
370
              15
  6
Continuous
 62
               7
100
AcDbVertex
100
AcDb2dVertex
 10
1268.0251337344
 20
831.44468305413466
 30
0.0
  0
VERTEX
  5
13B
100
AcDbEntity
  8
0
370
              15
  6
Continuous
 62
               7
100
AcDbVertex
100
AcDb2dVertex
 10
1268.0551728918999
 20
831.48936132303459
 30
0.0
  0
VERTEX
  5
13C
100
AcDbEntity
  8
0
370
              15
  6
Continuous
 62
               7
100
AcDbVertex
100
AcDb2dVertex
 10
1268.0614689774
 20
831.55113524373462
 30
0.0
  0
SEQEND
  5
13D
100
AcDbEntity
  8
0
370
              15
  6
Continuous
 62
               7
  0
POLYLINE
  5
13E
100
AcDbEntity
  8
0
370
              15
  6
Continuous
 62
               7
100
AcDb2dPolyline
 66
               1
 10
0.0
 20
0.0
 30
0.0
 75
               5
  0
VERTEX
  5
13F
100
AcDbEntity
  8
0
370
              15
  6
Continuous
 62
               7
100
AcDbVertex
100
AcDb2dVertex
 10
1159.9999942374
 20
957.04497371453454
 30
0.0
  0
VERTEX
  5
140
100
AcDbEntity
  8
0
370
              15
  6
Continuous
 62
               7
100
AcDbVertex
100
AcDb2dVertex
 10
1161.6968347361999
 20
957.09197596613456
 30
0.0
  0
VERTEX
  5
141
100
AcDbEntity
  8
0
370
              15
  6
Continuous
 62
               7
100
AcDbVertex
100
AcDb2dVertex
 10
1163.3646418236999
 20
957.23217849933462
 30
0.0
  0
VERTEX
  5
142
100
AcDbEntity
  8
0
370
              15
  6
Continuous
 62
               7
100
AcDbVertex
100
AcDb2dVertex
 10
1164.9748788581001
 20
957.46318240993457
 30
0.0
  0
VERTEX
  5
143
100
AcDbEntity
  8
0
370
              15
  6
Continuous
 62
               7
100
AcDbVertex
100
AcDb2dVertex
 10
1166.4999942374
 20
957.78103515713462
 30
0.0
  0
VERTEX
  5
144
100
AcDbEntity
  8
0
370
              15
  6
Continuous
 62
               7
100
AcDbVertex
100
AcDb2dVertex
 10
1167.9138928145001
 20
958.18029819203457
 30
0.0
  0
VERTEX
  5
145
100
AcDbEntity
  8
0
370
              15
  6
Continuous
 62
               7
100
AcDbVertex
100
AcDb2dVertex
 10
1169.1923823928
 20
958.65414001363456
 30
0.0
  0
VERTEX
  5
146
100
AcDbEntity
  8
0
370
              15
  6
Continuous
 62
               7
100
AcDbVertex
100
AcDb2dVertex
 10
1170.3135876611
 20
959.19445305683462
 30
0.0
  0
VERTEX
  5
147
100
AcDbEntity
  8
0
370
              15
  6
Continuous
 62
               7
100
AcDbVertex
100
AcDb2dVertex
 10
1171.2583244865
 20
959.79199241583456
 30
0.0
  0
VERTEX
  5
148
100
AcDbEntity
  8
0
370
              15
  6
Continuous
 62
               7
100
AcDbVertex
100
AcDb2dVertex
 10
1172.0104281599999
 20
960.43653402633458
 30
0.0
  0
VERTEX
  5
149
100
AcDbEntity
  8
0
370
              15
  6
Continuous
 62
               7
100
AcDbVertex
100
AcDb2dVertex
 10
1172.5570299791
 20
961.11704960283464
 30
0.0
  0
VERTEX
  5
14A
100
AcDbEntity
  8
0
370
              15
  6
Continuous
 62
               7
100
AcDbVertex
100
AcDb2dVertex
 10
1172.8887774352002
 20
961.82189533503458
 30
0.0
  0
VERTEX
  5
14B
100
AcDbEntity
  8
0
370
              15
  6
Continuous
 62
               7
100
AcDbVertex
100
AcDb2dVertex
 10
1172.9999942374
 20
962.53901111713458
 30
0.0
  0
SEQEND
  5
14C
100
AcDbEntity
  8
0
370
              15
  6
Continuous
 62
               7
  0
POLYLINE
  5
14D
100
AcDbEntity
  8
0
370
              15
  6
Continuous
 62
               7
100
AcDb2dPolyline
 66
               1
 10
0.0
 20
0.0
 30
0.0
 75
               5
  0
VERTEX
  5
14E
100
AcDbEntity
  8
0
370
              15
  6
Continuous
 62
               7
100
AcDbVertex
100
AcDb2dVertex
 10
1159.9999942374
 20
957.04497371453454
 30
0.0
  0
VERTEX
  5
14F
100
AcDbEntity
  8
0
370
              15
  6
Continuous
 62
               7
100
AcDbVertex
100
AcDb2dVertex
 10
1158.3031537385
 20
957.09197596613456
 30
0.0
  0
VERTEX
  5
150
100
AcDbEntity
  8
0
370
              15
  6
Continuous
 62
               7
100
AcDbVertex
100
AcDb2dVertex
 10
1156.635346651
 20
957.23217849933462
 30
0.0
  0
VERTEX
  5
151
100
AcDbEntity
  8
0
370
              15
  6
Continuous
 62
               7
100
AcDbVertex
100
AcDb2dVertex
 10
1155.0251096166
 20
957.46318240993457
 30
0.0
  0
VERTEX
  5
152
100
AcDbEntity
  8
0
370
              15
  6
Continuous
 62
               7
100
AcDbVertex
100
AcDb2dVertex
 10
1153.4999942374
 20
957.78103515713462
 30
0.0
  0
VERTEX
  5
153
100
AcDbEntity
  8
0
370
              15
  6
Continuous
 62
               7
100
AcDbVertex
100
AcDb2dVertex
 10
1152.0860956602
 20
958.18029819203457
 30
0.0
  0
VERTEX
  5
154
100
AcDbEntity
  8
0
370
              15
  6
Continuous
 62
               7
100
AcDbVertex
100
AcDb2dVertex
 10
1150.8076060819001
 20
958.65414001363456
 30
0.0
  0
VERTEX
  5
155
100
AcDbEntity
  8
0
370
              15
  6
Continuous
 62
               7
100
AcDbVertex
100
AcDb2dVertex
 10
1149.6864008135999
 20
959.19445305683462
 30
0.0
  0
VERTEX
  5
156
100
AcDbEntity
  8
0
370
              15
  6
Continuous
 62
               7
100
AcDbVertex
100
AcDb2dVertex
 10
1148.7416639881999
 20
959.79199241583456
 30
0.0
  0
VERTEX
  5
157
100
AcDbEntity
  8
0
370
              15
  6
Continuous
 62
               7
100
AcDbVertex
100
AcDb2dVertex
 10
1147.9895603146999
 20
960.43653402633458
 30
0.0
  0
VERTEX
  5
158
100
AcDbEntity
  8
0
370
              15
  6
Continuous
 62
               7
100
AcDbVertex
100
AcDb2dVertex
 10
1147.4429584956001
 20
961.11704960283464
 30
0.0
  0
VERTEX
  5
159
100
AcDbEntity
  8
0
370
              15
  6
Continuous
 62
               7
100
AcDbVertex
100
AcDb2dVertex
 10
1147.1112110394999
 20
961.82189533503458
 30
0.0
  0
VERTEX
  5
15A
100
AcDbEntity
  8
0
370
              15
  6
Continuous
 62
               7
100
AcDbVertex
100
AcDb2dVertex
 10
1146.9999942374
 20
962.53901111713458
 30
0.0
  0
SEQEND
  5
15B
100
AcDbEntity
  8
0
370
              15
  6
Continuous
 62
               7
  0
POLYLINE
  5
15C
100
AcDbEntity
  8
0
370
              15
  6
Continuous
 62
               7
100
AcDb2dPolyline
 66
               1
 10
0.0
 20
0.0
 30
0.0
 75
               5
  0
VERTEX
  5
15D
100
AcDbEntity
  8
0
370
              15
  6
Continuous
 62
               7
100
AcDbVertex
100
AcDb2dVertex
 10
1169.7310482789001
 20
964.70660325983454
 30
0.0
  0
VERTEX
  5
15E
100
AcDbEntity
  8
0
370
              15
  6
Continuous
 62
               7
100
AcDbVertex
100
AcDb2dVertex
 10
1168.8991811755
 20
965.27150771473453
 30
0.0
  0
VERTEX
  5
15F
100
AcDbEntity
  8
0
370
              15
  6
Continuous
 62
               7
100
AcDbVertex
100
AcDb2dVertex
 10
1167.7781688303999
 20
965.82620974313454
 30
0.0
  0
VERTEX
  5
160
100
AcDbEntity
  8
0
370
              15
  6
Continuous
 62
               7
100
AcDbVertex
100
AcDb2dVertex
 10
1166.4656320126001
 20
966.29997003183462
 30
0.0
  0
VERTEX
  5
161
100
AcDbEntity
  8
0
370
              15
  6
Continuous
 62
               7
100
AcDbVertex
100
AcDb2dVertex
 10
1164.9938897345
 20
966.68112303013459
 30
0.0
  0
VERTEX
  5
162
100
AcDbEntity
  8
0
370
              15
  6
Continuous
 62
               7
100
AcDbVertex
100
AcDb2dVertex
 10
1163.3991811755
 20
966.96028348623463
 30
0.0
  0
VERTEX
  5
163
100
AcDbEntity
  8
0
370
              15
  6
Continuous
 62
               7
100
AcDbVertex
100
AcDb2dVertex
 10
1161.7207733528001
 20
967.13057754323461
 30
0.0
  0
VERTEX
  5
164
100
AcDbEntity
  8
0
370
              15
  6
Continuous
 62
               7
100
AcDbVertex
100
AcDb2dVertex
 10
1159.9999942374
 20
967.18781199623459
 30
0.0
  0
SEQEND
  5
165
100
AcDbEntity
  8
0
370
              15
  6
Continuous
 62
               7
  0
POLYLINE
  5
166
100
AcDbEntity
  8
0
370
              15
  6
Continuous
 62
               7
100
AcDb2dPolyline
 66
               1
 10
0.0
 20
0.0
 30
0.0
 75
               5
  0
VERTEX
  5
167
100
AcDbEntity
  8
0
370
              15
  6
Continuous
 62
               7
100
AcDbVertex
100
AcDb2dVertex
 10
1268.0614689774
 20
831.55113524373462
 30
0.0
  0
VERTEX
  5
168
100
AcDbEntity
  8
0
370
              15
  6
Continuous
 62
               7
100
AcDbVertex
100
AcDb2dVertex
 10
1268.0424869663
 20
831.62009896823463
 30
0.0
  0
VERTEX
  5
169
100
AcDbEntity
  8
0
370
              15
  6
Continuous
 62
               7
100
AcDbVertex
100
AcDb2dVertex
 10
1268.0011473586001
 20
831.68563755293462
 30
0.0
  0
SEQEND
  5
16A
100
AcDbEntity
  8
0
370
              15
  6
Continuous
 62
               7
  0
POLYLINE
  5
16B
100
AcDbEntity
  8
0
370
              15
  6
Continuous
 62
               7
100
AcDb2dPolyline
 66
               1
 10
0.0
 20
0.0
 30
0.0
 75
               5
  0
VERTEX
  5
16C
100
AcDbEntity
  8
0
370
              15
  6
Continuous
 62
               7
100
AcDbVertex
100
AcDb2dVertex
 10
1159.9999942374
 20
959.21913628673462
 30
0.0
  0
VERTEX
  5
16D
100
AcDbEntity
  8
0
370
              15
  6
Continuous
 62
               7
100
AcDbVertex
100
AcDb2dVertex
 10
1161.6459401401999
 20
959.27677590923463
 30
0.0
  0
VERTEX
  5
16E
100
AcDbEntity
  8
0
370
              15
  6
Continuous
 62
               7
100
AcDbVertex
100
AcDb2dVertex
 10
1163.2469889294
 20
959.44812251803455
 30
0.0
  0
VERTEX
  5
16F
100
AcDbEntity
  8
0
370
              15
  6
Continuous
 62
               7
100
AcDbVertex
100
AcDb2dVertex
 10
1164.7594681677001
 20
959.72850222433453
 30
0.0
  0
VERTEX
  5
170
100
AcDbEntity
  8
0
370
              15
  6
Continuous
 62
               7
100
AcDbVertex
100
AcDb2dVertex
 10
1166.1421213642
 20
960.11026700063462
 30
0.0
  0
VERTEX
  5
171
100
AcDbEntity
  8
0
370
              15
  6
Continuous
 62
               7
100
AcDbVertex
100
AcDb2dVertex
 10
1167.3572333441
 20
960.58300329903454
 30
0.0
  0
VERTEX
  5
172
100
AcDbEntity
  8
0
370
              15
  6
Continuous
 62
               7
100
AcDbVertex
100
AcDb2dVertex
 10
1168.3716590200002
 20
961.13381610563465
 30
0.0
  0
VERTEX
  5
173
100
AcDbEntity
  8
0
370
              15
  6
Continuous
 62
               7
100
AcDbVertex
100
AcDb2dVertex
 10
1169.1577275038999
 20
961.74768068303456
 30
0.0
  0
VERTEX
  5
174
100
AcDbEntity
  8
0
370
              15
  6
Continuous
 62
               7
100
AcDbVertex
100
AcDb2dVertex
 10
1169.6939968966999
 20
962.40785240553464
 30
0.0
  0
VERTEX
  5
175
100
AcDbEntity
  8
0
370
              15
  6
Continuous
 62
               7
100
AcDbVertex
100
AcDb2dVertex
 10
1169.9658391674
 20
963.09632350973459
 30
0.0
  0
VERTEX
  5
176
100
AcDbEntity
  8
0
370
              15
  6
Continuous
 62
               7
100
AcDbVertex
100
AcDb2dVertex
 10
1169.9999942374
 20
963.44531890413464
 30
0.0
  0
SEQEND
  5
177
100
AcDbEntity
  8
0
370
              15
  6
Continuous
 62
               7
  0
POLYLINE
  5
178
100
AcDbEntity
  8
0
370
              15
  6
Continuous
 62
               7
100
AcDb2dPolyline
 66
               1
 10
0.0
 20
0.0
 30
0.0
 75
               5
  0
VERTEX
  5
179
100
AcDbEntity
  8
0
370
              15
  6
Continuous
 62
               7
100
AcDbVertex
100
AcDb2dVertex
 10
1159.9999942374
 20
957.89021023793464
 30
0.0
  0
VERTEX
  5
17A
100
AcDbEntity
  8
0
370
              15
  6
Continuous
 62
               7
100
AcDbVertex
100
AcDb2dVertex
 10
1161.7207733528001
 20
957.94744469103466
 30
0.0
  0
VERTEX
  5
17B
100
AcDbEntity
  8
0
370
              15
  6
Continuous
 62
               7
100
AcDbVertex
100
AcDb2dVertex
 10
1163.3991811755
 20
958.11773874803453
 30
0.0
  0
VERTEX
  5
17C
100
AcDbEntity
  8
0
370
              15
  6
Continuous
 62
               7
100
AcDbVertex
100
AcDb2dVertex
 10
1164.9938897345
 20
958.39689920413457
 30
0.0
  0
VERTEX
  5
17D
100
AcDbEntity
  8
0
370
              15
  6
Continuous
 62
               7
100
AcDbVertex
100
AcDb2dVertex
 10
1166.4656320126001
 20
958.77805220243454
 30
0.0
  0
VERTEX
  5
17E
100
AcDbEntity
  8
0
370
              15
  6
Continuous
 62
               7
100
AcDbVertex
100
AcDb2dVertex
 10
1167.7781688303999
 20
959.25181249113461
 30
0.0
  0
VERTEX
  5
17F
100
AcDbEntity
  8
0
370
              15
  6
Continuous
 62
               7
100
AcDbVertex
100
AcDb2dVertex
 10
1168.8991811755
 20
959.80651451953463
 30
0.0
  0
VERTEX
  5
180
100
AcDbEntity
  8
0
370
              15
  6
Continuous
 62
               7
100
AcDbVertex
100
AcDb2dVertex
 10
1169.8010660034001
 20
960.42849968283463
 30
0.0
  0
VERTEX
  5
181
100
AcDbEntity
  8
0
370
              15
  6
Continuous
 62
               7
100
AcDbVertex
100
AcDb2dVertex
 10
1170.4616159166001
 20
961.10245264203456
 30
0.0
  0
VERTEX
  5
182
100
AcDbEntity
  8
0
370
              15
  6
Continuous
 62
               7
100
AcDbVertex
100
AcDb2dVertex
 10
1170.8645659838999
 20
961.81177843853459
 30
0.0
  0
VERTEX
  5
183
100
AcDbEntity
  8
0
370
              15
  6
Continuous
 62
               7
100
AcDbVertex
100
AcDb2dVertex
 10
1170.9999942374
 20
962.53901111713458
 30
0.0
  0
VERTEX
  5
184
100
AcDbEntity
  8
0
370
              15
  6
Continuous
 62
               7
100
AcDbVertex
100
AcDb2dVertex
 10
1170.8645659838999
 20
963.26624379573457
 30
0.0
  0
VERTEX
  5
185
100
AcDbEntity
  8
0
370
              15
  6
Continuous
 62
               7
100
AcDbVertex
100
AcDb2dVertex
 10
1170.4616159166001
 20
963.97556959223459
 30
0.0
  0
VERTEX
  5
186
100
AcDbEntity
  8
0
370
              15
  6
Continuous
 62
               7
100
AcDbVertex
100
AcDb2dVertex
 10
1169.7310482789001
 20
964.70660325983454
 30
0.0
  0
SEQEND
  5
187
100
AcDbEntity
  8
0
370
              15
  6
Continuous
 62
               7
  0
POLYLINE
  5
188
100
AcDbEntity
  8
0
370
              15
  6
Continuous
 62
               7
100
AcDb2dPolyline
 66
               1
 10
0.0
 20
0.0
 30
0.0
 75
               5
  0
VERTEX
  5
189
100
AcDbEntity
  8
0
370
              15
  6
Continuous
 62
               7
100
AcDbVertex
100
AcDb2dVertex
 10
1159.9999942374
 20
962.65002850273459
 30
0.0
  0
VERTEX
  5
18A
100
AcDbEntity
  8
0
370
              15
  6
Continuous
 62
               7
100
AcDbVertex
100
AcDb2dVertex
 10
1158.8342269781001
 20
962.68501235163455
 30
0.0
  0
VERTEX
  5
18B
100
AcDbEntity
  8
0
370
              15
  6
Continuous
 62
               7
100
AcDbVertex
100
AcDb2dVertex
 10
1157.6864959980999
 20
962.7899243417346
 30
0.0
  0
VERTEX
  5
18C
100
AcDbEntity
  8
0
370
              15
  6
Continuous
 62
               7
100
AcDbVertex
100
AcDb2dVertex
 10
1156.5824075043001
 20
962.96325839863459
 30
0.0
  0
VERTEX
  5
18D
100
AcDbEntity
  8
0
370
              15
  6
Continuous
 62
               7
100
AcDbVertex
100
AcDb2dVertex
 10
1155.5470366135
 20
963.20152581543459
 30
0.0
  0
VERTEX
  5
18E
100
AcDbEntity
  8
0
370
              15
  6
Continuous
 62
               7
100
AcDbVertex
100
AcDb2dVertex
 10
1154.6029409267001
 20
963.49960245523459
 30
0.0
  0
VERTEX
  5
18F
100
AcDbEntity
  8
0
370
              15
  6
Continuous
 62
               7
100
AcDbVertex
100
AcDb2dVertex
 10
1153.7691394332001
 20
963.85140330533454
 30
0.0
  0
VERTEX
  5
190
100
AcDbEntity
  8
0
370
              15
  6
Continuous
 62
               7
100
AcDbVertex
100
AcDb2dVertex
 10
1153.0623633227001
 20
964.24984914153458
 30
0.0
  0
VERTEX
  5
191
100
AcDbEntity
  8
0
370
              15
  6
Continuous
 62
               7
100
AcDbVertex
100
AcDb2dVertex
 10
1152.4970833042998
 20
964.68680659543463
 30
0.0
  0
VERTEX
  5
192
100
AcDbEntity
  8
0
370
              15
  6
Continuous
 62
               7
100
AcDbVertex
100
AcDb2dVertex
 10
1152.0848777957999
 20
965.15333244693466
 30
0.0
  0
VERTEX
  5
193
100
AcDbEntity
  8
0
370
              15
  6
Continuous
 62
               7
100
AcDbVertex
100
AcDb2dVertex
 10
1151.8364167478001
 20
965.63550375373461
 30
0.0
  0
SEQEND
  5
194
100
AcDbEntity
  8
0
370
              15
  6
Continuous
 62
               7
  0
POLYLINE
  5
195
100
AcDbEntity
  8
0
370
              15
  6
Continuous
 62
               7
100
AcDb2dPolyline
 66
               1
 10
0.0
 20
0.0
 30
0.0
 75
               5
  0
VERTEX
  5
196
100
AcDbEntity
  8
0
370
              15
  6
Continuous
 62
               7
100
AcDbVertex
100
AcDb2dVertex
 10
1159.9999942374
 20
957.89021023793464
 30
0.0
  0
VERTEX
  5
197
100
AcDbEntity
  8
0
370
              15
  6
Continuous
 62
               7
100
AcDbVertex
100
AcDb2dVertex
 10
1158.2792151219001
 20
957.94744469103466
 30
0.0
  0
VERTEX
  5
198
100
AcDbEntity
  8
0
370
              15
  6
Continuous
 62
               7
100
AcDbVertex
100
AcDb2dVertex
 10
1156.6008072991999
 20
958.11773874803453
 30
0.0
  0
VERTEX
  5
199
100
AcDbEntity
  8
0
370
              15
  6
Continuous
 62
               7
100
AcDbVertex
100
AcDb2dVertex
 10
1155.0060987402001
 20
958.39689920413457
 30
0.0
  0
VERTEX
  5
19A
100
AcDbEntity
  8
0
370
              15
  6
Continuous
 62
               7
100
AcDbVertex
100
AcDb2dVertex
 10
1153.5343564621
 20
958.77805220243454
 30
0.0
  0
VERTEX
  5
19B
100
AcDbEntity
  8
0
370
              15
  6
Continuous
 62
               7
100
AcDbVertex
100
AcDb2dVertex
 10
1152.2218196443
 20
959.25181249113461
 30
0.0
  0
VERTEX
  5
19C
100
AcDbEntity
  8
0
370
              15
  6
Continuous
 62
               7
100
AcDbVertex
100
AcDb2dVertex
 10
1151.1008072991999
 20
959.80651451953463
 30
0.0
  0
VERTEX
  5
19D
100
AcDbEntity
  8
0
370
              15
  6
Continuous
 62
               7
100
AcDbVertex
100
AcDb2dVertex
 10
1150.1989224713
 20
960.42849968283463
 30
0.0
  0
VERTEX
  5
19E
100
AcDbEntity
  8
0
370
              15
  6
Continuous
 62
               7
100
AcDbVertex
100
AcDb2dVertex
 10
1149.5383725581
 20
961.10245264203456
 30
0.0
  0
VERTEX
  5
19F
100
AcDbEntity
  8
0
370
              15
  6
Continuous
 62
               7
100
AcDbVertex
100
AcDb2dVertex
 10
1149.1354224908
 20
961.81177843853459
 30
0.0
  0
VERTEX
  5
1A0
100
AcDbEntity
  8
0
370
              15
  6
Continuous
 62
               7
100
AcDbVertex
100
AcDb2dVertex
 10
1148.9999942374
 20
962.53901111713458
 30
0.0
  0
VERTEX
  5
1A1
100
AcDbEntity
  8
0
370
              15
  6
Continuous
 62
               7
100
AcDbVertex
100
AcDb2dVertex
 10
1149.1354224908
 20
963.26624379573457
 30
0.0
  0
VERTEX
  5
1A2
100
AcDbEntity
  8
0
370
              15
  6
Continuous
 62
               7
100
AcDbVertex
100
AcDb2dVertex
 10
1149.5383725581
 20
963.97556959223459
 30
0.0
  0
VERTEX
  5
1A3
100
AcDbEntity
  8
0
370
              15
  6
Continuous
 62
               7
100
AcDbVertex
100
AcDb2dVertex
 10
1150.2689401958
 20
964.70660325983454
 30
0.0
  0
SEQEND
  5
1A4
100
AcDbEntity
  8
0
370
              15
  6
Continuous
 62
               7
  0
POLYLINE
  5
1A5
100
AcDbEntity
  8
0
370
              15
  6
Continuous
 62
               7
100
AcDb2dPolyline
 66
               1
 10
0.0
 20
0.0
 30
0.0
 75
               5
  0
VERTEX
  5
1A6
100
AcDbEntity
  8
0
370
              15
  6
Continuous
 62
               7
100
AcDbVertex
100
AcDb2dVertex
 10
1159.9999942374
 20
959.21913628673462
 30
0.0
  0
VERTEX
  5
1A7
100
AcDbEntity
  8
0
370
              15
  6
Continuous
 62
               7
100
AcDbVertex
100
AcDb2dVertex
 10
1158.3540483345
 20
959.27677590923463
 30
0.0
  0
VERTEX
  5
1A8
100
AcDbEntity
  8
0
370
              15
  6
Continuous
 62
               7
100
AcDbVertex
100
AcDb2dVertex
 10
1156.7529995453001
 20
959.44812251803455
 30
0.0
  0
VERTEX
  5
1A9
100
AcDbEntity
  8
0
370
              15
  6
Continuous
 62
               7
100
AcDbVertex
100
AcDb2dVertex
 10
1155.240520307
 20
959.72850222433453
 30
0.0
  0
VERTEX
  5
1AA
100
AcDbEntity
  8
0
370
              15
  6
Continuous
 62
               7
100
AcDbVertex
100
AcDb2dVertex
 10
1153.8578671105001
 20
960.11026700063462
 30
0.0
  0
VERTEX
  5
1AB
100
AcDbEntity
  8
0
370
              15
  6
Continuous
 62
               7
100
AcDbVertex
100
AcDb2dVertex
 10
1152.6427551306001
 20
960.58300329903454
 30
0.0
  0
VERTEX
  5
1AC
100
AcDbEntity
  8
0
370
              15
  6
Continuous
 62
               7
100
AcDbVertex
100
AcDb2dVertex
 10
1151.6283294547
 20
961.13381610563465
 30
0.0
  0
VERTEX
  5
1AD
100
AcDbEntity
  8
0
370
              15
  6
Continuous
 62
               7
100
AcDbVertex
100
AcDb2dVertex
 10
1150.8422609708
 20
961.74768068303456
 30
0.0
  0
VERTEX
  5
1AE
100
AcDbEntity
  8
0
370
              15
  6
Continuous
 62
               7
100
AcDbVertex
100
AcDb2dVertex
 10
1150.305991578
 20
962.40785240553464
 30
0.0
  0
VERTEX
  5
1AF
100
AcDbEntity
  8
0
370
              15
  6
Continuous
 62
               7
100
AcDbVertex
100
AcDb2dVertex
 10
1150.0341493073001
 20
963.09632350973459
 30
0.0
  0
VERTEX
  5
1B0
100
AcDbEntity
  8
0
370
              15
  6
Continuous
 62
               7
100
AcDbVertex
100
AcDb2dVertex
 10
1149.9999942374
 20
963.44531890413464
 30
0.0
  0
SEQEND
  5
1B1
100
AcDbEntity
  8
0
370
              15
  6
Continuous
 62
               7
  0
POLYLINE
  5
1B2
100
AcDbEntity
  8
0
370
              15
  6
Continuous
 62
               7
100
AcDb2dPolyline
 66
               1
 10
0.0
 20
0.0
 30
0.0
 75
               5
  0
VERTEX
  5
1B3
100
AcDbEntity
  8
0
370
              15
  6
Continuous
 62
               7
100
AcDbVertex
100
AcDb2dVertex
 10
1159.9999942374
 20
988.52297904563466
 30
0.0
  0
VERTEX
  5
1B4
100
AcDbEntity
  8
0
370
              15
  6
Continuous
 62
               7
100
AcDbVertex
100
AcDb2dVertex
 10
1157.1072220958999
 20
988.38523205733463
 30
0.0
  0
VERTEX
  5
1B5
100
AcDbEntity
  8
0
370
              15
  6
Continuous
 62
               7
100
AcDbVertex
100
AcDb2dVertex
 10
1154.3595056288
 20
987.97889830183453
 30
0.0
  0
VERTEX
  5
1B6
100
AcDbEntity
  8
0
370
              15
  6
Continuous
 62
               7
100
AcDbVertex
100
AcDb2dVertex
 10
1151.8946268131999
 20
987.32435305023455
 30
0.0
  0
VERTEX
  5
1B7
100
AcDbEntity
  8
0
370
              15
  6
Continuous
 62
               7
100
AcDbVertex
100
AcDb2dVertex
 10
1149.8361849652999
 20
986.4544179345346
 30
0.0
  0
VERTEX
  5
1B8
100
AcDbEntity
  8
0
370
              15
  6
Continuous
 62
               7
100
AcDbVertex
100
AcDb2dVertex
 10
1148.2873989546001
 20
985.41271513403467
 30
0.0
  0
VERTEX
  5
1B9
100
AcDbEntity
  8
0
370
              15
  6
Continuous
 62
               7
100
AcDbVertex
100
AcDb2dVertex
 10
1147.3259313789999
 20
984.25147997703459
 30
0.0
  0
SEQEND
  5
1BA
100
AcDbEntity
  8
0
370
              15
  6
Continuous
 62
               7
  0
LINE
  5
1BB
100
AcDbEntity
  8
0
370
              15
  6
Continuous
 62
               7
100
AcDbLine
 10
1517.6583677179999
 20
988.52297904563466
 30
0.0
 11
1494.0943652551
 21
977.53490424033453
 31
0.0
  0
LINE
  5
1BC
100
AcDbEntity
  8
0
370
              15
  6
Continuous
 62
               7
100
AcDbLine
 10
1494.1400658851999
 20
977.43689892283464
 30
0.0
 11
1517.7040683481
 21
988.42497372803462
 31
0.0
  0
LINE
  5
1BD
100
AcDbEntity
  8
0
370
              15
  6
Continuous
 62
               7
100
AcDbLine
 10
1350.4081919447999
 20
847.21313684243455
 30
0.0
 11
1350.4081919447999
 21
859.87749685303459
 31
0.0
  0
LINE
  5
1BE
100
AcDbEntity
  8
0
370
              15
  6
Continuous
 62
               7
100
AcDbLine
 10
1350.6081919448
 20
847.01286197403465
 30
0.0
 11
1350.6081919448
 21
860.0771406702346
 31
0.0
  0
LINE
  5
1BF
100
AcDbEntity
  8
0
370
              15
  6
Continuous
 62
               7
100
AcDbLine
 10
1354.9081919447999
 20
753.92894164293466
 30
0.0
 11
1354.9081919447999
 21
759.92894164293466
 31
0.0
  0
POLYLINE
  5
1C0
100
AcDbEntity
  8
0
370
              15
  6
Continuous
 62
               7
100
AcDb2dPolyline
 66
               1
 10
0.0
 20
0.0
 30
0.0
 75
               5
  0
VERTEX
  5
1C1
100
AcDbEntity
  8
0
370
              15
  6
Continuous
 62
               7
100
AcDbVertex
100
AcDb2dVertex
 10
1350.4081919447999
 20
859.80398218833466
 30
0.0
  0
VERTEX
  5
1C2
100
AcDbEntity
  8
0
370
              15
  6
Continuous
 62
               7
100
AcDbVertex
100
AcDb2dVertex
 10
1350.4231086861
 20
859.87966577993461
 30
0.0
  0
VERTEX
  5
1C3
100
AcDbEntity
  8
0
370
              15
  6
Continuous
 62
               7
100
AcDbVertex
100
AcDb2dVertex
 10
1350.4663832091001
 20
859.94481631673466
 30
0.0
  0
VERTEX
  5
1C4
100
AcDbEntity
  8
0
370
              15
  6
Continuous
 62
               7
100
AcDbVertex
100
AcDb2dVertex
 10
1350.5314138885001
 20
859.98839763283456
 30
0.0
  0
VERTEX
  5
1C5
100
AcDbEntity
  8
0
370
              15
  6
Continuous
 62
               7
100
AcDbVertex
100
AcDb2dVertex
 10
1350.6081919448
 20
860.00370029043461
 30
0.0
  0
SEQEND
  5
1C6
100
AcDbEntity
  8
0
370
              15
  6
Continuous
 62
               7
  0
POLYLINE
  5
1C7
100
AcDbEntity
  8
0
370
              15
  6
Continuous
 62
               7
100
AcDb2dPolyline
 66
               1
 10
0.0
 20
0.0
 30
0.0
 75
               5
  0
VERTEX
  5
1C8
100
AcDbEntity
  8
0
370
              15
  6
Continuous
 62
               7
100
AcDbVertex
100
AcDb2dVertex
 10
1350.4081919447999
 20
859.80398218833466
 30
0.0
  0
VERTEX
  5
1C9
100
AcDbEntity
  8
0
370
              15
  6
Continuous
 62
               7
100
AcDbVertex
100
AcDb2dVertex
 10
1350.4234160383
 20
859.85317902213455
 30
0.0
  0
VERTEX
  5
1CA
100
AcDbEntity
  8
0
370
              15
  6
Continuous
 62
               7
100
AcDbVertex
100
AcDb2dVertex
 10
1350.4667705884999
 20
859.89488608393458
 30
0.0
  0
VERTEX
  5
1CB
100
AcDbEntity
  8
0
370
              15
  6
Continuous
 62
               7
100
AcDbVertex
100
AcDb2dVertex
 10
1350.5316552582999
 20
859.92275385163464
 30
0.0
  0
VERTEX
  5
1CC
100
AcDbEntity
  8
0
370
              15
  6
Continuous
 62
               7
100
AcDbVertex
100
AcDb2dVertex
 10
1350.6081919448
 20
859.93253971033459
 30
0.0
  0
SEQEND
  5
1CD
100
AcDbEntity
  8
0
370
              15
  6
Continuous
 62
               7
  0
POLYLINE
  5
1CE
100
AcDbEntity
  8
0
370
               5
  6
Continuous
 62
               7
100
AcDb2dPolyline
 66
               1
 10
0.0
 20
0.0
 30
0.0
 75
               5
  0
VERTEX
  5
1CF
100
AcDbEntity
  8
0
370
               5
  6
Continuous
 62
               7
100
AcDbVertex
100
AcDb2dVertex
 10
1350.4081919447999
 20
852.74971520073461
 30
0.0
  0
VERTEX
  5
1D0
100
AcDbEntity
  8
0
370
               5
  6
Continuous
 62
               7
100
AcDbVertex
100
AcDb2dVertex
 10
1350.4234160383
 20
852.79891203443458
 30
0.0
  0
VERTEX
  5
1D1
100
AcDbEntity
  8
0
370
               5
  6
Continuous
 62
               7
100
AcDbVertex
100
AcDb2dVertex
 10
1350.4667705884999
 20
852.8406190962346
 30
0.0
  0
VERTEX
  5
1D2
100
AcDbEntity
  8
0
370
               5
  6
Continuous
 62
               7
100
AcDbVertex
100
AcDb2dVertex
 10
1350.5316552582999
 20
852.86848686393455
 30
0.0
  0
VERTEX
  5
1D3
100
AcDbEntity
  8
0
370
               5
  6
Continuous
 62
               7
100
AcDbVertex
100
AcDb2dVertex
 10
1350.6081919448
 20
852.87827272263462
 30
0.0
  0
SEQEND
  5
1D4
100
AcDbEntity
  8
0
370
               5
  6
Continuous
 62
               7
  0
LINE
  5
1D5
100
AcDbEntity
  8
0
370
              15
  6
Continuous
 62
               7
100
AcDbLine
 10
1503.6489767743001
 20
957.04497371453454
 30
0.0
 11
1527.2129792373
 21
968.03304851973462
 31
0.0
  0
LINE
  5
1D6
100
AcDbEntity
  8
0
370
              15
  6
Continuous
 62
               7
100
AcDbLine
 10
1354.9081919447999
 20
753.92894164293466
 30
0.0
 11
1410.9081919447999
 21
753.92894164293466
 31
0.0
  0
LINE
  5
1D7
100
AcDbEntity
  8
0
370
              15
  6
Continuous
 62
               7
100
AcDbLine
 10
1354.9081919447999
 20
759.92894164293466
 30
0.0
 11
1410.9081919447999
 21
759.92894164293466
 31
0.0
  0
LINE
  5
1D8
100
AcDbEntity
  8
0
370
              15
  6
Continuous
 62
               7
100
AcDbLine
 10
1364.9081919447999
 20
847.01286197283457
 30
0.0
 11
1364.9081919447999
 21
759.92894164293466
 31
0.0
  0
LINE
  5
1D9
100
AcDbEntity
  8
0
370
              15
  6
Continuous
 62
               7
100
AcDbLine
 10
1367.9081919447999
 20
778.74924926883455
 30
0.0
 11
1367.9081919447999
 21
847.01286197283457
 31
0.0
  0
POLYLINE
  5
1DA
100
AcDbEntity
  8
0
370
              15
  6
Continuous
 62
               7
100
AcDb2dPolyline
 66
               1
 10
0.0
 20
0.0
 30
0.0
 75
               5
  0
VERTEX
  5
1DB
100
AcDbEntity
  8
0
370
              15
  6
Continuous
 62
               7
100
AcDbVertex
100
AcDb2dVertex
 10
1368.868340059
 20
837.92555310593457
 30
0.0
  0
VERTEX
  5
1DC
100
AcDbEntity
  8
0
370
              15
  6
Continuous
 62
               7
100
AcDbVertex
100
AcDb2dVertex
 10
1368.868340059
 20
835.93233017993452
 30
0.0
  0
VERTEX
  5
1DD
100
AcDbEntity
  8
0
370
              15
  6
Continuous
 62
               7
100
AcDbVertex
100
AcDb2dVertex
 10
1369.3464503760001
 20
833.97304566203456
 30
0.0
  0
VERTEX
  5
1DE
100
AcDbEntity
  8
0
370
              15
  6
Continuous
 62
               7
100
AcDbVertex
100
AcDb2dVertex
 10
1370.2863895365999
 20
832.11442063653453
 30
0.0
  0
VERTEX
  5
1DF
100
AcDbEntity
  8
0
370
              15
  6
Continuous
 62
               7
100
AcDbVertex
100
AcDb2dVertex
 10
1371.6561490401
 20
830.41974834953453
 30
0.0
  0
VERTEX
  5
1E0
100
AcDbEntity
  8
0
370
              15
  6
Continuous
 62
               7
100
AcDbVertex
100
AcDb2dVertex
 10
1373.4090833692999
 20
828.94673883323458
 30
0.0
  0
VERTEX
  5
1E1
100
AcDbEntity
  8
0
370
              15
  6
Continuous
 62
               7
100
AcDbVertex
100
AcDb2dVertex
 10
1375.4854984481999
 20
827.74555365993456
 30
0.0
  0
VERTEX
  5
1E2
100
AcDbEntity
  8
0
370
              15
  6
Continuous
 62
               7
100
AcDbVertex
100
AcDb2dVertex
 10
1376.8542568752
 20
827.22344786343456
 30
0.0
  0
SEQEND
  5
1E3
100
AcDbEntity
  8
0
370
              15
  6
Continuous
 62
               7
  0
LINE
  5
1E4
100
AcDbEntity
  8
0
370
              15
  6
Continuous
 62
               7
100
AcDbLine
 10
1368.9081919447999
 20
841.10706110593458
 30
0.0
 11
1368.9081919447999
 21
836.92894164293466
 31
0.0
  0
LINE
  5
1E5
100
AcDbEntity
  8
0
370
              15
  6
Continuous
 62
               7
100
AcDbLine
 10
1369.9081919447999
 20
860.01286197283457
 30
0.0
 11
1369.9081919447999
 21
991.42894164293466
 31
0.0
  0
LINE
  5
1E6
100
AcDbEntity
  8
0
370
              15
  6
Continuous
 62
               7
100
AcDbLine
 10
1376.4081919447999
 20
878.25609748563465
 30
0.0
 11
1376.4081919451
 21
878.25614209353466
 31
0.0
  0
LINE
  5
1E7
100
AcDbEntity
  8
0
370
              15
  6
Continuous
 62
               7
100
AcDbLine
 10
1376.4081919447999
 20
878.25609748563465
 30
0.0
 11
1376.4081919447999
 21
860.01286197283457
 31
0.0
  0
LINE
  5
1E8
100
AcDbEntity
  8
0
370
              15
  6
Continuous
 62
               7
100
AcDbLine
 10
1376.4081919447999
 20
848.3169154104346
 30
0.0
 11
1376.4081919447999
 21
828.76962646013453
 31
0.0
  0
LINE
  5
1E9
100
AcDbEntity
  8
0
370
              15
  6
Continuous
 62
               7
100
AcDbLine
 10
1376.4081919451
 20
878.25614209353466
 30
0.0
 11
1376.4308056468999
 21
878.60431206223461
 31
0.0
  0
POLYLINE
  5
1EA
100
AcDbEntity
  8
0
370
              15
  6
Continuous
 62
               7
100
AcDb2dPolyline
 66
               1
 10
0.0
 20
0.0
 30
0.0
 75
               5
  0
VERTEX
  5
1EB
100
AcDbEntity
  8
0
370
              15
  6
Continuous
 62
               7
100
AcDbVertex
100
AcDb2dVertex
 10
1368.9081919447999
 20
841.10706110593458
 30
0.0
  0
VERTEX
  5
1EC
100
AcDbEntity
  8
0
370
              15
  6
Continuous
 62
               7
100
AcDbVertex
100
AcDb2dVertex
 10
1368.9848854095999
 20
842.22808938403455
 30
0.0
  0
VERTEX
  5
1ED
100
AcDbEntity
  8
0
370
              15
  6
Continuous
 62
               7
100
AcDbVertex
100
AcDb2dVertex
 10
1369.2141255345
 20
843.33683544163455
 30
0.0
  0
VERTEX
  5
1EE
100
AcDbEntity
  8
0
370
              15
  6
Continuous
 62
               7
100
AcDbVertex
100
AcDb2dVertex
 10
1369.5934007165999
 20
844.4211516251346
 30
0.0
  0
VERTEX
  5
1EF
100
AcDbEntity
  8
0
370
              15
  6
Continuous
 62
               7
100
AcDbVertex
100
AcDb2dVertex
 10
1370.1185555377999
 20
845.46915793933454
 30
0.0
  0
VERTEX
  5
1F0
100
AcDbEntity
  8
0
370
              15
  6
Continuous
 62
               7
100
AcDbVertex
100
AcDb2dVertex
 10
1370.7838362918001
 20
846.46937220773452
 30
0.0
  0
VERTEX
  5
1F1
100
AcDbEntity
  8
0
370
              15
  6
Continuous
 62
               7
100
AcDbVertex
100
AcDb2dVertex
 10
1371.2445750693
 20
847.01286197283457
 30
0.0
  0
SEQEND
  5
1F2
100
AcDbEntity
  8
0
370
              15
  6
Continuous
 62
               7
  0
POLYLINE
  5
1F3
100
AcDbEntity
  8
0
370
              15
  6
Continuous
 62
               7
100
AcDb2dPolyline
 66
               1
 10
0.0
 20
0.0
 30
0.0
 75
               5
  0
VERTEX
  5
1F4
100
AcDbEntity
  8
0
370
              15
  6
Continuous
 62
               7
100
AcDbVertex
100
AcDb2dVertex
 10
1376.1581919447999
 20
841.10706110593458
 30
0.0
  0
VERTEX
  5
1F5
100
AcDbEntity
  8
0
370
              15
  6
Continuous
 62
               7
100
AcDbVertex
100
AcDb2dVertex
 10
1376.2268972121001
 20
841.84294267043458
 30
0.0
  0
VERTEX
  5
1F6
100
AcDbEntity
  8
0
370
              15
  6
Continuous
 62
               7
100
AcDbVertex
100
AcDb2dVertex
 10
1376.4081919447999
 20
842.48136291123456
 30
0.0
  0
SEQEND
  5
1F7
100
AcDbEntity
  8
0
370
              15
  6
Continuous
 62
               7
  0
POLYLINE
  5
1F8
100
AcDbEntity
  8
0
370
              15
  6
Continuous
 62
               7
100
AcDb2dPolyline
 66
               1
 10
0.0
 20
0.0
 30
0.0
 75
               5
  0
VERTEX
  5
1F9
100
AcDbEntity
  8
0
370
              15
  6
Continuous
 62
               7
100
AcDbVertex
100
AcDb2dVertex
 10
1376.2279067141999
 20
840.36762463073455
 30
0.0
  0
VERTEX
  5
1FA
100
AcDbEntity
  8
0
370
              15
  6
Continuous
 62
               7
100
AcDbVertex
100
AcDb2dVertex
 10
1376.2607396119001
 20
840.65510712113462
 30
0.0
  0
VERTEX
  5
1FB
100
AcDbEntity
  8
0
370
              15
  6
Continuous
 62
               7
100
AcDbVertex
100
AcDb2dVertex
 10
1376.4081919447999
 20
841.07666107003456
 30
0.0
  0
SEQEND
  5
1FC
100
AcDbEntity
  8
0
370
              15
  6
Continuous
 62
               7
  0
LINE
  5
1FD
100
AcDbEntity
  8
0
370
              15
  6
Continuous
 62
               7
100
AcDbLine
 10
1368.9081919447999
 20
838.08886517013457
 30
0.0
 11
1368.868340059
 21
837.92555310593457
 31
0.0
  0
LINE
  5
1FE
100
AcDbEntity
  8
0
370
              15
  6
Continuous
 62
               7
100
AcDbLine
 10
1376.4308056468999
 20
878.60431206223461
 30
0.0
 11
1376.6103977705
 21
879.29012451013455
 31
0.0
  0
POLYLINE
  5
1FF
100
AcDbEntity
  8
0
370
              15
  6
Continuous
 62
               7
100
AcDb2dPolyline
 66
               1
 10
0.0
 20
0.0
 30
0.0
 75
               5
  0
VERTEX
  5
200
100
AcDbEntity
  8
0
370
              15
  6
Continuous
 62
               7
100
AcDbVertex
100
AcDb2dVertex
 10
1376.6103977705
 20
879.29012451013455
 30
0.0
  0
VERTEX
  5
201
100
AcDbEntity
  8
0
370
              15
  6
Continuous
 62
               7
100
AcDbVertex
100
AcDb2dVertex
 10
1376.9663676770001
 20
879.95002570723454
 30
0.0
  0
VERTEX
  5
202
100
AcDbEntity
  8
0
370
              15
  6
Continuous
 62
               7
100
AcDbVertex
100
AcDb2dVertex
 10
1377.4890307736
 20
880.56322082183465
 30
0.0
  0
VERTEX
  5
203
100
AcDbEntity
  8
0
370
              15
  6
Continuous
 62
               7
100
AcDbVertex
100
AcDb2dVertex
 10
1378.1576764644001
 20
881.10782981753459
 30
0.0
  0
SEQEND
  5
204
100
AcDbEntity
  8
0
370
              15
  6
Continuous
 62
               7
  0
POLYLINE
  5
205
100
AcDbEntity
  8
0
370
               5
  6
Continuous
 62
               7
100
AcDb2dPolyline
 66
               1
 10
0.0
 20
0.0
 30
0.0
 75
               5
  0
VERTEX
  5
206
100
AcDbEntity
  8
0
370
               5
  6
Continuous
 62
               7
100
AcDbVertex
100
AcDb2dVertex
 10
1378.1904491455
 20
881.18482981253464
 30
0.0
  0
VERTEX
  5
207
100
AcDbEntity
  8
0
370
               5
  6
Continuous
 62
               7
100
AcDbVertex
100
AcDb2dVertex
 10
1378.1688761751
 20
881.1599220394346
 30
0.0
  0
VERTEX
  5
208
100
AcDbEntity
  8
0
370
               5
  6
Continuous
 62
               7
100
AcDbVertex
100
AcDb2dVertex
 10
1378.1576764644001
 20
881.10782981753459
 30
0.0
  0
SEQEND
  5
209
100
AcDbEntity
  8
0
370
               5
  6
Continuous
 62
               7
  0
LINE
  5
20A
100
AcDbEntity
  8
0
370
               5
  6
Continuous
 62
               7
100
AcDbLine
 10
1378.1999272831999
 20
881.1299254284346
 30
0.0
 11
1378.1576764644001
 21
881.10782981753459
 31
0.0
  0
LINE
  5
20B
100
AcDbEntity
  8
0
370
              15
  6
Continuous
 62
               7
100
AcDbLine
 10
1397.9081919447999
 20
778.74924926883455
 30
0.0
 11
1367.9081919447999
 21
778.74924926883455
 31
0.0
  0
POLYLINE
  5
20C
100
AcDbEntity
  8
0
370
               5
  6
Continuous
 62
               7
100
AcDb2dPolyline
 66
               1
 10
0.0
 20
0.0
 30
0.0
 75
               5
  0
VERTEX
  5
20D
100
AcDbEntity
  8
0
370
               5
  6
Continuous
 62
               7
100
AcDbVertex
100
AcDb2dVertex
 10
1382.9081919447999
 20
782.62862019103454
 30
0.0
  0
VERTEX
  5
20E
100
AcDbEntity
  8
0
370
               5
  6
Continuous
 62
               7
100
AcDbVertex
100
AcDb2dVertex
 10
1382.175687297
 20
782.6963174692346
 30
0.0
  0
VERTEX
  5
20F
100
AcDbEntity
  8
0
370
               5
  6
Continuous
 62
               7
100
AcDbVertex
100
AcDb2dVertex
 10
1381.5025258194
 20
782.8939248727346
 30
0.0
  0
VERTEX
  5
210
100
AcDbEntity
  8
0
370
               5
  6
Continuous
 62
               7
100
AcDbVertex
100
AcDb2dVertex
 10
1380.9432430514
 20
783.20543342503458
 30
0.0
  0
VERTEX
  5
211
100
AcDbEntity
  8
0
370
               5
  6
Continuous
 62
               7
100
AcDbVertex
100
AcDb2dVertex
 10
1380.5431487568001
 20
783.60560655583458
 30
0.0
  0
VERTEX
  5
212
100
AcDbEntity
  8
0
370
               5
  6
Continuous
 62
               7
100
AcDbVertex
100
AcDb2dVertex
 10
1380.3346561958999
 20
784.06202461793464
 30
0.0
  0
VERTEX
  5
213
100
AcDbEntity
  8
0
370
               5
  6
Continuous
 62
               7
100
AcDbVertex
100
AcDb2dVertex
 10
1380.3346561958999
 20
784.53771133453461
 30
0.0
  0
VERTEX
  5
214
100
AcDbEntity
  8
0
370
               5
  6
Continuous
 62
               7
100
AcDbVertex
100
AcDb2dVertex
 10
1380.5431487568001
 20
784.99412939663466
 30
0.0
  0
VERTEX
  5
215
100
AcDbEntity
  8
0
370
               5
  6
Continuous
 62
               7
100
AcDbVertex
100
AcDb2dVertex
 10
1380.9432430514
 20
785.39430252743455
 30
0.0
  0
VERTEX
  5
216
100
AcDbEntity
  8
0
370
               5
  6
Continuous
 62
               7
100
AcDbVertex
100
AcDb2dVertex
 10
1381.4939629541
 20
785.70225762273458
 30
0.0
  0
SEQEND
  5
217
100
AcDbEntity
  8
0
370
               5
  6
Continuous
 62
               7
  0
POLYLINE
  5
218
100
AcDbEntity
  8
0
370
               5
  6
Continuous
 62
               7
100
AcDb2dPolyline
 66
               1
 10
0.0
 20
0.0
 30
0.0
 75
               5
  0
VERTEX
  5
219
100
AcDbEntity
  8
0
370
               5
  6
Continuous
 62
               7
100
AcDbVertex
100
AcDb2dVertex
 10
1384.8731408381
 20
785.39430252743455
 30
0.0
  0
VERTEX
  5
21A
100
AcDbEntity
  8
0
370
               5
  6
Continuous
 62
               7
100
AcDbVertex
100
AcDb2dVertex
 10
1385.2732351326999
 20
784.99412939663466
 30
0.0
  0
VERTEX
  5
21B
100
AcDbEntity
  8
0
370
               5
  6
Continuous
 62
               7
100
AcDbVertex
100
AcDb2dVertex
 10
1385.4817276936001
 20
784.53771133453461
 30
0.0
  0
VERTEX
  5
21C
100
AcDbEntity
  8
0
370
               5
  6
Continuous
 62
               7
100
AcDbVertex
100
AcDb2dVertex
 10
1385.4817276936001
 20
784.06202461793464
 30
0.0
  0
VERTEX
  5
21D
100
AcDbEntity
  8
0
370
               5
  6
Continuous
 62
               7
100
AcDbVertex
100
AcDb2dVertex
 10
1385.2732351326999
 20
783.60560655583458
 30
0.0
  0
VERTEX
  5
21E
100
AcDbEntity
  8
0
370
               5
  6
Continuous
 62
               7
100
AcDbVertex
100
AcDb2dVertex
 10
1384.8731408381
 20
783.20543342503458
 30
0.0
  0
VERTEX
  5
21F
100
AcDbEntity
  8
0
370
               5
  6
Continuous
 62
               7
100
AcDbVertex
100
AcDb2dVertex
 10
1384.3138580701
 20
782.8939248727346
 30
0.0
  0
VERTEX
  5
220
100
AcDbEntity
  8
0
370
               5
  6
Continuous
 62
               7
100
AcDbVertex
100
AcDb2dVertex
 10
1383.6406965925
 20
782.6963174692346
 30
0.0
  0
VERTEX
  5
221
100
AcDbEntity
  8
0
370
               5
  6
Continuous
 62
               7
100
AcDbVertex
100
AcDb2dVertex
 10
1382.9081919447999
 20
782.62862019103454
 30
0.0
  0
SEQEND
  5
222
100
AcDbEntity
  8
0
370
               5
  6
Continuous
 62
               7
  0
POLYLINE
  5
223
100
AcDbEntity
  8
0
370
              15
  6
Continuous
 62
               7
100
AcDb2dPolyline
 66
               1
 10
0.0
 20
0.0
 30
0.0
 75
               5
  0
VERTEX
  5
224
100
AcDbEntity
  8
0
370
              15
  6
Continuous
 62
               7
100
AcDbVertex
100
AcDb2dVertex
 10
1389.6581919447999
 20
841.10706110593458
 30
0.0
  0
VERTEX
  5
225
100
AcDbEntity
  8
0
370
              15
  6
Continuous
 62
               7
100
AcDbVertex
100
AcDb2dVertex
 10
1389.5894866775
 20
841.84294267043458
 30
0.0
  0
VERTEX
  5
226
100
AcDbEntity
  8
0
370
              15
  6
Continuous
 62
               7
100
AcDbVertex
100
AcDb2dVertex
 10
1389.4081919447999
 20
842.48136291123456
 30
0.0
  0
SEQEND
  5
227
100
AcDbEntity
  8
0
370
              15
  6
Continuous
 62
               7
  0
LINE
  5
228
100
AcDbEntity
  8
0
370
              15
  6
Continuous
 62
               7
100
AcDbLine
 10
1377.9384214035999
 20
859.93253992823463
 30
0.0
 11
1377.9384215447001
 21
860.00370029023463
 31
0.0
  0
LINE
  5
229
100
AcDbEntity
  8
0
370
               5
  6
Continuous
 62
               7
100
AcDbLine
 10
1377.9384216440999
 20
852.87827261853454
 30
0.0
 11
1377.9384219069
 21
852.72548841203457
 31
0.0
  0
LINE
  5
22A
100
AcDbEntity
  8
0
370
               5
  6
Continuous
 62
               7
100
AcDbLine
 10
1378.1576764644001
 20
881.10782981753459
 30
0.0
 11
1378.1576765795
 21
860.17165973993463
 31
0.0
  0
LINE
  5
22B
100
AcDbEntity
  8
0
370
               5
  6
Continuous
 62
               7
100
AcDbLine
 10
1378.1576766297001
 20
852.55752917773452
 30
0.0
 11
1378.1576764644001
 21
831.62135879203458
 31
0.0
  0
LINE
  5
22C
100
AcDbEntity
  8
0
370
               5
  6
Continuous
 62
               7
100
AcDbLine
 10
1378.3038461715
 20
881.22008420723455
 30
0.0
 11
1378.3038462520999
 21
860.21247169003459
 31
0.0
  0
LINE
  5
22D
100
AcDbEntity
  8
0
370
               5
  6
Continuous
 62
               7
100
AcDbLine
 10
1378.3038463992
 20
852.59834093213453
 30
0.0
 11
1378.3038461715
 21
831.38040429313457
 31
0.0
  0
LINE
  5
22E
100
AcDbEntity
  8
0
370
              15
  6
Continuous
 62
               7
100
AcDbLine
 10
1378.3038461715
 20
825.80563975603457
 30
0.0
 11
1378.3038461715
 21
825.8524308498346
 31
0.0
  0
LINE
  5
22F
100
AcDbEntity
  8
0
370
              15
  6
Continuous
 62
               7
100
AcDbLine
 10
1387.512537718
 20
825.80563973853464
 30
0.0
 11
1387.512537718
 21
825.8524308498346
 31
0.0
  0
LINE
  5
230
100
AcDbEntity
  8
0
370
               5
  6
Continuous
 62
               7
100
AcDbLine
 10
1387.512537718
 20
831.38040429313457
 30
0.0
 11
1387.5125380861
 21
852.59834100253465
 31
0.0
  0
LINE
  5
231
100
AcDbEntity
  8
0
370
               5
  6
Continuous
 62
               7
100
AcDbLine
 10
1387.5125376747001
 20
860.21247184253457
 30
0.0
 11
1387.512537718
 21
881.22008420723455
 31
0.0
  0
LINE
  5
232
100
AcDbEntity
  8
0
370
               5
  6
Continuous
 62
               7
100
AcDbLine
 10
1387.6587074250999
 20
831.62135879203458
 30
0.0
 11
1387.6587074485001
 21
852.55752931303459
 31
0.0
  0
LINE
  5
233
100
AcDbEntity
  8
0
370
               5
  6
Continuous
 62
               7
100
AcDbLine
 10
1387.6587073324999
 20
860.17165993863455
 30
0.0
 11
1387.6587074250999
 21
881.10782981753459
 31
0.0
  0
LINE
  5
234
100
AcDbEntity
  8
0
370
               5
  6
Continuous
 62
               7
100
AcDbLine
 10
1387.8779631407001
 20
852.87827274243455
 30
0.0
 11
1387.8779630606
 21
852.72548845213464
 31
0.0
  0
LINE
  5
235
100
AcDbEntity
  8
0
370
               5
  6
Continuous
 62
               7
100
AcDbLine
 10
1387.8779626254
 20
859.93253999223464
 30
0.0
 11
1387.8779623391999
 21
860.0037002932346
 31
0.0
  0
LINE
  5
236
100
AcDbEntity
  8
0
370
              15
  6
Continuous
 62
               7
100
AcDbLine
 10
1389.4081919447999
 20
878.25609748563465
 30
0.0
 11
1389.4081919447999
 21
860.01286197283457
 31
0.0
  0
LINE
  5
237
100
AcDbEntity
  8
0
370
              15
  6
Continuous
 62
               7
100
AcDbLine
 10
1389.4081919447999
 20
848.31064949563461
 30
0.0
 11
1389.4081919447999
 21
828.76962646013453
 31
0.0
  0
LINE
  5
238
100
AcDbEntity
  8
0
370
              15
  6
Continuous
 62
               7
100
AcDbLine
 10
1389.4081919442999
 20
878.25614798693459
 30
0.0
 11
1389.4081919447999
 21
878.25609748563465
 31
0.0
  0
POLYLINE
  5
239
100
AcDbEntity
  8
0
370
              15
  6
Continuous
 62
               7
100
AcDb2dPolyline
 66
               1
 10
0.0
 20
0.0
 30
0.0
 75
               5
  0
VERTEX
  5
23A
100
AcDbEntity
  8
0
370
              15
  6
Continuous
 62
               7
100
AcDbVertex
100
AcDb2dVertex
 10
1376.4081919451
 20
828.76966797033458
 30
0.0
  0
VERTEX
  5
23B
100
AcDbEntity
  8
0
370
              15
  6
Continuous
 62
               7
100
AcDbVertex
100
AcDb2dVertex
 10
1376.4307310823999
 20
829.11726747463467
 30
0.0
  0
VERTEX
  5
23C
100
AcDbEntity
  8
0
370
              15
  6
Continuous
 62
               7
100
AcDbVertex
100
AcDb2dVertex
 10
1376.6101344494
 20
829.80299061893459
 30
0.0
  0
VERTEX
  5
23D
100
AcDbEntity
  8
0
370
              15
  6
Continuous
 62
               7
100
AcDbVertex
100
AcDb2dVertex
 10
1376.9659793722999
 20
830.46299179783455
 30
0.0
  0
VERTEX
  5
23E
100
AcDbEntity
  8
0
370
              15
  6
Continuous
 62
               7
100
AcDbVertex
100
AcDb2dVertex
 10
1377.4887232400001
 20
831.07645130673461
 30
0.0
  0
VERTEX
  5
23F
100
AcDbEntity
  8
0
370
              15
  6
Continuous
 62
               7
100
AcDbVertex
100
AcDb2dVertex
 10
1378.1576764644001
 20
831.62135879203458
 30
0.0
  0
SEQEND
  5
240
100
AcDbEntity
  8
0
370
              15
  6
Continuous
 62
               7
  0
POLYLINE
  5
241
100
AcDbEntity
  8
0
370
               5
  6
Continuous
 62
               7
100
AcDb2dPolyline
 66
               1
 10
0.0
 20
0.0
 30
0.0
 75
               5
  0
VERTEX
  5
242
100
AcDbEntity
  8
0
370
               5
  6
Continuous
 62
               7
100
AcDbVertex
100
AcDb2dVertex
 10
1387.6587074250999
 20
831.62135879203458
 30
0.0
  0
VERTEX
  5
243
100
AcDbEntity
  8
0
370
               5
  6
Continuous
 62
               7
100
AcDbVertex
100
AcDb2dVertex
 10
1387.6475809187
 20
831.55604905173459
 30
0.0
  0
VERTEX
  5
244
100
AcDbEntity
  8
0
370
               5
  6
Continuous
 62
               7
100
AcDbVertex
100
AcDb2dVertex
 10
1387.6158953090999
 20
831.48732365373462
 30
0.0
  0
VERTEX
  5
245
100
AcDbEntity
  8
0
370
               5
  6
Continuous
 62
               7
100
AcDbVertex
100
AcDb2dVertex
 10
1387.5684744432999
 20
831.42564541663455
 30
0.0
  0
VERTEX
  5
246
100
AcDbEntity
  8
0
370
               5
  6
Continuous
 62
               7
100
AcDbVertex
100
AcDb2dVertex
 10
1387.512537718
 20
831.38040429313457
 30
0.0
  0
SEQEND
  5
247
100
AcDbEntity
  8
0
370
               5
  6
Continuous
 62
               7
  0
POLYLINE
  5
248
100
AcDbEntity
  8
0
370
              15
  6
Continuous
 62
               7
100
AcDb2dPolyline
 66
               1
 10
0.0
 20
0.0
 30
0.0
 75
               5
  0
VERTEX
  5
249
100
AcDbEntity
  8
0
370
              15
  6
Continuous
 62
               7
100
AcDbVertex
100
AcDb2dVertex
 10
1389.4081919447999
 20
839.7327593006346
 30
0.0
  0
VERTEX
  5
24A
100
AcDbEntity
  8
0
370
              15
  6
Continuous
 62
               7
100
AcDbVertex
100
AcDb2dVertex
 10
1389.5894866775
 20
840.37117954143457
 30
0.0
  0
VERTEX
  5
24B
100
AcDbEntity
  8
0
370
              15
  6
Continuous
 62
               7
100
AcDbVertex
100
AcDb2dVertex
 10
1389.6581919447999
 20
841.10706110593458
 30
0.0
  0
SEQEND
  5
24C
100
AcDbEntity
  8
0
370
              15
  6
Continuous
 62
               7
  0
POLYLINE
  5
24D
100
AcDbEntity
  8
0
370
              15
  6
Continuous
 62
               7
100
AcDb2dPolyline
 66
               1
 10
0.0
 20
0.0
 30
0.0
 75
               5
  0
VERTEX
  5
24E
100
AcDbEntity
  8
0
370
              15
  6
Continuous
 62
               7
100
AcDbVertex
100
AcDb2dVertex
 10
1378.3041668008
 20
825.8524308498346
 30
0.0
  0
VERTEX
  5
24F
100
AcDbEntity
  8
0
370
              15
  6
Continuous
 62
               7
100
AcDbVertex
100
AcDb2dVertex
 10
1377.6533619305001
 20
826.38262551643459
 30
0.0
  0
VERTEX
  5
250
100
AcDbEntity
  8
0
370
              15
  6
Continuous
 62
               7
100
AcDbVertex
100
AcDb2dVertex
 10
1377.1484960876001
 20
826.97562068553452
 30
0.0
  0
VERTEX
  5
251
100
AcDbEntity
  8
0
370
              15
  6
Continuous
 62
               7
100
AcDbVertex
100
AcDb2dVertex
 10
1376.8040280436999
 20
827.61457929713458
 30
0.0
  0
VERTEX
  5
252
100
AcDbEntity
  8
0
370
              15
  6
Continuous
 62
               7
100
AcDbVertex
100
AcDb2dVertex
 10
1376.6299504008
 20
828.28014495773459
 30
0.0
  0
VERTEX
  5
253
100
AcDbEntity
  8
0
370
              15
  6
Continuous
 62
               7
100
AcDbVertex
100
AcDb2dVertex
 10
1376.6300670582
 20
828.95358887523457
 30
0.0
  0
VERTEX
  5
254
100
AcDbEntity
  8
0
370
              15
  6
Continuous
 62
               7
100
AcDbVertex
100
AcDb2dVertex
 10
1376.8041254536001
 20
829.61850104013456
 30
0.0
  0
VERTEX
  5
255
100
AcDbEntity
  8
0
370
              15
  6
Continuous
 62
               7
100
AcDbVertex
100
AcDb2dVertex
 10
1377.1493461004
 20
830.25844673933466
 30
0.0
  0
VERTEX
  5
256
100
AcDbEntity
  8
0
370
              15
  6
Continuous
 62
               7
100
AcDbVertex
100
AcDb2dVertex
 10
1377.6564024622999
 20
830.85316211293457
 30
0.0
  0
VERTEX
  5
257
100
AcDbEntity
  8
0
370
              15
  6
Continuous
 62
               7
100
AcDbVertex
100
AcDb2dVertex
 10
1378.3033943209
 20
831.38040429313457
 30
0.0
  0
SEQEND
  5
258
100
AcDbEntity
  8
0
370
              15
  6
Continuous
 62
               7
  0
POLYLINE
  5
259
100
AcDbEntity
  8
0
370
              15
  6
Continuous
 62
               7
100
AcDb2dPolyline
 66
               1
 10
0.0
 20
0.0
 30
0.0
 75
               5
  0
VERTEX
  5
25A
100
AcDbEntity
  8
0
370
              15
  6
Continuous
 62
               7
100
AcDbVertex
100
AcDb2dVertex
 10
1376.4081919447999
 20
839.7327593006346
 30
0.0
  0
VERTEX
  5
25B
100
AcDbEntity
  8
0
370
              15
  6
Continuous
 62
               7
100
AcDbVertex
100
AcDb2dVertex
 10
1376.2268972121001
 20
840.37117954143457
 30
0.0
  0
VERTEX
  5
25C
100
AcDbEntity
  8
0
370
              15
  6
Continuous
 62
               7
100
AcDbVertex
100
AcDb2dVertex
 10
1376.1581919447999
 20
841.10706110593458
 30
0.0
  0
SEQEND
  5
25D
100
AcDbEntity
  8
0
370
              15
  6
Continuous
 62
               7
  0
POLYLINE
  5
25E
100
AcDbEntity
  8
0
370
               5
  6
Continuous
 62
               7
100
AcDb2dPolyline
 66
               1
 10
0.0
 20
0.0
 30
0.0
 75
               5
  0
VERTEX
  5
25F
100
AcDbEntity
  8
0
370
               5
  6
Continuous
 62
               7
100
AcDbVertex
100
AcDb2dVertex
 10
1378.1576764644001
 20
831.62135879203458
 30
0.0
  0
VERTEX
  5
260
100
AcDbEntity
  8
0
370
               5
  6
Continuous
 62
               7
100
AcDbVertex
100
AcDb2dVertex
 10
1378.1688029708
 20
831.55604905173459
 30
0.0
  0
VERTEX
  5
261
100
AcDbEntity
  8
0
370
               5
  6
Continuous
 62
               7
100
AcDbVertex
100
AcDb2dVertex
 10
1378.2004885803999
 20
831.48732365373462
 30
0.0
  0
VERTEX
  5
262
100
AcDbEntity
  8
0
370
               5
  6
Continuous
 62
               7
100
AcDbVertex
100
AcDb2dVertex
 10
1378.2479094462001
 20
831.42564541663455
 30
0.0
  0
VERTEX
  5
263
100
AcDbEntity
  8
0
370
               5
  6
Continuous
 62
               7
100
AcDbVertex
100
AcDb2dVertex
 10
1378.3038461715
 20
831.38040429313457
 30
0.0
  0
SEQEND
  5
264
100
AcDbEntity
  8
0
370
               5
  6
Continuous
 62
               7
  0
POLYLINE
  5
265
100
AcDbEntity
  8
0
370
              15
  6
Continuous
 62
               7
100
AcDb2dPolyline
 66
               1
 10
0.0
 20
0.0
 30
0.0
 75
               5
  0
VERTEX
  5
266
100
AcDbEntity
  8
0
370
              15
  6
Continuous
 62
               7
100
AcDbVertex
100
AcDb2dVertex
 10
1389.5884771752999
 20
840.36762463073455
 30
0.0
  0
VERTEX
  5
267
100
AcDbEntity
  8
0
370
              15
  6
Continuous
 62
               7
100
AcDbVertex
100
AcDb2dVertex
 10
1389.5556442776001
 20
840.65510712113462
 30
0.0
  0
VERTEX
  5
268
100
AcDbEntity
  8
0
370
              15
  6
Continuous
 62
               7
100
AcDbVertex
100
AcDb2dVertex
 10
1389.4081919447999
 20
841.07666107003456
 30
0.0
  0
SEQEND
  5
269
100
AcDbEntity
  8
0
370
              15
  6
Continuous
 62
               7
  0
POLYLINE
  5
26A
100
AcDbEntity
  8
0
370
              15
  6
Continuous
 62
               7
100
AcDb2dPolyline
 66
               1
 10
0.0
 20
0.0
 30
0.0
 75
               5
  0
VERTEX
  5
26B
100
AcDbEntity
  8
0
370
              15
  6
Continuous
 62
               7
100
AcDbVertex
100
AcDb2dVertex
 10
1396.9081919447999
 20
841.10706110593458
 30
0.0
  0
VERTEX
  5
26C
100
AcDbEntity
  8
0
370
              15
  6
Continuous
 62
               7
100
AcDbVertex
100
AcDb2dVertex
 10
1396.8314984798999
 20
842.22808938403455
 30
0.0
  0
VERTEX
  5
26D
100
AcDbEntity
  8
0
370
              15
  6
Continuous
 62
               7
100
AcDbVertex
100
AcDb2dVertex
 10
1396.602258355
 20
843.33683544163455
 30
0.0
  0
VERTEX
  5
26E
100
AcDbEntity
  8
0
370
              15
  6
Continuous
 62
               7
100
AcDbVertex
100
AcDb2dVertex
 10
1396.2229831729001
 20
844.4211516251346
 30
0.0
  0
VERTEX
  5
26F
100
AcDbEntity
  8
0
370
              15
  6
Continuous
 62
               7
100
AcDbVertex
100
AcDb2dVertex
 10
1395.6978283518001
 20
845.46915793933454
 30
0.0
  0
VERTEX
  5
270
100
AcDbEntity
  8
0
370
              15
  6
Continuous
 62
               7
100
AcDbVertex
100
AcDb2dVertex
 10
1395.0325475976999
 20
846.46937220773452
 30
0.0
  0
VERTEX
  5
271
100
AcDbEntity
  8
0
370
              15
  6
Continuous
 62
               7
100
AcDbVertex
100
AcDb2dVertex
 10
1394.5718088202
 20
847.01286197283457
 30
0.0
  0
SEQEND
  5
272
100
AcDbEntity
  8
0
370
              15
  6
Continuous
 62
               7
  0
LINE
  5
273
100
AcDbEntity
  8
0
370
              15
  6
Continuous
 62
               7
100
AcDbLine
 10
1395.9081919447999
 20
860.01286197283457
 30
0.0
 11
1395.9081919447999
 21
991.42894164293466
 31
0.0
  0
LINE
  5
274
100
AcDbEntity
  8
0
370
              15
  6
Continuous
 62
               7
100
AcDbLine
 10
1396.9081919447999
 20
841.10706110593458
 30
0.0
 11
1396.9081919447999
 21
836.92894164293466
 31
0.0
  0
POLYLINE
  5
275
100
AcDbEntity
  8
0
370
              15
  6
Continuous
 62
               7
100
AcDb2dPolyline
 66
               1
 10
0.0
 20
0.0
 30
0.0
 75
               5
  0
VERTEX
  5
276
100
AcDbEntity
  8
0
370
              15
  6
Continuous
 62
               7
100
AcDbVertex
100
AcDb2dVertex
 10
1396.9480438305
 20
835.93233017993452
 30
0.0
  0
VERTEX
  5
277
100
AcDbEntity
  8
0
370
              15
  6
Continuous
 62
               7
100
AcDbVertex
100
AcDb2dVertex
 10
1396.9480438305
 20
837.92555310593457
 30
0.0
  0
VERTEX
  5
278
100
AcDbEntity
  8
0
370
              15
  6
Continuous
 62
               7
100
AcDbVertex
100
AcDb2dVertex
 10
1396.9081919447999
 20
838.08886517013457
 30
0.0
  0
SEQEND
  5
279
100
AcDbEntity
  8
0
370
              15
  6
Continuous
 62
               7
  0
LINE
  5
27A
100
AcDbEntity
  8
0
370
              15
  6
Continuous
 62
               7
100
AcDbLine
 10
1397.9081919447999
 20
778.74924926883455
 30
0.0
 11
1397.9081919447999
 21
847.01286197283457
 31
0.0
  0
LINE
  5
27B
100
AcDbEntity
  8
0
370
              15
  6
Continuous
 62
               7
100
AcDbLine
 10
1400.9081919447999
 20
847.01286197283457
 30
0.0
 11
1400.9081919447999
 21
759.92894164293466
 31
0.0
  0
POLYLINE
  5
27C
100
AcDbEntity
  8
0
370
              15
  6
Continuous
 62
               7
100
AcDb2dPolyline
 66
               1
 10
0.0
 20
0.0
 30
0.0
 75
               5
  0
VERTEX
  5
27D
100
AcDbEntity
  8
0
370
              15
  6
Continuous
 62
               7
100
AcDbVertex
100
AcDb2dVertex
 10
1376.8283289623
 20
827.28199927993455
 30
0.0
  0
VERTEX
  5
27E
100
AcDbEntity
  8
0
370
              15
  6
Continuous
 62
               7
100
AcDbVertex
100
AcDb2dVertex
 10
1375.9081919447999
 20
827.64114636863462
 30
0.0
  0
VERTEX
  5
27F
100
AcDbEntity
  8
0
370
              15
  6
Continuous
 62
               7
100
AcDbVertex
100
AcDb2dVertex
 10
1374.6791984126999
 20
828.25254002193458
 30
0.0
  0
VERTEX
  5
280
100
AcDbEntity
  8
0
370
              15
  6
Continuous
 62
               7
100
AcDbVertex
100
AcDb2dVertex
 10
1373.5403634557001
 20
828.9589941471346
 30
0.0
  0
VERTEX
  5
281
100
AcDbEntity
  8
0
370
              15
  6
Continuous
 62
               7
100
AcDbVertex
100
AcDb2dVertex
 10
1372.5041643881
 20
829.75276868483456
 30
0.0
  0
VERTEX
  5
282
100
AcDbEntity
  8
0
370
              15
  6
Continuous
 62
               7
100
AcDbVertex
100
AcDb2dVertex
 10
1371.5819540235
 20
830.62516687523453
 30
0.0
  0
VERTEX
  5
283
100
AcDbEntity
  8
0
370
              15
  6
Continuous
 62
               7
100
AcDbVertex
100
AcDb2dVertex
 10
1370.7838362918001
 20
831.5666305411346
 30
0.0
  0
VERTEX
  5
284
100
AcDbEntity
  8
0
370
              15
  6
Continuous
 62
               7
100
AcDbVertex
100
AcDb2dVertex
 10
1370.1185555377999
 20
832.56684480963463
 30
0.0
  0
VERTEX
  5
285
100
AcDbEntity
  8
0
370
              15
  6
Continuous
 62
               7
100
AcDbVertex
100
AcDb2dVertex
 10
1369.5934007165999
 20
833.61485112383457
 30
0.0
  0
VERTEX
  5
286
100
AcDbEntity
  8
0
370
              15
  6
Continuous
 62
               7
100
AcDbVertex
100
AcDb2dVertex
 10
1369.2141255345
 20
834.69916730723457
 30
0.0
  0
VERTEX
  5
287
100
AcDbEntity
  8
0
370
              15
  6
Continuous
 62
               7
100
AcDbVertex
100
AcDb2dVertex
 10
1368.9848854095999
 20
835.80791336493462
 30
0.0
  0
VERTEX
  5
288
100
AcDbEntity
  8
0
370
              15
  6
Continuous
 62
               7
100
AcDbVertex
100
AcDb2dVertex
 10
1368.9081919447999
 20
836.92894164293466
 30
0.0
  0
SEQEND
  5
289
100
AcDbEntity
  8
0
370
              15
  6
Continuous
 62
               7
  0
POLYLINE
  5
28A
100
AcDbEntity
  8
0
370
              15
  6
Continuous
 62
               7
100
AcDb2dPolyline
 66
               1
 10
0.0
 20
0.0
 30
0.0
 75
               5
  0
VERTEX
  5
28B
100
AcDbEntity
  8
0
370
              15
  6
Continuous
 62
               7
100
AcDbVertex
100
AcDb2dVertex
 10
1376.4081919447999
 20
831.62410626193457
 30
0.0
  0
VERTEX
  5
28C
100
AcDbEntity
  8
0
370
              15
  6
Continuous
 62
               7
100
AcDbVertex
100
AcDb2dVertex
 10
1375.9081919447999
 20
831.81926583153461
 30
0.0
  0
VERTEX
  5
28D
100
AcDbEntity
  8
0
370
              15
  6
Continuous
 62
               7
100
AcDbVertex
100
AcDb2dVertex
 10
1374.6791984126999
 20
832.43065948493461
 30
0.0
  0
VERTEX
  5
28E
100
AcDbEntity
  8
0
370
              15
  6
Continuous
 62
               7
100
AcDbVertex
100
AcDb2dVertex
 10
1373.5403634557001
 20
833.13711361003459
 30
0.0
  0
VERTEX
  5
28F
100
AcDbEntity
  8
0
370
              15
  6
Continuous
 62
               7
100
AcDbVertex
100
AcDb2dVertex
 10
1372.5041643881
 20
833.93088814783459
 30
0.0
  0
VERTEX
  5
290
100
AcDbEntity
  8
0
370
              15
  6
Continuous
 62
               7
100
AcDbVertex
100
AcDb2dVertex
 10
1371.5819540235
 20
834.80328633823456
 30
0.0
  0
VERTEX
  5
291
100
AcDbEntity
  8
0
370
              15
  6
Continuous
 62
               7
100
AcDbVertex
100
AcDb2dVertex
 10
1370.7838362918001
 20
835.74475000413463
 30
0.0
  0
VERTEX
  5
292
100
AcDbEntity
  8
0
370
              15
  6
Continuous
 62
               7
100
AcDbVertex
100
AcDb2dVertex
 10
1370.1185555377999
 20
836.74496427253462
 30
0.0
  0
VERTEX
  5
293
100
AcDbEntity
  8
0
370
              15
  6
Continuous
 62
               7
100
AcDbVertex
100
AcDb2dVertex
 10
1369.5934007165999
 20
837.79297058673455
 30
0.0
  0
VERTEX
  5
294
100
AcDbEntity
  8
0
370
              15
  6
Continuous
 62
               7
100
AcDbVertex
100
AcDb2dVertex
 10
1369.2141255345
 20
838.8772867702346
 30
0.0
  0
VERTEX
  5
295
100
AcDbEntity
  8
0
370
              15
  6
Continuous
 62
               7
100
AcDbVertex
100
AcDb2dVertex
 10
1368.9848854095999
 20
839.98603282783461
 30
0.0
  0
VERTEX
  5
296
100
AcDbEntity
  8
0
370
              15
  6
Continuous
 62
               7
100
AcDbVertex
100
AcDb2dVertex
 10
1368.9081919447999
 20
841.10706110593458
 30
0.0
  0
SEQEND
  5
297
100
AcDbEntity
  8
0
370
              15
  6
Continuous
 62
               7
  0
LINE
  5
298
100
AcDbEntity
  8
0
370
              15
  6
Continuous
 62
               7
100
AcDbLine
 10
1387.5679290336
 20
825.83060635453467
 30
0.0
 11
1387.512537718
 21
825.8524308498346
 31
0.0
  0
LINE
  5
299
100
AcDbEntity
  8
0
370
              15
  6
Continuous
 62
               7
100
AcDbLine
 10
1378.1904528402001
 20
825.84089159003463
 30
0.0
 11
1378.2004885803999
 21
825.83525917843463
 31
0.0
  0
POLYLINE
  5
29A
100
AcDbEntity
  8
0
370
               5
  6
Continuous
 62
               7
100
AcDb2dPolyline
 66
               1
 10
0.0
 20
0.0
 30
0.0
 75
               5
  0
VERTEX
  5
29B
100
AcDbEntity
  8
0
370
               5
  6
Continuous
 62
               7
100
AcDbVertex
100
AcDb2dVertex
 10
1350.4081919447999
 20
852.74971520073461
 30
0.0
  0
VERTEX
  5
29C
100
AcDbEntity
  8
0
370
               5
  6
Continuous
 62
               7
100
AcDbVertex
100
AcDb2dVertex
 10
1350.4231086861
 20
852.74053437333464
 30
0.0
  0
VERTEX
  5
29D
100
AcDbEntity
  8
0
370
               5
  6
Continuous
 62
               7
100
AcDbVertex
100
AcDb2dVertex
 10
1350.4663832091001
 20
852.73263126223458
 30
0.0
  0
VERTEX
  5
29E
100
AcDbEntity
  8
0
370
               5
  6
Continuous
 62
               7
100
AcDbVertex
100
AcDb2dVertex
 10
1350.5314138885001
 20
852.72734461383459
 30
0.0
  0
VERTEX
  5
29F
100
AcDbEntity
  8
0
370
               5
  6
Continuous
 62
               7
100
AcDbVertex
100
AcDb2dVertex
 10
1350.6081919448
 20
852.72548831903464
 30
0.0
  0
SEQEND
  5
2A0
100
AcDbEntity
  8
0
370
               5
  6
Continuous
 62
               7
  0
POLYLINE
  5
2A1
100
AcDbEntity
  8
0
370
              15
  6
Continuous
 62
               7
100
AcDb2dPolyline
 66
               1
 10
0.0
 20
0.0
 30
0.0
 75
               5
  0
VERTEX
  5
2A2
100
AcDbEntity
  8
0
370
              15
  6
Continuous
 62
               7
100
AcDbVertex
100
AcDb2dVertex
 10
1387.6587074250999
 20
831.62135879203458
 30
0.0
  0
VERTEX
  5
2A3
100
AcDbEntity
  8
0
370
              15
  6
Continuous
 62
               7
100
AcDbVertex
100
AcDb2dVertex
 10
1388.3276414162001
 20
831.07646997603456
 30
0.0
  0
VERTEX
  5
2A4
100
AcDbEntity
  8
0
370
              15
  6
Continuous
 62
               7
100
AcDbVertex
100
AcDb2dVertex
 10
1388.8504012010001
 20
830.46299660603461
 30
0.0
  0
VERTEX
  5
2A5
100
AcDbEntity
  8
0
370
              15
  6
Continuous
 62
               7
100
AcDbVertex
100
AcDb2dVertex
 10
1389.2062595098
 20
829.80296526133452
 30
0.0
  0
VERTEX
  5
2A6
100
AcDbEntity
  8
0
370
              15
  6
Continuous
 62
               7
100
AcDbVertex
100
AcDb2dVertex
 10
1389.3856578043001
 20
829.11722900093457
 30
0.0
  0
VERTEX
  5
2A7
100
AcDbEntity
  8
0
370
              15
  6
Continuous
 62
               7
100
AcDbVertex
100
AcDb2dVertex
 10
1389.4081919445
 20
828.7696661280346
 30
0.0
  0
SEQEND
  5
2A8
100
AcDbEntity
  8
0
370
              15
  6
Continuous
 62
               7
  0
POLYLINE
  5
2A9
100
AcDbEntity
  8
0
370
              15
  6
Continuous
 62
               7
100
AcDb2dPolyline
 66
               1
 10
0.0
 20
0.0
 30
0.0
 75
               5
  0
VERTEX
  5
2AA
100
AcDbEntity
  8
0
370
              15
  6
Continuous
 62
               7
100
AcDbVertex
100
AcDb2dVertex
 10
1387.5129930012999
 20
831.38040429313457
 30
0.0
  0
VERTEX
  5
2AB
100
AcDbEntity
  8
0
370
              15
  6
Continuous
 62
               7
100
AcDbVertex
100
AcDb2dVertex
 10
1388.1599630286
 20
830.85317996173467
 30
0.0
  0
VERTEX
  5
2AC
100
AcDbEntity
  8
0
370
              15
  6
Continuous
 62
               7
100
AcDbVertex
100
AcDb2dVertex
 10
1388.6670346415999
 20
830.25845130033463
 30
0.0
  0
VERTEX
  5
2AD
100
AcDbEntity
  8
0
370
              15
  6
Continuous
 62
               7
100
AcDbVertex
100
AcDb2dVertex
 10
1389.0122681836999
 20
829.61847650623463
 30
0.0
  0
VERTEX
  5
2AE
100
AcDbEntity
  8
0
370
              15
  6
Continuous
 62
               7
100
AcDbVertex
100
AcDb2dVertex
 10
1389.1863216693
 20
828.95355165273463
 30
0.0
  0
VERTEX
  5
2AF
100
AcDbEntity
  8
0
370
              15
  6
Continuous
 62
               7
100
AcDbVertex
100
AcDb2dVertex
 10
1389.1864299383001
 20
828.28011757113461
 30
0.0
  0
VERTEX
  5
2B0
100
AcDbEntity
  8
0
370
              15
  6
Continuous
 62
               7
100
AcDbVertex
100
AcDb2dVertex
 10
1389.0123515328
 20
827.61456843933456
 30
0.0
  0
VERTEX
  5
2B1
100
AcDbEntity
  8
0
370
              15
  6
Continuous
 62
               7
100
AcDbVertex
100
AcDb2dVertex
 10
1388.6678847923999
 20
826.97561632073462
 30
0.0
  0
VERTEX
  5
2B2
100
AcDbEntity
  8
0
370
              15
  6
Continuous
 62
               7
100
AcDbVertex
100
AcDb2dVertex
 10
1388.1630191755999
 20
826.38262281103459
 30
0.0
  0
SEQEND
  5
2B3
100
AcDbEntity
  8
0
370
              15
  6
Continuous
 62
               7
  0
POLYLINE
  5
2B4
100
AcDbEntity
  8
0
370
              15
  6
Continuous
 62
               7
100
AcDb2dPolyline
 66
               1
 10
0.0
 20
0.0
 30
0.0
 75
               5
  0
VERTEX
  5
2B5
100
AcDbEntity
  8
0
370
              15
  6
Continuous
 62
               7
100
AcDbVertex
100
AcDb2dVertex
 10
1389.2059242149999
 20
879.29028027703453
 30
0.0
  0
VERTEX
  5
2B6
100
AcDbEntity
  8
0
370
              15
  6
Continuous
 62
               7
100
AcDbVertex
100
AcDb2dVertex
 10
1389.3855540879999
 20
878.60449765933458
 30
0.0
  0
VERTEX
  5
2B7
100
AcDbEntity
  8
0
370
              15
  6
Continuous
 62
               7
100
AcDbVertex
100
AcDb2dVertex
 10
1389.4081919442999
 20
878.25614798693459
 30
0.0
  0
SEQEND
  5
2B8
100
AcDbEntity
  8
0
370
              15
  6
Continuous
 62
               7
  0
LINE
  5
2B9
100
AcDbEntity
  8
0
370
              15
  6
Continuous
 62
               7
100
AcDbLine
 10
1410.9081919447999
 20
753.92894164293466
 30
0.0
 11
1410.9081919447999
 21
759.92894164293466
 31
0.0
  0
LINE
  5
2BA
100
AcDbEntity
  8
0
370
              15
  6
Continuous
 62
               7
100
AcDbLine
 10
1415.2081919448001
 20
847.01286197403465
 30
0.0
 11
1415.2081919448001
 21
860.07714067163465
 31
0.0
  0
LINE
  5
2BB
100
AcDbEntity
  8
0
370
              15
  6
Continuous
 62
               7
100
AcDbLine
 10
1415.4081919447999
 20
847.21314344793461
 30
0.0
 11
1415.4081919447999
 21
859.8774651664346
 31
0.0
  0
LINE
  5
2BC
100
AcDbEntity
  8
0
370
              15
  6
Continuous
 62
               7
100
AcDbLine
 10
1388.1630191755999
 20
826.38262281103459
 30
0.0
 11
1387.5122172851
 21
825.8524308498346
 31
0.0
  0
POLYLINE
  5
2BD
100
AcDbEntity
  8
0
370
               5
  6
Continuous
 62
               7
100
AcDb2dPolyline
 66
               1
 10
0.0
 20
0.0
 30
0.0
 75
               5
  0
VERTEX
  5
2BE
100
AcDbEntity
  8
0
370
               5
  6
Continuous
 62
               7
100
AcDbVertex
100
AcDb2dVertex
 10
1378.1576764644001
 20
831.62135879203458
 30
0.0
  0
VERTEX
  5
2BF
100
AcDbEntity
  8
0
370
               5
  6
Continuous
 62
               7
100
AcDbVertex
100
AcDb2dVertex
 10
1378.1999272831999
 20
831.64345440293459
 30
0.0
  0
VERTEX
  5
2C0
100
AcDbEntity
  8
0
370
               5
  6
Continuous
 62
               7
100
AcDbVertex
100
AcDb2dVertex
 10
1378.2498856349
 20
831.65740322913462
 30
0.0
  0
VERTEX
  5
2C1
100
AcDbEntity
  8
0
370
               5
  6
Continuous
 62
               7
100
AcDbVertex
100
AcDb2dVertex
 10
1378.3038461715
 20
831.66217070373455
 30
0.0
  0
SEQEND
  5
2C2
100
AcDbEntity
  8
0
370
               5
  6
Continuous
 62
               7
  0
LINE
  5
2C3
100
AcDbEntity
  8
0
370
              15
  6
Continuous
 62
               7
100
AcDbLine
 10
1397.9081919447999
 20
825.43827499613462
 30
0.0
 11
1367.9081919447999
 21
825.43827499613462
 31
0.0
  0
LINE
  5
2C4
100
AcDbEntity
  8
0
370
              15
  6
Continuous
 62
               7
100
AcDbLine
 10
1387.512537718
 20
825.80563973853464
 30
0.0
 11
1378.3038461715
 21
825.80563973853464
 31
0.0
  0
LINE
  5
2C5
100
AcDbEntity
  8
0
370
              15
  6
Continuous
 62
               7
100
AcDbLine
 10
1387.5122172851
 20
825.8524308498346
 30
0.0
 11
1378.3041668008
 21
825.8524308498346
 31
0.0
  0
LINE
  5
2C6
100
AcDbEntity
  8
0
370
              15
  6
Continuous
 62
               7
100
AcDbLine
 10
1378.2004885803999
 20
825.83525917843463
 30
0.0
 11
1378.2479094462001
 21
825.83051439083465
 31
0.0
  0
LINE
  5
2C7
100
AcDbEntity
  8
0
370
              15
  6
Continuous
 62
               7
100
AcDbLine
 10
1388.8499823145
 20
879.9500748348346
 30
0.0
 11
1389.2059242149999
 21
879.29028027703453
 31
0.0
  0
LINE
  5
2C8
100
AcDbEntity
  8
0
370
              15
  6
Continuous
 62
               7
100
AcDbLine
 10
1387.6259310493001
 20
825.84089159003463
 30
0.0
 11
1387.6156114158
 21
825.8351328495346
 31
0.0
  0
LINE
  5
2C9
100
AcDbEntity
  8
0
370
              15
  6
Continuous
 62
               7
100
AcDbLine
 10
1378.2479094462001
 20
825.83051439083465
 30
0.0
 11
1378.3038461715
 21
825.8524308498346
 31
0.0
  0
POLYLINE
  5
2CA
100
AcDbEntity
  8
0
370
              15
  6
Continuous
 62
               7
100
AcDb2dPolyline
 66
               1
 10
0.0
 20
0.0
 30
0.0
 75
               5
  0
VERTEX
  5
2CB
100
AcDbEntity
  8
0
370
              15
  6
Continuous
 62
               7
100
AcDbVertex
100
AcDb2dVertex
 10
1389.4081919447999
 20
831.62410626193457
 30
0.0
  0
VERTEX
  5
2CC
100
AcDbEntity
  8
0
370
              15
  6
Continuous
 62
               7
100
AcDbVertex
100
AcDb2dVertex
 10
1389.9081919447999
 20
831.81926583153461
 30
0.0
  0
VERTEX
  5
2CD
100
AcDbEntity
  8
0
370
              15
  6
Continuous
 62
               7
100
AcDbVertex
100
AcDb2dVertex
 10
1391.1371854767999
 20
832.43065948493461
 30
0.0
  0
VERTEX
  5
2CE
100
AcDbEntity
  8
0
370
              15
  6
Continuous
 62
               7
100
AcDbVertex
100
AcDb2dVertex
 10
1392.2760204338001
 20
833.13711361003459
 30
0.0
  0
VERTEX
  5
2CF
100
AcDbEntity
  8
0
370
              15
  6
Continuous
 62
               7
100
AcDbVertex
100
AcDb2dVertex
 10
1393.3122195014
 20
833.93088814783459
 30
0.0
  0
VERTEX
  5
2D0
100
AcDbEntity
  8
0
370
              15
  6
Continuous
 62
               7
100
AcDbVertex
100
AcDb2dVertex
 10
1394.234429866
 20
834.80328633823456
 30
0.0
  0
VERTEX
  5
2D1
100
AcDbEntity
  8
0
370
              15
  6
Continuous
 62
               7
100
AcDbVertex
100
AcDb2dVertex
 10
1395.0325475976999
 20
835.74475000413463
 30
0.0
  0
VERTEX
  5
2D2
100
AcDbEntity
  8
0
370
              15
  6
Continuous
 62
               7
100
AcDbVertex
100
AcDb2dVertex
 10
1395.6978283518001
 20
836.74496427253462
 30
0.0
  0
VERTEX
  5
2D3
100
AcDbEntity
  8
0
370
              15
  6
Continuous
 62
               7
100
AcDbVertex
100
AcDb2dVertex
 10
1396.2229831729001
 20
837.79297058673455
 30
0.0
  0
VERTEX
  5
2D4
100
AcDbEntity
  8
0
370
              15
  6
Continuous
 62
               7
100
AcDbVertex
100
AcDb2dVertex
 10
1396.602258355
 20
838.8772867702346
 30
0.0
  0
VERTEX
  5
2D5
100
AcDbEntity
  8
0
370
              15
  6
Continuous
 62
               7
100
AcDbVertex
100
AcDb2dVertex
 10
1396.8314984798999
 20
839.98603282783461
 30
0.0
  0
VERTEX
  5
2D6
100
AcDbEntity
  8
0
370
              15
  6
Continuous
 62
               7
100
AcDbVertex
100
AcDb2dVertex
 10
1396.9081919447999
 20
841.10706110593458
 30
0.0
  0
SEQEND
  5
2D7
100
AcDbEntity
  8
0
370
              15
  6
Continuous
 62
               7
  0
POLYLINE
  5
2D8
100
AcDbEntity
  8
0
370
              15
  6
Continuous
 62
               7
100
AcDb2dPolyline
 66
               1
 10
0.0
 20
0.0
 30
0.0
 75
               5
  0
VERTEX
  5
2D9
100
AcDbEntity
  8
0
370
              15
  6
Continuous
 62
               7
100
AcDbVertex
100
AcDb2dVertex
 10
1388.9880204889
 20
827.28198583803464
 30
0.0
  0
VERTEX
  5
2DA
100
AcDbEntity
  8
0
370
              15
  6
Continuous
 62
               7
100
AcDbVertex
100
AcDb2dVertex
 10
1389.9081919447999
 20
827.64114636863462
 30
0.0
  0
VERTEX
  5
2DB
100
AcDbEntity
  8
0
370
              15
  6
Continuous
 62
               7
100
AcDbVertex
100
AcDb2dVertex
 10
1391.1371854767999
 20
828.25254002193458
 30
0.0
  0
VERTEX
  5
2DC
100
AcDbEntity
  8
0
370
              15
  6
Continuous
 62
               7
100
AcDbVertex
100
AcDb2dVertex
 10
1392.2760204338001
 20
828.9589941471346
 30
0.0
  0
VERTEX
  5
2DD
100
AcDbEntity
  8
0
370
              15
  6
Continuous
 62
               7
100
AcDbVertex
100
AcDb2dVertex
 10
1393.3122195014
 20
829.75276868483456
 30
0.0
  0
VERTEX
  5
2DE
100
AcDbEntity
  8
0
370
              15
  6
Continuous
 62
               7
100
AcDbVertex
100
AcDb2dVertex
 10
1394.234429866
 20
830.62516687523453
 30
0.0
  0
VERTEX
  5
2DF
100
AcDbEntity
  8
0
370
              15
  6
Continuous
 62
               7
100
AcDbVertex
100
AcDb2dVertex
 10
1395.0325475976999
 20
831.5666305411346
 30
0.0
  0
VERTEX
  5
2E0
100
AcDbEntity
  8
0
370
              15
  6
Continuous
 62
               7
100
AcDbVertex
100
AcDb2dVertex
 10
1395.6978283518001
 20
832.56684480963463
 30
0.0
  0
VERTEX
  5
2E1
100
AcDbEntity
  8
0
370
              15
  6
Continuous
 62
               7
100
AcDbVertex
100
AcDb2dVertex
 10
1396.2229831729001
 20
833.61485112383457
 30
0.0
  0
VERTEX
  5
2E2
100
AcDbEntity
  8
0
370
              15
  6
Continuous
 62
               7
100
AcDbVertex
100
AcDb2dVertex
 10
1396.602258355
 20
834.69916730723457
 30
0.0
  0
VERTEX
  5
2E3
100
AcDbEntity
  8
0
370
              15
  6
Continuous
 62
               7
100
AcDbVertex
100
AcDb2dVertex
 10
1396.8314984798999
 20
835.80791336493462
 30
0.0
  0
VERTEX
  5
2E4
100
AcDbEntity
  8
0
370
              15
  6
Continuous
 62
               7
100
AcDbVertex
100
AcDb2dVertex
 10
1396.9081919447999
 20
836.92894164293466
 30
0.0
  0
SEQEND
  5
2E5
100
AcDbEntity
  8
0
370
              15
  6
Continuous
 62
               7
  0
POLYLINE
  5
2E6
100
AcDbEntity
  8
0
370
              15
  6
Continuous
 62
               7
100
AcDb2dPolyline
 66
               1
 10
0.0
 20
0.0
 30
0.0
 75
               5
  0
VERTEX
  5
2E7
100
AcDbEntity
  8
0
370
              15
  6
Continuous
 62
               7
100
AcDbVertex
100
AcDb2dVertex
 10
1388.9620846616999
 20
827.22343170823456
 30
0.0
  0
VERTEX
  5
2E8
100
AcDbEntity
  8
0
370
              15
  6
Continuous
 62
               7
100
AcDbVertex
100
AcDb2dVertex
 10
1390.3308854412999
 20
827.74555365993456
 30
0.0
  0
VERTEX
  5
2E9
100
AcDbEntity
  8
0
370
              15
  6
Continuous
 62
               7
100
AcDbVertex
100
AcDb2dVertex
 10
1392.4073005201999
 20
828.94673883323458
 30
0.0
  0
VERTEX
  5
2EA
100
AcDbEntity
  8
0
370
              15
  6
Continuous
 62
               7
100
AcDbVertex
100
AcDb2dVertex
 10
1394.1602348494
 20
830.41974834953453
 30
0.0
  0
VERTEX
  5
2EB
100
AcDbEntity
  8
0
370
              15
  6
Continuous
 62
               7
100
AcDbVertex
100
AcDb2dVertex
 10
1395.5299943529001
 20
832.11442063653453
 30
0.0
  0
VERTEX
  5
2EC
100
AcDbEntity
  8
0
370
              15
  6
Continuous
 62
               7
100
AcDbVertex
100
AcDb2dVertex
 10
1396.4699335135001
 20
833.97304566203456
 30
0.0
  0
VERTEX
  5
2ED
100
AcDbEntity
  8
0
370
              15
  6
Continuous
 62
               7
100
AcDbVertex
100
AcDb2dVertex
 10
1396.9480438305
 20
835.93233017993452
 30
0.0
  0
SEQEND
  5
2EE
100
AcDbEntity
  8
0
370
              15
  6
Continuous
 62
               7
  0
LINE
  5
2EF
100
AcDbEntity
  8
0
370
              15
  6
Continuous
 62
               7
100
AcDbLine
 10
1387.6156114158
 20
825.8351328495346
 30
0.0
 11
1387.5679290336
 21
825.83060635453467
 31
0.0
  0
LINE
  5
2F0
100
AcDbEntity
  8
0
370
              15
  6
Continuous
 62
               7
100
AcDbLine
 10
1378.3033943209
 20
831.38040429313457
 30
0.0
 11
1387.5129930012999
 21
831.38040429313457
 31
0.0
  0
LINE
  5
2F1
100
AcDbEntity
  8
0
370
              15
  6
Continuous
 62
               7
100
AcDbLine
 10
1378.3038461715
 20
831.66217070373455
 30
0.0
 11
1387.512537718
 21
831.66217070373455
 31
0.0
  0
POLYLINE
  5
2F2
100
AcDbEntity
  8
0
370
               5
  6
Continuous
 62
               7
100
AcDb2dPolyline
 66
               1
 10
0.0
 20
0.0
 30
0.0
 75
               5
  0
VERTEX
  5
2F3
100
AcDbEntity
  8
0
370
               5
  6
Continuous
 62
               7
100
AcDbVertex
100
AcDb2dVertex
 10
1387.512537718
 20
831.66217070373455
 30
0.0
  0
VERTEX
  5
2F4
100
AcDbEntity
  8
0
370
               5
  6
Continuous
 62
               7
100
AcDbVertex
100
AcDb2dVertex
 10
1387.5664982546
 20
831.65740322913462
 30
0.0
  0
VERTEX
  5
2F5
100
AcDbEntity
  8
0
370
               5
  6
Continuous
 62
               7
100
AcDbVertex
100
AcDb2dVertex
 10
1387.6164566063001
 20
831.64345440293459
 30
0.0
  0
VERTEX
  5
2F6
100
AcDbEntity
  8
0
370
               5
  6
Continuous
 62
               7
100
AcDbVertex
100
AcDb2dVertex
 10
1387.6587074250999
 20
831.62135879203458
 30
0.0
  0
SEQEND
  5
2F7
100
AcDbEntity
  8
0
370
               5
  6
Continuous
 62
               7
  0
POLYLINE
  5
2F8
100
AcDbEntity
  8
0
370
               5
  6
Continuous
 62
               7
100
AcDb2dPolyline
 66
               1
 10
0.0
 20
0.0
 30
0.0
 75
               5
  0
VERTEX
  5
2F9
100
AcDbEntity
  8
0
370
               5
  6
Continuous
 62
               7
100
AcDbVertex
100
AcDb2dVertex
 10
1387.6587074250999
 20
881.10782981753459
 30
0.0
  0
VERTEX
  5
2FA
100
AcDbEntity
  8
0
370
               5
  6
Continuous
 62
               7
100
AcDbVertex
100
AcDb2dVertex
 10
1388.3273834245001
 20
880.56319140703454
 30
0.0
  0
VERTEX
  5
2FB
100
AcDbEntity
  8
0
370
               5
  6
Continuous
 62
               7
100
AcDbVertex
100
AcDb2dVertex
 10
1388.8499823145
 20
879.9500748348346
 30
0.0
  0
SEQEND
  5
2FC
100
AcDbEntity
  8
0
370
               5
  6
Continuous
 62
               7
  0
POLYLINE
  5
2FD
100
AcDbEntity
  8
0
370
               5
  6
Continuous
 62
               7
100
AcDb2dPolyline
 66
               1
 10
0.0
 20
0.0
 30
0.0
 75
               5
  0
VERTEX
  5
2FE
100
AcDbEntity
  8
0
370
               5
  6
Continuous
 62
               7
100
AcDbVertex
100
AcDb2dVertex
 10
1387.625934744
 20
881.18482981253464
 30
0.0
  0
VERTEX
  5
2FF
100
AcDbEntity
  8
0
370
               5
  6
Continuous
 62
               7
100
AcDbVertex
100
AcDb2dVertex
 10
1387.6475077144
 20
881.1599220394346
 30
0.0
  0
VERTEX
  5
300
100
AcDbEntity
  8
0
370
               5
  6
Continuous
 62
               7
100
AcDbVertex
100
AcDb2dVertex
 10
1387.6587074250999
 20
881.10782981753459
 30
0.0
  0
SEQEND
  5
301
100
AcDbEntity
  8
0
370
               5
  6
Continuous
 62
               7
  0
POLYLINE
  5
302
100
AcDbEntity
  8
0
370
               5
  6
Continuous
 62
               7
100
AcDb2dPolyline
 66
               1
 10
0.0
 20
0.0
 30
0.0
 75
               5
  0
VERTEX
  5
303
100
AcDbEntity
  8
0
370
               5
  6
Continuous
 62
               7
100
AcDbVertex
100
AcDb2dVertex
 10
1415.2081919448001
 20
852.72548831903464
 30
0.0
  0
VERTEX
  5
304
100
AcDbEntity
  8
0
370
               5
  6
Continuous
 62
               7
100
AcDbVertex
100
AcDb2dVertex
 10
1415.2849700009999
 20
852.72734461383459
 30
0.0
  0
VERTEX
  5
305
100
AcDbEntity
  8
0
370
               5
  6
Continuous
 62
               7
100
AcDbVertex
100
AcDb2dVertex
 10
1415.3500006803999
 20
852.73263126223458
 30
0.0
  0
VERTEX
  5
306
100
AcDbEntity
  8
0
370
               5
  6
Continuous
 62
               7
100
AcDbVertex
100
AcDb2dVertex
 10
1415.3932752034
 20
852.74053437333464
 30
0.0
  0
VERTEX
  5
307
100
AcDbEntity
  8
0
370
               5
  6
Continuous
 62
               7
100
AcDbVertex
100
AcDb2dVertex
 10
1415.4081919447999
 20
852.74971520073461
 30
0.0
  0
SEQEND
  5
308
100
AcDbEntity
  8
0
370
               5
  6
Continuous
 62
               7
  0
LINE
  5
309
100
AcDbEntity
  8
0
370
              15
  6
Continuous
 62
               7
100
AcDbLine
 10
1415.2081919448001
 20
847.01286197283457
 30
0.0
 11
1389.4081919447999
 21
847.01286197283457
 31
0.0
  0
LINE
  5
30A
100
AcDbEntity
  8
0
370
              15
  6
Continuous
 62
               7
100
AcDbLine
 10
1376.4081919447999
 20
847.01286197283457
 30
0.0
 11
1350.6081919448
 21
847.01286197283457
 31
0.0
  0
LINE
  5
30B
100
AcDbEntity
  8
0
370
               5
  6
Continuous
 62
               7
100
AcDbLine
 10
1387.8779630606
 20
852.72548845213464
 30
0.0
 11
1415.2081919448001
 21
852.72548831903464
 31
0.0
  0
LINE
  5
30C
100
AcDbEntity
  8
0
370
               5
  6
Continuous
 62
               7
100
AcDbLine
 10
1350.6081919448
 20
852.72548831903464
 30
0.0
 11
1377.9384219069
 21
852.72548841203457
 31
0.0
  0
LINE
  5
30D
100
AcDbEntity
  8
0
370
               5
  6
Continuous
 62
               7
100
AcDbLine
 10
1350.6081919448
 20
852.87827272263462
 30
0.0
 11
1377.9384216440999
 21
852.87827261853454
 31
0.0
  0
LINE
  5
30E
100
AcDbEntity
  8
0
370
               5
  6
Continuous
 62
               7
100
AcDbLine
 10
1387.8779631407001
 20
852.87827274243455
 30
0.0
 11
1415.2081919448001
 21
852.87827272263462
 31
0.0
  0
LINE
  5
30F
100
AcDbEntity
  8
0
370
              15
  6
Continuous
 62
               7
100
AcDbLine
 10
1377.7058005439999
 20
860.01284935353465
 30
0.0
 11
1377.9384215452001
 21
860.00370029023463
 31
0.0
  0
POLYLINE
  5
310
100
AcDbEntity
  8
0
370
               5
  6
Continuous
 62
               7
100
AcDb2dPolyline
 66
               1
 10
0.0
 20
0.0
 30
0.0
 75
               5
  0
VERTEX
  5
311
100
AcDbEntity
  8
0
370
               5
  6
Continuous
 62
               7
100
AcDbVertex
100
AcDb2dVertex
 10
1415.2081919448001
 20
852.87827272263462
 30
0.0
  0
VERTEX
  5
312
100
AcDbEntity
  8
0
370
               5
  6
Continuous
 62
               7
100
AcDbVertex
100
AcDb2dVertex
 10
1415.2847286311999
 20
852.86848686393455
 30
0.0
  0
VERTEX
  5
313
100
AcDbEntity
  8
0
370
               5
  6
Continuous
 62
               7
100
AcDbVertex
100
AcDb2dVertex
 10
1415.3496133009999
 20
852.8406190962346
 30
0.0
  0
VERTEX
  5
314
100
AcDbEntity
  8
0
370
               5
  6
Continuous
 62
               7
100
AcDbVertex
100
AcDb2dVertex
 10
1415.3929678513
 20
852.79891203443458
 30
0.0
  0
VERTEX
  5
315
100
AcDbEntity
  8
0
370
               5
  6
Continuous
 62
               7
100
AcDbVertex
100
AcDb2dVertex
 10
1415.4081919447999
 20
852.74971520073461
 30
0.0
  0
SEQEND
  5
316
100
AcDbEntity
  8
0
370
               5
  6
Continuous
 62
               7
  0
POLYLINE
  5
317
100
AcDbEntity
  8
0
370
              15
  6
Continuous
 62
               7
100
AcDb2dPolyline
 66
               1
 10
0.0
 20
0.0
 30
0.0
 75
               5
  0
VERTEX
  5
318
100
AcDbEntity
  8
0
370
              15
  6
Continuous
 62
               7
100
AcDbVertex
100
AcDb2dVertex
 10
1415.2081919448001
 20
859.93253971033459
 30
0.0
  0
VERTEX
  5
319
100
AcDbEntity
  8
0
370
              15
  6
Continuous
 62
               7
100
AcDbVertex
100
AcDb2dVertex
 10
1415.2849705971
 20
859.92268930853459
 30
0.0
  0
VERTEX
  5
31A
100
AcDbEntity
  8
0
370
              15
  6
Continuous
 62
               7
100
AcDbVertex
100
AcDb2dVertex
 10
1415.3500009973
 20
859.89463619243463
 30
0.0
  0
VERTEX
  5
31B
100
AcDbEntity
  8
0
370
              15
  6
Continuous
 62
               7
100
AcDbVertex
100
AcDb2dVertex
 10
1415.3932752987
 20
859.85269918003462
 30
0.0
  0
VERTEX
  5
31C
100
AcDbEntity
  8
0
370
              15
  6
Continuous
 62
               7
100
AcDbVertex
100
AcDb2dVertex
 10
1415.4081919447999
 20
859.80398218833466
 30
0.0
  0
SEQEND
  5
31D
100
AcDbEntity
  8
0
370
              15
  6
Continuous
 62
               7
  0
POLYLINE
  5
31E
100
AcDbEntity
  8
0
370
              15
  6
Continuous
 62
               7
100
AcDb2dPolyline
 66
               1
 10
0.0
 20
0.0
 30
0.0
 75
               5
  0
VERTEX
  5
31F
100
AcDbEntity
  8
0
370
              15
  6
Continuous
 62
               7
100
AcDbVertex
100
AcDb2dVertex
 10
1415.2081919448001
 20
860.00370029043461
 30
0.0
  0
VERTEX
  5
320
100
AcDbEntity
  8
0
370
              15
  6
Continuous
 62
               7
100
AcDbVertex
100
AcDb2dVertex
 10
1415.2847286311999
 20
859.98849765513455
 30
0.0
  0
VERTEX
  5
321
100
AcDbEntity
  8
0
370
              15
  6
Continuous
 62
               7
100
AcDbVertex
100
AcDb2dVertex
 10
1415.3496133009999
 20
859.94520421263462
 30
0.0
  0
VERTEX
  5
322
100
AcDbEntity
  8
0
370
              15
  6
Continuous
 62
               7
100
AcDbVertex
100
AcDb2dVertex
 10
1415.3929678513
 20
859.88041099713462
 30
0.0
  0
VERTEX
  5
323
100
AcDbEntity
  8
0
370
              15
  6
Continuous
 62
               7
100
AcDbVertex
100
AcDb2dVertex
 10
1415.4081919447999
 20
859.80398218833466
 30
0.0
  0
SEQEND
  5
324
100
AcDbEntity
  8
0
370
              15
  6
Continuous
 62
               7
  0
POLYLINE
  5
325
100
AcDbEntity
  8
0
370
               5
  6
Continuous
 62
               7
100
AcDb2dPolyline
 66
               1
 10
0.0
 20
0.0
 30
0.0
 75
               5
  0
VERTEX
  5
326
100
AcDbEntity
  8
0
370
               5
  6
Continuous
 62
               7
100
AcDbVertex
100
AcDb2dVertex
 10
1387.6587074250999
 20
881.10782981753459
 30
0.0
  0
VERTEX
  5
327
100
AcDbEntity
  8
0
370
               5
  6
Continuous
 62
               7
100
AcDbVertex
100
AcDb2dVertex
 10
1387.6164566063001
 20
881.1299254284346
 30
0.0
  0
VERTEX
  5
328
100
AcDbEntity
  8
0
370
               5
  6
Continuous
 62
               7
100
AcDbVertex
100
AcDb2dVertex
 10
1387.5664982546
 20
881.14387425463462
 30
0.0
  0
SEQEND
  5
329
100
AcDbEntity
  8
0
370
               5
  6
Continuous
 62
               7
  0
LINE
  5
32A
100
AcDbEntity
  8
0
370
               5
  6
Continuous
 62
               7
100
AcDbLine
 10
1387.8779624796
 20
860.0037002932346
 30
0.0
 11
1388.1094853007
 21
860.01284283493464
 31
0.0
  0
LINE
  5
32B
100
AcDbEntity
  8
0
370
              15
  6
Continuous
 62
               7
100
AcDbLine
 10
1415.2081919448001
 20
859.93253971033459
 30
0.0
 11
1387.8779626254
 21
859.93253999223464
 31
0.0
  0
LINE
  5
32C
100
AcDbEntity
  8
0
370
              15
  6
Continuous
 62
               7
100
AcDbLine
 10
1377.9384214035999
 20
859.93253992823463
 30
0.0
 11
1350.6081919448
 21
859.93253971033459
 31
0.0
  0
LINE
  5
32D
100
AcDbEntity
  8
0
370
              15
  6
Continuous
 62
               7
100
AcDbLine
 10
1415.2081919448001
 20
860.00370029043461
 30
0.0
 11
1387.8779623391999
 21
860.0037002932346
 31
0.0
  0
LINE
  5
32E
100
AcDbEntity
  8
0
370
              15
  6
Continuous
 62
               7
100
AcDbLine
 10
1377.9384215447001
 20
860.00370029023463
 30
0.0
 11
1350.6081919448
 21
860.00370029043461
 31
0.0
  0
LINE
  5
32F
100
AcDbEntity
  8
0
370
              15
  6
Continuous
 62
               7
100
AcDbLine
 10
1415.2081919448001
 20
860.01286197283457
 30
0.0
 11
1388.1092034553999
 21
860.01286197283457
 31
0.0
  0
LINE
  5
330
100
AcDbEntity
  8
0
370
              15
  6
Continuous
 62
               7
100
AcDbLine
 10
1415.2081919448001
 20
860.07714073383454
 30
0.0
 11
1395.9081919447999
 21
860.07714073383454
 31
0.0
  0
LINE
  5
331
100
AcDbEntity
  8
0
370
              15
  6
Continuous
 62
               7
100
AcDbLine
 10
1369.9081919447999
 20
860.07714073383454
 30
0.0
 11
1350.6081919448
 21
860.07714073383454
 31
0.0
  0
LINE
  5
332
100
AcDbEntity
  8
0
370
              15
  6
Continuous
 62
               7
100
AcDbLine
 10
1350.6081919448
 20
860.01286197283457
 30
0.0
 11
1377.7058005439999
 21
860.01284935353465
 31
0.0
  0
LINE
  5
333
100
AcDbEntity
  8
0
370
               5
  6
Continuous
 62
               7
100
AcDbLine
 10
1378.3038461715
 20
881.14864172923455
 30
0.0
 11
1378.2498856349
 21
881.14387425463462
 31
0.0
  0
LINE
  5
334
100
AcDbEntity
  8
0
370
              15
  6
Continuous
 62
               7
100
AcDbLine
 10
1378.3038461715
 20
881.14864172923455
 30
0.0
 11
1387.512537718
 21
881.14864172923455
 31
0.0
  0
LINE
  5
335
100
AcDbEntity
  8
0
370
              15
  6
Continuous
 62
               7
100
AcDbLine
 10
1378.3038461715
 20
881.22008420723455
 30
0.0
 11
1387.512537718
 21
881.22008420723455
 31
0.0
  0
LINE
  5
336
100
AcDbEntity
  8
0
370
               5
  6
Continuous
 62
               7
100
AcDbLine
 10
1387.5664982546
 20
881.14387425463462
 30
0.0
 11
1387.512537718
 21
881.14864172923455
 31
0.0
  0
LINE
  5
337
100
AcDbEntity
  8
0
370
               5
  6
Continuous
 62
               7
100
AcDbLine
 10
1378.2498856349
 20
881.14387425463462
 30
0.0
 11
1378.1999272831999
 21
881.1299254284346
 31
0.0
  0
LINE
  5
338
100
AcDbEntity
  8
0
370
              15
  6
Continuous
 62
               7
100
AcDbLine
 10
1479.0232114595999
 20
1009.8550978548346
 30
0.0
 11
1494.0943652551
 21
977.53490424033453
 31
0.0
  0
LINE
  5
339
100
AcDbEntity
  8
0
370
              15
  6
Continuous
 62
               7
100
AcDbLine
 10
1494.1400658851999
 20
977.43689892283464
 30
0.0
 11
1503.6489767743001
 21
957.04497371453454
 31
0.0
  0
LINE
  5
33A
100
AcDbEntity
  8
0
370
              15
  6
Continuous
 62
               7
100
AcDbLine
 10
1496.8589892462999
 20
978.70475370803456
 30
0.0
 11
1496.8132886162
 21
978.80275902553456
 31
0.0
  0
LINE
  5
33B
100
AcDbEntity
  8
0
370
              15
  6
Continuous
 62
               7
100
AcDbLine
 10
1514.985144987
 20
987.15711894283459
 30
0.0
 11
1514.9394443568999
 21
987.25512426033458
 31
0.0
  0
LINE
  5
33C
100
AcDbEntity
  8
0
370
              15
  6
Continuous
 62
               7
100
AcDbLine
 10
1502.5872139225
 20
1020.8431726601345
 30
0.0
 11
1517.6583677179999
 21
988.52297904563466
 31
0.0
  0
LINE
  5
33D
100
AcDbEntity
  8
0
370
              15
  6
Continuous
 62
               7
100
AcDbLine
 10
1517.7040683481
 20
988.42497372803462
 30
0.0
 11
1527.2129792373
 21
968.03304851973462
 31
0.0
  0
ARC
  5
33E
100
AcDbEntity
  8
0
370
              15
  6
Continuous
 62
               7
100
AcDbCircle
 10
1076.2360476049
 20
853.51286197283457
 30
0.0
 40
6.5000000000000586
100
AcDbArc
 50
186.95757701490044
 51
273.04242298510007
  0
ARC
  5
33F
100
AcDbEntity
  8
0
370
              15
  6
Continuous
 62
               7
100
AcDbCircle
 10
1076.2360476049
 20
853.51286197283457
 30
0.0
 40
6.5000000000000515
100
AcDbArc
 50
6.9575770148999467
 51
93.042422985100032
  0
ARC
  5
340
100
AcDbEntity
  8
0
370
              15
  6
Continuous
 62
               7
100
AcDbCircle
 10
1100.2920785031999
 20
875.49211076393453
 30
0.0
 40
0.1999999999999913
100
AcDbArc
 50
320.00000000000239
 51
49.999999999977433
  0
ARC
  5
341
100
AcDbEntity
  8
0
370
              15
  6
Continuous
 62
               7
100
AcDbCircle
 10
1093.7040962922999
 20
881.02008420723462
 30
0.0
 40
0.2000000000000644
100
AcDbArc
 50
49.999999999977447
 51
140.00000000000239
  0
ARC
  5
342
100
AcDbEntity
  8
0
370
              15
  6
Continuous
 62
               7
100
AcDbCircle
 10
1058.7679989174001
 20
826.00563973853457
 30
0.0
 40
0.2000000000000644
100
AcDbArc
 50
229.99999999997743
 51
320.00000000000239
  0
ARC
  5
343
100
AcDbEntity
  8
0
370
              15
  6
Continuous
 62
               7
100
AcDbCircle
 10
1052.1800167065999
 20
831.53361318183465
 30
0.0
 40
0.1999999999999913
100
AcDbArc
 50
140.00000000000242
 51
230.00000000000242
  0
ARC
  5
344
100
AcDbEntity
  8
0
370
              15
  6
Continuous
 62
               7
100
AcDbCircle
 10
1076.2360476049
 20
853.51286197283457
 30
0.0
 40
6.3000000000000025
100
AcDbArc
 50
6.9551553273999822
 51
93.039851863100338
  0
ARC
  5
345
100
AcDbEntity
  8
0
370
              15
  6
Continuous
 62
               7
100
AcDbCircle
 10
1076.2360476049
 20
853.51286197283457
 30
0.0
 40
6.2999999999999732
100
AcDbArc
 50
186.96016641470058
 51
273.04484336700079
  0
ARC
  5
346
100
AcDbEntity
  8
0
370
              15
  6
Continuous
 62
               7
100
AcDbCircle
 10
1226.3724966267
 20
881.08436296823459
 30
0.0
 40
0.1999999999999913
100
AcDbArc
 50
39.999999999997605
 51
129.99999999999761
  0
ARC
  5
347
100
AcDbEntity
  8
0
370
              15
  6
Continuous
 62
               7
100
AcDbCircle
 10
1219.7845144158
 20
875.55638952493462
 30
0.0
 40
0.1999999999999913
100
AcDbArc
 50
129.99999999999761
 51
219.99999999999758
  0
ARC
  5
348
100
AcDbEntity
  8
0
370
              15
  6
Continuous
 62
               7
100
AcDbCircle
 10
1243.8405453140999
 20
853.57714073383454
 30
0.0
 40
6.4999999999999876
100
AcDbArc
 50
266.95757701489998
 51
353.0424229851007
  0
ARC
  5
349
100
AcDbEntity
  8
0
370
              15
  6
Continuous
 62
               7
100
AcDbCircle
 10
1243.8405453140999
 20
853.57714073383454
 30
0.0
 40
6.4999999999999822
100
AcDbArc
 50
86.957577014900991
 51
173.04242298510061
  0
ARC
  5
34A
100
AcDbEntity
  8
0
370
              15
  6
Continuous
 62
               7
100
AcDbCircle
 10
1261.3085940015999
 20
826.06991849943461
 30
0.0
 40
0.1999999999999913
100
AcDbArc
 50
219.99999999999758
 51
309.99999999999761
  0
ARC
  5
34B
100
AcDbEntity
  8
0
370
              15
  6
Continuous
 62
               7
100
AcDbCircle
 10
1267.8965762123999
 20
831.59789194273458
 30
0.0
 40
0.1999999999999913
100
AcDbArc
 50
309.99999999999761
 51
39.999999999997613
  0
ARC
  5
34C
100
AcDbEntity
  8
0
370
              15
  6
Continuous
 62
               7
100
AcDbCircle
 10
1159.9999942374
 20
1048.0289416429346
 30
0.0
 40
13.0
100
AcDbArc
 50
0.0
 51
180.00000000000048
  0
ARC
  5
34D
100
AcDbEntity
  8
0
370
              15
  6
Continuous
 62
               7
100
AcDbCircle
 10
1350.6081919448
 20
859.87714073383461
 30
0.0
 40
0.1999999999999886
100
AcDbArc
 50
90.0
 51
180.0
  0
ARC
  5
34E
100
AcDbEntity
  8
0
370
              15
  6
Continuous
 62
               7
100
AcDbCircle
 10
1415.2081919448001
 20
859.87714073383461
 30
0.0
 40
0.1999999999999318
100
AcDbArc
 50
0.0
 51
90.0
  0
ARC
  5
34F
100
AcDbEntity
  8
0
370
              15
  6
Continuous
 62
               7
100
AcDbCircle
 10
1350.6081919448
 20
859.81286197283453
 30
0.0
 40
0.1999999999999886
100
AcDbArc
 50
90.0
 51
180.0
  0
ARC
  5
350
100
AcDbEntity
  8
0
370
              15
  6
Continuous
 62
               7
100
AcDbCircle
 10
1350.6081919448
 20
847.21286197283462
 30
0.0
 40
0.1999999999999318
100
AcDbArc
 50
180.0
 51
270.0
  0
ARC
  5
351
100
AcDbEntity
  8
0
370
              15
  6
Continuous
 62
               7
100
AcDbCircle
 10
1415.2081919448001
 20
859.81286197283453
 30
0.0
 40
0.1999999999999318
100
AcDbArc
 50
0.0
 51
90.0
  0
ARC
  5
352
100
AcDbEntity
  8
0
370
              15
  6
Continuous
 62
               7
100
AcDbCircle
 10
1415.2081919448001
 20
847.21286197283462
 30
0.0
 40
0.2000000000000171
100
AcDbArc
 50
270.0
 51
0.0
  0
ARC
  5
353
100
AcDbEntity
  8
0
370
              15
  6
Continuous
 62
               7
100
AcDbCircle
 10
1439.5081919447998
 20
991.42894164293466
 30
0.0
 40
43.60000000000003
100
AcDbArc
 50
25.000000000000025
 51
180.00000000000037
  0
ARC
  5
354
100
AcDbEntity
  8
0
370
              15
  6
Continuous
 62
               7
100
AcDbCircle
 10
1439.5081919447998
 20
991.42894164293466
 30
0.0
 40
69.600000000000037
100
AcDbArc
 50
25.000000000000057
 51
180.00000000000043
  0
LWPOLYLINE
  5
355
100
AcDbEntity
  8
0
370
              15
  6
Continuous
 62
               7
100
AcDbPolyline
 90
       54
 70
             128
 10
1151.3389412258
 20
965.38508702133458
 42
0.0084811973285875
 10
1151.4316856563819
 20
965.26748797179778
 10
1151.4506759282515
 20
965.2442308856148
 42
0.0160982163957267
 10
1151.5713290465917
 20
965.10581378818586
 10
1151.5732092147614
 20
965.10379204581614
 42
0.0075048902604174
 10
1151.6964906177759
 20
964.97515457113843
 42
0.0137808788038203
 10
1151.8251003490229
 20
964.85191301104317
 10
1151.8471659174425
 20
964.83190527234137
 42
0.0124133514188765
 10
1152.0271589339727
 20
964.67666294021399
 10
1152.0279993874778
 20
964.67597368677389
 42
0.0112841280408428
 10
1152.2168660726879
 20
964.52808510410807
 10
1152.2221449101412
 20
964.52414047393029
 42
0.0112904796381461
 10
1152.4282239644217
 20
964.37727962143913
 10
1152.4327891180933
 20
964.37417929145386
 42
0.0103824375731543
 10
1152.6542684744968
 20
964.23039353099944
 42
0.0094746712132296
 10
1152.8812569271172
 20
964.09553113461811
 10
1152.8830715729096
 20
964.09449899597416
 42
0.0088561438715321
 10
1153.1185204989588
 20
963.96604465661596
 10
1153.1230922560253
 20
963.9636545151717
 42
0.0085692958214308
 10
1153.3720990799256
 20
963.8388584988403
 10
1153.3748650309201
 20
963.83753108368307
 42
0.0079217760887732
 10
1153.6334369714568
 20
963.71844162314983
 42
0.00726562103458
 10
1153.8955189184628
 20
963.60725418631728
 10
1153.8982332762794
 20
963.60614888801388
 42
0.0069560966147895
 10
1154.1688320400194
 20
963.50032423629727
 10
1154.1730022010365
 20
963.49875991720842
 42
0.0066792104777536
 10
1154.4547685408525
 20
963.39733555307464
 10
1154.4562107982467
 20
963.39683805881168
 42
0.0062657225117396
 10
1154.7434056442225
 20
963.30178268246289
 42
0.0058397849831431
 10
1155.0328182672126
 20
963.21370749138089
 10
1155.0362271896565
 20
963.21271342416753
 42
0.0057566751440402
 10
1155.3344448842049
 20
963.12946402748378
 10
1155.3382292019662
 20
963.12845442733305
 42
0.0055130164580486
 10
1155.6458389866389
 20
963.05001124761372
 10
1155.6461951316114
 20
963.04992459816572
 42
0.0052439096868101
 10
1155.956137020205
 20
962.97795064218462
 10
1155.9566197673121
 20
962.97784386298554
 42
0.0049974699682413
 10
1156.2689398552461
 20
962.91202875102363
 10
1156.2720387427767
 20
962.91140800488358
 42
0.0049662783871076
 10
1156.5918179434443
 20
962.85064940253085
 10
1156.594441494387
 20
962.85017787241122
 42
0.0048045163138138
 10
1156.9206033406654
 20
962.79478672620166
 42
0.0046416109278601
 10
1157.2477541561875
 20
962.7455668720022
 10
1157.2486446628766
 20
962.74544133751488
 42
0.0045546180769142
 10
1157.5784290400297
 20
962.70201163946513
 10
1157.664932750653
 20
962.6914205670713
 42
0.0088517312212379
 10
1158.1690529012835
 20
962.63873824180916
 10
1158.170347216284
 20
962.6386261044795
 42
0.0042449860866721
 10
1158.6783255194925
 20
962.5989576754173
 10
1158.6909179388988
 20
962.59808181529945
 42
0.0090329585553636
 10
1159.2249139911912
 20
962.57062238101014
 10
1159.3224141049777
 20
962.56737326870405
 42
0.0083771469614681
 10
1159.9892340109973
 20
962.55633108184952
 10
1159.9999942364
 20
962.55633628983458
  0
LWPOLYLINE
  5
356
100
AcDbEntity
  8
0
370
              15
  6
Continuous
 62
               7
100
AcDbPolyline
 90
       56
 70
             128
 10
1159.9999942364
 20
962.55633628983458
 10
1160.0810974970163
 20
962.55631952907709
 42
0.007876631664264
 10
1160.5673833976434
 20
962.56388007401995
 10
1160.595130080364
 20
962.56474880712631
 42
0.0042979262406201
 10
1161.0256557829002
 20
962.5819337547947
 42
0.0063513737857468
 10
1161.4556990490084
 20
962.60828245768266
 10
1161.5831646752217
 20
962.61771883594997
 42
0.0087502027617825
 10
1162.0925835352346
 20
962.66440771819953
 10
1162.1792763349304
 20
962.67388570139008
 42
0.0045445492546463
 10
1162.5141316845627
 20
962.71357793264997
 10
1162.5164068455347
 20
962.71386861265989
 42
0.0045587728596017
 10
1162.8459393508435
 20
962.75902767014395
 10
1162.846295075834
 20
962.75907972706455
 42
0.0047037969339457
 10
1163.1742232244037
 20
962.81022434393253
 10
1163.1745234002988
 20
962.81027405716623
 42
0.0048689192746867
 10
1163.5008119723439
 20
962.86758175142643
 10
1163.504011372263
 20
962.86817585013284
 42
0.0050104344400084
 10
1163.8227168512972
 20
962.93066655373536
 10
1163.8256061565123
 20
962.93126320547253
 42
0.0050595964783206
 10
1164.1372222722644
 20
962.99890777592464
 42
0.0053351490569341
 10
1164.4473625721816
 20
963.073014995682
 10
1164.4487061652915
 20
963.07335123808809
 42
0.0056088966428458
 10
1164.7544685845048
 20
963.15352532553243
 10
1164.758354995924
 20
963.15459111641144
 42
0.0057831507559683
 10
1165.054463203762
 20
963.23948870098116
 10
1165.0569976575571
 20
963.24024718826433
 42
0.0059768844964957
 10
1165.3459759869124
 20
963.33050729322679
 42
0.0063982887356126
 10
1165.6326321103338
 20
963.42789125015952
 10
1165.6351939966257
 20
963.4287983117307
 42
0.0068140530821579
 10
1165.9140788228383
 20
963.53183834238985
 10
1165.918357613416
 20
963.53348584451419
 42
0.0070094627777601
 10
1166.1857763185203
 20
963.64078082654464
 10
1166.1875016490685
 20
963.64150131294241
 42
0.0074641757979586
 10
1166.4482710533637
 20
963.75499750355084
 42
0.0081166728165577
 10
1166.7053660701404
 20
963.8765575991024
 10
1166.7389013896191
 20
963.89308515023208
 42
0.0087977109104934
 10
1166.9252572844152
 20
963.98904023860837
 10
1166.9299359176443
 20
963.9915543865078
 42
0.0043748152321196
 10
1167.1044084036409
 20
964.08728704247289
 10
1167.1051350531025
 20
964.08769406552983
 42
0.0092956252999503
 10
1167.2754645248526
 20
964.1873061859194
 42
0.0049569876913881
 10
1167.4429188661793
 20
964.29175299317535
 42
0.0106207709487137
 10
1167.6070217989125
 20
964.40135376832143
 10
1167.6632264394732
 20
964.44064308279462
 42
0.0114666168639246
 10
1167.8159633095675
 20
964.55271238468549
 10
1167.8207946552434
 20
964.55643073102306
 42
0.0055078964241401
 10
1167.9600902423645
 20
964.66610104907784
 42
0.0120956149839913
 10
1168.0953944916373
 20
964.78056850173959
 42
0.0064819721365349
 10
1168.2263193154556
 20
964.89995290261584
 42
0.0141008205221532
 10
1168.3520951793498
 20
965.02450240893813
 10
1168.3626352969768
 20
965.0355459044456
 42
0.007668567882748
 10
1168.4621293663188
 20
965.14304525749719
 42
0.011326121579434
 10
1168.5574556930835
 20
965.25423028651301
 10
1168.5664948921963
 20
965.26526975980676
 42
0.008873196496748
 10
1168.6596312690904
 20
965.3832258651147
 10
1168.6610995864999
 20
965.38515556213463
  0
LWPOLYLINE
  5
357
100
AcDbEntity
  8
0
370
              15
  6
Continuous
 62
               7
100
AcDbPolyline
 90
       70
 70
             128
 10
1243.6364943026001
 20
846.91834192053466
 10
1243.6405535435906
 20
846.91803867651913
 42
0.0092811934295428
 10
1243.8927616398919
 20
846.90389916547713
 42
0.0099181977993343
 10
1244.1453204464649
 20
846.89945199126703
 10
1244.1494003716666
 20
846.89946108582126
 42
0.0099621784622644
 10
1244.4100921588024
 20
846.90523708174533
 10
1244.4102367244734
 20
846.90524316815367
 42
0.0100494190830478
 10
1244.6707765149263
 20
846.92146304463063
 10
1244.6716768236961
 20
846.92153728314395
 42
0.0102057914180094
 10
1244.9331411938315
 20
846.94848017021786
 10
1244.9338962392999
 20
846.94857358449917
 42
0.0102455427762037
 10
1245.1955446291972
 20
846.9864026778888
 10
1245.1960865218693
 20
846.98649239569977
 42
0.0103043075495188
 10
1245.4548786200876
 20
847.03483788672213
 10
1245.4564405211145
 20
847.03516311297608
 42
0.0102942119229184
 10
1245.7099130141146
 20
847.09341121677846
 10
1245.7109286947432
 20
847.09366674324951
 42
0.0101509543674188
 10
1245.9597896064151
 20
847.16167581848038
 42
0.0101745500306516
 10
1246.2056786312805
 20
847.23974122372124
 10
1246.2075884416749
 20
847.24039061823862
 42
0.010219673930306
 10
1246.4462955689273
 20
847.32704021991776
 10
1246.449834072457
 20
847.32840715575685
 42
0.0099505952906584
 10
1246.6778353205102
 20
847.42174035900723
 10
1246.6794685009856
 20
847.42244717199549
 42
0.0096745007887902
 10
1246.9003965034651
 20
847.52317983128557
 42
0.009689781032689
 10
1247.1172555698674
 20
847.63238919329103
 10
1247.1188201830576
 20
847.633215516934
 42
0.009725723694288
 10
1247.3281770528581
 20
847.74904647733672
 10
1247.3303050874044
 20
847.75027851345885
 42
0.0094696474667733
 10
1247.5308562230898
 20
847.87151671873721
 10
1247.5314414261302
 20
847.8718857991031
 42
0.0093515257948366
 10
1247.7261326999671
 20
847.99982612080123
 42
0.0093554358378676
 10
1247.9159018432651
 20
848.13495888306602
 42
0.0093798423436781
 10
1248.1004750833893
 20
848.27710528694615
 10
1248.1011593347218
 20
848.27765300449937
 42
0.0095233290684013
 10
1248.2815742719058
 20
848.42779429724919
 10
1248.2823063311598
 20
848.42842749898932
 42
0.0095222776001176
 10
1248.458381268319
 20
848.58668598619488
 42
0.0095123983351171
 10
1248.6283744293321
 20
848.75159302905365
 10
1248.6285219135484
 20
848.75174164985231
 42
0.0095613927580931
 10
1248.7923911903918
 20
848.92331423583494
 10
1248.7938914114768
 20
848.92494635242224
 42
0.0098633219862169
 10
1248.9539064972339
 20
849.10607396286071
 10
1248.9552066225688
 20
849.10760547857296
 42
0.0098318615914138
 10
1249.1105052939961
 20
849.29800834544835
 42
0.0098124654383319
 10
1249.2581447001644
 20
849.49428289551281
 10
1249.2583609942121
 20
849.4945825138484
 42
0.0098040258982759
 10
1249.3977058310211
 20
849.69580669658853
 10
1249.3978530636555
 20
849.69602847903059
 42
0.0097180778144365
 10
1249.5289520207989
 20
849.90208994071236
 42
0.009672284047628
 10
1249.6519625470023
 20
850.11307760203908
 10
1249.6529889072335
 20
850.11491897511337
 42
0.009643879930248
 10
1249.7657770480153
 20
850.32677742245653
 10
1249.7678115774545
 20
850.33078342691829
 42
0.0092953032524994
 10
1249.8685787659742
 20
850.53867898328019
 10
1249.8695802966913
 20
850.54084705253217
 42
0.0088744551064832
 10
1249.9608039458474
 20
850.74789920329795
 42
0.0088346642283306
 10
1250.0446375738206
 20
850.95804893331217
 10
1250.0462691471048
 20
850.96235861458217
 42
0.0088088439448101
 10
1250.1195252843822
 20
851.16665801733632
 10
1250.1217779357917
 20
851.17330667677061
 42
0.0080687579113383
 10
1250.1838097214929
 20
851.36660056867163
 42
0.0076566677209702
 10
1250.2397334264288
 20
851.5617519933337
 10
1250.252027076863
 20
851.60727285856296
 42
0.0151899205263201
 10
1250.3207634864168
 20
851.89641112547054
 10
1250.3315003055857
 20
851.94856842043623
 42
0.0132419186883429
 10
1250.3911676826849
 20
852.28303922319469
 10
1250.3917218417239
 20
852.28670452729011
 42
0.0126394840776975
 10
1250.4330837893899
 20
852.61647097453078
 10
1250.4336144036999
 20
852.62180806933452
  0
LWPOLYLINE
  5
358
100
AcDbEntity
  8
0
370
              15
  6
Continuous
 62
               7
100
AcDbPolyline
 90
       68
 70
             128
 10
1244.0446006133
 20
860.23593814253456
 10
1243.9932010108214
 20
860.2397984557789
 42
0.0142893044728392
 10
1243.708875668171
 20
860.25299679597913
 10
1243.6646896626996
 20
860.25378382703127
 42
0.0073964413176321
 10
1243.4683502997989
 20
860.25437623882931
 42
0.0076056216892406
 10
1243.2720827640028
 20
860.24907842061282
 10
1243.2639346950946
 20
860.24873439039709
 42
0.0086813167038402
 10
1243.0516713923414
 20
860.23607713810134
 10
1243.0448032166057
 20
860.23554778234939
 42
0.0087189273039931
 10
1242.8193814480096
 20
860.21421384554048
 42
0.0087661276955942
 10
1242.594829825729
 20
860.18501046446568
 10
1242.5602205429182
 20
860.17989095970131
 42
0.0142894675101124
 10
1242.2684408012315
 20
860.12817091284705
 10
1242.2342121549132
 20
860.1210893410456
 42
0.0100969536169439
 10
1241.9827023535813
 20
860.06373529702432
 10
1241.9748804380019
 20
860.06178464037464
 42
0.0101371446540957
 10
1241.7414555774328
 20
859.99851941668339
 42
0.0089215058744045
 10
1241.5106004057561
 20
859.92640170404184
 10
1241.5038402928421
 20
859.92415674213134
 42
0.0113559479725468
 10
1241.2627099117085
 20
859.83795239178926
 10
1241.2485336248265
 20
859.8325182146649
 42
0.0107459414894739
 10
1240.9978869198674
 20
859.73020767803041
 10
1240.9976739799276
 20
859.73011537200193
 42
0.0107796478212283
 10
1240.7520846150373
 20
859.61730660660214
 10
1240.7507467551425
 20
859.61665679288069
 42
0.0108055072862139
 10
1240.5129011368422
 20
859.49471162053101
 10
1240.5117967718618
 20
859.49411492311344
 42
0.010613866299421
 10
1240.2815720292629
 20
859.36333476036134
 42
0.010612281879977
 10
1240.057107347498
 20
859.22290378265973
 10
1240.0563231227202
 20
859.22238967646695
 42
0.0106327291376308
 10
1239.8395746125063
 20
859.07361401853632
 10
1239.837365479216
 20
859.07202753132344
 42
0.0105225718296792
 10
1239.6314521875374
 20
858.91748111558013
 10
1239.6300486531602
 20
858.91638078234416
 42
0.0102190509368018
 10
1239.4334799391659
 20
858.75568316740464
 42
0.0102032054823783
 10
1239.2436374691902
 20
858.58709399191684
 42
0.0102090665384604
 10
1239.0608345084277
 20
858.41089828262909
 10
1239.0600727562296
 20
858.41013345462261
 42
0.0103931605862083
 10
1238.8831929516066
 20
858.22499812746423
 10
1238.8818193450102
 20
858.22349924110858
 42
0.010506782815327
 10
1238.7101479077305
 20
858.02808123632951
 10
1238.7095325619775
 20
858.02735035562137
 42
0.0104792633137362
 10
1238.5450086092669
 20
857.82341009025936
 10
1238.536262144002
 20
857.81209074534377
 42
0.0104742605786071
 10
1238.3974341051223
 20
857.62442793673097
 42
0.008185697371959
 10
1238.2656931983636
 20
857.43169963999696
 10
1238.2632486242294
 20
857.42799462264168
 42
0.0111181526793774
 10
1238.134336623637
 20
857.22283248328802
 10
1238.1247192813839
 20
857.20674325028472
 42
0.0110647397931535
 10
1237.9865170115677
 20
856.96347320514701
 42
0.0110414639969268
 10
1237.8591990559419
 20
856.71432870517185
 10
1237.8585896195339
 20
856.71306818027438
 42
0.0112338034199769
 10
1237.741332728252
 20
856.45595592020663
 10
1237.7404921838654
 20
856.45399745238251
 42
0.0112635235451903
 10
1237.6333263523002
 20
856.18791900637893
 10
1237.6330676731166
 20
856.18723251079768
 42
0.0111958344491221
 10
1237.5374704559995
 20
855.91522523098229
 10
1237.5371774035079
 20
855.91432763768557
 42
0.011160565661901
 10
1237.4543788007904
 20
855.64012574914398
 10
1237.4540791215275
 20
855.63904685752573
 42
0.0109633107628015
 10
1237.3840410758835
 20
855.36361848118077
 10
1237.3840010300216
 20
855.36344517491932
 42
0.0108524682903666
 10
1237.3261149683021
 20
855.085570967482
 10
1237.3253034221805
 20
855.08120241316487
 42
0.0107898958235693
 10
1237.2809287929454
 20
854.80985104631839
 10
1237.2803062785381
 20
854.80545011016306
 42
0.0100778850794166
 10
1237.2483577778294
 20
854.54129889683168
 10
1237.2474763043001
 20
854.53247263013463
  0
LWPOLYLINE
  5
359
100
AcDbEntity
  8
0
370
              15
  6
Continuous
 62
               7
100
AcDbPolyline
 90
       29
 70
             128
 10
1378.1904528402001
 20
825.84089159003463
 42
0.00936920956277
 10
1378.1975076375102
 20
825.83633204412911
 10
1378.1983416248086
 20
825.83581492673375
 42
0.0104123208099593
 10
1378.2041320532048
 20
825.8323893803331
 42
0.0052399841197595
 10
1378.21002926643
 20
825.82914542087724
 42
0.010591606034964
 10
1378.2160265814166
 20
825.82608955124022
 42
0.0053458386155327
 10
1378.2221184509638
 20
825.8232262632248
 42
0.0108472600634993
 10
1378.2282969348762
 20
825.82056299894032
 10
1378.2293374502751
 20
825.82014101198229
 42
0.0055052310597196
 10
1378.2335096682309
 20
825.81850220270883
 42
0.0055559913376846
 10
1378.237717111718
 20
825.81695608735799
 10
1378.2377820417219
 20
825.81693304305941
 42
0.0059568629130061
 10
1378.2421543182379
 20
825.81543968554547
 10
1378.243216261011
 20
825.81509104827182
 42
0.0114324606599437
 10
1378.2497756889034
 20
825.81310250857086
 10
1378.2513495336466
 20
825.81266441341677
 42
0.0106187584344796
 10
1378.2580586071094
 20
825.81094951605473
 10
1378.2586290710376
 20
825.810816539077
 42
0.0075114764877822
 10
1378.2642519994793
 20
825.80959457355561
 42
0.0073809757597717
 10
1378.2699083174589
 20
825.80854069492989
 42
0.0072608988391208
 10
1378.2755927218295
 20
825.80765294966568
 42
0.0071419484532073
 10
1378.2813012636334
 20
825.80692916798819
 42
0.0070247520428531
 10
1378.2870299948825
 20
825.80636717943651
 42
0.0069104584223842
 10
1378.2927749724331
 20
825.80596481687189
 10
1378.2929081479758
 20
825.80595733654161
 42
0.006795473274248
 10
1378.2983970873029
 20
825.8057238101901
 10
1378.2985313088784
 20
825.80571992627551
 42
0.0060637436966989
 10
1378.3037560437565
 20
825.80563213631535
 10
1378.3038461717001
 20
825.80563173273458
  0
LWPOLYLINE
  5
35A
100
AcDbEntity
  8
0
370
              15
  6
Continuous
 62
               7
100
AcDbPolyline
 90
       46
 70
             128
 10
1376.4081919447999
 20
828.76962646013453
 10
1376.4082275232345
 20
828.76724126832835
 42
0.0111679334078803
 10
1376.4137799984464
 20
828.61825134206833
 10
1376.4147823158482
 20
828.60144965814084
 42
0.0121835195974984
 10
1376.4244616650635
 20
828.48642302664985
 10
1376.4265425260173
 20
828.46728734076044
 42
0.0062107464403097
 10
1376.4358125189112
 20
828.39088312473655
 42
0.0062690652090145
 10
1376.4469864059477
 20
828.31473416546362
 10
1376.450017688607
 20
828.29573752867077
 42
0.0128621450566735
 10
1376.4711280789202
 20
828.18227854063093
 10
1376.4760957543726
 20
828.15893520428335
 42
0.0099077142329647
 10
1376.5002311922467
 20
828.0556208824205
 10
1376.5023676470121
 20
828.04722972358775
 42
0.0085198399185843
 10
1376.525737241524
 20
827.96157425969955
 10
1376.5268621632331
 20
827.95771156819148
 42
0.0070345501522297
 10
1376.5505277343796
 20
827.88051269640664
 42
0.0068713196208372
 10
1376.5763329762822
 20
827.80399553974473
 42
0.006747356402311
 10
1376.6042145562533
 20
827.72820339947953
 10
1376.6114515343395
 20
827.70932106250484
 42
0.0129971984134084
 10
1376.6577411783614
 20
827.59734399400986
 10
1376.6659538127694
 20
827.57885362486854
 42
0.0124336419081902
 10
1376.7352205632769
 20
827.43280370129901
 10
1376.7396473150397
 20
827.42403939940345
 42
0.0119056189080475
 10
1376.8066832088011
 20
827.2988189220514
 10
1376.8158565614256
 20
827.28262240954189
 42
0.0087061716594023
 10
1376.8691003480112
 20
827.19231856047043
 10
1376.8737019484308
 20
827.18481576091472
 42
0.0060425193101456
 10
1376.9202070727081
 20
827.11100671706788
 42
0.0058835834482039
 10
1376.9684528279199
 20
827.03833753193317
 42
0.0057601015389901
 10
1377.0183711057027
 20
826.9668212565457
 10
1377.0310572880026
 20
826.94908507114678
 42
0.0109516402897757
 10
1377.1094655113932
 20
826.84438882888298
 42
0.005259961377075
 10
1377.1912534317435
 20
826.7422555760387
 42
0.010051593603805
 10
1377.2761294777376
 20
826.64267444792563
 10
1377.2924193184983
 20
826.62432273389243
 42
0.0093903313946292
 10
1377.4070085710784
 20
826.50001206568982
 42
0.0085011302958793
 10
1377.5259753900943
 20
826.37987650042987
 10
1377.5286923347126
 20
826.37722459632619
 42
0.0099687393727942
 10
1377.6575453959517
 20
826.25637733440021
 10
1377.6778013359774
 20
826.23812514030124
 42
0.0100890091672101
 10
1377.7898395843893
 20
826.14119340251773
 42
0.005724621159594
 10
1377.9049082991496
 20
826.04783555865549
 42
0.0102852116756413
 10
1378.0228950576818
 20
825.95821796309349
 10
1378.0396785413379
 20
825.94600606457118
 42
0.0097736557911093
 10
1378.1855216944914
 20
825.84418793832151
 10
1378.1904528402001
 20
825.84089159003463
  0
LWPOLYLINE
  5
35B
100
AcDbEntity
  8
0
370
              15
  6
Continuous
 62
               7
100
AcDbPolyline
 90
       40
 70
             128
 10
1387.6259310493001
 20
825.84089159003463
 10
1387.6456716747145
 20
825.85410836557139
 42
0.0142828813575523
 10
1387.829157449997
 20
825.98469660124317
 10
1387.843368440751
 20
825.99543506574776
 42
0.0102235074831584
 10
1387.9923004042523
 20
826.11283438540431
 42
0.0100991167932961
 10
1388.1363447892154
 20
826.23619310298977
 10
1388.1367746710241
 20
826.23657656750129
 42
0.0099835703005561
 10
1388.274911107419
 20
826.36484068617585
 10
1388.2933340897544
 20
826.38264503592882
 42
0.0097469504861592
 10
1388.3901662685739
 20
826.47994673593962
 10
1388.407474490974
 20
826.49803058730731
 42
0.0046366617426942
 10
1388.4672036842378
 20
826.56160630087402
 42
0.0047562557061547
 10
1388.525727963209
 20
826.62629263994427
 10
1388.5402047722621
 20
826.6426029274495
 42
0.0100442107683025
 10
1388.6250669488902
 20
826.74217148617493
 10
1388.6285114380273
 20
826.74638133191866
 42
0.0065680985895988
 10
1388.7167974243453
 20
826.85722368259053
 10
1388.7201408738781
 20
826.86153643175692
 42
0.0110625496864102
 10
1388.7979498075003
 20
826.96662420647124
 10
1388.7979941313311
 20
826.96668692484548
 42
0.0057475857722411
 10
1388.8721528630465
 20
827.07422349941089
 42
0.0119768304773274
 10
1388.9424383751925
 20
827.18429640634588
 10
1388.9641500289874
 20
827.22016452280559
 42
0.0116463986556192
 10
1389.024486062578
 20
827.32529241760733
 42
0.0059732224745834
 10
1389.0810996134826
 20
827.43251616711404
 42
0.0123772012271515
 10
1389.133730786943
 20
827.54172313298295
 42
0.0063689098988294
 10
1389.1822286906188
 20
827.65282063618395
 42
0.0132235320559505
 10
1389.2263095685762
 20
827.76566316399158
 10
1389.2264965629524
 20
827.76618193814795
 42
0.0068152397926875
 10
1389.2656638018898
 20
827.87966824527609
 42
0.0139667925985646
 10
1389.3000716233942
 20
827.99464976679246
 10
1389.3051737237074
 20
828.01361259423993
 42
0.0132783669173799
 10
1389.3411985629937
 20
828.16323240937891
 42
0.0128613370796205
 10
1389.3693618403615
 20
828.31456073740503
 42
0.0124966330466017
 10
1389.3898251803246
 20
828.4671660915692
 10
1389.3900869682584
 20
828.46957364308366
 42
0.0121714534984241
 10
1389.4025958592274
 20
828.61819382613555
 10
1389.4027403846346
 20
828.62061476859378
 42
0.0111585362623458
 10
1389.4081232520919
 20
828.76481775941875
 10
1389.4081919447999
 20
828.76962646013453
  0
LWPOLYLINE
  5
35C
100
AcDbEntity
  8
0
370
              15
  6
Continuous
 62
               7
100
AcDbPolyline
 90
       41
 70
             128
 10
1389.4081919447999
 20
878.25609748563465
 10
1389.4081568387833
 20
878.2584533007556
 42
0.011035409936878
 10
1389.4027109718249
 20
878.40568851615399
 10
1389.4017296002933
 20
878.42229117550573
 42
0.0120345115410007
 10
1389.3922598742363
 20
878.53597290274206
 42
0.0061139502382418
 10
1389.3786683034325
 20
878.64925979496252
 42
0.0125152303514894
 10
1389.3608727799465
 20
878.76192145277969
 42
0.0063783407559928
 10
1389.3388341602631
 20
878.8738261454381
 42
0.0130927700228527
 10
1389.3124662762573
 20
878.98474165673406
 10
1389.3123937052171
 20
878.98501491887259
 42
0.0068520110040586
 10
1389.2814635220534
 20
879.09536249097232
 10
1389.2809254472329
 20
879.09718563160914
 42
0.0136883015412666
 10
1389.2443245372037
 20
879.20975340080361
 10
1389.2441048382084
 20
879.21037106363406
 42
0.0066386963499291
 10
1389.2024817326535
 20
879.32264657639212
 42
0.0128228231193222
 10
1389.1565219923273
 20
879.43321784234502
 10
1389.1483769558981
 20
879.45147768631432
 42
0.0122711238672208
 10
1389.0797421036409
 20
879.59572356679473
 10
1389.0765781222324
 20
879.60197316449239
 42
0.0117583458941084
 10
1389.0077009482443
 20
879.73043364999216
 10
1388.9986295787633
 20
879.74643698951627
 42
0.0093514510228761
 10
1388.9431193584003
 20
879.84023251570613
 42
0.005978846174354
 10
1388.8847538800364
 20
879.93229180749927
 10
1388.8792110298152
 20
879.94080758851055
 42
0.0114483421792536
 10
1388.8062151100821
 20
880.04752891732267
 10
1388.7936499436419
 20
880.06502588115393
 42
0.0108232792639099
 10
1388.6900944083186
 20
880.20283052782793
 42
0.0102183551992591
 10
1388.5808191994417
 20
880.33617400022013
 42
0.009629804595859
 10
1388.466326612071
 20
880.46509003752044
 10
1388.4662609561906
 20
880.4651611574759
 42
0.0090809964562253
 10
1388.3468892433889
 20
880.58984594069398
 10
1388.3467068900811
 20
880.59002961349711
 42
0.0091213653549891
 10
1388.2225051758001
 20
880.71064756836552
 10
1388.2223910543769
 20
880.71075442162282
 42
0.0092426041054445
 10
1388.0936232800134
 20
880.82692980446132
 42
0.0093637827471809
 10
1387.9606295714516
 20
880.93822764276933
 10
1387.9585395816757
 20
880.93991115621566
 42
0.009491149368219
 10
1387.825683290343
 20
881.04283258967985
 10
1387.8235227533994
 20
881.04444164038864
 42
0.0090182459367047
 10
1387.6913237376184
 20
881.13923822701418
 10
1387.6868568606001
 20
881.14231677833459
  0
LWPOLYLINE
  5
35D
100
AcDbEntity
  8
0
370
              15
  6
Continuous
 62
               7
100
AcDbPolyline
 90
       43
 70
             128
 10
1378.1295270861001
 20
881.14231681783463
 10
1378.1272775226116
 20
881.14076444801435
 42
0.0090257415197878
 10
1377.990701460235
 20
881.04283093409117
 42
0.0094892068927632
 10
1377.8578468348162
 20
880.93991022172474
 10
1377.8557578922089
 20
880.93822755593965
 42
0.0093630486274121
 10
1377.7227672559407
 20
880.8269326229962
 42
0.0092439292166472
 10
1377.5940022689092
 20
880.7107602714525
 10
1377.5938830239086
 20
880.71064862150854
 42
0.0091057824379215
 10
1377.469690266586
 20
880.59004751114196
 10
1377.4543125666439
 20
880.57456055026796
 42
0.0091176761719593
 10
1377.3647772740264
 20
880.48103858629418
 10
1377.364713834467
 20
880.48096985583084
 42
0.004722107235916
 10
1377.277916095039
 20
880.38513275468756
 42
0.0099288359731345
 10
1377.1939761576232
 20
880.28680888272015
 10
1377.1751880682646
 20
880.26389510684635
 42
0.0071837539264621
 10
1377.1114532542319
 20
880.183846246808
 10
1377.1065100282351
 20
880.1774512859015
 42
0.0053936716672466
 10
1377.0545533198106
 20
880.10871609881872
 42
0.0055441147673843
 10
1377.0041120952342
 20
880.0388602755188
 42
0.0056676703723028
 10
1376.9552493562828
 20
879.96789041357147
 10
1376.9432752201899
 20
879.95006963853018
 42
0.0118334268037022
 10
1376.8738442238462
 20
879.84126088955486
 10
1376.8523876113454
 20
879.8058123359076
 42
0.0115003184998404
 10
1376.792731462252
 20
879.70193402718257
 42
0.0058973922174293
 10
1376.7367075170864
 20
879.59601014758584
 42
0.0122165187724077
 10
1376.684567156773
 20
879.48814897905822
 10
1376.6783723003705
 20
879.4744919451939
 42
0.0063126102956274
 10
1376.6423012918585
 20
879.39222539281968
 42
0.0080771994907046
 10
1376.6086187868846
 20
879.30897062010081
 10
1376.6068185396466
 20
879.30430542191527
 42
0.0066265931488682
 10
1376.5790780690163
 20
879.22948058204042
 42
0.006747586501308
 10
1376.5533487777891
 20
879.15394083934973
 10
1376.5473722126067
 20
879.13558605459627
 42
0.0137784603887466
 10
1376.5138381375905
 20
879.02206523403515
 10
1376.5088853965976
 20
879.00342312812836
 42
0.0130980977207611
 10
1376.4736967731419
 20
878.85545915322518
 42
0.0126943642748536
 10
1376.4461784105536
 20
878.70584807907881
 42
0.0123391129510616
 10
1376.4261747246887
 20
878.55500606340001
 10
1376.4259185055923
 20
878.55262447735061
 42
0.0120228461411159
 10
1376.4136807489449
 20
878.40574551737814
 10
1376.4135391692651
 20
878.40335198590105
 42
0.0110261717508323
 10
1376.4082597881525
 20
878.26084934412836
 10
1376.4081919447999
 20
878.25609748563465
  0
LWPOLYLINE
  5
35E
100
AcDbEntity
  8
0
370
               5
  6
Continuous
 62
               7
100
AcDbPolyline
 90
       62
 70
             128
 10
1387.5125380861
 20
852.59834100253465
 42
-0.0116824032272986
 10
1387.5126546984529
 20
852.61136076152138
 10
1387.5126582070543
 20
852.61146928169046
 42
-0.012959472402696
 10
1387.5134286354005
 20
852.62468338397457
 10
1387.5134559841749
 20
852.62500759718273
 42
-0.0130658569933983
 10
1387.514984465764
 20
852.63881054289413
 42
-0.0132034835292503
 10
1387.5172359868666
 20
852.65251577072581
 10
1387.51755199184
 20
852.65416571613343
 42
-0.0133800859972077
 10
1387.5198090662859
 20
852.66445253569987
 42
-0.0069713666789755
 10
1387.5224835381407
 20
852.6746416534902
 10
1387.5225484553537
 20
852.67487563830969
 42
-0.0145592921454192
 10
1387.5258013723924
 20
852.68540069405685
 10
1387.5258220686408
 20
852.68546134050166
 42
-0.0073405274201155
 10
1387.5295774244134
 20
852.6959588385389
 42
-0.0148907736553024
 10
1387.5337942483961
 20
852.70627580052701
 42
-0.0075399200545725
 10
1387.5384703962097
 20
852.71639530305242
 42
-0.0153610548810318
 10
1387.5436022538684
 20
852.72628507313163
 10
1387.5443788943996
 20
852.72767555313089
 42
-0.007822438233668
 10
1387.5483685823247
 20
852.73456324236281
 42
-0.0090671542109167
 10
1387.552588427631
 20
852.74131197933252
 10
1387.552671922271
 20
852.74144027569992
 42
-0.0085456048983872
 10
1387.5572982292254
 20
852.74829000017883
 10
1387.5583888386777
 20
852.74984672253231
 42
-0.0166559119091092
 10
1387.5656347466534
 20
852.75948937537044
 10
1387.5668981698207
 20
852.76105900354855
 42
-0.0162029910455285
 10
1387.5773898010043
 20
852.77326160478469
 42
-0.0158463500596334
 10
1387.5886437186743
 20
852.78476949210881
 10
1387.5892430132858
 20
852.78534466816052
 42
-0.0155739826110594
 10
1387.5999642247639
 20
852.79501133109784
 10
1387.6014012068094
 20
852.79622802218694
 42
-0.0122459969501832
 10
1387.6097136382293
 20
852.80292365945127
 10
1387.6105503194874
 20
852.80356446465271
 42
-0.0079751909205318
 10
1387.6174347640558
 20
852.80866505645417
 42
-0.0077113087684212
 10
1387.6244753675342
 20
852.81354690668149
 42
-0.0074483186736843
 10
1387.6316606029179
 20
852.81821299222838
 42
-0.0072462825425295
 10
1387.6389802139649
 20
852.82266615265485
 10
1387.6408291440498
 20
852.82375462394145
 42
-0.0135881857958453
 10
1387.6520811599753
 20
852.82997329888644
 42
-0.0064589734720558
 10
1387.663578986002
 20
852.83573874025717
 42
-0.0121892515613716
 10
1387.6752826286706
 20
852.84107093091143
 10
1387.6773804948125
 20
852.84196563147225
 42
-0.0116803570764176
 10
1387.6935607686048
 20
852.84842382923398
 10
1387.6938076304275
 20
852.84851573697358
 42
-0.0112522856549643
 10
1387.7107649122861
 20
852.85439805120484
 10
1387.7108843503793
 20
852.85443649470915
 42
-0.0104701854845392
 10
1387.7283210612561
 20
852.85964858436409
 42
-0.0096989570001353
 10
1387.7459545431027
 20
852.86415342900625
 10
1387.7481696237917
 20
852.86467376723999
 42
-0.0089029110304583
 10
1387.7615129277656
 20
852.86755852997476
 10
1387.7619490766567
 20
852.86764472497487
 42
-0.0041509273322324
 10
1387.7744911335526
 20
852.87001536625257
 42
-0.0073137170705243
 10
1387.7870833320742
 20
852.87209768199534
 10
1387.7897250724911
 20
852.87249492993817
 42
-0.0089906307184826
 10
1387.8076738286209
 20
852.87486477279288
 10
1387.8085079417453
 20
852.87495967897894
 42
-0.0091876252484988
 10
1387.8282023498002
 20
852.87683467368515
 42
-0.0093849469194538
 10
1387.8479570100517
 20
852.87797710567133
 10
1387.8504258193095
 20
852.8780734314696
 42
-0.0095947985160964
 10
1387.8652739490101
 20
852.87836758643493
 10
1387.8677472897543
 20
852.87836911820204
 42
-0.0048740593317345
 10
1387.8776535016232
 20
852.87827868455133
 10
1387.8779631407001
 20
852.87827274243455
  0
SPLINE
  5
35F
100
AcDbEntity
  8
0
370
               5
  6
Continuous
 62
               7
100
AcDbSpline
210
0.0
220
0.0
230
1.0
 70
              12
 71
               2
 72
             178
 73
             175
 74
               0
 42
0.000001
 43
0.000001
 40
0.0
 40
0.0
 40
0.0
 40
1.0
 40
1.0
 40
2.0
 40
2.0
 40
3.0
 40
3.0
 40
4.0
 40
4.0
 40
5.0
 40
5.0
 40
6.0
 40
6.0
 40
7.0
 40
7.0
 40
8.0
 40
8.0
 40
9.0
 40
9.0
 40
10.0
 40
10.0
 40
11.0
 40
11.0
 40
12.0
 40
12.0
 40
13.0
 40
13.0
 40
14.0
 40
14.0
 40
15.0
 40
15.0
 40
16.0
 40
16.0
 40
17.0
 40
17.0
 40
18.0
 40
18.0
 40
19.0
 40
19.0
 40
20.0
 40
20.0
 40
21.0
 40
21.0
 40
22.0
 40
22.0
 40
23.0
 40
23.0
 40
24.0
 40
24.0
 40
25.0
 40
25.0
 40
26.0
 40
26.0
 40
27.0
 40
27.0
 40
28.0
 40
28.0
 40
29.0
 40
29.0
 40
30.0
 40
30.0
 40
31.0
 40
31.0
 40
32.0
 40
32.0
 40
33.0
 40
33.0
 40
34.0
 40
34.0
 40
35.0
 40
35.0
 40
36.0
 40
36.0
 40
37.0
 40
37.0
 40
38.0
 40
38.0
 40
39.0
 40
39.0
 40
40.0
 40
40.0
 40
41.0
 40
41.0
 40
42.0
 40
42.0
 40
43.0
 40
43.0
 40
44.0
 40
44.0
 40
45.0
 40
45.0
 40
46.0
 40
46.0
 40
47.0
 40
47.0
 40
48.0
 40
48.0
 40
49.0
 40
49.0
 40
50.0
 40
50.0
 40
51.0
 40
51.0
 40
52.0
 40
52.0
 40
53.0
 40
53.0
 40
54.0
 40
54.0
 40
55.0
 40
55.0
 40
56.0
 40
56.0
 40
57.0
 40
57.0
 40
58.0
 40
58.0
 40
59.0
 40
59.0
 40
60.0
 40
60.0
 40
61.0
 40
61.0
 40
62.0
 40
62.0
 40
63.0
 40
63.0
 40
64.0
 40
64.0
 40
65.0
 40
65.0
 40
66.0
 40
66.0
 40
67.0
 40
67.0
 40
68.0
 40
68.0
 40
69.0
 40
69.0
 40
70.0
 40
70.0
 40
71.0
 40
71.0
 40
72.0
 40
72.0
 40
73.0
 40
73.0
 40
74.0
 40
74.0
 40
75.0
 40
75.0
 40
76.0
 40
76.0
 40
77.0
 40
77.0
 40
78.0
 40
78.0
 40
79.0
 40
79.0
 40
80.0
 40
80.0
 40
81.0
 40
81.0
 40
82.0
 40
82.0
 40
83.0
 40
83.0
 40
84.0
 40
84.0
 40
85.0
 40
85.0
 40
86.0
 40
86.0
 40
87.0
 40
87.0
 40
87.0
 10
1387.658705437
 20
852.55752829143466
 30
0.0
 41
1.0
 10
1387.6580261224099
 20
852.56023788903485
 30
0.0
 41
0.9999090999929514
 10
1387.6574201152675
 20
852.56296481822551
 30
0.0
 41
1.0
 10
1387.6573111773712
 20
852.5634550202526
 30
0.0
 41
1.0
 10
1387.6572022394748
 20
852.56394522227959
 30
0.0
 41
1.0
 10
1387.6563783565393
 20
852.56765255552466
 30
0.0
 41
0.9996974930237191
 10
1387.6557377801992
 20
852.57139591829537
 30
0.0
 41
1.0
 10
1387.6556402401666
 20
852.57196591706611
 30
0.0
 41
1.0
 10
1387.655542700134
 20
852.57253591583685
 30
0.0
 41
1.0
 10
1387.6547072004169
 20
852.57741800073677
 30
0.0
 41
0.9997209032705611
 10
1387.6541032422629
 20
852.58233410155924
 30
0.0
 41
1.0
 10
1387.6534993186456
 20
852.58725050969292
 30
0.0
 41
0.9997446252333146
 10
1387.6531181602941
 20
852.59218918471583
 30
0.0
 41
1.0
 10
1387.6527368797908
 20
852.59712944246257
 30
0.0
 41
0.9997669327325812
 10
1387.6525692143587
 20
852.60208155410578
 30
0.0
 41
1.0
 10
1387.65255424933
 20
852.60252355632269
 30
0.0
 41
1.0
 10
1387.6525392843014
 20
852.60296555853972
 30
0.0
 41
1.0
 10
1387.6524010319458
 20
852.60704893512775
 30
0.0
 41
0.9997899509039816
 10
1387.6524302399878
 20
852.61113454707311
 30
0.0
 41
1.0
 10
1387.6524349859826
 20
852.61179841535568
 30
0.0
 41
1.0
 10
1387.6524397319772
 20
852.61246228363825
 30
0.0
 41
1.0
 10
1387.65245944803
 20
852.61522015901824
 30
0.0
 41
0.9999199377242848
 10
1387.652548947276
 20
852.61797665230119
 30
0.0
 41
1.0
 10
1387.6525561832739
 20
852.6181995142847
 30
0.0
 41
1.0
 10
1387.6525634192717
 20
852.6184223762682
 30
0.0
 41
1.0
 10
1387.6526384465221
 20
852.62073314558461
 30
0.0
 41
0.999951888338497
 10
1387.652758790892
 20
852.62304199836205
 30
0.0
 41
1.0
 10
1387.6528791370763
 20
852.62535087574065
 30
0.0
 41
0.9999419548130929
 10
1387.6530492058203
 20
852.62765662390029
 30
0.0
 41
1.0
 10
1387.6532192239358
 20
852.62996185820737
 30
0.0
 41
0.9999311477559579
 10
1387.6534432932942
 20
852.63226246775537
 30
0.0
 41
1.0
 10
1387.6536671944707
 20
852.63456159891211
 30
0.0
 41
0.9999191084023161
 10
1387.6539495044376
 20
852.63685429097495
 30
0.0
 41
1.0
 10
1387.6539496486298
 20
852.63685546198622
 30
0.0
 41
1.0
 10
1387.6539497928218
 20
852.63685663299748
 30
0.0
 41
1.0
 10
1387.6542316986656
 20
852.63914604309957
 30
0.0
 41
0.999905911746276
 10
1387.6545763021159
 20
852.64142685830188
 30
0.0
 41
1.0
 10
1387.6545764848242
 20
852.64142806758775
 30
0.0
 41
1.0
 10
1387.6545766675326
 20
852.64142927687362
 30
0.0
 41
1.0
 10
1387.6549209055659
 20
852.64370767350408
 30
0.0
 41
0.9998913654176064
 10
1387.6553321522765
 20
852.64597493334099
 30
0.0
 41
1.0
 10
1387.6557431771218
 20
852.64824115726867
 30
0.0
 41
0.9998754396834033
 10
1387.6562255241956
 20
852.65049327929341
 30
0.0
 41
1.0
 10
1387.6567074858126
 20
852.65274371007717
 30
0.0
 41
0.9998584214580494
 10
1387.657264898326
 20
852.65497664917245
 30
0.0
 41
1.0
 10
1387.6578221349507
 20
852.6572088902293
 30
0.0
 41
0.9998404562146228
 10
1387.6584587492298
 20
852.65941980294861
 30
0.0
 41
1.0
 10
1387.6590956124992
 20
852.66163146633414
 30
0.0
 41
0.9998216025313411
 10
1387.6598155550103
 20
852.66381749756351
 30
0.0
 41
1.0
 10
1387.6605357588091
 20
852.66600432216592
 30
0.0
 41
0.9998021620917793
 10
1387.6613423701037
 20
852.66816077146393
 30
0.0
 41
1.0
 10
1387.6614464860272
 20
852.6684391220291
 30
0.0
 41
1.0
 10
1387.6615506019505
 20
852.66871747259427
 30
0.0
 41
1.0
 10
1387.6625114492181
 20
852.6712862667946
 30
0.0
 41
0.9995431295757116
 10
1387.663625752049
 20
852.67379231155064
 30
0.0
 41
1.0
 10
1387.6637457844377
 20
852.67406226198943
 30
0.0
 41
1.0
 10
1387.6638658168265
 20
852.67433221242823
 30
0.0
 41
1.0
 10
1387.66474005488
 20
852.67629835630657
 30
0.0
 41
0.9998087268427696
 10
1387.6656905165316
 20
852.67822880614335
 30
0.0
 41
1.0
 10
1387.6666409781833
 20
852.68015925598036
 30
0.0
 41
0.9998074581386263
 10
1387.6676664542149
 20
852.68205092530434
 30
0.0
 41
1.0
 10
1387.6676671612995
 20
852.68205222964502
 30
0.0
 41
1.0
 10
1387.6676678683841
 20
852.68205353398571
 30
0.0
 41
1.0
 10
1387.6686951686497
 20
852.68394850184461
 30
0.0
 41
0.9998046251396762
 10
1387.6697965650023
 20
852.68580138475954
 30
0.0
 41
1.0
 10
1387.6708984607153
 20
852.68765509492926
 30
0.0
 41
0.999800162638952
 10
1387.6720735754548
 20
852.68946327658637
 30
0.0
 41
1.0
 10
1387.673248543472
 20
852.69127126283558
 30
0.0
 41
0.9997943256156531
 10
1387.6744958642867
 20
852.6930301132852
 30
0.0
 41
1.0
 10
1387.6757423993515
 20
852.69478791982738
 30
0.0
 41
0.9997870958053864
 10
1387.6770603987691
 20
852.6964927984277
 30
0.0
 41
1.0
 10
1387.677061189162
 20
852.69649382082878
 30
0.0
 41
1.0
 10
1387.677061979555
 20
852.69649484322986
 30
0.0
 41
1.0
 10
1387.6783778484544
 20
852.69819696592981
 30
0.0
 41
0.9997787212920273
 10
1387.6797641482556
 20
852.69984223353924
 30
0.0
 41
1.0
 10
1387.6811504480565
 20
852.70148750114845
 30
0.0
 41
0.9997698030363811
 10
1387.6826060555316
 20
852.70307178001417
 30
0.0
 41
1.0
 10
1387.6827880226065
 20
852.70326983243956
 30
0.0
 41
1.0
 10
1387.6829699896812
 20
852.70346788486495
 30
0.0
 41
1.0
 10
1387.6847833010179
 20
852.70544148755459
 30
0.0
 41
0.9994458883870172
 10
1387.6867239057699
 20
852.70729007046452
 30
0.0
 41
1.0
 10
1387.6867891703816
 20
852.7073522402834
 30
0.0
 41
1.0
 10
1387.6868544349934
 20
852.70741441010227
 30
0.0
 41
1.0
 10
1387.6886645105219
 20
852.70913865337457
 30
0.0
 41
0.999737109335723
 10
1387.6905517304376
 20
852.71077810123052
 30
0.0
 41
1.0
 10
1387.6924389503529
 20
852.71241754908624
 30
0.0
 41
0.999503271484818
 10
1387.6944257053087
 20
852.71393484702276
 30
0.0
 41
1.0
 10
1387.694567884638
 20
852.71404343031963
 30
0.0
 41
1.0
 10
1387.6947100639675
 20
852.71415201361651
 30
0.0
 41
1.0
 10
1387.6964855147039
 20
852.71550793711936
 30
0.0
 41
0.9997165856281753
 10
1387.6983234942031
 20
852.71677781318579
 30
0.0
 41
1.0
 10
1387.7001620951726
 20
852.71804807808121
 30
0.0
 41
0.9997411165943362
 10
1387.7020565822088
 20
852.71923338196609
 30
0.0
 41
1.0
 10
1387.7039516907155
 20
852.72041907467997
 30
0.0
 41
0.999763853581788
 10
1387.7058965297874
 20
852.72152130172003
 30
0.0
 41
1.0
 10
1387.7058977503466
 20
852.72152199346533
 30
0.0
 41
1.0
 10
1387.705898970906
 20
852.72152268521063
 30
0.0
 41
1.0
 10
1387.707846251096
 20
852.72262629574129
 30
0.0
 41
0.9997853904167453
 10
1387.7098375759131
 20
852.72364829467142
 30
0.0
 41
1.0
 10
1387.7098391627421
 20
852.72364910907277
 30
0.0
 41
1.0
 10
1387.7098407495712
 20
852.72364992347411
 30
0.0
 41
1.0
 10
1387.7118352480463
 20
852.72467355120693
 30
0.0
 41
0.999805358058938
 10
1387.7138685769132
 20
852.72561769718197
 30
0.0
 41
1.0
 10
1387.7138702956975
 20
852.72561849527392
 30
0.0
 41
1.0
 10
1387.7138720144819
 20
852.72561929336587
 30
0.0
 41
1.0
 10
1387.715908780918
 20
852.72656503552491
 30
0.0
 41
0.9998236577124893
 10
1387.7179796248613
 20
852.7274336269752
 30
0.0
 41
1.0
 10
1387.7179812460656
 20
852.72743430697051
 30
0.0
 41
1.0
 10
1387.7179828672702
 20
852.72743498696593
 30
0.0
 41
1.0
 10
1387.7200569536228
 20
852.72830493840718
 30
0.0
 41
0.9998402685328881
 10
1387.7221608068842
 20
852.72910020638835
 30
0.0
 41
1.0
 10
1387.7221621101462
 20
852.72910069902855
 30
0.0
 41
1.0
 10
1387.722163413408
 20
852.72910119166863
 30
0.0
 41
1.0
 10
1387.7242706505765
 20
852.72989770892093
 30
0.0
 41
0.9998553302659033
 10
1387.7264037610066
 20
852.73062209011221
 30
0.0
 41
1.0
 10
1387.7285377057856
 20
852.73134675260098
 30
0.0
 41
0.9998686107588036
 10
1387.7306940194708
 20
852.73200186124268
 30
0.0
 41
1.0
 10
1387.7328503901219
 20
852.73265698719115
 30
0.0
 41
0.9998785364305577
 10
1387.7350261317974
 20
852.73324458616503
 30
0.0
 41
1.0
 10
1387.7355309309194
 20
852.73338091643313
 30
0.0
 41
1.0
 10
1387.7360357300411
 20
852.73351724670124
 30
0.0
 41
1.0
 10
1387.73922106996
 20
852.73437750621133
 30
0.0
 41
0.999611069631389
 10
1387.7424494175555
 20
852.7350588347856
 30
0.0
 41
1.0
 10
1387.742962301267
 20
852.73516707663919
 30
0.0
 41
1.0
 10
1387.7434751849783
 20
852.73527531849277
 30
0.0
 41
1.0
 10
1387.7460301043891
 20
852.73581452300778
 30
0.0
 41
0.9998751369593497
 10
1387.74860078696
 20
852.73627272146382
 30
0.0
 41
1.0
 10
1387.7486030373259
 20
852.73627312256895
 30
0.0
 41
1.0
 10
1387.748605287692
 20
852.7362735236743
 30
0.0
 41
1.0
 10
1387.7511714695304
 20
852.73673091991975
 30
0.0
 41
0.9998860669030618
 10
1387.7537502889863
 20
852.73711064451186
 30
0.0
 41
1.0
 10
1387.7537516868269
 20
852.73711085034029
 30
0.0
 41
1.0
 10
1387.7537530846673
 20
852.73711105616871
 30
0.0
 41
1.0
 10
1387.7563291084414
 20
852.73749036910385
 30
0.0
 41
0.9998975660798167
 10
1387.7589149337582
 20
852.73779579375753
 30
0.0
 41
1.0
 10
1387.761500044563
 20
852.73810115354297
 30
0.0
 41
0.9999086121192067
 10
1387.7640924660745
 20
852.73833651109635
 30
0.0
 41
1.0
 10
1387.766683981059
 20
852.73857179125935
 30
0.0
 41
0.9999192416048157
 10
1387.7692806386435
 20
852.73874113132899
 30
0.0
 41
1.0
 10
1387.7718772757266
 20
852.73891046596941
 30
0.0
 41
0.9999292604270065
 10
1387.7744772060414
 20
852.73901798675581
 30
0.0
 41
1.0
 10
1387.777077692921
 20
852.73912552201682
 30
0.0
 41
0.999938615115366
 10
1387.7796799241294
 20
852.73917540771617
 30
0.0
 41
1.0
 10
1387.7822829991694
 20
852.73922530016625
 30
0.0
 41
0.9999472672224699
 10
1387.784886549842
 20
852.73922172031757
 30
0.0
 41
1.0
 10
1387.7874909619898
 20
852.73921813166078
 30
0.0
 41
0.9999552274871202
 10
1387.7900948398099
 20
852.73916525622087
 30
0.0
 41
1.0
 10
1387.7926993514648
 20
852.73911236389756
 30
0.0
 41
0.9999624052153344
 10
1387.795302554227
 20
852.73901431320996
 30
0.0
 41
1.0
 10
1387.7979059881293
 20
852.73891625381634
 30
0.0
 41
1.0
 10
1387.8024242962638
 20
852.73867488855171
 30
0.0
 41
1.0
 10
1387.8069426043987
 20
852.73843352328697
 30
0.0
 41
0.9998474723791493
 10
1387.8114497263944
 20
852.73803450335208
 30
0.0
 41
1.0
 10
1387.8131806416345
 20
852.73788126372665
 30
0.0
 41
1.0
 10
1387.8149115568747
 20
852.73772802410122
 30
0.0
 41
1.0
 10
1387.8195576352246
 20
852.73731670222401
 30
0.0
 41
0.9998416980857701
 10
1387.8241861371707
 20
852.73674033476095
 30
0.0
 41
1.0
 10
1387.8288136111098
 20
852.73616411463513
 30
0.0
 41
0.9999573578387728
 10
1387.8334296536016
 20
852.73550252835707
 30
0.0
 41
1.0
 10
1387.838044668086
 20
852.73484108941625
 30
0.0
 41
0.9998146535938963
 10
1387.8426307974062
 20
852.73400247268614
 30
0.0
 41
1.0
 10
1387.8433952825862
 20
852.73386267940577
 30
0.0
 41
1.0
 10
1387.8441597677661
 20
852.73372288612541
 30
0.0
 41
1.0
 10
1387.8502767505863
 20
852.73260425899412
 30
0.0
 41
0.9997948907860925
 10
1387.8563434139287
 20
852.73123882815662
 30
0.0
 41
1.0
 10
1387.856671893441
 20
852.73116489689824
 30
0.0
 41
1.0
 10
1387.8570003729533
 20
852.73109096563974
 30
0.0
 41
1.0
 10
1387.862411960411
 20
852.72987297347879
 30
0.0
 41
0.9997739261779679
 10
1387.8677668711914
 20
852.72842600621811
 30
0.0
 41
1.0
 10
1387.8680935254013
 20
852.72833773995819
 30
0.0
 41
1.0
 10
1387.8684201796111
 20
852.72824947369816
 30
0.0
 41
1.0
 10
1387.873121781972
 20
852.72697903895755
 30
0.0
 41
0.9998507357054193
 10
1387.877776684516
 20
852.72554692461279
 30
0.0
 41
1.0
 10
1387.877869872658
 20
852.72551821567367
 30
0.0
 41
1.0
 10
1387.8779630608001
 20
852.72548950673456
 30
0.0
 41
1.0
  0
LWPOLYLINE
  5
360
100
AcDbEntity
  8
0
370
               5
  6
Continuous
 62
               7
100
AcDbPolyline
 90
       32
 70
             128
 10
1387.5125380861
 20
852.59834100253465
 10
1387.5141709532591
 20
852.59834728332237
 42
-0.0115282341425166
 10
1387.5244070783378
 20
852.5981506335329
 10
1387.5259256794764
 20
852.59808641247048
 42
-0.0061402675717953
 10
1387.5331152468057
 20
852.59769386947937
 42
-0.006071697615387
 10
1387.5402933824712
 20
852.59712583502574
 42
-0.005996819002354
 10
1387.5474566742766
 20
852.59638461116504
 42
-0.0059419678922012
 10
1387.5546008930928
 20
852.59547248986087
 10
1387.5561696145103
 20
852.59525323112439
 42
-0.010671299727224
 10
1387.5661081590151
 20
852.59364720005908
 10
1387.5676651725419
 20
852.59336137218372
 42
-0.0057057643270276
 10
1387.5744403017827
 20
852.59203754123871
 42
-0.0060152277196377
 10
1387.5811821538502
 20
852.59055536124606
 42
-0.0063154865694338
 10
1387.5878840890769
 20
852.58890773643179
 42
-0.0066254564978341
 10
1387.594538919443
 20
852.58708786963905
 42
-0.0069352791965161
 10
1387.6011395130954
 20
852.58508898177672
 10
1387.601345685348
 20
852.58502341038707
 42
-0.0072560069726995
 10
1387.6074753348976
 20
852.58297551509702
 42
-0.0066201141735771
 10
1387.6135459058419
 20
852.58075828229562
 10
1387.61361760452
 20
852.5807310136413
 42
-0.0081572056914762
 10
1387.6197622027148
 20
852.57827861208989
 10
1387.6200314751729
 20
852.57816601488207
 42
-0.0070513581047459
 10
1387.6258450401233
 20
852.57563815370872
 42
-0.0069023193159917
 10
1387.631586586713
 20
852.57294866766597
 42
-0.0067629420045333
 10
1387.637253901632
 20
852.57010256020521
 42
-0.006629989405884
 10
1387.642843988272
 20
852.56710512476241
 42
-0.0065043882267964
 10
1387.6483538519481
 20
852.56396164880846
 10
1387.6484824108186
 20
852.56388607025679
 42
-0.006384052108256
 10
1387.65365433075
 20
852.56075601289081
 10
1387.6537808517492
 20
852.56067721770592
 42
-0.0056881906322247
 10
1387.6586245679171
 20
852.55758360666096
 10
1387.6587074485001
 20
852.55752931303459
  0
LWPOLYLINE
  5
361
100
AcDbEntity
  8
0
370
               5
  6
Continuous
 62
               7
100
AcDbPolyline
 90
       32
 70
             128
 10
1387.5125376747001
 20
860.21247184253457
 10
1387.5146211056888
 20
860.21247981475892
 42
-0.013067586582791
 10
1387.5257558490985
 20
860.2122313884239
 10
1387.5277237063019
 20
860.21213598901591
 42
-0.0061186035820633
 10
1387.5349108980736
 20
860.21169934890077
 42
-0.0060533333174261
 10
1387.5420857306419
 20
860.2110878500697
 42
-0.0059785721641631
 10
1387.5492449088601
 20
860.21030375089504
 42
-0.0059195484017166
 10
1387.5563841497883
 20
860.20934943051907
 10
1387.5577727151633
 20
860.20914705726102
 42
-0.0100764350265831
 10
1387.5673476197387
 20
860.20755392375372
 10
1387.5687260773607
 20
860.20729591929239
 42
-0.0057571781725938
 10
1387.575496434607
 20
860.20594785441574
 42
-0.0060620956132909
 10
1387.58223253699
 20
860.2044402650879
 42
-0.0063635711612002
 10
1387.5889275989896
 20
860.20276616154706
 42
-0.0066725256962226
 10
1387.5955744617554
 20
860.20091876415756
 42
-0.0069867130297266
 10
1387.6021659593678
 20
860.19889128000818
 42
-0.007302798092193
 10
1387.6086949280329
 20
860.19667694266843
 10
1387.6090794597699
 20
860.19654023266048
 42
-0.0076475795361925
 10
1387.6147738345501
 20
860.19441710224669
 10
1387.6149029904577
 20
860.19436668374033
 42
-0.0059734661446546
 10
1387.6202806086126
 20
860.19219304054377
 42
-0.0070506479214803
 10
1387.6255996409577
 20
860.18988014003685
 10
1387.6258453573923
 20
860.18976914827533
 42
-0.0069028215937282
 10
1387.6315868400993
 20
860.18707961457244
 42
-0.0067632227918287
 10
1387.6372540896937
 20
860.1842334501614
 42
-0.0066302657110025
 10
1387.6428441062474
 20
860.18123595324823
 42
-0.0065046608570399
 10
1387.6483538948735
 20
860.17809241158386
 10
1387.6484824519007
 20
860.17801683145092
 42
-0.0063843217485015
 10
1387.6536542953991
 20
860.17488670767364
 10
1387.6537808144483
 20
860.17480791080857
 42
-0.0056884331614865
 10
1387.6586244532896
 20
860.17171423343007
 10
1387.6587073324999
 20
860.17165993863455
  0
LWPOLYLINE
  5
362
100
AcDbEntity
  8
0
370
               5
  6
Continuous
 62
               7
100
AcDbPolyline
 90
       60
 70
             128
 10
1387.8779626254
 20
859.93253999223464
 42
-0.0087816774725615
 10
1387.8569584037193
 20
859.93279116615713
 10
1387.8564143444733
 20
859.93280723177554
 42
-0.0096655119472411
 10
1387.8343472734598
 20
859.93388608891973
 10
1387.8313376131791
 20
859.9340916104494
 42
-0.0087561243391391
 10
1387.8137011507265
 20
859.9356066463024
 10
1387.8114261924165
 20
859.93584227062433
 42
-0.0054170337511491
 10
1387.7983823667312
 20
859.93733625746654
 42
-0.0057864694383102
 10
1387.7853742876475
 20
859.93912227840656
 42
-0.0061482429548929
 10
1387.772410764182
 20
859.94121855983451
 42
-0.0065140749358799
 10
1387.7595038176121
 20
859.94364255025744
 10
1387.7594322082132
 20
859.94365696712146
 42
-0.0070337029960205
 10
1387.7464530653008
 20
859.94646054394866
 10
1387.7461525091637
 20
859.94652990500072
 42
-0.0079452516511783
 10
1387.7326647604009
 20
859.94986913648529
 10
1387.7324366106147
 20
859.94992948377444
 42
-0.0083869481604873
 10
1387.7186111428643
 20
859.95383567722752
 42
-0.0088400169939769
 10
1387.7049287740606
 20
859.95821567377072
 42
-0.0093024801940482
 10
1387.6914146648865
 20
859.96308899788687
 10
1387.6914073694511
 20
859.96309178312572
 42
-0.009784565480536
 10
1387.6780748579508
 20
859.96848305958986
 10
1387.6763486993973
 20
859.96922068766344
 42
-0.0106875535486064
 10
1387.6661337639471
 20
859.97384639611278
 10
1387.6644481454628
 20
859.97465355595705
 42
-0.0055524683003196
 10
1387.6577400279575
 20
859.97795781051695
 42
-0.0056533835973653
 10
1387.651107657038
 20
859.98141155366443
 10
1387.6494587198761
 20
859.98229406280484
 42
-0.0117954108880869
 10
1387.6396978616381
 20
859.98781811601339
 10
1387.6377930850736
 20
859.98895624262457
 42
-0.0124126616275357
 10
1387.6257382125007
 20
859.99657146151753
 10
1387.6241847259641
 20
859.99760764320035
 42
-0.0118038769353185
 10
1387.6155686488473
 20
860.00365324552558
 42
-0.0067011269244261
 10
1387.6071805764554
 20
860.01001470654705
 10
1387.6068965471436
 20
860.01023617048497
 42
-0.0138083167654217
 10
1387.5982218772251
 20
860.01739391302044
 42
-0.0070789920843659
 10
1387.5898494964522
 20
860.02491144917246
 42
-0.0146660923534383
 10
1387.5818155084935
 20
860.03278211088173
 42
-0.0075509765708646
 10
1387.5741402845142
 20
860.04100036646787
 42
-0.0156607922971234
 10
1387.5668596901223
 20
860.04956005017198
 10
1387.5652669974525
 20
860.05155596888949
 42
-0.0122742200005987
 10
1387.5593030916946
 20
860.05941810105833
 42
-0.0094934868720531
 10
1387.5536863153418
 20
860.06753331506729
 10
1387.5531369350106
 20
860.06836018648664
 42
-0.0164520523563379
 10
1387.5469072797657
 20
860.07844083525754
 10
1387.5460734268413
 20
860.07989504633485
 42
-0.0158965335428595
 10
1387.5389321764942
 20
860.09332165195337
 42
-0.0154227334083413
 10
1387.5326409352861
 20
860.1071793279001
 42
-0.0150271118411151
 10
1387.5272028362615
 20
860.12139905096683
 10
1387.5271969611456
 20
860.1214159156707
 42
-0.0147765104168333
 10
1387.522604740464
 20
860.13596858653636
 10
1387.5225832665678
 20
860.13604437067659
 42
-0.014784787571829
 10
1387.5188204668113
 20
860.15099564217178
 10
1387.5188073888321
 20
860.15105496513422
 42
-0.0145880508396202
 10
1387.5159065686162
 20
860.16631743702976
 42
-0.0144327200731342
 10
1387.5138965752403
 20
860.18171617764244
 10
1387.5138840056693
 20
860.18184028894598
 42
-0.0143230737849397
 10
1387.5127806169723
 20
860.19707742423145
 10
1387.5127752281485
 20
860.1972008178825
 42
-0.0138227250731565
 10
1387.5125347440273
 20
860.21222942974896
 10
1387.5125376747001
 20
860.21247184253457
  0
SPLINE
  5
363
100
AcDbEntity
  8
0
370
               5
  6
Continuous
 62
               7
100
AcDbSpline
210
0.0
220
0.0
230
1.0
 70
              12
 71
               2
 72
             156
 73
             153
 74
               0
 42
0.000001
 43
0.000001
 40
0.0
 40
0.0
 40
0.0
 40
1.0
 40
1.0
 40
2.0
 40
2.0
 40
3.0
 40
3.0
 40
4.0
 40
4.0
 40
5.0
 40
5.0
 40
6.0
 40
6.0
 40
7.0
 40
7.0
 40
8.0
 40
8.0
 40
9.0
 40
9.0
 40
10.0
 40
10.0
 40
11.0
 40
11.0
 40
12.0
 40
12.0
 40
13.0
 40
13.0
 40
14.0
 40
14.0
 40
15.0
 40
15.0
 40
16.0
 40
16.0
 40
17.0
 40
17.0
 40
18.0
 40
18.0
 40
19.0
 40
19.0
 40
20.0
 40
20.0
 40
21.0
 40
21.0
 40
22.0
 40
22.0
 40
23.0
 40
23.0
 40
24.0
 40
24.0
 40
25.0
 40
25.0
 40
26.0
 40
26.0
 40
27.0
 40
27.0
 40
28.0
 40
28.0
 40
29.0
 40
29.0
 40
30.0
 40
30.0
 40
31.0
 40
31.0
 40
32.0
 40
32.0
 40
33.0
 40
33.0
 40
34.0
 40
34.0
 40
35.0
 40
35.0
 40
36.0
 40
36.0
 40
37.0
 40
37.0
 40
38.0
 40
38.0
 40
39.0
 40
39.0
 40
40.0
 40
40.0
 40
41.0
 40
41.0
 40
42.0
 40
42.0
 40
43.0
 40
43.0
 40
44.0
 40
44.0
 40
45.0
 40
45.0
 40
46.0
 40
46.0
 40
47.0
 40
47.0
 40
48.0
 40
48.0
 40
49.0
 40
49.0
 40
50.0
 40
50.0
 40
51.0
 40
51.0
 40
52.0
 40
52.0
 40
53.0
 40
53.0
 40
54.0
 40
54.0
 40
55.0
 40
55.0
 40
56.0
 40
56.0
 40
57.0
 40
57.0
 40
58.0
 40
58.0
 40
59.0
 40
59.0
 40
60.0
 40
60.0
 40
61.0
 40
61.0
 40
62.0
 40
62.0
 40
63.0
 40
63.0
 40
64.0
 40
64.0
 40
65.0
 40
65.0
 40
66.0
 40
66.0
 40
67.0
 40
67.0
 40
68.0
 40
68.0
 40
69.0
 40
69.0
 40
70.0
 40
70.0
 40
71.0
 40
71.0
 40
72.0
 40
72.0
 40
73.0
 40
73.0
 40
74.0
 40
74.0
 40
75.0
 40
75.0
 40
76.0
 40
76.0
 40
76.0
 10
1387.8779623391999
 20
860.00370059843453
 30
0.0
 41
1.0
 10
1387.8713571669393
 20
860.00355741575686
 30
0.0
 41
0.9999070407010802
 10
1387.8647505464189
 20
860.00359439103727
 30
0.0
 41
1.0
 10
1387.8643518939436
 20
860.00359662217602
 30
0.0
 41
1.0
 10
1387.8639532414682
 20
860.00359885331477
 30
0.0
 41
1.0
 10
1387.8575915567726
 20
860.0036344577627
 30
0.0
 41
0.9998938539722547
 10
1387.8512336103972
 20
860.00385540511411
 30
0.0
 41
1.0
 10
1387.850861147778
 20
860.00386834870073
 30
0.0
 41
1.0
 10
1387.8504886851588
 20
860.00388129228725
 30
0.0
 41
1.0
 10
1387.8448756640221
 20
860.00407635246552
 30
0.0
 41
0.999946344670704
 10
1387.8392678885466
 20
860.00438765451702
 30
0.0
 41
1.0
 10
1387.8388886651071
 20
860.00440870618627
 30
0.0
 41
1.0
 10
1387.8385094416676
 20
860.00442975785552
 30
0.0
 41
1.0
 10
1387.8336601130709
 20
860.0046989565684
 30
0.0
 41
0.9999429581895744
 10
1387.8288176411097
 20
860.00507167776846
 30
0.0
 41
1.0
 10
1387.8283565964225
 20
860.00510716400981
 30
0.0
 41
1.0
 10
1387.8278955517353
 20
860.00514265025129
 30
0.0
 41
1.0
 10
1387.8239751691472
 20
860.00544439896862
 30
0.0
 41
0.9999683782977439
 10
1387.8200600815951
 20
860.00580846130561
 30
0.0
 41
1.0
 10
1387.8161445305295
 20
860.00617257481599
 30
0.0
 41
0.9999628781616216
 10
1387.8122358353232
 20
860.0066041076426
 30
0.0
 41
1.0
 10
1387.8083263757142
 20
860.00703573053033
 30
0.0
 41
0.9999568918294143
 10
1387.8044256052522
 20
860.00753987590042
 30
0.0
 41
1.0
 10
1387.8005242507222
 20
860.00804410250896
 30
0.0
 41
0.9999503853495828
 10
1387.7966337154035
 20
860.00862595006322
 30
0.0
 41
1.0
 10
1387.7927428969065
 20
860.00920783996821
 30
0.0
 41
0.9999435146769359
 10
1387.78886532615
 20
860.00987230175497
 30
0.0
 41
1.0
 10
1387.7888375132084
 20
860.00987706778983
 30
0.0
 41
1.0
 10
1387.7888097002665
 20
860.00988183382447
 30
0.0
 41
1.0
 10
1387.784876503626
 20
860.01055582768106
 30
0.0
 41
0.9999316940027193
 10
1387.7809601356805
 20
860.01132157283905
 30
0.0
 41
1.0
 10
1387.7809171416263
 20
860.01132997922195
 30
0.0
 41
1.0
 10
1387.7808741475719
 20
860.01133838560497
 30
0.0
 41
1.0
 10
1387.7768717915171
 20
860.01212094352911
 30
0.0
 41
0.9999171690795241
 10
1387.7728909039545
 20
860.01300625991735
 30
0.0
 41
1.0
 10
1387.7728755775343
 20
860.01300966838619
 30
0.0
 41
1.0
 10
1387.7728602511138
 20
860.01301307685503
 30
0.0
 41
1.0
 10
1387.7688488350266
 20
860.01390517888331
 30
0.0
 41
0.9999033712456557
 10
1387.7648637698267
 20
860.01490845372314
 30
0.0
 41
1.0
 10
1387.7608788396399
 20
860.01591169422966
 30
0.0
 41
0.9998883570544103
 10
1387.756925667079
 20
860.01703356178427
 30
0.0
 41
1.0
 10
1387.7529720377786
 20
860.01815557526425
 30
0.0
 41
0.9998721695001085
 10
1387.7490563048445
 20
860.01940342721105
 30
0.0
 41
1.0
 10
1387.7490416686935
 20
860.01940809140797
 30
0.0
 41
1.0
 10
1387.7490270325425
 20
860.01941275560489
 30
0.0
 41
1.0
 10
1387.745140104473
 20
860.02065142811909
 30
0.0
 41
0.9998552584412471
 10
1387.7412975690672
 20
860.02202162557546
 30
0.0
 41
1.0
 10
1387.7407997883997
 20
860.02219912759745
 30
0.0
 41
1.0
 10
1387.7403020077322
 20
860.02237662961954
 30
0.0
 41
1.0
 10
1387.737455033661
 20
860.02339182303183
 30
0.0
 41
0.9998388303964666
 10
1387.7346463406554
 20
860.02450856947848
 30
0.0
 41
1.0
 10
1387.7318376476496
 20
860.02562531592503
 30
0.0
 41
1.0
 10
1387.729074667966
 20
860.02678497082024
 30
0.0
 41
1.0
 10
1387.7263116882823
 20
860.02794462571535
 30
0.0
 41
0.9997857055395394
 10
1387.7235990791025
 20
860.02921765660528
 30
0.0
 41
1.0
 10
1387.7230903967334
 20
860.02945638187907
 30
0.0
 41
1.0
 10
1387.7225817143644
 20
860.02969510715286
 30
0.0
 41
1.0
 10
1387.7206607667954
 20
860.030596610256
 30
0.0
 41
0.9999205814777066
 10
1387.7187631505719
 20
860.03154624180274
 30
0.0
 41
1.0
 10
1387.7168655343471
 20
860.03249587335006
 30
0.0
 41
0.9999325218711492
 10
1387.7149904923024
 20
860.03348933434131
 30
0.0
 41
1.0
 10
1387.7146043791001
 20
860.03369391023637
 30
0.0
 41
1.0
 10
1387.7142182658979
 20
860.03389848613142
 30
0.0
 41
1.0
 10
1387.711570997448
 20
860.03530109891312
 30
0.0
 41
0.9996864827807598
 10
1387.7089972654951
 20
860.03683447971889
 30
0.0
 41
1.0
 10
1387.7085675986116
 20
860.03709046711936
 30
0.0
 41
1.0
 10
1387.7081379317283
 20
860.03734645451982
 30
0.0
 41
1.0
 10
1387.7047033949646
 20
860.03939279889732
 30
0.0
 41
0.9996293195654602
 10
1387.7013853335845
 20
860.04162305376371
 30
0.0
 41
1.0
 10
1387.7013280934889
 20
860.04166152803748
 30
0.0
 41
1.0
 10
1387.7012708533932
 20
860.04170000231125
 30
0.0
 41
1.0
 10
1387.6980658011612
 20
860.04385429740057
 30
0.0
 41
0.9995692697808289
 10
1387.6949926616153
 20
860.04619292102871
 30
0.0
 41
1.0
 10
1387.6945670091498
 20
860.0465168376287
 30
0.0
 41
1.0
 10
1387.6941413566842
 20
860.0468407542287
 30
0.0
 41
1.0
 10
1387.6919195220698
 20
860.04853154465616
 30
0.0
 41
0.999581335488393
 10
1387.6897992078659
 20
860.05034802174146
 30
0.0
 41
1.0
 10
1387.6876780363791
 20
860.05216527898801
 30
0.0
 41
0.9998878789667033
 10
1387.685612234339
 20
860.05404524023959
 30
0.0
 41
1.0
 10
1387.6835460728896
 20
860.05592546749676
 30
0.0
 41
0.9995012815263951
 10
1387.6816027216348
 20
860.05793237147395
 30
0.0
 41
1.0
 10
1387.6812780523533
 20
860.05826765829931
 30
0.0
 41
1.0
 10
1387.6809533830715
 20
860.05860294512456
 30
0.0
 41
1.0
 10
1387.6796598682545
 20
860.05993876129503
 30
0.0
 41
0.9998621192514406
 10
1387.6784114244535
 20
860.06131679376927
 30
0.0
 41
1.0
 10
1387.6784106982739
 20
860.0613175953265
 30
0.0
 41
1.0
 10
1387.678409972094
 20
860.06131839688385
 30
0.0
 41
1.0
 10
1387.6771629806526
 20
860.06269482624327
 30
0.0
 41
0.9998534990783624
 10
1387.6759638327692
 20
860.06411313149692
 30
0.0
 41
1.0
 10
1387.675963072121
 20
860.06411403116181
 30
0.0
 41
1.0
 10
1387.6759623114729
 20
860.0641149308268
 30
0.0
 41
1.0
 10
1387.6747646848858
 20
860.06553143675058
 30
0.0
 41
0.99984304855656
 10
1387.6736179936038
 20
860.06698948255814
 30
0.0
 41
1.0
 10
1387.6736172776987
 20
860.06699039284877
 30
0.0
 41
1.0
 10
1387.6736165617938
 20
860.0669913031395
 30
0.0
 41
1.0
 10
1387.6724713023218
 20
860.06844752836582
 30
0.0
 41
0.9998317420808088
 10
1387.6713802294075
 20
860.06994478287379
 30
0.0
 41
1.0
 10
1387.6702891564933
 20
860.0714420373821
 30
0.0
 41
0.9998207992603041
 10
1387.6692555434254
 20
860.07297952077795
 30
0.0
 41
1.0
 10
1387.6691270962831
 20
860.07317058390868
 30
0.0
 41
1.0
 10
1387.6689986491406
 20
860.07336164703929
 30
0.0
 41
1.0
 10
1387.6677081417879
 20
860.07528125669694
 30
0.0
 41
0.9995561885220926
 10
1387.6665342433125
 20
860.07727431285127
 30
0.0
 41
1.0
 10
1387.666373103925
 20
860.07754789685782
 30
0.0
 41
1.0
 10
1387.6662119645373
 20
860.07782148086426
 30
0.0
 41
1.0
 10
1387.6651867557939
 20
860.07956209015765
 30
0.0
 41
0.999698912652278
 10
1387.6642481759113
 20
860.08135090023234
 30
0.0
 41
1.0
 10
1387.6633095960287
 20
860.08313971030657
 30
0.0
 41
0.9997938384781989
 10
1387.6624444175638
 20
860.08496515269201
 30
0.0
 41
1.0
 10
1387.6622832052383
 20
860.08530529501434
 30
0.0
 41
1.0
 10
1387.6621219929125
 20
860.08564543733667
 30
0.0
 41
1.0
 10
1387.6609339676711
 20
860.08815226736658
 30
0.0
 41
0.9992579441204739
 10
1387.6599424354097
 20
860.09074310980634
 30
0.0
 41
1.0
 10
1387.6589504810229
 20
860.09333505524626
 30
0.0
 41
0.999828243005949
 10
1387.6580552663602
 20
860.09596198222971
 30
0.0
 41
1.0
 10
1387.6580541168485
 20
860.09596535536855
 30
0.0
 41
1.0
 10
1387.6580529673367
 20
860.09596872850739
 30
0.0
 41
1.0
 10
1387.6571554536506
 20
860.09860240176852
 30
0.0
 41
0.9993709412074556
 10
1387.6564468832501
 20
860.10129306965052
 30
0.0
 41
1.0
 10
1387.6563279245422
 20
860.10174479381783
 30
0.0
 41
1.0
 10
1387.6562089658346
 20
860.10219651798502
 30
0.0
 41
1.0
 10
1387.6552624780186
 20
860.10579063420153
 30
0.0
 41
0.9994354780476005
 10
1387.6545594900144
 20
860.10944019834392
 30
0.0
 41
1.0
 10
1387.6545588886643
 20
860.10944332025576
 30
0.0
 41
1.0
 10
1387.6545582873139
 20
860.1094464421675
 30
0.0
 41
1.0
 10
1387.6538540966094
 20
860.11310225013324
 30
0.0
 41
0.9994867761966095
 10
1387.6533854520653
 20
860.11679564812471
 30
0.0
 41
1.0
 10
1387.6533834798054
 20
860.11681119154855
 30
0.0
 41
1.0
 10
1387.6533815075454
 20
860.11682673497228
 30
0.0
 41
1.0
 10
1387.6529089184817
 20
860.1205512198112
 30
0.0
 41
0.9995123374586037
 10
1387.652669742029
 20
860.12429794135983
 30
0.0
 41
1.0
 10
1387.6526643247164
 20
860.12438280407298
 30
0.0
 41
1.0
 10
1387.6526589074035
 20
860.12446766678613
 30
0.0
 41
1.0
 10
1387.6524088963254
 20
860.12838411376083
 30
0.0
 41
0.9994598514858623
 10
1387.6524167020211
 20
860.13230852473782
 30
0.0
 41
1.0
 10
1387.6524168442554
 20
860.13238003480114
 30
0.0
 41
1.0
 10
1387.6524169864897
 20
860.13245154486458
 30
0.0
 41
1.0
 10
1387.6524250552909
 20
860.13650823524449
 30
0.0
 41
0.9994766583390071
 10
1387.6526954235412
 20
860.14055591395606
 30
0.0
 41
1.0
 10
1387.6529655371048
 20
860.14460165263313
 30
0.0
 41
0.9994901688350893
 10
1387.6534933135972
 20
860.14862190321651
 30
0.0
 41
1.0
 10
1387.6540205418414
 20
860.15263871727552
 30
0.0
 41
0.9995007969689103
 10
1387.6548004022675
 20
860.15661421504569
 30
0.0
 41
1.0
 10
1387.6548189241191
 20
860.1567086339669
 30
0.0
 41
1.0
 10
1387.6548374459708
 20
860.15680305288822
 30
0.0
 41
1.0
 10
1387.6555799691318
 20
860.16058821632612
 30
0.0
 41
0.9995080852855586
 10
1387.6565583369174
 20
860.16431938227993
 30
0.0
 41
1.0
 10
1387.6565825869318
 20
860.16441186368547
 30
0.0
 41
1.0
 10
1387.6566068369461
 20
860.16450434509102
 30
0.0
 41
1.0
 10
1387.6575367047028
 20
860.16805054823362
 30
0.0
 41
0.9995984312844226
 10
1387.6586659747716
 20
860.17153837848832
 30
0.0
 41
1.0
 10
1387.6586854671859
 20
860.17159848161145
 30
0.0
 41
1.0
 10
1387.6587049596001
 20
860.17165858473459
 30
0.0
 41
1.0
  0
LWPOLYLINE
  5
364
100
AcDbEntity
  8
0
370
              15
  6
Continuous
 62
               7
100
AcDbPolyline
 90
       65
 70
             128
 10
1378.3038462520999
 20
860.21247169003459
 10
1378.3038476208167
 20
860.21235337465055
 42
-0.0136974674108937
 10
1378.3036081561036
 20
860.1972229340638
 10
1378.3035303361848
 20
860.19542344293166
 42
-0.0141875258504203
 10
1378.3027055150746
 20
860.18392195501383
 42
-0.007120139321862
 10
1378.3013906793394
 20
860.17245980488394
 42
-0.0143504068978091
 10
1378.299585033797
 20
860.16106486095373
 10
1378.2992297149665
 20
860.15917509087444
 42
-0.0072381452766115
 10
1378.2976983056183
 20
860.1516331348563
 42
-0.0072697803519315
 10
1378.2959487407381
 20
860.14413878837479
 10
1378.2954792843109
 20
860.1422521807873
 42
-0.0146279013815747
 10
1378.2924009906051
 20
860.13126369700433
 10
1378.2923835168169
 20
860.13120768363933
 42
-0.0072820613897309
 10
1378.2888622694632
 20
860.12047259041287
 42
-0.0148530826534948
 10
1378.2848712152693
 20
860.10990843290438
 10
1378.2841531165368
 20
860.10816602876798
 42
-0.0075791972348485
 10
1378.2811799877695
 20
860.10125139909974
 42
-0.0076745773988224
 10
1378.2779973400673
 20
860.094430693709
 10
1378.2777926124579
 20
860.09400895988188
 42
-0.0097426442431282
 10
1378.273948870185
 20
860.08646854420329
 10
1378.2730063244985
 20
860.08470529075271
 42
-0.0160627924478671
 10
1378.2670248676709
 20
860.07433139221939
 10
1378.2663945297734
 20
860.07331506625155
 42
-0.0098385773152419
 10
1378.2611820483589
 20
860.06526860377676
 10
1378.2609741953079
 20
860.06496117244251
 42
-0.0113528668224535
 10
1378.2558552806229
 20
860.05774839306366
 42
-0.008057478597231
 10
1378.2504596069803
 20
860.05073881407577
 10
1378.2497377504385
 20
860.04983166818329
 42
-0.0155301995961669
 10
1378.2425209255866
 20
860.04131896564331
 10
1378.2412711348941
 20
860.03993432879565
 42
-0.0148603126036391
 10
1378.2309674452001
 20
860.02917980515258
 42
-0.0142697506480901
 10
1378.2200510284374
 20
860.01903972843411
 42
-0.013778287166708
 10
1378.2085825069971
 20
860.00952695075648
 10
1378.2085649379344
 20
860.0095131769001
 42
-0.0133634271450654
 10
1378.196561087995
 20
860.00060982713262
 10
1378.1965397257086
 20
860.00059485054749
 42
-0.0127397371308684
 10
1378.1840420485328
 20
859.99229983974055
 42
-0.0121110172690142
 10
1378.1711462080868
 20
859.98463499844684
 42
-0.0115018967435217
 10
1378.1579035653212
 20
859.97758778618379
 10
1378.1578333739835
 20
859.97755248026465
 42
-0.0109178917396885
 10
1378.144430065608
 20
859.97117345566664
 10
1378.1443184388047
 20
859.9711232883858
 42
-0.0101746836340955
 10
1378.1308828176429
 20
859.96541073967637
 10
1378.1308413898996
 20
859.9653941124468
 42
-0.0095848347191485
 10
1378.1172737140914
 20
859.96024836465017
 42
-0.0091190191143933
 10
1378.1035230306391
 20
859.95561359195972
 42
-0.0086614865270855
 10
1378.0896161118021
 20
859.95147058072268
 10
1378.0894817240282
 20
859.95143306703221
 42
-0.008214213371436
 10
1378.0757125411233
 20
859.94783220255658
 10
1378.0754135800009
 20
859.94775924464057
 42
-0.0074910864454634
 10
1378.0621377630418
 20
859.94472942902041
 10
1378.0619727405654
 20
859.94469435993346
 42
-0.00674456427816
 10
1378.0489467011621
 20
859.94210931214775
 42
-0.0063631744021744
 10
1378.0358580310804
 20
859.93986668385855
 42
-0.0059832001083536
 10
1378.0227195335183
 20
859.9379481025278
 42
-0.0056080938913217
 10
1378.0095408705715
 20
859.93633468558016
 10
1378.006335854948
 20
859.93597874485442
 42
-0.0097605641247999
 10
1377.9881155015642
 20
859.93431456362214
 10
1377.9849002534202
 20
859.93408407672246
 42
-0.0048008318170462
 10
1377.9730708596408
 20
859.93335016951107
 42
-0.0048884771692542
 10
1377.9612294859144
 20
859.93284562211466
 10
1377.9585365730195
 20
859.93275724610749
 42
-0.0096238150411625
 10
1377.9412999413037
 20
859.93252351707508
 10
1377.938607082644
 20
859.93253883381408
 10
1377.9384214035999
 20
859.93253992823463
  0
LWPOLYLINE
  5
365
100
AcDbEntity
  8
0
370
              15
  6
Continuous
 62
               7
100
AcDbPolyline
 90
       77
 70
             128
 10
1378.1576793018999
 20
860.17165819823458
 42
-0.0140538892162179
 10
1378.1597902695846
 20
860.16444612742907
 10
1378.1600131050518
 20
860.16359699256452
 42
-0.0155418863712003
 10
1378.1613583365572
 20
860.15773447122569
 10
1378.1615520014016
 20
860.15675123355334
 42
-0.007803427040914
 10
1378.1622659944578
 20
860.1528022187216
 42
-0.0078243245637353
 10
1378.1628562325789
 20
860.1488328230314
 10
1378.1629885904126
 20
860.14783569252825
 42
-0.015780288355055
 10
1378.1635922681901
 20
860.14184374167303
 10
1378.1636699860917
 20
860.14071674774686
 42
-0.0099619124308535
 10
1378.1639035248375
 20
860.13594746498438
 42
-0.0090337402326534
 10
1378.1639557547066
 20
860.13117258503621
 10
1378.1639503662668
 20
860.13041674546321
 42
-0.0162050424741667
 10
1378.1637019711925
 20
860.12413729525065
 10
1378.163572447708
 20
860.12234005124787
 42
-0.0152767442307506
 10
1378.1630072566218
 20
860.11684502276262
 42
-0.0078503311764758
 10
1378.1621884302749
 20
860.1113806965601
 42
-0.0163660187368025
 10
1378.1611071981665
 20
860.10596747123293
 10
1378.1611059549919
 20
860.10596215875148
 42
-0.0084621684845953
 10
1378.1597600884345
 20
860.10062000910057
 10
1378.1597590908634
 20
860.10061631453584
 42
-0.0177384904373212
 10
1378.158138329469
 20
860.09536185136358
 10
1378.1578359340763
 20
860.09449227189305
 42
-0.0092747933543491
 10
1378.1565697820186
 20
860.09105797409893
 42
-0.0094908117846255
 10
1378.1551756735382
 20
860.08767362974913
 10
1378.1549943563839
 20
860.08725614476134
 42
-0.0148288785507896
 10
1378.1530506999536
 20
860.08312095243105
 10
1378.1527679574488
 20
860.08256300869027
 42
-0.0121590056268739
 10
1378.1508711494419
 20
860.07903542228257
 10
1378.1507876390094
 20
860.07888877799041
 42
-0.0099756988164607
 10
1378.1489091885126
 20
860.07573809502901
 42
-0.0096397107129804
 10
1378.146907607214
 20
860.07266207934617
 42
-0.0093250484212608
 10
1378.1447898192484
 20
860.0696627498844
 10
1378.1447885653768
 20
860.06966104256799
 42
-0.0090756789016307
 10
1378.1425592703015
 20
860.06673826692463
 10
1378.1419851297615
 20
860.06601320357765
 42
-0.0171631490485061
 10
1378.1384099517352
 20
860.06180352809452
 10
1378.1377860915243
 20
860.06111808334856
 42
-0.0160787253284361
 10
1378.1326484090368
 20
860.05582553465604
 10
1378.132483668337
 20
860.05566640013217
 42
-0.0151395559907286
 10
1378.1273521305893
 20
860.05100138123919
 10
1378.1267102147258
 20
860.05045237987258
 42
-0.012656302153151
 10
1378.1226374636842
 20
860.04714388619232
 42
-0.0076063472442704
 10
1378.1184331603642
 20
860.04400246344596
 10
1378.118124799325
 20
860.04377928670283
 42
-0.0143316374523885
 10
1378.1131590383272
 20
860.0403978371661
 10
1378.1123193209132
 20
860.03986059142255
 42
-0.0132157742844479
 10
1378.105470298711
 20
860.03572939912738
 42
-0.0120966620461158
 10
1378.0984227832607
 20
860.03195102542793
 42
-0.0109997766019323
 10
1378.0912072822609
 20
860.02850162577647
 42
-0.0099239618060872
 10
1378.0838529804726
 20
860.02535674809008
 10
1378.0838216528985
 20
860.02534408103031
 42
-0.0090771047184659
 10
1378.0762898462028
 20
860.02245659648463
 10
1378.0762200831032
 20
860.0224312939722
 42
-0.0086874779685766
 10
1378.0684499950401
 20
860.01976496479244
 10
1378.068412425413
 20
860.01975279802832
 42
-0.0081540014833371
 10
1378.0604823963968
 20
860.01732679754059
 42
-0.0076133182542568
 10
1378.0524808319835
 20
860.01515230029429
 42
-0.0070772753455351
 10
1378.044418539836
 20
860.01321373291023
 10
1378.0443887613708
 20
860.01320701709801
 42
-0.0065466930267296
 10
1378.0363360296674
 20
860.01150139709546
 10
1378.0362525217643
 20
860.01148484893076
 42
-0.0059399876701006
 10
1378.0283269736613
 20
860.01001192594003
 10
1378.0282729443065
 20
860.01000254745486
 42
-0.0054098274939283
 10
1378.0204241596352
 20
860.0087274637001
 42
-0.005062862091228
 10
1378.0125508934693
 20
860.00761710112886
 42
-0.0047149721464674
 10
1378.0046585051684
 20
860.00666102714604
 42
-0.0043683693837935
 10
1377.9967514920504
 20
860.00584861251093
 42
-0.0040228423366215
 10
1377.98883282372
 20
860.0051690783306
 10
1377.9868374484379
 20
860.00501400828648
 42
-0.0071055621214
 10
1377.9755439434066
 20
860.00429762935789
 10
1377.9753738570182
 20
860.00428926507902
 42
-0.0035038745167383
 10
1377.9644071040095
 20
860.00382696941131
 42
-0.0073558447280831
 10
1377.9534338157403
 20
860.00360297128486
 10
1377.9516023797137
 20
860.0035925342263
 42
-0.0068836597954181
 10
1377.9385363301353
 20
860.00369795764914
 10
1377.9384215447001
 20
860.0037004826346
  0
LWPOLYLINE
  5
366
100
AcDbEntity
  8
0
370
               5
  6
Continuous
 62
               7
100
AcDbPolyline
 90
       32
 70
             128
 10
1378.3038462520999
 20
860.21247169003459
 10
1378.3022134132507
 20
860.21247800183278
 42
0.0115288018472132
 10
1378.2919774625943
 20
860.21228153891957
 10
1378.2904588865949
 20
860.21221734445919
 42
0.0061405862759307
 10
1378.2832694380636
 20
860.21182492441176
 42
0.0060725095363047
 10
1378.2760914189294
 20
860.21125700652692
 42
0.0059982543419285
 10
1378.2689282418255
 20
860.21051589259173
 42
0.0059423080290531
 10
1378.2617841362851
 20
860.20960387430705
 10
1378.2602154744252
 20
860.20938464231369
 42
0.010671973710518
 10
1378.2502769878815
 20
860.20777872431768
 10
1378.2487200335936
 20
860.20749292151402
 42
0.0057062421132229
 10
1378.2419448443547
 20
860.20616913417143
 42
0.0060150943804106
 10
1378.2352029340477
 20
860.20468698355626
 42
0.0063141859276586
 10
1378.2285009429243
 20
860.20303937408596
 42
0.0066234397883061
 10
1378.221846059733
 20
860.20121950879741
 42
0.0069333118564585
 10
1378.2152454170491
 20
860.19922060879094
 10
1378.2150392432761
 20
860.1991550367926
 42
0.0072564693889585
 10
1378.2089095520548
 20
860.19710711752464
 42
0.0066205198361682
 10
1378.2028389439529
 20
860.19488984905274
 10
1378.2027672279296
 20
860.19486257347148
 42
0.0081577708435002
 10
1378.1966225639567
 20
860.19241010895723
 10
1378.1963532735676
 20
860.19229750226361
 42
0.0070519055390012
 10
1378.1905395756439
 20
860.18976953226434
 42
0.0069046997813361
 10
1378.1847979049055
 20
860.18707992124064
 42
0.0067649885088574
 10
1378.1791304751791
 20
860.18423367333537
 42
0.0066314232499048
 10
1378.1735402836712
 20
860.18123608271458
 42
0.006504979943157
 10
1378.1680303256628
 20
860.17809243757779
 10
1378.1679017646302
 20
860.17801685484665
 42
0.0063845545451251
 10
1378.1627297654734
 20
860.17488662362689
 10
1378.1626032425993
 20
860.1748078239691
 42
0.0056886423603402
 10
1378.1577594611222
 20
860.17171403668704
 10
1378.1576765795
 20
860.17165973993463
  0
LWPOLYLINE
  5
367
100
AcDbEntity
  8
0
370
               5
  6
Continuous
 62
               7
100
AcDbPolyline
 90
       32
 70
             128
 10
1378.3038463992
 20
852.59834093213453
 10
1378.3022135089832
 20
852.59834724035773
 42
0.0115290218647601
 10
1378.2919772364905
 20
852.59815074309711
 10
1378.290458612988
 20
852.59808654177414
 42
0.0061407010968362
 10
1378.28326893905
 20
852.59769408475711
 42
0.0060726220630035
 10
1378.2760906956637
 20
852.59712612113776
 42
0.0059983644216854
 10
1378.2689272956809
 20
852.59638495286436
 42
0.0059424161413933
 10
1378.2617829689696
 20
852.59547287180931
 10
1378.2602142072492
 20
852.59525361790645
 42
0.0106721334377466
 10
1378.2502755605935
 20
852.59364762006885
 10
1378.2487185076582
 20
852.59336179012507
 42
0.0057061437306226
 10
1378.2419433579041
 20
852.59203797241071
 42
0.0060149997196995
 10
1378.2352014873059
 20
852.59055579498397
 42
0.0063140942657771
 10
1378.2284995361019
 20
852.58890816223447
 42
0.0066233509117676
 10
1378.2218446929012
 20
852.58708827715736
 42
0.0069332254091448
 10
1378.2152440901409
 20
852.58508936081239
 10
1378.2150379175789
 20
852.58502378834282
 42
0.0072563853598563
 10
1378.208908263623
 20
852.58297585696505
 42
0.0066204477288635
 10
1378.2028376924195
 20
852.58075857931885
 10
1378.2027660003332
 20
852.58073131258311
 42
0.0081575732238023
 10
1378.1966214197435
 20
852.57827886173982
 10
1378.1963521540779
 20
852.57816626463864
 42
0.0070516513119881
 10
1378.190538640484
 20
852.57563836200927
 42
0.0069044514469217
 10
1378.1847971494763
 20
852.5729488292684
 42
0.0067647454322858
 10
1378.1791298945604
 20
852.57010267013766
 42
0.0066311846494244
 10
1378.1735398725557
 20
852.56710517833721
 42
0.0065047450560978
 10
1378.168030078356
 20
852.56396164162106
 10
1378.1679015211951
 20
852.56388606160169
 42
0.0063843223776922
 10
1378.1627296722768
 20
852.56075594238848
 10
1378.162603153092
 20
852.56067714563369
 42
0.0056884335782815
 10
1378.1577595090016
 20
852.55758347245865
 10
1378.1576766297001
 20
852.55752917773452
  0
LWPOLYLINE
  5
368
100
AcDbEntity
  8
0
370
               5
  6
Continuous
 62
               7
100
AcDbPolyline
 90
       60
 70
             128
 10
1377.9384216440999
 20
852.87827261853454
 42
-0.0087819167548384
 10
1377.9594258954646
 20
852.87802152311156
 10
1377.9599699555968
 20
852.87800545925029
 42
-0.0096658190660111
 10
1377.9820370597683
 20
852.87692665934537
 10
1377.985046729023
 20
852.87672114339182
 42
-0.0087564421166764
 10
1378.0026831972968
 20
852.87520613211245
 10
1378.004958163222
 20
852.87497050878562
 42
-0.005417193311076
 10
1378.0180019785664
 20
852.87347652916276
 42
-0.0057866023633232
 10
1378.0310100463657
 20
852.87169050807302
 42
-0.0061483508956623
 10
1378.0439735572884
 20
852.86959422056407
 42
-0.0065141584140224
 10
1378.0568804900565
 20
852.86717021947243
 10
1378.0569521013588
 20
852.86715580213877
 42
-0.0070337698800532
 10
1378.0699312331426
 20
852.8643522101487
 10
1378.0702317983423
 20
852.86428284655335
 42
-0.0079452947091342
 10
1378.0837195528582
 20
852.86094359198682
 10
1378.0839477096383
 20
852.86088324245725
 42
-0.0083869376397334
 10
1378.0977731963353
 20
852.85697702008247
 42
-0.0088399517322095
 10
1378.11145558464
 20
852.85259699574453
 42
-0.0093023597419189
 10
1378.1249697147427
 20
852.84772364793389
 10
1378.1249770117493
 20
852.84772086208852
 42
-0.0097843796964255
 10
1378.1383095497113
 20
852.84232956802202
 10
1378.1400357212374
 20
852.84159193425512
 42
-0.0106874467668187
 10
1378.1502507275852
 20
852.83696619542582
 10
1378.1519363580462
 20
852.83615903057944
 42
-0.0055524580122628
 10
1378.1586445226778
 20
852.83285475592584
 42
-0.00565339210267
 10
1378.1652769402679
 20
852.82940099166058
 10
1378.1669258885349
 20
852.82851847734196
 42
-0.011795520873329
 10
1378.1766868132934
 20
852.82299438830239
 10
1378.1785916027252
 20
852.82185625379839
 42
-0.0124128867883414
 10
1378.1906465489619
 20
852.81424097944364
 10
1378.1922000521517
 20
852.81320478445423
 42
-0.0118041848455798
 10
1378.2008161600975
 20
852.80715913998506
 42
-0.006701305898685
 10
1378.2092042556317
 20
852.80079762746982
 10
1378.2094882603208
 20
852.80057618139404
 42
-0.013808537333964
 10
1378.2181628919211
 20
852.7934184218999
 42
-0.0070790620036792
 10
1378.2265352244306
 20
852.78590086988811
 42
-0.0146661417910623
 10
1378.2345691625371
 20
852.77803019158591
 42
-0.0075509642509878
 10
1378.2422443364323
 20
852.76981191989262
 42
-0.0156606814447742
 10
1378.2495248828984
 20
852.76125222339203
 10
1378.2511175651978
 20
852.75925630225765
 42
-0.0122740609228906
 10
1378.2570814335268
 20
852.75139416315096
 42
-0.0094933407082269
 10
1378.2626981771205
 20
852.74327894728572
 10
1378.2632475543687
 20
852.74245207594299
 42
-0.0164518622051383
 10
1378.2694771769945
 20
852.73237143117819
 10
1378.2703110254795
 20
852.73091722183244
 42
-0.0158964292095464
 10
1378.2774522410034
 20
852.71749063085338
 42
-0.0154227108642576
 10
1378.2837434509424
 20
852.70363297549261
 42
-0.0150271650994141
 10
1378.2891815187268
 20
852.68941327559196
 10
1378.2891873927049
 20
852.68939641407417
 42
-0.0147766330847473
 10
1378.2937795763617
 20
852.67484377307221
 10
1378.2938010462167
 20
852.67476800262421
 42
-0.0147848647338503
 10
1378.2975637975851
 20
852.65981678919366
 10
1378.2975768730944
 20
852.65975747679204
 42
-0.0145880972331251
 10
1378.3004776404514
 20
852.6444950854692
 42
-0.0144327406913708
 10
1378.3024875838121
 20
852.62909642692262
 10
1378.3025001530029
 20
852.628972316214
 42
-0.0143230709848746
 10
1378.3036034966947
 20
852.61373526405782
 10
1378.3036088851818
 20
852.61361187092734
 42
-0.0138227026244253
 10
1378.3038493304491
 20
852.59858334352941
 10
1378.3038463992
 20
852.59834093213453
  0
SPLINE
  5
369
100
AcDbEntity
  8
0
370
               5
  6
Continuous
 62
               7
100
AcDbSpline
210
0.0
220
0.0
230
1.0
 70
              12
 71
               2
 72
             172
 73
             169
 74
               0
 42
0.000001
 43
0.000001
 40
0.0
 40
0.0
 40
0.0
 40
1.0
 40
1.0
 40
2.0
 40
2.0
 40
3.0
 40
3.0
 40
4.0
 40
4.0
 40
5.0
 40
5.0
 40
6.0
 40
6.0
 40
7.0
 40
7.0
 40
8.0
 40
8.0
 40
9.0
 40
9.0
 40
10.0
 40
10.0
 40
11.0
 40
11.0
 40
12.0
 40
12.0
 40
13.0
 40
13.0
 40
14.0
 40
14.0
 40
15.0
 40
15.0
 40
16.0
 40
16.0
 40
17.0
 40
17.0
 40
18.0
 40
18.0
 40
19.0
 40
19.0
 40
20.0
 40
20.0
 40
21.0
 40
21.0
 40
22.0
 40
22.0
 40
23.0
 40
23.0
 40
24.0
 40
24.0
 40
25.0
 40
25.0
 40
26.0
 40
26.0
 40
27.0
 40
27.0
 40
28.0
 40
28.0
 40
29.0
 40
29.0
 40
30.0
 40
30.0
 40
31.0
 40
31.0
 40
32.0
 40
32.0
 40
33.0
 40
33.0
 40
34.0
 40
34.0
 40
35.0
 40
35.0
 40
36.0
 40
36.0
 40
37.0
 40
37.0
 40
38.0
 40
38.0
 40
39.0
 40
39.0
 40
40.0
 40
40.0
 40
41.0
 40
41.0
 40
42.0
 40
42.0
 40
43.0
 40
43.0
 40
44.0
 40
44.0
 40
45.0
 40
45.0
 40
46.0
 40
46.0
 40
47.0
 40
47.0
 40
48.0
 40
48.0
 40
49.0
 40
49.0
 40
50.0
 40
50.0
 40
51.0
 40
51.0
 40
52.0
 40
52.0
 40
53.0
 40
53.0
 40
54.0
 40
54.0
 40
55.0
 40
55.0
 40
56.0
 40
56.0
 40
57.0
 40
57.0
 40
58.0
 40
58.0
 40
59.0
 40
59.0
 40
60.0
 40
60.0
 40
61.0
 40
61.0
 40
62.0
 40
62.0
 40
63.0
 40
63.0
 40
64.0
 40
64.0
 40
65.0
 40
65.0
 40
66.0
 40
66.0
 40
67.0
 40
67.0
 40
68.0
 40
68.0
 40
69.0
 40
69.0
 40
70.0
 40
70.0
 40
71.0
 40
71.0
 40
72.0
 40
72.0
 40
73.0
 40
73.0
 40
74.0
 40
74.0
 40
75.0
 40
75.0
 40
76.0
 40
76.0
 40
77.0
 40
77.0
 40
78.0
 40
78.0
 40
79.0
 40
79.0
 40
80.0
 40
80.0
 40
81.0
 40
81.0
 40
82.0
 40
82.0
 40
83.0
 40
83.0
 40
84.0
 40
84.0
 40
84.0
 10
1377.9384219069
 20
852.72548859143467
 30
0.0
 41
1.0
 10
1377.9391898386432
 20
852.72570213599954
 30
0.0
 41
1.0
 10
1377.9399577703864
 20
852.72591568056453
 30
0.0
 41
1.0
 10
1377.945001705458
 20
852.72731828558778
 30
0.0
 41
0.9998349889003524
 10
1377.9500932619569
 20
852.72853674127953
 30
0.0
 41
1.0
 10
1377.9503552147805
 20
852.72859942896821
 30
0.0
 41
1.0
 10
1377.9506171676044
 20
852.72866211665701
 30
0.0
 41
1.0
 10
1377.955184818456
 20
852.72975519697127
 30
0.0
 41
0.9999519496488213
 10
1377.9597730212761
 20
852.73075851833278
 30
0.0
 41
1.0
 10
1377.9643601725406
 20
852.73176164061533
 30
0.0
 41
0.9999006828068202
 10
1377.9689737736053
 20
852.73263507993988
 30
0.0
 41
1.0
 10
1377.9735863231156
 20
852.73350832018593
 30
0.0
 41
0.9999602976360322
 10
1377.978213702122
 20
852.73429922159494
 30
0.0
 41
1.0
 10
1377.9783440455535
 20
852.73432149960672
 30
0.0
 41
1.0
 10
1377.978474388985
 20
852.73434377761839
 30
0.0
 41
1.0
 10
1377.9833624548551
 20
852.73517923505096
 30
0.0
 41
0.9998955973423834
 10
1377.9882726212552
 20
852.73587309598508
 30
0.0
 41
1.0
 10
1377.9888682471535
 20
852.73595726452606
 30
0.0
 41
1.0
 10
1377.9894638730516
 20
852.73604143306716
 30
0.0
 41
1.0
 10
1377.9933877179417
 20
852.73659591583998
 30
0.0
 41
0.9999451005115569
 10
1377.9973223206857
 20
852.73706805047323
 30
0.0
 41
1.0
 10
1378.0012572360536
 20
852.73754021532034
 30
0.0
 41
0.999933438138372
 10
1378.0052019984942
 20
852.73792146049357
 30
0.0
 41
1.0
 10
1378.0091472737074
 20
852.738302750137
 30
0.0
 41
0.9999203930526263
 10
1378.0131009139523
 20
852.73858436532328
 30
0.0
 41
1.0
 10
1378.0170551644951
 20
852.73886601269487
 30
0.0
 41
0.9999060126056756
 10
1378.0210156505918
 20
852.73903913829213
 30
0.0
 41
1.0
 10
1378.0249765468375
 20
852.73921228181825
 30
0.0
 41
0.9998909305129144
 10
1378.028940828925
 20
852.73926836462056
 30
0.0
 41
1.0
 10
1378.0294426688399
 20
852.73927546416292
 30
0.0
 41
1.0
 10
1378.0299445087549
 20
852.73928256370527
 30
0.0
 41
1.0
 10
1378.0329660850643
 20
852.73932531002424
 30
0.0
 41
0.9998657532221698
 10
1378.0359874395629
 20
852.73926902828021
 30
0.0
 41
1.0
 10
1378.0390087940618
 20
852.73921274653605
 30
0.0
 41
1.0
 10
1378.0420353031614
 20
852.73910312009707
 30
0.0
 41
1.0
 10
1378.0450617119513
 20
852.73899350113379
 30
0.0
 41
0.9998177498050835
 10
1378.0480817299745
 20
852.7387684286532
 30
0.0
 41
1.0
 10
1378.0511016476878
 20
852.73854336364843
 30
0.0
 41
1.0
 10
1378.0541165985549
 20
852.73825700706152
 30
0.0
 41
1.0
 10
1378.0571316779094
 20
852.73797063258314
 30
0.0
 41
0.9997617337621142
 10
1378.0601313848692
 20
852.73755293411352
 30
0.0
 41
1.0
 10
1378.0631326330579
 20
852.73713498769723
 30
0.0
 41
0.9999335389005136
 10
1378.0661234470422
 20
852.73664795422008
 30
0.0
 41
1.0
 10
1378.0691168249036
 20
852.73616044464598
 30
0.0
 41
0.9996983617852238
 10
1378.0720826525558
 20
852.73552653381364
 30
0.0
 41
1.0
 10
1378.072102667222
 20
852.73552225591379
 30
0.0
 41
1.0
 10
1378.0721226818882
 20
852.73551797801395
 30
0.0
 41
1.0
 10
1378.0750496313433
 20
852.73489237693968
 30
0.0
 41
0.9999171701376785
 10
1378.0779595086701
 20
852.73419164606184
 30
0.0
 41
1.0
 10
1378.0779728040093
 20
852.73418844439607
 30
0.0
 41
1.0
 10
1378.0779860993484
 20
852.73418524273029
 30
0.0
 41
1.0
 10
1378.0808693859963
 20
852.73349091518412
 30
0.0
 41
0.9996441104898205
 10
1378.0837115371401
 20
852.73264379682666
 30
0.0
 41
1.0
 10
1378.0837160009323
 20
852.7326424663695
 30
0.0
 41
1.0
 10
1378.0837204647246
 20
852.73264113591233
 30
0.0
 41
1.0
 10
1378.0865536882834
 20
852.73179667846944
 30
0.0
 41
0.9999023923760697
 10
1378.0893622111723
 20
852.73087338908431
 30
0.0
 41
1.0
 10
1378.0921702699109
 20
852.72995028377704
 30
0.0
 41
0.9995506531284832
 10
1378.0949179675881
 20
852.72886057062169
 30
0.0
 41
1.0
 10
1378.0953767439269
 20
852.72867862389012
 30
0.0
 41
1.0
 10
1378.0958355202656
 20
852.72849667715855
 30
0.0
 41
1.0
 10
1378.0976652011159
 20
852.72777104154397
 30
0.0
 41
0.9998721390631652
 10
1378.0994707422333
 20
852.72698726840667
 30
0.0
 41
1.0
 10
1378.1012755343932
 20
852.72620385038408
 30
0.0
 41
0.9998620796854972
 10
1378.1030533127187
 20
852.72536092526138
 30
0.0
 41
1.0
 10
1378.104829600318
 20
852.72451873894511
 30
0.0
 41
0.9998501085615668
 10
1378.1065756648295
 20
852.72361555892485
 30
0.0
 41
1.0
 10
1378.1083203791793
 20
852.72271310565066
 30
0.0
 41
0.9998373127237155
 10
1378.1100314077107
 20
852.72174830958988
 30
0.0
 41
1.0
 10
1378.1117414792527
 20
852.72078407077481
 30
0.0
 41
0.9998237670589861
 10
1378.1134141480095
 20
852.71975631574503
 30
0.0
 41
1.0
 10
1378.1150865010538
 20
852.71872875288921
 30
0.0
 41
0.9998095810481553
 10
1378.1167174840552
 20
852.71763671599547
 30
0.0
 41
1.0
 10
1378.1183484999399
 20
852.71654465708446
 30
0.0
 41
0.9997941500638594
 10
1378.1199338677884
 20
852.71538732641966
 30
0.0
 41
1.0
 10
1378.1200114405522
 20
852.71533069770828
 30
0.0
 41
1.0
 10
1378.1200890133159
 20
852.71527406899691
 30
0.0
 41
1.0
 10
1378.1218295266917
 20
852.71400348090947
 30
0.0
 41
0.9996900202093568
 10
1378.1235046341078
 20
852.71264782754463
 30
0.0
 41
1.0
 10
1378.1235786264519
 20
852.71258794602932
 30
0.0
 41
1.0
 10
1378.1236526187961
 20
852.712528064514
 30
0.0
 41
1.0
 10
1378.1251973655842
 20
852.71127791114407
 30
0.0
 41
0.9997864781233632
 10
1378.126689138023
 20
852.70996499794114
 30
0.0
 41
1.0
 10
1378.1281809104619
 20
852.70865208473822
 30
0.0
 41
0.9997937273741736
 10
1378.1296181322198
 20
852.70727967091375
 30
0.0
 41
1.0
 10
1378.129618994061
 20
852.70727884793507
 30
0.0
 41
1.0
 10
1378.1296198559023
 20
852.70727802495639
 30
0.0
 41
1.0
 10
1378.1310588013425
 20
852.70590396517491
 30
0.0
 41
0.9997987735225851
 10
1378.1324414718913
 20
852.70447329176102
 30
0.0
 41
1.0
 10
1378.1327888516669
 20
852.70411385182797
 30
0.0
 41
1.0
 10
1378.1331362314424
 20
852.70375441189503
 30
0.0
 41
1.0
 10
1378.1352140117324
 20
852.70160443416512
 30
0.0
 41
0.9992298812579539
 10
1378.1371168009193
 20
852.69929814526677
 30
0.0
 41
1.0
 10
1378.139020034781
 20
852.69699130790445
 30
0.0
 41
0.9998122465651721
 10
1378.1408324566169
 20
852.69461245842672
 30
0.0
 41
1.0
 10
1378.142644972937
 20
852.69223348493563
 30
0.0
 41
0.9992596348087645
 10
1378.1442692059304
 20
852.68972219095303
 30
0.0
 41
1.0
 10
1378.144610708471
 20
852.68919417971392
 30
0.0
 41
1.0
 10
1378.1449522110115
 20
852.68866616847492
 30
0.0
 41
1.0
 10
1378.1469714788714
 20
852.68554409470426
 30
0.0
 41
0.9992596588668339
 10
1378.1487447189675
 20
852.68227600552564
 30
0.0
 41
1.0
 10
1378.1489449503392
 20
852.68190697824002
 30
0.0
 41
1.0
 10
1378.149145181711
 20
852.68153795095441
 30
0.0
 41
1.0
 10
1378.1505179590636
 20
852.67900791634679
 30
0.0
 41
0.9994238306881567
 10
1378.1517159275329
 20
852.67639057717861
 30
0.0
 41
1.0
 10
1378.1518365065424
 20
852.67612713438143
 30
0.0
 41
1.0
 10
1378.1519570855519
 20
852.67586369158437
 30
0.0
 41
1.0
 10
1378.1529138960018
 20
852.67377323801088
 30
0.0
 41
0.9997610900378421
 10
1378.1537784286506
 20
852.67164296439466
 30
0.0
 41
1.0
 10
1378.1546427754852
 20
852.66951320930116
 30
0.0
 41
0.9997853821548725
 10
1378.1554181555068
 20
852.66734947687075
 30
0.0
 41
1.0
 10
1378.1561935047541
 20
852.66518577044292
 30
0.0
 41
0.9998087146343014
 10
1378.1568836393781
 20
852.6629933958942
 30
0.0
 41
1.0
 10
1378.1575739290417
 20
852.66080052882614
 30
0.0
 41
0.9998307124712629
 10
1378.1581830690889
 20
852.65858374868333
 30
0.0
 41
1.0
 10
1378.1581834071362
 20
852.65858251846328
 30
0.0
 41
1.0
 10
1378.1581837451834
 20
852.65858128824311
 30
0.0
 41
1.0
 10
1378.1587935613245
 20
852.65636204766145
 30
0.0
 41
0.9998514448309087
 10
1378.159326523727
 20
852.65412310693728
 30
0.0
 41
1.0
 10
1378.1593269280149
 20
852.65412140855005
 30
0.0
 41
1.0
 10
1378.1593273323028
 20
852.65411971016283
 30
0.0
 41
1.0
 10
1378.1598611032809
 20
852.65187737266501
 30
0.0
 41
0.9998706413888023
 10
1378.1603224751464
 20
852.64961902705068
 30
0.0
 41
1.0
 10
1378.160322864783
 20
852.6496171198379
 30
0.0
 41
1.0
 10
1378.1603232544198
 20
852.64961521262501
 30
0.0
 41
1.0
 10
1378.1607854055585
 20
852.647353052585
 30
0.0
 41
0.9998882169832478
 10
1378.1611797113203
 20
852.64507808562166
 30
0.0
 41
1.0
 10
1378.1611800356475
 20
852.64507621439952
 30
0.0
 41
1.0
 10
1378.1611803599747
 20
852.64507434317738
 30
0.0
 41
1.0
 10
1378.1615753143908
 20
852.64279563377011
 30
0.0
 41
0.9999041467732472
 10
1378.1619070237891
 20
852.64050686239034
 30
0.0
 41
1.0
 10
1378.1619072568246
 20
852.6405052544626
 30
0.0
 41
1.0
 10
1378.1619074898599
 20
852.64050364653485
 30
0.0
 41
1.0
 10
1378.1622398003401
 20
852.63821052428068
 30
0.0
 41
0.9999185914299336
 10
1378.1625134881706
 20
852.63590966902689
 30
0.0
 41
1.0
 10
1378.1627873564416
 20
852.63360720167975
 30
0.0
 41
0.9999312599459723
 10
1378.1630071603122
 20
852.63129894563394
 30
0.0
 41
1.0
 10
1378.163227009612
 20
852.6289902125136
 30
0.0
 41
0.9999428052939732
 10
1378.1633974269669
 20
852.62667730519718
 30
0.0
 41
1.0
 10
1378.1634600355126
 20
852.62582758092071
 30
0.0
 41
1.0
 10
1378.1635226440585
 20
852.62497785664414
 30
0.0
 41
1.0
 10
1378.1638182785048
 20
852.62096550077376
 30
0.0
 41
0.9997137113048266
 10
1378.1639216231333
 20
852.61694359584715
 30
0.0
 41
1.0
 10
1378.1639258474877
 20
852.61677919492899
 30
0.0
 41
1.0
 10
1378.1639300718421
 20
852.61661479401073
 30
0.0
 41
1.0
 10
1378.1640362525602
 20
852.6124825158272
 30
0.0
 41
0.9999301579476748
 10
1378.1640447349794
 20
852.60834888239162
 30
0.0
 41
1.0
 10
1378.1640532173988
 20
852.60421524895662
 30
0.0
 41
0.9996994877361161
 10
1378.1638590870791
 20
852.60008616785547
 30
0.0
 41
1.0
 10
1378.1638025742284
 20
852.59888416012859
 30
0.0
 41
1.0
 10
1378.1637460613777
 20
852.59768215240172
 30
0.0
 41
1.0
 10
1378.163568660766
 20
852.59390890608574
 30
0.0
 41
0.9997496578205763
 10
1378.1632226304666
 20
852.59014737424752
 30
0.0
 41
1.0
 10
1378.1631753385311
 20
852.58963328596951
 30
0.0
 41
1.0
 10
1378.1631280465958
 20
852.58911919769139
 30
0.0
 41
1.0
 10
1378.1628766001672
 20
852.58638584240941
 30
0.0
 41
0.9999135382177905
 10
1378.1625533610011
 20
852.58366004475624
 30
0.0
 41
1.0
 10
1378.1622301218349
 20
852.58093424710319
 30
0.0
 41
0.9999109307209915
 10
1378.1618342442712
 20
852.57821804803859
 30
0.0
 41
1.0
 10
1378.1617352527703
 20
852.57753884657268
 30
0.0
 41
1.0
 10
1378.1616362612697
 20
852.57685964510665
 30
0.0
 41
1.0
 10
1378.1610424007044
 20
852.57278504311012
 30
0.0
 41
0.9996196786361193
 10
1378.1602247972135
 20
852.56874938005069
 30
0.0
 41
1.0
 10
1378.1600884500303
 20
852.56807637498605
 30
0.0
 41
1.0
 10
1378.1599521028472
 20
852.56740336992141
 30
0.0
 41
1.0
 10
1378.1589627505164
 20
852.56251996042238
 30
0.0
 41
0.9996652266834024
 10
1378.1577221062548
 20
852.55769426791335
 30
0.0
 41
1.0
 10
1378.1577006491775
 20
852.55761098047401
 30
0.0
 41
1.0
 10
1378.1576791921
 20
852.55752769303467
 30
0.0
 41
1.0
  0
LWPOLYLINE
  5
36A
100
AcDbEntity
  8
0
370
               5
  6
Continuous
 62
               7
100
AcDbPolyline
 90
       63
 70
             128
 10
1389.4098679234999
 20
847.52807364233456
 10
1389.4107809884442
 20
847.52934555361605
 42
0.0142619985416655
 10
1389.467102110033
 20
847.61272201410691
 10
1389.4731762938743
 20
847.62229155600767
 42
0.0160436258615684
 10
1389.5128161964835
 20
847.68940802605266
 42
0.0083222619479568
 10
1389.5491486595324
 20
847.75839239645006
 42
0.0175628890710697
 10
1389.5818291653493
 20
847.82909198587822
 10
1389.5854430189472
 20
847.83769132504233
 42
0.0092327046412004
 10
1389.6073810051194
 20
847.89271694625995
 42
0.0123175183100619
 10
1389.6269252236009
 20
847.94862924150414
 10
1389.6280524542462
 20
847.95212845641049
 42
0.0102876866291286
 10
1389.6445783507829
 20
848.00729296809459
 42
0.009672759634958
 10
1389.6588931605672
 20
848.06308724038377
 42
0.0090760845855794
 10
1389.6711151953264
 20
848.11941749384334
 42
0.0084800311167255
 10
1389.6813578340125
 20
848.17616775863166
 10
1389.68136259835
 20
848.17619698306476
 42
0.0079025862823277
 10
1389.6897534154637
 20
848.23333906487767
 42
0.0074503933322995
 10
1389.696390077718
 20
848.29073968354407
 10
1389.6978389438191
 20
848.30514978045403
 42
0.0129942703729083
 10
1389.7042699293024
 20
848.39163665007163
 10
1389.7051510058948
 20
848.40988909144858
 42
0.0126936293004912
 10
1389.7079671108047
 20
848.53311950867851
 10
1389.7079537975615
 20
848.5383660549893
 42
0.0122237522659847
 10
1389.7043450038534
 20
848.67207283036055
 10
1389.7042723214056
 20
848.67348481210877
 42
0.0111322530773558
 10
1389.6942182751172
 20
848.80966798690383
 42
0.0100572864769003
 10
1389.678405698869
 20
848.94527374141796
 10
1389.6781244696163
 20
848.94732583489167
 42
0.0095069868660078
 10
1389.6563787378036
 20
849.0863041708119
 10
1389.655095594092
 20
849.09359443371477
 42
0.0099254692589755
 10
1389.6251122446456
 20
849.24614452902438
 10
1389.623980689149
 20
849.2513531137879
 42
0.0089989205328533
 10
1389.5857903729118
 20
849.41305934025183
 42
0.0080887409254408
 10
1389.5420866086597
 20
849.5734081695889
 42
0.0071544096298875
 10
1389.493510014808
 20
849.73237027462255
 10
1389.4918720591299
 20
849.73746816741357
 42
0.0072581441390252
 10
1389.4353112142342
 20
849.90510985196192
 10
1389.4332012062018
 20
849.91107638666699
 42
0.0068742840189181
 10
1389.367541371455
 20
850.08892727247382
 10
1389.3671918862483
 20
850.08983529121576
 42
0.0063264829422972
 10
1389.2961390272114
 20
850.26769567979011
 42
0.0057798916534036
 10
1389.2208018441506
 20
850.44378139440619
 10
1389.2203674986586
 20
850.44476499324105
 42
0.0053607602052631
 10
1389.1402355406442
 20
850.62108783380472
 10
1389.1391141279132
 20
850.62348677673936
 42
0.0051964054113127
 10
1389.0529846696284
 20
850.80285319072107
 10
1389.0522895725489
 20
850.80426300701856
 42
0.0048903009309015
 10
1388.9611405735973
 20
850.98466381727712
 42
0.0045855717814484
 10
1388.8665867817435
 20
851.16330967000204
 10
1388.8655615702767
 20
851.1652044266167
 42
0.0042723113994508
 10
1388.7699388465489
 20
851.33837881854311
 10
1388.7688458064317
 20
851.34031896980946
 42
0.0038412430569446
 10
1388.6726407628971
 20
851.50805687936713
 42
0.0036243758048724
 10
1388.5739800586896
 20
851.67427559413613
 42
0.0034177931927142
 10
1388.4730308242154
 20
851.83901657090223
 42
0.0031976569543177
 10
1388.3699151551837
 20
852.00240043582289
 10
1388.3696155933605
 20
852.00286842498497
 42
0.0030477220727542
 10
1388.2638622362042
 20
852.16588418474839
 10
1388.241869040856
 20
852.19933767326904
 42
0.0057039616504176
 10
1388.0885399136992
 20
852.42686656657168
 10
1388.0661076317733
 20
852.45934858211263
 42
0.0053941149080273
 10
1387.8812023661928
 20
852.72100950933873
 10
1387.8779628042
 20
852.72548845213464
  0
LWPOLYLINE
  5
36B
100
AcDbEntity
  8
0
370
              15
  6
Continuous
 62
               7
100
AcDbPolyline
 90
       34
 70
             128
 10
1377.0688325033
 20
860.02780548293458
 10
1377.0764155068389
 20
860.03149692673173
 42
-0.0096085474729536
 10
1377.1223139324841
 20
860.05275946361144
 10
1377.1290051447329
 20
860.05570436446658
 42
-0.0055464293513923
 10
1377.1620864641795
 20
860.06982800610035
 42
-0.005706742170001
 10
1377.1954726874653
 20
860.08320189214714
 42
-0.0058893672067334
 10
1377.2291495514448
 20
860.09579418372186
 42
-0.0060763828390231
 10
1377.2631054278058
 20
860.1075728027713
 42
-0.0062723508012553
 10
1377.2973350768118
 20
860.1185071482455
 10
1377.304169688761
 20
860.12059628829854
 42
-0.0100678001647962
 10
1377.3443100883524
 20
860.13198757713008
 10
1377.3445846596567
 20
860.13205955609646
 42
-0.0047866240994644
 10
1377.3845015892989
 20
860.14211641058841
 42
-0.009033888137186
 10
1377.4246764956722
 20
860.15106519118547
 10
1377.4314126768659
 20
860.15243840069604
 42
-0.0083730362180603
 10
1377.4854137017426
 20
860.16250726573037
 42
-0.0077309497573998
 10
1377.5397614205565
 20
860.17083890597792
 42
-0.007098612616444
 10
1377.594380958066
 20
860.1775606041856
 42
-0.0064858518643358
 10
1377.6491975951926
 20
860.18279907264673
 10
1377.6560596276622
 20
860.18336511462758
 42
-0.0058571196899707
 10
1377.6972662476105
 20
860.18627866998304
 42
-0.0026616905293639
 10
1377.7385187701161
 20
860.18848990011531
 10
1377.7475952404741
 20
860.18892797695548
 42
-0.0087749688451512
 10
1377.8070444950135
 20
860.19075234525963
 10
1377.8230245297154
 20
860.19096215454874
 42
-0.0054225268839673
 10
1377.8769981154842
 20
860.1910854175926
 42
-0.0055839222470767
 10
1377.9309470568453
 20
860.19002124039537
 42
-0.0057556039534592
 10
1377.9848359014859
 20
860.18773506115485
 42
-0.0059258219586403
 10
1378.0386483803231
 20
860.18419118702252
 42
-0.0060917224235368
 10
1378.0923596868215
 20
860.17935513042698
 10
1378.0948862193393
 20
860.17909657994187
 42
-0.0074541581758695
 10
1378.1534890747246
 20
860.17221529089579
 10
1378.1560040487377
 20
860.17188189678927
 10
1378.1576765795
 20
860.17165945333454
  0
LWPOLYLINE
  5
36C
100
AcDbEntity
  8
0
370
               5
  6
Continuous
 62
               7
100
AcDbPolyline
 90
       17
 70
             128
 10
1387.6587073324999
 20
860.17165955513462
 10
1387.6707474244954
 20
860.17315239875938
 42
-0.0087987035543057
 10
1387.7374649634517
 20
860.18023506411168
 10
1387.7481265175766
 20
860.18117749279509
 42
-0.0045400108010231
 10
1387.7936783744044
 20
860.18478753381783
 42
-0.0045443189223886
 10
1387.8392882333019
 20
860.18756941121194
 42
-0.0045518314228081
 10
1387.8849381689456
 20
860.18952105713674
 42
-0.0045605101101231
 10
1387.930613168983
 20
860.19064040358762
 10
1387.9363148566522
 20
860.19072810760747
 42
-0.0068719622324839
 10
1387.9933927238144
 20
860.19082188519167
 10
1387.9991145911395
 20
860.1907526430216
 42
-0.0046025611251568
 10
1388.0447290580835
 20
860.18978064366388
 42
-0.004627625591848
 10
1388.0903177895691
 20
860.18796680446962
 10
1388.0918351873665
 20
860.18789236013981
 42
-0.0052586932445309
 10
1388.1404114717559
 20
860.1849967784035
 10
1388.1419333152085
 20
860.18488998969042
 10
1388.1419915659999
 20
860.18488590243464
  0
LWPOLYLINE
  5
36D
100
AcDbEntity
  8
0
370
               5
  6
Continuous
 62
               7
100
AcDbPolyline
 90
       23
 70
             128
 10
1388.1419915659999
 20
860.18488590243464
 10
1388.1427355097917
 20
860.18484952577489
 42
-0.0072869579461571
 10
1388.1895028032925
 20
860.18187900713951
 42
-0.0077722535012032
 10
1388.2361587533803
 20
860.17750158215244
 10
1388.2369256255733
 20
860.17741758763304
 42
-0.0077940242719877
 10
1388.2849617436459
 20
860.1713968750812
 42
-0.0078335392180231
 10
1388.3327952026179
 20
860.16387657427663
 42
-0.0078880076231915
 10
1388.3803628023691
 20
860.1548575477758
 42
-0.0079572121407362
 10
1388.4276013494655
 20
860.1443406497815
 42
-0.0080408925692401
 10
1388.4744476475194
 20
860.13232672710274
 10
1388.480290513003
 20
860.13072773577733
 42
-0.0081394267453739
 10
1388.5150742320561
 20
860.12059721756214
 42
-0.0041015691896439
 10
1388.5496029546312
 20
860.10961717410987
 10
1388.5499635826582
 20
860.10949922933605
 42
-0.0085956938664417
 10
1388.5849154561222
 20
860.09739913207386
 10
1388.5909511055538
 20
860.09519273060187
 42
-0.0061265286561421
 10
1388.6242171179342
 20
860.08256777688109
 42
-0.0060360227415145
 10
1388.6571679714459
 20
860.06913668694256
 42
-0.0059541599939186
 10
1388.6897890467717
 20
860.05491861046607
 10
1388.6938680867681
 20
860.05308263241272
 42
-0.0087216322431393
 10
1388.7341468041975
 20
860.03410147808449
 10
1388.7381547097245
 20
860.03212662068927
 10
1388.7386548874001
 20
860.03188006963455
  0
LWPOLYLINE
  5
36E
100
AcDbEntity
  8
0
370
               5
  6
Continuous
 62
               7
100
AcDbPolyline
 90
       44
 70
             128
 10
1378.1576766297001
 20
852.55752955163462
 42
0.0050967386101793
 10
1377.9788529078678
 20
852.28678138368082
 10
1377.9758304762299
 20
852.28210224215115
 42
0.0055602119389405
 10
1377.7968792298896
 20
851.99818283301215
 10
1377.7755700157259
 20
851.96352572400133
 42
0.0047460792543099
 10
1377.6437323528382
 20
851.74447291062245
 10
1377.6287529069814
 20
851.7190407417088
 42
0.0031807461709358
 10
1377.5300353634191
 20
851.54897281672345
 42
0.0033893601605394
 10
1377.4335592830525
 20
851.37761939939492
 42
0.0035973055418921
 10
1377.3394820021167
 20
851.20492576986521
 42
0.0038000500906001
 10
1377.2479669369982
 20
851.03085388952138
 10
1377.2466328949604
 20
851.02826888348466
 42
0.0043090946354248
 10
1377.1553302737791
 20
850.84754457947997
 10
1377.1540008245697
 20
850.84485574229802
 42
0.0046692470439353
 10
1377.0633100029113
 20
850.65703738020807
 42
0.0050171200206821
 10
1376.9762375959579
 20
850.46742121522561
 10
1376.975878186174
 20
850.46661736088356
 42
0.0053698514743346
 10
1376.8934679052995
 20
850.27685552007483
 10
1376.8919096342277
 20
850.27315922385469
 42
0.0056160593114858
 10
1376.8167218257556
 20
850.08906034300821
 10
1376.8067172348651
 20
850.0637555663717
 42
0.0058298159532088
 10
1376.755179837437
 20
849.92882076627097
 42
0.0031203102071592
 10
1376.706061831329
 20
849.79297381660149
 42
0.0067235420935399
 10
1376.6596292830195
 20
849.65619123425654
 10
1376.6521923713462
 20
849.63327551874772
 42
0.0073460853119526
 10
1376.5954163908652
 20
849.44915902173921
 10
1376.5874905611333
 20
849.42204918572361
 42
0.007971503565934
 10
1376.5513514858453
 20
849.29069808556324
 10
1376.5491289619688
 20
849.28208556654783
 42
0.0034913903826495
 10
1376.5203315537424
 20
849.16718221382973
 10
1376.5202650986762
 20
849.16690897722856
 42
0.0078631384287177
 10
1376.4942110813674
 20
849.05194125124967
 42
0.0043165568870608
 10
1376.4709690710226
 20
848.93639320064699
 42
0.0095660912961159
 10
1376.450952422133
 20
848.82029158621583
 10
1376.4457646994681
 20
848.78633349999041
 42
0.0093926199328243
 10
1376.4314824564694
 20
848.67942894333964
 10
1376.4304191994231
 20
848.67014478018314
 42
0.0057775910367773
 10
1376.4212969694206
 20
848.58143481826573
 42
0.0077455116629835
 10
1376.4145773696891
 20
848.49251534408006
 10
1376.4142121922289
 20
848.4864297924978
 42
0.0067226421133468
 10
1376.4099685463621
 20
848.39521539585303
 10
1376.4099448175523
 20
848.39449758716319
 42
0.005881905805525
 10
1376.4080322013697
 20
848.30463924785977
 10
1376.4080185444
 20
848.30318935213461
  0
LWPOLYLINE
  5
36F
100
AcDbEntity
  8
DEFAULT_2
370
               5
  6
STYLE_12
 62
               7
100
AcDbPolyline
 90
      113
 70
             128
 10
1382.9081919447999
 20
782.69289895203462
 10
1382.9061017562765
 20
782.69289326491946
 42
-0.0084680236756005
 10
1382.7784718389325
 20
782.69470761921139
 42
-0.008952679845408
 10
1382.6509847293576
 20
782.70096656036424
 10
1382.6489755923992
 20
782.70110129398836
 42
-0.0088831938803106
 10
1382.5178027297129
 20
782.71224092402247
 42
-0.0088158332366003
 10
1382.3871685449171
 20
782.72800679044303
 10
1382.3859090227047
 20
782.72818137932018
 42
-0.0087095337516909
 10
1382.2584593891575
 20
782.74811619045431
 10
1382.2572458350971
 20
782.74832772335071
 42
-0.0085466416578791
 10
1382.1329783934557
 20
782.77218398463538
 42
-0.0089219682049966
 10
1382.0096172838907
 20
782.80036705496627
 42
-0.0092989643755271
 10
1381.8873614958777
 20
782.83302672937839
 10
1381.8871555253825
 20
782.8330858776269
 42
-0.0096901957638197
 10
1381.7666385548187
 20
782.87023722974834
 10
1381.7644067187312
 20
782.87097288355289
 42
-0.0100070922472821
 10
1381.6498803144971
 20
782.91128119562745
 10
1381.6478823370444
 20
782.91202966148057
 42
-0.00981357406958
 10
1381.5390074832337
 20
782.95527053269791
 42
-0.0104037363260829
 10
1381.4319745597152
 20
783.0028746518077
 10
1381.4187132772261
 20
783.00910639987842
 42
-0.0110360719868455
 10
1381.340059265231
 20
783.04820943618358
 10
1381.3270934222985
 20
783.05501635879318
 42
-0.0057543928263226
 10
1381.2755544584684
 20
783.08283499455297
 42
-0.0058651441135167
 10
1381.2246759554437
 20
783.11184364087876
 10
1381.2124276693498
 20
783.11901873583929
 42
-0.0120486878739723
 10
1381.1384951996945
 20
783.16475624929637
 10
1381.1155838195791
 20
783.17970519312826
 42
-0.011828777970227
 10
1381.050500884483
 20
783.22439963951297
 10
1381.0398289228999
 20
783.23210613051242
 42
-0.0062707938382858
 10
1380.997540636688
 20
783.26345789664686
 42
-0.006461636686962
 10
1380.9560645333381
 20
783.29587607529095
 10
1380.9496519517234
 20
783.30102308662094
 42
-0.0110542122960229
 10
1380.8967517817143
 20
783.34544099967775
 10
1380.8868637806042
 20
783.35412334197554
 42
-0.0145456304308828
 10
1380.817060586772
 20
783.41910671462688
 10
1380.81156710051
 20
783.42452757060835
 42
-0.0155058725891102
 10
1380.7430169756681
 20
783.49650078821583
 10
1380.7333351278978
 20
783.5073187493872
 42
-0.0148550545733509
 10
1380.6879803476372
 20
783.56113020779628
 42
-0.0077738991669612
 10
1380.6450886613611
 20
783.61696190392365
 42
-0.0165292177331678
 10
1380.6049732853378
 20
783.67479255886917
 10
1380.6009940699491
 20
783.68095434541476
 42
-0.0109483875251136
 10
1380.5656747232438
 20
783.73836648005988
 10
1380.5641913296927
 20
783.7409004479432
 42
-0.0150096812736727
 10
1380.5347175519739
 20
783.79490310272286
 10
1380.5313797937476
 20
783.80148071930876
 42
-0.0096705639535907
 10
1380.5110178687335
 20
783.84360698374348
 42
-0.0099456361243358
 10
1380.4923240503315
 20
783.88649898822405
 10
1380.4882157669615
 20
783.89646169819139
 42
-0.0188144624082702
 10
1380.4657509479071
 20
783.9573426097744
 42
-0.0095231140467711
 10
1380.446754991096
 20
784.01945160921127
 42
-0.0194689501085694
 10
1380.4313937188081
 20
784.08254143266765
 10
1380.4289702680762
 20
784.09450269312185
 42
-0.0201512694321073
 10
1380.4156544028287
 20
784.17722308139719
 10
1380.4143632719422
 20
784.18799350464792
 42
-0.0196629471935705
 10
1380.4094005376717
 20
784.249905167061
 10
1380.4090156092473
 20
784.25936544968295
 42
-0.0108583450252203
 10
1380.408196766178
 20
784.30256957096026
 42
-0.0108302659714013
 10
1380.4092521082948
 20
784.3457686149427
 10
1380.4097509249002
 20
784.35658488785384
 42
-0.0208721505423838
 10
1380.415436382385
 20
784.42115617681611
 10
1380.4168373362832
 20
784.43190868397551
 42
-0.020047255507044
 10
1380.4314487105885
 20
784.51719233553627
 42
-0.0194008296820547
 10
1380.4527460674378
 20
784.60109970848168
 10
1380.4545253555523
 20
784.60712001097863
 42
-0.0189233771772746
 10
1380.4781786755093
 20
784.67727019107519
 10
1380.4817044210008
 20
784.68655112860404
 42
-0.0132533601098397
 10
1380.5022916233743
 20
784.7366981164887
 10
1380.5037727994431
 20
784.74005027291628
 42
-0.0097820123146919
 10
1380.5235588567239
 20
784.78256002090689
 42
-0.0095161941922386
 10
1380.5449706645002
 20
784.82427508219234
 10
1380.5505247265783
 20
784.83460680997075
 42
-0.0179306418487347
 10
1380.5860160682982
 20
784.89530459765399
 10
1380.5923046458211
 20
784.90522519133401
 42
-0.0166486436987698
 10
1380.64514590009
 20
784.982749216858
 10
1380.6474813292637
 20
784.98594176551524
 42
-0.0154626264206319
 10
1380.7003431401047
 20
785.05370376279541
 10
1380.7069325664502
 20
785.06163234445341
 42
-0.012036913364764
 10
1380.7498970343013
 20
785.11086755356166
 42
-0.0078586011298416
 10
1380.7947934892109
 20
785.15836260338915
 10
1380.7995497171512
 20
785.16323828874215
 42
-0.0148849630920729
 10
1380.8563383985422
 20
785.21808804952309
 10
1380.8660648841303
 20
785.22693829353125
 42
-0.013850394897184
 10
1380.9458440956789
 20
785.29558905506417
 42
-0.0128610682912478
 10
1381.0291874042616
 20
785.35989120629881
 42
-0.0118961697141122
 10
1381.1156207345882
 20
785.41999652279048
 10
1381.1174043196747
 20
785.42117487874611
 42
-0.0119891431334115
 10
1381.2102303057327
 20
785.47935403689917
 10
1381.2127780493247
 20
785.48086700785393
 42
-0.011716306625441
 10
1381.3134217034733
 20
785.53748731226449
 10
1381.3141495470907
 20
785.53787461984916
 42
-0.0110882979824812
 10
1381.4187469330309
 20
785.59059186270053
 42
-0.0104799755947365
 10
1381.5255284105904
 20
785.63875317362749
 42
-0.0098799282987172
 10
1381.6341879923425
 20
785.68253025439685
 10
1381.6359080544044
 20
785.683184041142
 42
-0.0099688170062393
 10
1381.7496837918552
 20
785.72385274357816
 10
1381.7519114545328
 20
785.72459927357681
 42
-0.0097393014550459
 10
1381.8716851188851
 20
785.7621591465811
 10
1381.8721732330337
 20
785.76230183415396
 42
-0.0093453829672966
 10
1381.994275193249
 20
785.7955312688307
 42
-0.0089754980995155
 10
1382.1175094329394
 20
785.82426493408616
 42
-0.0085725075860048
 10
1382.2416737913049
 20
785.84865644216836
 10
1382.246781006796
 20
785.84956908700065
 42
-0.0097744351047288
 10
1382.3819972708384
 20
785.87101335072464
 10
1382.3871317051983
 20
785.87172504402884
 42
-0.0088125646814627
 10
1382.5178061941026
 20
785.88749620668739
 42
-0.0088800561700151
 10
1382.6489792325838
 20
785.89863572663012
 10
1382.6509892828533
 20
785.89877051993153
 42
-0.0089535235304421
 10
1382.7784748611541
 20
785.90502907093321
 10
1382.7805070709901
 20
785.90509238718028
 42
-0.0084597417985781
 10
1382.9040700585988
 20
785.90685046084081
 10
1382.9081919447999
 20
785.90683700043462
  0
LWPOLYLINE
  5
370
100
AcDbEntity
  8
DEFAULT_2
370
               5
  6
STYLE_12
 62
               7
100
AcDbPolyline
 90
      113
 70
             128
 10
1382.9081919447999
 20
785.90683700043462
 10
1382.9102821333254
 20
785.90684268754967
 42
-0.0084680236744882
 10
1383.0379120506475
 20
785.90502833325513
 42
-0.0089526798441737
 10
1383.1653991602006
 20
785.89876939210103
 10
1383.1674082971608
 20
785.89863465847679
 42
-0.0088831938788549
 10
1383.2985811598267
 20
785.88749502844269
 42
-0.0088158332354342
 10
1383.4292153446024
 20
785.87172916202348
 10
1383.4304748668096
 20
785.87155457314702
 42
-0.0087095337504118
 10
1383.5579245003478
 20
785.85161976201402
 10
1383.5591380544033
 20
785.85140822911842
 42
-0.0085466416577939
 10
1383.683405496045
 20
785.82755196783376
 42
-0.0089219682050059
 10
1383.8067666056097
 20
785.79936889750297
 42
-0.0092989643758765
 10
1383.9290223936227
 20
785.76670922309086
 10
1383.9292283641166
 20
785.7666500748428
 42
-0.0096901957636406
 10
1384.0497453346816
 20
785.72949872272102
 10
1384.0519771707686
 20
785.72876306891658
 42
-0.0100070922478551
 10
1384.1665035750029
 20
785.68845475684179
 10
1384.1685015524558
 20
785.68770629098856
 42
-0.0098135740698884
 10
1384.2773764062658
 20
785.64446541977122
 42
-0.010403736326145
 10
1384.3844093297837
 20
785.59686130066132
 10
1384.3976706122723
 20
785.59062955259071
 42
-0.0110360719856717
 10
1384.4763246242676
 20
785.55152651628532
 10
1384.4892904672015
 20
785.54471959367493
 42
-0.0057543928249454
 10
1384.5408294310305
 20
785.51690095791605
 42
-0.0058651441154501
 10
1384.5917079340541
 20
785.48789231159117
 10
1384.6039562201495
 20
785.48071721662973
 42
-0.0120486878716028
 10
1384.6778886898051
 20
785.43497970317321
 10
1384.7008000699232
 20
785.42003075933962
 42
-0.0118287779687609
 10
1384.7658830050191
 20
785.37533631295639
 10
1384.7765549665994
 20
785.36762982195899
 42
-0.0062707938382659
 10
1384.8188432528154
 20
785.33627805582273
 42
-0.0064616366894473
 10
1384.8603193561653
 20
785.30385987717955
 10
1384.8667319377812
 20
785.29871286584887
 42
-0.0110542122975176
 10
1384.9196321077914
 20
785.2542949527915
 10
1384.9295201089005
 20
785.24561261049439
 42
-0.0145456304358454
 10
1384.9993233027321
 20
785.1806292378426
 10
1385.0048167889938
 20
785.17520838186135
 42
-0.0155058725957427
 10
1385.0733669138317
 20
785.10323516425353
 10
1385.0830487616017
 20
785.09241720308148
 42
-0.0148550545772912
 10
1385.1284035418576
 20
785.0386057446724
 42
-0.00777389916748
 10
1385.1712952281287
 20
784.98277404854412
 42
-0.0165292177257764
 10
1385.2114106041481
 20
784.92494339359837
 10
1385.2153898195365
 20
784.91878160705255
 42
-0.0109483875149296
 10
1385.250709166241
 20
784.86136947240709
 10
1385.2521925597919
 20
784.85883550452456
 42
-0.0150096812553932
 10
1385.2816663375136
 20
784.80483284974457
 10
1385.2850040957405
 20
784.79825523315878
 42
-0.0096705639445802
 10
1385.3053660207595
 20
784.75612896872462
 42
-0.0099456361041103
 10
1385.324059839169
 20
784.71323696424554
 10
1385.3281681225415
 20
784.70327425427729
 42
-0.0188144623881905
 10
1385.3506329416127
 20
784.64239334269371
 42
-0.0095231140427745
 10
1385.3696288984434
 20
784.58028434325672
 42
-0.0194689501070988
 10
1385.3849901707513
 20
784.51719451980011
 10
1385.387413621487
 20
784.50523325934523
 42
-0.0201512694516255
 10
1385.4007294867565
 20
784.42251287107149
 10
1385.4020206176456
 20
784.41174244781973
 42
-0.0196629472271534
 10
1385.4069833519256
 20
784.3498307854079
 10
1385.407368280351
 20
784.3403705027863
 42
-0.0108583450511986
 10
1385.4081871234221
 20
784.29716638150899
 42
-0.0108302659926676
 10
1385.4071317813027
 20
784.25396733752655
 10
1385.4066329646962
 20
784.24315106461563
 42
-0.020872150576629
 10
1385.4009475072007
 20
784.17857977565393
 10
1385.3995465533001
 20
784.16782726849408
 42
-0.0200472555242076
 10
1385.3849351789709
 20
784.08254361693389
 42
-0.0194008296797393
 10
1385.3636378220947
 20
783.99863624398859
 10
1385.3618585339784
 20
783.99261594149175
 42
-0.0189233771616932
 10
1385.3382052140005
 20
783.92246576139496
 10
1385.3346794685062
 20
783.91318482386555
 42
-0.013253360088166
 10
1385.3140922661219
 20
783.86303783598146
 10
1385.3126110900521
 20
783.85968567955297
 42
-0.0097820123015909
 10
1385.2928250327659
 20
783.81717593156372
 42
-0.0095161941792525
 10
1385.2714132249857
 20
783.77546087027804
 10
1385.2658591629074
 20
783.76512914250065
 42
-0.0179306418307066
 10
1385.230367821187
 20
783.70443135481707
 10
1385.2240792436646
 20
783.69451076113751
 42
-0.0166486436932538
 10
1385.1712379893997
 20
783.61698673561273
 10
1385.1689025602261
 20
783.61379418695481
 42
-0.0154626264173874
 10
1385.1160407493912
 20
783.54603218967429
 10
1385.1094513230471
 20
783.53810360801663
 42
-0.0120369133721188
 10
1385.0664868551992
 20
783.48886839890736
 42
-0.0078586011320204
 10
1385.0215904002919
 20
783.44137334907919
 10
1385.016834172352
 20
783.43649766372641
 42
-0.0148849630974498
 10
1384.9600454909619
 20
783.38164790294491
 10
1384.9503190053742
 20
783.3727976589372
 42
-0.0138503949001647
 10
1384.8705397938252
 20
783.30414689740428
 42
-0.0128610682924858
 10
1384.7871964852409
 20
783.23984474616998
 42
-0.0118961697136243
 10
1384.7007631549122
 20
783.17973942967865
 10
1384.698979569826
 20
783.17856107372302
 42
-0.0119891431315294
 10
1384.6061535837669
 20
783.12038191557042
 10
1384.6036058401746
 20
783.11886894461543
 42
-0.0117163066241071
 10
1384.5029621860242
 20
783.0622486402043
 10
1384.502234342408
 20
783.06186133262031
 42
-0.011088297982381
 10
1384.397636956468
 20
783.00914408976882
 42
-0.0104799755940026
 10
1384.290855478909
 20
782.96098277884187
 42
-0.0098799282990081
 10
1384.1821958971557
 20
782.91720569807171
 10
1384.1804758350956
 20
782.91655191132725
 42
-0.0099688170063124
 10
1384.0667000976448
 20
782.87588320889085
 10
1384.0644724349677
 20
782.87513667889232
 42
-0.0097393014554786
 10
1383.9446987706156
 20
782.83757680588803
 10
1383.9442106564668
 20
782.83743411831529
 42
-0.0093453829671866
 10
1383.8221086962515
 20
782.80420468363843
 42
-0.0089754980996934
 10
1383.698874456561
 20
782.77547101838286
 42
-0.0085725075861343
 10
1383.5747100981964
 20
782.751079510301
 10
1383.569602882709
 20
782.7501668654694
 42
-0.0097744351034214
 10
1383.4343866186757
 20
782.72872260174654
 10
1383.4292521843201
 20
782.72801090844291
 42
-0.0088125646800269
 10
1383.298577695437
 20
782.71223974578595
 42
-0.0088800561687543
 10
1383.1674046569763
 20
782.70110022584322
 10
1383.1653946067063
 20
782.70096543254181
 42
-0.0089535235289381
 10
1383.0379090284259
 20
782.69470688153876
 10
1383.0358768185922
 20
782.6946435652917
 42
-0.0084597417979225
 10
1382.9123138310006
 20
782.69288549162854
 10
1382.9081919447999
 20
782.69289895203462
  0
LINE
  5
371
100
AcDbEntity
  8
一般
370
              15
  6
Continuous
 62
               7
100
AcDbLine
 10
1131.9999942374
 20
753.92894164293466
 30
0.0
 11
1131.9999942374
 21
759.92894164293466
 31
0.0
  0
INSERT
  5
372
100
AcDbEntity
  8
一般
 62
               7
100
AcDbBlockReference
  2
グループ-4
 10
1450.0
 20
1020.0
 30
0.0
  0
ENDSEC
  0
SECTION
  2
OBJECTS
  0
DICTIONARY
  5
19
100
AcDbDictionary
280
               0
281
               1
  3
ACAD_GROUP
350
1A
  3
ACAD_MLINESTYLE
350
1B
  3
ACAD_LAYOUT
350
1E
  3
ACAD_PLOTSETTINGS
350
22
  3
ACAD_PLOTSTYLENAME
350
1F
  3
ACAD_WIPEOUT_VARS
350
23
  0
DICTIONARY
  5
1A
102
{ACAD_REACTORS
330
19
102
}
100
AcDbDictionary
280
               0
281
               1
  0
DICTIONARY
  5
1B
102
{ACAD_REACTORS
330
19
102
}
100
AcDbDictionary
280
               0
281
               1
  3
Standard
350
1C
  0
MLINESTYLE
  5
1C
102
{ACAD_REACTORS
330
1B
102
}
100
AcDbMlineStyle
  2
Standard
 70
               0
  3

 62
               0
 51
90.0
 52
90.0
 71
               2
 49
0.5
 62
             256
  6
ByLayer
 49
-0.5
 62
             256
  6
ByLayer
  0
ACDBDICTIONARYWDFLT
  5
1F
102
{ACAD_REACTORS
330
19
102
}
100
AcDbDictionary
281
               1
  3
Normal
350
1D
100
AcDbDictionaryWithDefault
340
1D
  0
ACDBPLACEHOLDER
  5
1D
102
{ACAD_REACTORS
330
1F
102
}
  0
LAYOUT
  5
20
102
{ACAD_REACTORS
330
1E
102
}
100
AcDbPlotSettings
  1

  2

  4

  6

 40
0.0
 41
0.0
 42
0.0
 43
0.0
 44
0.0
 45
0.0
 46
0.0
 47
0.0
 48
0.0
 49
0.0
140
0.0
141
0.0
142
1.0
143
1.0
 70
            1024
 72
               0
 73
               0
 74
               0
  7

 75
               0
147
1.0
148
0.0
149
0.0
100
AcDbLayout
  1
Model
 70
               0
 71
               0
 10
0.0
 20
0.0
 11
0.0
 21
0.0
 12
0.0
 22
0.0
 32
0.0
 14
0.0
 24
0.0
 34
0.0
 15
0.0
 25
0.0
 35
0.0
146
0.0
 13
0.0
 23
0.0
 33
0.0
 16
0.0
 26
0.0
 36
0.0
 17
0.0
 27
0.0
 37
0.0
 76
               0
330
A
331
0
345
0
346
0
  0
LAYOUT
  5
21
102
{ACAD_REACTORS
330
1E
102
}
100
AcDbPlotSettings
  1

  2

  4

  6

 40
0.0
 41
0.0
 42
0.0
 43
0.0
 44
0.0
 45
0.0
 46
0.0
 47
0.0
 48
0.0
 49
0.0
140
0.0
141
0.0
142
1.0
143
1.0
 70
               0
 72
               0
 73
               0
 74
               0
  7

 75
               0
147
1.0
148
0.0
149
0.0
100
AcDbLayout
  1
Layout1
 70
               0
 71
               0
 10
0.0
 20
0.0
 11
0.0
 21
0.0
 12
0.0
 22
0.0
 32
0.0
 14
0.0
 24
0.0
 34
0.0
 15
0.0
 25
0.0
 35
0.0
146
0.0
 13
0.0
 23
0.0
 33
0.0
 16
0.0
 26
0.0
 36
0.0
 17
0.0
 27
0.0
 37
0.0
 76
               0
330
B
331
0
345
0
346
0
  0
DICTIONARY
  5
1E
102
{ACAD_REACTORS
330
19
102
}
100
AcDbDictionary
280
               0
281
               1
  3
Layout1
350
21
  3
Model
350
20
  0
DICTIONARY
  5
22
102
{ACAD_REACTORS
330
19
102
}
100
AcDbDictionary
280
               0
281
               1
  0
WIPEOUTVARIABLES
  5
23
100
AcDbWipeoutVariables
 70
               0
  0
ENDSEC
  0
EOF
