  0
SECTION
  2
HEADER
  9
$ACADVER
  1
AC1015
  9
$ACADMAINTVER
 70
               6
  9
$DWGCODEPAGE
  3
ANSI_932
  9
$INSBASE
 10
0.0
 20
0.0
 30
0.0
  9
$EXTMIN
 10
855.32062345145187
 20
761.24552718270024
 30
-7.4083333333333323
  9
$EXTMAX
 10
1546.3324811575601
 20
1299.3742251572467
 30
7.4083333333333323
  9
$LIMMIN
 10
0.0
 20
0.0
  9
$LIMMAX
 10
0.0
 20
0.0
  9
$ORTHOMODE
 70
               0
  9
$REGENMODE
 70
               1
  9
$FILLMODE
 70
               1
  9
$QTEXTMODE
 70
               0
  9
$MIRRTEXT
 70
               1
  9
$LTSCALE
 40
25.399999999999999
  9
$ATTMODE
 70
               1
  9
$TEXTSIZE
 40
0.2
  9
$TRACEWID
 40
1.0
  9
$TEXTSTYLE
  7
Standard
  9
$CLAYER
  8
一般
  9
$CELTYPE
  6
Continuous
  9
$CECOLOR
 62
             256
  9
$CELTSCALE
 40
1.0
  9
$DISPSILH
 70
               0
  9
$DIMSCALE
 40
1.0
  9
$DIMASZ
 40
0.18
  9
$DIMEXO
 40
0.0625
  9
$DIMDLI
 40
0.38
  9
$DIMRND
 40
0.0
  9
$DIMDLE
 40
0.0
  9
$DIMEXE
 40
0.18
  9
$DIMTP
 40
0.0
  9
$DIMTM
 40
0.0
  9
$DIMTXT
 40
0.18
  9
$DIMCEN
 40
0.09
  9
$DIMTSZ
 40
0.0
  9
$DIMTOL
 70
               0
  9
$DIMLIM
 70
               0
  9
$DIMTIH
 70
               1
  9
$DIMTOH
 70
               1
  9
$DIMSE1
 70
               0
  9
$DIMSE2
 70
               0
  9
$DIMTAD
 70
               0
  9
$DIMZIN
 70
               0
  9
$DIMBLK
  1

  9
$DIMASO
 70
               1
  9
$DIMSHO
 70
               1
  9
$DIMPOST
  1

  9
$DIMAPOST
  1

  9
$DIMALT
 70
               0
  9
$DIMALTD
 70
               2
  9
$DIMALTF
 40
25.399999999999999
  9
$DIMLFAC
 40
1.0
  9
$DIMTOFL
 70
               0
  9
$DIMTVP
 40
0.0
  9
$DIMTIX
 70
               0
  9
$DIMSOXD
 70
               0
  9
$DIMSAH
 70
               0
  9
$DIMBLK1
  1

  9
$DIMBLK2
  1

  9
$DIMSTYLE
  2
Standard
  9
$DIMCLRD
 70
               0
  9
$DIMCLRE
 70
               0
  9
$DIMCLRT
 70
               0
  9
$DIMTFAC
 40
1.0
  9
$DIMGAP
 40
0.09
  9
$DIMJUST
 70
               0
  9
$DIMSD1
 70
               0
  9
$DIMSD2
 70
               0
  9
$DIMTOLJ
 70
               1
  9
$DIMTZIN
 70
               0
  9
$DIMALTZ
 70
               0
  9
$DIMALTTZ
 70
               0
  9
$DIMUPT
 70
               0
  9
$DIMDEC
 70
               4
  9
$DIMTDEC
 70
               4
  9
$DIMALTU
 70
               2
  9
$DIMALTTD
 70
               2
  9
$DIMTXSTY
  7
Standard
  9
$DIMAUNIT
 70
               0
  9
$DIMADEC
 70
               0
  9
$DIMALTRND
 40
0.0
  9
$DIMAZIN
 70
               0
  9
$DIMDSEP
 70
               0
  9
$DIMATFIT
 70
               3
  9
$DIMFRAC
 70
               0
  9
$DIMLDRBLK
  1

  9
$DIMLUNIT
 70
               2
  9
$DIMLWD
 70
               0
  9
$DIMLWE
 70
               0
  9
$DIMTMOVE
 70
               0
  9
$LUNITS
 70
               2
  9
$LUPREC
 70
               4
  9
$SKETCHINC
 40
0.1
  9
$FILLETRAD
 40
0.0
  9
$AUNITS
 70
               0
  9
$AUPREC
 70
               0
  9
$MENU
  1
acad
  9
$ELEVATION
 40
0.0
  9
$PELEVATION
 40
0.0
  9
$THICKNESS
 40
0.0
  9
$LIMCHECK
 70
               0
  9
$CHAMFERA
 40
0.0
  9
$CHAMFERB
 40
0.0
  9
$CHAMFERC
 40
0.0
  9
$CHAMFERD
 40
0.0
  9
$SKPOLY
 70
               0
  9
$TDCREATE
 40
2455680.683900463
  9
$TDUCREATE
 40
0.000000000
  9
$TDUPDATE
 40
2455680.683900463
  9
$TDUUPDATE
 40
0.000000000
  9
$TDINDWG
 40
0.0000000000
  9
$TDUSRTIMER
 40
0.0000000000
  9
$USRTIMER
 70
               1
  9
$ANGBASE
 50
0.0
  9
$ANGDIR
 70
               0
  9
$PDMODE
 70
               1
  9
$PDSIZE
 40
-2.0
  9
$PLINEWID
 40
0.0
  9
$SPLFRAME
 70
               0
  9
$SPLINETYPE
 70
               6
  9
$SPLINESEGS
 70
               8
  9
$HANDSEED
  5
115
  9
$SURFTAB1
 70
               6
  9
$SURFTAB2
 70
               6
  9
$SURFTYPE
 70
               6
  9
$SURFU
 70
               6
  9
$SURFV
 70
               6
  9
$UCSBASE
  2

  9
$UCSNAME
  2

  9
$UCSORG
 10
0.0
 20
0.0
 30
0.0
  9
$UCSXDIR
 10
1.0
 20
0.0
 30
0.0
  9
$UCSYDIR
 10
0.0
 20
1.0
 30
0.0
  9
$UCSORTHOREF
  2

  9
$UCSORTHOVIEW
 70
               0
  9
$UCSORGTOP
 10
0.0
 20
0.0
 30
0.0
  9
$UCSORGBOTTOM
 10
0.0
 20
0.0
 30
0.0
  9
$UCSORGLEFT
 10
0.0
 20
0.0
 30
0.0
  9
$UCSORGRIGHT
 10
0.0
 20
0.0
 30
0.0
  9
$UCSORGFRONT
 10
0.0
 20
0.0
 30
0.0
  9
$UCSORGBACK
 10
0.0
 20
0.0
 30
0.0
  9
$PUCSBASE
  2

  9
$PUCSNAME
  2

  9
$PUCSORG
 10
0.0
 20
0.0
 30
0.0
  9
$PUCSXDIR
 10
1.0
 20
0.0
 30
0.0
  9
$PUCSYDIR
 10
0.0
 20
1.0
 30
0.0
  9
$PUCSORTHOREF
  2

  9
$PUCSORTHOVIEW
 70
               0
  9
$PUCSORGTOP
 10
0.0
 20
0.0
 30
0.0
  9
$PUCSORGBOTTOM
 10
0.0
 20
0.0
 30
0.0
  9
$PUCSORGLEFT
 10
0.0
 20
0.0
 30
0.0
  9
$PUCSORGRIGHT
 10
0.0
 20
0.0
 30
0.0
  9
$PUCSORGFRONT
 10
0.0
 20
0.0
 30
0.0
  9
$PUCSORGBACK
 10
0.0
 20
0.0
 30
0.0
  9
$USERI1
 70
               0
  9
$USERI2
 70
               0
  9
$USERI3
 70
               0
  9
$USERI4
 70
               0
  9
$USERI5
 70
               0
  9
$USERR1
 40
0.0
  9
$USERR2
 40
0.0
  9
$USERR3
 40
0.0
  9
$USERR4
 40
0.0
  9
$USERR5
 40
0.0
  9
$WORLDVIEW
 70
               1
  9
$SHADEDGE
 70
               3
  9
$SHADEDIF
 70
              70
  9
$TILEMODE
 70
               1
  9
$MAXACTVP
 70
              64
  9
$PINSBASE
 10
0.0
 20
0.0
 30
0.0
  9
$PLIMCHECK
 70
               0
  9
$PEXTMIN
 10
1.0000000000000000E+20
 20
1.0000000000000000E+20
 30
1.0000000000000000E+20
  9
$PEXTMAX
 10
-1.0000000000000000E+20
 20
-1.0000000000000000E+20
 30
-1.0000000000000000E+20
  9
$PLIMMIN
 10
0.0
 20
0.0
  9
$PLIMMAX
 10
12.0
 20
9.0
  9
$UNITMODE
 70
               0
  9
$VISRETAIN
 70
               0
  9
$PLINEGEN
 70
               1
  9
$PSLTSCALE
 70
               0
  9
$TREEDEPTH
 70
            3020
  9
$CMLSTYLE
  2
Standard
  9
$CMLJUST
 70
               0
  9
$CMLSCALE
 40
1.0
  9
$PROXYGRAPHICS
 70
               0
  9
$MEASUREMENT
 70
               1
  9
$CELWEIGHT
370
               0
  9
$ENDCAPS
280
               0
  9
$JOINSTYLE
280
               0
  9
$LWDISPLAY
290
               1
  9
$INSUNITS
 70
               4
  9
$HYPERLINKBASE
  1

  9
$STYLESHEET
  1

  9
$XEDIT
290
               1
  9
$CEPSNTYPE
380
               0
  9
$PSTYLEMODE
290
               1
  9
$FINGERPRINTGUID
  2

  9
$VERSIONGUID
  2

  9
$EXTNAMES
290
               1
  9
$PSVPSCALE
 40
0.0
  0
ENDSEC
  0
SECTION
  2
CLASSES
  0
CLASS
  1
LWPOLYLINE
  2
AcDbPolyline
  3
AutoCAD 2000
 90
        0
280
               0
281
               1
  0
CLASS
  1
IMAGE
  2
AcDbRasterImage
  3
ISM
 90
    32895
280
               0
281
               1
  0
CLASS
  1
OLE2FRAME
  2
AcDbOle2Frame
  3
AutoCAD 2000
 90
    32768
280
               0
281
               1
  0
CLASS
  1
HATCH
  2
AcDbHatch
  3
AutoCAD 2000
 90
    32768
280
               0
281
               1
  0
CLASS
  1
DICTIONARYVAR
  2
AcDbDictionaryVar
  3
AutoCAD 2000
 90
    32768
280
               0
281
               0
  0
CLASS
  1
RASTERVARIABLES
  2
AcDbRasterVariables
  3
ISM
 90
    32768
280
               0
281
               0
  0
CLASS
  1
IMAGEDEF
  2
AcDbRasterImageDef
  3
ISM
 90
    32768
280
               0
281
               0
  0
CLASS
  1
IMAGEDEF_REACTOR
  2
AcDbRasterImageDefReactor
  3
ISM
 90
    32769
280
               0
281
               0
  0
CLASS
  1
IDBUFFER
  2
AcDbIdBuffer
  3
AutoCAD 2000
 90
    32768
280
               0
281
               0
  0
CLASS
  1
SPATIAL_FILTER
  2
AcDbSpatialFilter
  3
AutoCAD 2000
 90
    32768
280
               0
281
               0
  0
CLASS
  1
XRECORD
  2
AcDbXrecord
  3
AutoCAD 2000
 90
    32768
280
               0
281
               0
  0
CLASS
  1
SORTENTSTABLE
  2
AcDbSortentsTable
  3
AutoCAD 2000
 90
    32768
280
               0
281
               0
  0
CLASS
  1
LAYER_INDEX
  2
AcDbLayerIndex
  3
AutoCAD 2000
 90
    32768
280
               0
281
               0
  0
CLASS
  1
SPATIAL_INDEX
  2
AcDbSpatialIndex
  3
AutoCAD 2000
 90
    32768
280
               0
281
               0
  0
CLASS
  1
OBJECT_PTR
  2
CAseDLPNTableRecord
  3
"ASE-LPNTableRecord"
 90
    32769
280
               0
281
               0
  0
CLASS
  1
LAYOUT
  2
AcDbLayout
  3
AutoCAD 2000
 90
        0
280
               0
281
               0
  0
CLASS
  1
PLOTSETTINGS
  2
AcDbPlotSettings
  3
AutoCAD 2000
 90
    32768
280
               0
281
               0
  0
CLASS
  1
ACDBDICTIONARYWDFLT
  2
AcDbDictionaryWithDefault
  3
AutoCAD 2000
 90
        0
280
               0
281
               0
  0
CLASS
  1
ACDBPLACEHOLDER
  2
AcDbPlaceHolder
  3
AutoCAD 2000
 90
        0
280
               0
281
               0
  0
CLASS
  1
VBA_PROJECT
  2
AcDbVbaProject
  3
acadvba
 90
    32768
280
               0
281
               0
  0
CLASS
  1
WIPEOUT
  2
AcDbWipeout
  3
WipeOut|AutoCAD Express Tool|expresstools@autodesk.com
 90
    32895
280
               0
281
               1
  0
CLASS
  1
WIPEOUTVARIABLES
  2
AcDbWipeoutVariables
  3
WipeOut|AutoCAD Express Tool|expresstools@autodesk.com
 90
        0
280
               0
281
               0
  0
CLASS
  1
RTEXT
  2
RText
  3
RText|AutoCAD Express Tool|expresstools@autodesk.com
 90
    32768
280
               0
281
               1
  0
CLASS
  1
ARCALIGNEDTEXT
  2
AcDbArcAlignedText
  3
ATEXT|AutoCAD Express Tool|expresstools@autodesk.com
 90
    32768
280
               0
281
               1
  0
ENDSEC
  0
SECTION
  2
TABLES
  0
TABLE
  2
VPORT
  5
7
100
AcDbSymbolTable
 70
               1
  0
VPORT
  5
15
100
AcDbSymbolTableRecord
100
AcDbViewportTableRecord
  2
*ACTIVE
 70
               0
 10
0.0
 20
0.0
 11
1.0
 21
1.0
 12
1200.8265523045061
 22
1030.3098761699734
 13
0.0
 23
0.0
 14
1.0
 24
1.0
 15
0.0
 25
0.0
 16
0.0
 26
0.0
 36
1.0
 17
0.0
 27
0.0
 37
0.0
 40
538.12869797454641
 41
0.688564
 42
50.0
 43
0.0
 44
0.0
 50
0.0
 51
0.0
 71
               0
 72
            2000
 73
               1
 74
               1
 75
               0
 76
               0
 77
               0
 78
               0
281
               0
 65
               0
110
0.0
120
0.0
130
0.0
111
1.0
121
0.0
131
0.0
112
0.0
122
1.0
132
0.0
345
0
346
0
 79
               0
146
0.0
  0
ENDTAB
  0
TABLE
  2
LTYPE
  5
4
100
AcDbSymbolTable
 70
              17
  0
LTYPE
  5
11
100
AcDbSymbolTableRecord
100
AcDbLinetypeTableRecord
  2
ByBlock
 70
              64
  3

 72
              65
 73
               0
 40
0.0
  0
LTYPE
  5
12
100
AcDbSymbolTableRecord
100
AcDbLinetypeTableRecord
  2
ByLayer
 70
              64
  3

 72
              65
 73
               0
 40
0.0
  0
LTYPE
  5
13
100
AcDbSymbolTableRecord
100
AcDbLinetypeTableRecord
  2
Continuous
 70
              64
  3
Solid line
 72
              65
 73
               0
 40
0.0
  0
LTYPE
  5
2B
100
AcDbSymbolTableRecord
100
AcDbLinetypeTableRecord
  2
STYLE_01
 70
               0
  3

 72
              65
 73
               2
 40
0.41664
 49
0.20828
 74
               0
 49
-0.20836
 74
               0
  0
LTYPE
  5
2C
100
AcDbSymbolTableRecord
100
AcDbLinetypeTableRecord
  2
STYLE_02
 70
               0
  3

 72
              65
 73
               2
 40
0.6944250000000001
 49
0.48607
 74
               0
 49
-0.2083550000000001
 74
               0
  0
LTYPE
  5
2D
100
AcDbSymbolTableRecord
100
AcDbLinetypeTableRecord
  2
STYLE_03
 70
               0
  3

 72
              65
 73
               2
 40
1.25
 49
1.0416400000000001
 74
               0
 49
-0.2083599999999999
 74
               0
  0
LTYPE
  5
2E
100
AcDbSymbolTableRecord
100
AcDbLinetypeTableRecord
  2
STYLE_04
 70
               0
  3

 72
              65
 73
               2
 40
1.5277099999999999
 49
1.3194249999999998
 74
               0
 49
-0.208285
 74
               0
  0
LTYPE
  5
2F
100
AcDbSymbolTableRecord
100
AcDbLinetypeTableRecord
  2
STYLE_05
 70
               0
  3

 72
              65
 73
               2
 40
0.20828
 49
0.069425
 74
               0
 49
-0.138855
 74
               0
  0
LTYPE
  5
30
100
AcDbSymbolTableRecord
100
AcDbLinetypeTableRecord
  2
STYLE_06
 70
               0
  3

 72
              65
 73
               4
 40
1.0416400000000001
 49
0.625
 74
               0
 49
-0.20828
 74
               0
 49
0.06943
 74
               0
 49
-0.13893
 74
               0
  0
LTYPE
  5
31
100
AcDbSymbolTableRecord
100
AcDbLinetypeTableRecord
  2
STYLE_07
 70
               0
  3

 72
              65
 73
               6
 40
1.875
 49
0.625
 74
               0
 49
-0.20828
 74
               0
 49
0.6250000000000001
 74
               0
 49
-0.2083599999999999
 74
               0
 49
0.06943
 74
               0
 49
-0.1389299999999999
 74
               0
  0
LTYPE
  5
32
100
AcDbSymbolTableRecord
100
AcDbLinetypeTableRecord
  2
STYLE_08
 70
               0
  3

 72
              65
 73
               6
 40
1.25
 49
0.625
 74
               0
 49
-0.20828
 74
               0
 49
0.06943
 74
               0
 49
-0.13893
 74
               0
 49
0.0694299999999999
 74
               0
 49
-0.13893
 74
               0
  0
LTYPE
  5
33
100
AcDbSymbolTableRecord
100
AcDbLinetypeTableRecord
  2
STYLE_09
 70
               0
  3

 72
              65
 73
               4
 40
5.0
 49
3.75
 74
               0
 49
-0.2777849999999998
 74
               0
 49
0.6944300000000003
 74
               0
 49
-0.2777849999999998
 74
               0
  0
LTYPE
  5
34
100
AcDbSymbolTableRecord
100
AcDbLinetypeTableRecord
  2
STYLE_10
 70
               0
  3

 72
              65
 73
               6
 40
5.9375
 49
3.75
 74
               0
 49
-0.2777849999999998
 74
               0
 49
0.6944300000000003
 74
               0
 49
-0.2777849999999998
 74
               0
 49
0.625
 74
               0
 49
-0.3125
 74
               0
  0
LTYPE
  5
35
100
AcDbSymbolTableRecord
100
AcDbLinetypeTableRecord
  2
STYLE_11
 70
               0
  3

 72
              65
 73
               4
 40
0.9646653543307084
 49
0.6029158464566929
 74
               0
 49
-0.1205831692913385
 74
               0
 49
0.1205831692913385
 74
               0
 49
-0.1205831692913385
 74
               0
  0
LTYPE
  5
36
100
AcDbSymbolTableRecord
100
AcDbLinetypeTableRecord
  2
STYLE_12
 70
               0
  3

 72
              65
 73
               4
 40
3.6300000000000003
 49
2.2687500000000007
 74
               0
 49
-0.45375
 74
               0
 49
0.45375
 74
               0
 49
-0.45375
 74
               0
  0
LTYPE
  5
37
100
AcDbSymbolTableRecord
100
AcDbLinetypeTableRecord
  2
STYLE_13
 70
               0
  3

 72
              65
 73
               4
 40
0.2362204724409449
 49
0.1476377952755905
 74
               0
 49
-0.0295275590551181
 74
               0
 49
0.0295275590551181
 74
               0
 49
-0.0295275590551181
 74
               0
  0
LTYPE
  5
38
100
AcDbSymbolTableRecord
100
AcDbLinetypeTableRecord
  2
STYLE_14
 70
               0
  3

 72
              65
 73
               4
 40
0.5456692913385829
 49
0.3410433070866142
 74
               0
 49
-0.0682086614173229
 74
               0
 49
0.0682086614173229
 74
               0
 49
-0.0682086614173229
 74
               0
  0
ENDTAB
  0
TABLE
  2
LAYER
  5
2
100
AcDbSymbolTable
 70
              11
  0
LAYER
  5
14
100
AcDbSymbolTableRecord
100
AcDbLayerTableRecord
  2
0
 70
               0
 62
               7
  6
Continuous
290
               1
370
              15
390
1D
  0
LAYER
  5
39
100
AcDbSymbolTableRecord
100
AcDbLayerTableRecord
  2
一般
 70
               0
 62
               7
  6
Continuous
290
               1
370
               5
390
1D
  0
LAYER
  5
3A
100
AcDbSymbolTableRecord
100
AcDbLayerTableRecord
  2
寸法
 70
               0
 62
               7
  6
Continuous
290
               1
370
               5
390
1D
  0
LAYER
  5
3B
100
AcDbSymbolTableRecord
100
AcDbLayerTableRecord
  2
dim
 70
               0
 62
               7
  6
Continuous
290
               1
370
              15
390
1D
  0
LAYER
  5
3C
100
AcDbSymbolTableRecord
100
AcDbLayerTableRecord
  2
HATCH
 70
               0
 62
               7
  6
Continuous
290
               1
370
              15
390
1D
  0
LAYER
  5
3D
100
AcDbSymbolTableRecord
100
AcDbLayerTableRecord
  2
DEFAULT_1
 70
               0
 62
               7
  6
STYLE_11
290
               1
370
              15
390
1D
  0
LAYER
  5
3E
100
AcDbSymbolTableRecord
100
AcDbLayerTableRecord
  2
LAYER1
 70
               0
 62
               7
  6
Continuous
290
               1
370
              15
390
1D
  0
LAYER
  5
3F
100
AcDbSymbolTableRecord
100
AcDbLayerTableRecord
  2
DEFAULT
 70
               0
 62
               7
  6
Continuous
290
               1
370
              15
390
1D
  0
LAYER
  5
40
100
AcDbSymbolTableRecord
100
AcDbLayerTableRecord
  2
center
 70
               0
 62
               1
  6
STYLE_13
290
               1
370
              15
390
1D
  0
LAYER
  5
41
100
AcDbSymbolTableRecord
100
AcDbLayerTableRecord
  2
1
 70
               0
 62
               7
  6
Continuous
290
               1
370
              15
390
1D
  0
LAYER
  5
42
100
AcDbSymbolTableRecord
100
AcDbLayerTableRecord
  2
排水
 70
               0
 62
               7
  6
Continuous
290
               1
370
              15
390
1D
  0
ENDTAB
  0
TABLE
  2
STYLE
  5
3
100
AcDbSymbolTable
 70
               3
  0
STYLE
  5
17
100
AcDbSymbolTableRecord
100
AcDbTextStyleTableRecord
  2
Standard
 70
               0
 40
0.0
 41
1.0
 50
0.0
 71
               0
 42
0.0
  3
txt
  4
BIGFONT.SHX
  0
STYLE
  5
29
100
AcDbSymbolTableRecord
100
AcDbTextStyleTableRecord
  2
Arial
 70
               0
 40
0.0
 41
1.0
 50
0.0
 71
               0
 42
0.0
  3

  4
Arial
1001
ACAD
1000
Arial
1071
        0
  0
STYLE
  5
2A
100
AcDbSymbolTableRecord
100
AcDbTextStyleTableRecord
  2
ＭＳ ゴシック
 70
               0
 40
0.0
 41
1.0
 50
0.0
 71
               0
 42
0.0
  3

  4
ＭＳ ゴシック
1001
ACAD
1000
ＭＳ ゴシック
1071
        0
  0
ENDTAB
  0
TABLE
  2
VIEW
  5
5
100
AcDbSymbolTable
 70
               0
  0
ENDTAB
  0
TABLE
  2
UCS
  5
6
100
AcDbSymbolTable
 70
               0
  0
ENDTAB
  0
TABLE
  2
APPID
  5
8
100
AcDbSymbolTable
 70
               1
  0
APPID
  5
16
100
AcDbSymbolTableRecord
100
AcDbRegAppTableRecord
  2
ACAD
 70
               0
  0
ENDTAB
  0
TABLE
  2
DIMSTYLE
  5
9
100
AcDbSymbolTable
 70
               1
100
AcDbDimStyleTable
 71
               0
  0
DIMSTYLE
105
18
100
AcDbSymbolTableRecord
100
AcDbDimStyleTableRecord
  2
Standard
 70
               0
  3

  4

 40
1.0
 41
0.18
 42
0.0625
 43
0.38
 44
0.18
 45
0.0
 46
0.0
 47
0.0
 48
0.0
 71
               0
 72
               0
 73
               1
 74
               1
 75
               0
 76
               0
 77
               0
 78
               0
 79
               0
140
0.18
141
0.09
142
0.0
143
25.399999999999999
144
1.0
145
0.0
146
1.0
147
0.09
148
0.0
170
               0
171
               2
172
               0
173
               0
174
               0
175
               0
176
               0
177
               0
178
               0
179
               0
271
               4
272
               4
273
               2
274
               2
275
               0
276
               0
277
               2
278
              46
279
               0
280
               0
281
               0
282
               0
283
               1
284
               0
285
               0
286
               0
288
               0
340
17
341
0
342
0
343
0
344
0
371
              -2
372
              -2
  0
ENDTAB
  0
TABLE
  2
BLOCK_RECORD
  5
1
100
AcDbSymbolTable
 70
               5
  0
BLOCK_RECORD
  5
A
100
AcDbSymbolTableRecord
100
AcDbBlockTableRecord
  2
*MODEL_SPACE
340
20
  0
BLOCK_RECORD
  5
B
100
AcDbSymbolTableRecord
100
AcDbBlockTableRecord
  2
*PAPER_SPACE
340
21
  0
BLOCK_RECORD
  5
24
100
AcDbSymbolTableRecord
100
AcDbBlockTableRecord
  2
グループ
340
0
102
{BLKREFS
331
50
102
}
  0
BLOCK_RECORD
  5
25
100
AcDbSymbolTableRecord
100
AcDbBlockTableRecord
  2
スケール1：5
340
0
102
{BLKREFS
331
5F
102
}
  0
BLOCK_RECORD
  5
26
100
AcDbSymbolTableRecord
100
AcDbBlockTableRecord
  2
グループ-1
340
0
102
{BLKREFS
331
60
102
}
  0
BLOCK_RECORD
  5
27
100
AcDbSymbolTableRecord
100
AcDbBlockTableRecord
  2
グループ-2
340
0
102
{BLKREFS
331
61
102
}
  0
BLOCK_RECORD
  5
28
100
AcDbSymbolTableRecord
100
AcDbBlockTableRecord
  2
グループ-3
340
0
102
{BLKREFS
331
62
102
}
  0
ENDTAB
  0
ENDSEC
  0
SECTION
  2
BLOCKS
  0
BLOCK
  5
D
100
AcDbEntity
  8
0
100
AcDbBlockBegin
  2
*MODEL_SPACE
 70
               0
 10
0.0
 20
0.0
 30
0.0
  3
*MODEL_SPACE
  1

  0
ENDBLK
  5
E
100
AcDbEntity
  8
0
100
AcDbBlockEnd
  0
BLOCK
  5
F
100
AcDbEntity
 67
               1
  8
0
100
AcDbBlockBegin
  2
*PAPER_SPACE
 70
               0
 10
0.0
 20
0.0
 30
0.0
  3
*PAPER_SPACE
  1

  0
ENDBLK
  5
10
100
AcDbEntity
 67
               1
  8
0
100
AcDbBlockEnd
  0
BLOCK
  5
43
100
AcDbEntity
  8
一般
100
AcDbBlockBegin
  2
グループ
 70
               0
 10
0.0
 20
0.0
 30
0.0
  3
グループ
  1

  0
MTEXT
  5
44
100
AcDbEntity
  8
一般
 62
               8
100
AcDbMText
 10
-61.590303983041849
 20
8.3342057291666851
 30
0.0
 40
8.1442057291666661
 41
7.3612159321675676
 71
               1
 72
               1
  1
0
  7
ＭＳ ゴシック
 73
               1
 44
0.7828267384257843
  0
MTEXT
  5
45
100
AcDbEntity
  8
一般
 62
               8
100
AcDbMText
 10
-12.909696016958151
 20
8.3342057291666851
 30
0.0
 40
8.1442057291666661
 41
12.75
 71
               1
 72
               1
  1
50
  7
ＭＳ ゴシック
 73
               1
 44
0.7828267384257843
  0
MTEXT
  5
46
100
AcDbEntity
  8
一般
 62
               8
100
AcDbMText
 10
33.590303983041849
 20
8.3342057291666851
 30
0.0
 40
8.1442057291666661
 41
27.999999999999972
 71
               1
 72
               1
  1
100mm
  7
ＭＳ ゴシック
 73
               1
 44
0.7828267384257843
  0
LINE
  5
47
100
AcDbEntity
  8
寸法
370
              15
 62
               8
100
AcDbLine
 10
-7.9096960169581507
 20
-1.2916666666666288
 30
0.0
 11
-7.9096960169581507
 21
-9.2916666666666288
 31
0.0
  0
POLYLINE
  5
48
100
AcDbEntity
  8
一般
370
              15
  6
Continuous
 62
               8
100
AcDb2dPolyline
 66
               1
 10
0.0
 20
0.0
 30
0.0
 75
               5
  0
VERTEX
  5
49
100
AcDbEntity
  8
一般
370
              15
  6
Continuous
 62
               8
100
AcDbVertex
100
AcDb2dVertex
 10
-57.909696016958151
 20
-1.2916666666666288
 30
0.0
  0
VERTEX
  5
4A
100
AcDbEntity
  8
一般
370
              15
  6
Continuous
 62
               8
100
AcDbVertex
100
AcDb2dVertex
 10
-57.909696016958151
 20
-9.2916666666666288
 30
0.0
  0
VERTEX
  5
4B
100
AcDbEntity
  8
一般
370
              15
  6
Continuous
 62
               8
100
AcDbVertex
100
AcDb2dVertex
 10
42.090303983041849
 20
-9.2916666666666288
 30
0.0
  0
VERTEX
  5
4C
100
AcDbEntity
  8
一般
370
              15
  6
Continuous
 62
               8
100
AcDbVertex
100
AcDb2dVertex
 10
42.090303983041849
 20
-1.2916666666666288
 30
0.0
  0
SEQEND
  5
4D
100
AcDbEntity
  8
一般
370
              15
  6
Continuous
 62
               8
  0
ENDBLK
  5
4E
100
AcDbEntity
  8
一般
100
AcDbBlockEnd
  0
BLOCK
  5
4F
100
AcDbEntity
  8
一般
100
AcDbBlockBegin
  2
スケール1：5
 70
               0
 10
0.0
 20
0.0
 30
0.0
  3
スケール1：5
  1

  0
INSERT
  5
50
100
AcDbEntity
  8
一般
 62
               7
100
AcDbBlockReference
  2
グループ
 10
0.0
 20
0.0
 30
0.0
  0
ENDBLK
  5
51
100
AcDbEntity
  8
一般
100
AcDbBlockEnd
  0
BLOCK
  5
52
100
AcDbEntity
  8
一般
100
AcDbBlockBegin
  2
グループ-1
 70
               0
 10
0.0
 20
0.0
 30
0.0
  3
グループ-1
  1

  0
LINE
  5
53
100
AcDbEntity
  8
一般
370
               5
  6
Continuous
 62
               7
100
AcDbLine
 10
-459.6083087366826
 20
113.82106781186548
 30
0.0
 11
-473.75044436041367
 21
99.678932188134524
 31
0.0
  0
LINE
  5
54
100
AcDbEntity
  8
一般
370
               5
  6
Continuous
 62
               7
100
AcDbLine
 10
-459.6083087366826
 20
99.678932188134524
 30
0.0
 11
-473.75044436041367
 21
113.82106781186548
 31
0.0
  0
ENDBLK
  5
55
100
AcDbEntity
  8
一般
100
AcDbBlockEnd
  0
BLOCK
  5
56
100
AcDbEntity
  8
一般
100
AcDbBlockBegin
  2
グループ-2
 70
               0
 10
0.0
 20
0.0
 30
0.0
  3
グループ-2
  1

  0
LINE
  5
57
100
AcDbEntity
  8
一般
370
               5
  6
Continuous
 62
               7
100
AcDbLine
 10
-459.6083087366826
 20
-171.93232296717127
 30
0.0
 11
-473.75044436041367
 21
-186.07445859090222
 31
0.0
  0
LINE
  5
58
100
AcDbEntity
  8
一般
370
               5
  6
Continuous
 62
               7
100
AcDbLine
 10
-459.6083087366826
 20
-186.07445859090222
 30
0.0
 11
-473.75044436041367
 21
-171.93232296717127
 31
0.0
  0
ENDBLK
  5
59
100
AcDbEntity
  8
一般
100
AcDbBlockEnd
  0
BLOCK
  5
5A
100
AcDbEntity
  8
一般
100
AcDbBlockBegin
  2
グループ-3
 70
               0
 10
0.0
 20
0.0
 30
0.0
  3
グループ-3
  1

  0
LINE
  5
5B
100
AcDbEntity
  8
一般
370
               5
  6
Continuous
 62
               7
100
AcDbLine
 10
-151.81347761078842
 20
-184.56711809291878
 30
0.0
 11
-165.95561323451943
 21
-198.70925371664973
 31
0.0
  0
LINE
  5
5C
100
AcDbEntity
  8
一般
370
               5
  6
Continuous
 62
               7
100
AcDbLine
 10
-151.81347761078842
 20
-198.70925371664973
 30
0.0
 11
-165.95561323451943
 21
-184.56711809291878
 31
0.0
  0
ENDBLK
  5
5D
100
AcDbEntity
  8
一般
100
AcDbBlockEnd
  0
ENDSEC
  0
SECTION
  2
ENTITIES
  0
MTEXT
  5
5E
100
AcDbEntity
  8
一般
 62
               7
100
AcDbMText
 10
1381.2324838490408
 20
1291.5910654350243
 30
0.0
 40
30.316840277777771
 41
0.0
 71
               1
 72
               1
  1
BX-7408
  7
Arial
 73
               1
 44
0.9673603504928806
  0
INSERT
  5
5F
100
AcDbEntity
  8
一般
 62
               7
100
AcDbBlockReference
  2
スケール1：5
 10
1421.5903039830418
 20
1040.7083333333333
 30
0.0
  0
INSERT
  5
60
100
AcDbEntity
  8
一般
 62
               7
100
AcDbBlockReference
  2
グループ-1
 10
1450.0
 20
1020.0
 30
0.0
  0
INSERT
  5
61
100
AcDbEntity
  8
一般
 62
               7
100
AcDbBlockReference
  2
グループ-2
 10
1450.0
 20
1020.0
 30
0.0
  0
INSERT
  5
62
100
AcDbEntity
  8
一般
 62
               7
100
AcDbBlockReference
  2
グループ-3
 10
1450.0
 20
1020.0
 30
0.0
  0
CIRCLE
  5
63
100
AcDbEntity
  8
0
370
               5
  6
Continuous
 62
               7
100
AcDbCircle
 10
1083.3206234514519
 20
840.99660922096325
 30
0.0
 40
28.0
  0
CIRCLE
  5
64
100
AcDbEntity
  8
0
370
               5
  6
Continuous
 62
               7
100
AcDbCircle
 10
1083.3206234514519
 20
840.99660922096325
 30
0.0
 40
16.5
  0
LINE
  5
65
100
AcDbEntity
  8
0
370
               5
  6
Continuous
 62
               7
100
AcDbLine
 10
1069.7559634852014
 20
849.49660922096325
 30
0.0
 11
1096.8852834177023
 21
849.49660922096325
 31
0.0
  0
CIRCLE
  5
66
100
AcDbEntity
  8
0
370
               5
  6
Continuous
 62
               7
100
AcDbCircle
 10
883.32062345145187
 20
840.99660922096325
 30
0.0
 40
28.0
  0
CIRCLE
  5
67
100
AcDbEntity
  8
0
370
               5
  6
Continuous
 62
               7
100
AcDbCircle
 10
883.32062345145187
 20
840.99660922096325
 30
0.0
 40
16.5
  0
LINE
  5
68
100
AcDbEntity
  8
0
370
               5
  6
Continuous
 62
               7
100
AcDbLine
 10
869.75596348520128
 20
849.49660922096325
 30
0.0
 11
896.88528341770234
 21
849.49660922096325
 31
0.0
  0
LWPOLYLINE
  5
69
100
AcDbEntity
  8
0
370
              15
  6
Continuous
 62
               7
100
AcDbPolyline
 90
       14
 70
             128
 10
998.12822925738965
 20
1119.9605020540621
 10
998.11051021602805
 20
1119.9603850797162
 42
0.0004801333185249
 10
997.530937465487
 20
1119.9560023894096
 10
997.44824836706391
 20
1119.9552976912698
 42
0.0006010002908457
 10
997.03406286320057
 20
1119.951270001342
 10
997.03074196329624
 20
1119.9512337155588
 42
0.0002476905121495
 10
996.62320540643179
 20
1119.9465788599114
 42
0.0002103848979399
 10
996.21567327120738
 20
1119.9415506411538
 10
995.91313580036399
 20
1119.9376905503743
 42
-0.0001225399390284
 10
995.32511254228746
 20
1119.9303320677836
 42
-0.0000439765271065
 10
994.73708685074394
 20
1119.923169416518
 10
994.7000153467784
 20
1119.9227211152145
 42
0.0000592319021588
 10
994.12061796413718
 20
1119.9156458835851
 10
994.11027159575406
 20
1119.9155181606402
  0
SPLINE
  5
6A
100
AcDbEntity
  8
0
370
              15
  6
Continuous
 62
               7
100
AcDbSpline
210
0.0
220
0.0
230
1.0
 70
              12
 71
               2
 72
             111
 73
             108
 74
               0
 42
0.000001
 43
0.000001
 40
0.0
 40
0.0
 40
0.0
 40
1.0
 40
1.0
 40
2.0
 40
2.0
 40
3.0
 40
3.0
 40
4.0
 40
4.0
 40
5.0
 40
5.0
 40
6.0
 40
6.0
 40
7.0
 40
7.0
 40
8.0
 40
8.0
 40
9.0
 40
9.0
 40
10.0
 40
10.0
 40
11.0
 40
11.0
 40
12.0
 40
12.0
 40
13.0
 40
13.0
 40
14.0
 40
14.0
 40
15.0
 40
15.0
 40
16.0
 40
16.0
 40
17.0
 40
17.0
 40
18.0
 40
18.0
 40
19.0
 40
19.0
 40
20.0
 40
20.0
 40
21.0
 40
21.0
 40
22.0
 40
22.0
 40
23.0
 40
23.0
 40
24.0
 40
24.0
 40
25.0
 40
25.0
 40
26.0
 40
26.0
 40
27.0
 40
27.0
 40
28.0
 40
28.0
 40
29.0
 40
29.0
 40
30.0
 40
30.0
 40
31.0
 40
31.0
 40
32.0
 40
33.0
 40
33.0
 40
34.0
 40
34.0
 40
35.0
 40
35.0
 40
36.0
 40
36.0
 40
37.0
 40
37.0
 40
38.0
 40
38.0
 40
39.0
 40
39.0
 40
40.0
 40
40.0
 40
41.0
 40
41.0
 40
42.0
 40
42.0
 40
43.0
 40
43.0
 40
44.0
 40
44.0
 40
45.0
 40
45.0
 40
46.0
 40
46.0
 40
47.0
 40
47.0
 40
48.0
 40
48.0
 40
49.0
 40
49.0
 40
50.0
 40
50.0
 40
51.0
 40
51.0
 40
52.0
 40
52.0
 40
53.0
 40
53.0
 40
54.0
 40
54.0
 40
54.0
 10
998.99153419897198
 20
1119.9349281031118
 30
0.0
 41
1.0
 10
998.9877844780151
 20
1119.936546588895
 30
0.0
 41
0.999901530098901
 10
998.98399081339642
 20
1119.938059206575
 30
0.0
 41
1.0
 10
998.98388613123063
 20
1119.9381009456613
 30
0.0
 41
1.0
 10
998.98378144906474
 20
1119.9381426847476
 30
0.0
 41
1.0
 10
998.97977842011483
 20
1119.9397387806002
 30
0.0
 41
0.9997643907532622
 10
998.97570988901316
 20
1119.9411596315481
 30
0.0
 41
1.0
 10
998.97558443418438
 20
1119.9412034440711
 30
0.0
 41
1.0
 10
998.97545897935561
 20
1119.9412472565941
 30
0.0
 41
1.0
 10
998.9714295447593
 20
1119.9426544538903
 30
0.0
 41
0.9998172200596193
 10
998.96734925803162
 20
1119.9439065751344
 30
0.0
 41
1.0
 10
998.96326985694611
 20
1119.9451584246005
 30
0.0
 41
0.9998405675108643
 10
998.95914835809094
 20
1119.9462638147988
 30
0.0
 41
1.0
 10
998.95502629614907
 20
1119.9473693217578
 30
0.0
 41
0.9998626360163804
 10
998.95086985785701
 20
1119.9483375991008
 30
0.0
 41
1.0
 10
998.94671197083539
 20
1119.9493062649826
 30
0.0
 41
0.99988370947655
 10
998.94252647660005
 20
1119.9501476781277
 30
0.0
 41
1.0
 10
998.94252315228982
 20
1119.9501483464164
 30
0.0
 41
1.0
 10
998.94251982797971
 20
1119.9501490147049
 30
0.0
 41
1.0
 10
998.9383276851247
 20
1119.9509917644273
 30
0.0
 41
0.9999031426279053
 10
998.93411371016509
 20
1119.951717508088
 30
0.0
 41
1.0
 10
998.93410900468007
 20
1119.9517183184812
 30
0.0
 41
1.0
 10
998.93410429919493
 20
1119.9517191288742
 30
0.0
 41
1.0
 10
998.92988091326652
 20
1119.9524464933208
 30
0.0
 41
0.9999208277373785
 10
998.9256405610106
 20
1119.9530673479762
 30
0.0
 41
1.0
 10
998.9256349272066
 20
1119.9530681728543
 30
0.0
 41
1.0
 10
998.92562929340272
 20
1119.9530689977323
 30
0.0
 41
1.0
 10
998.92137767354063
 20
1119.9536915021436
 30
0.0
 41
0.9999366570101836
 10
998.91711311881386
 20
1119.9542181483116
 30
0.0
 41
1.0
 10
998.91710697271378
 20
1119.954218907317
 30
0.0
 41
1.0
 10
998.91710082661371
 20
1119.9542196663224
 30
0.0
 41
1.0
 10
998.91282397968735
 20
1119.9547478305012
 30
0.0
 41
0.9999505965019951
 10
998.90853747846927
 20
1119.9551908703825
 30
0.0
 41
1.0
 10
998.90853119491373
 20
1119.9551915198319
 30
0.0
 41
1.0
 10
998.9085249113582
 20
1119.9551921692814
 30
0.0
 41
1.0
 10
998.90422584302814
 20
1119.9556365080616
 30
0.0
 41
0.9999626644819136
 10
998.89991973780161
 20
1119.9560064853858
 30
0.0
 41
1.0
 10
998.8999136481666
 20
1119.9560070086027
 30
0.0
 41
1.0
 10
998.89990755853159
 20
1119.9560075318195
 30
0.0
 41
1.0
 10
998.89558927403186
 20
1119.9563785555777
 30
0.0
 41
0.999972912991325
 10
998.89126599589986
 20
1119.9566859735494
 30
0.0
 41
1.0
 10
998.89126038730842
 20
1119.956686372363
 30
0.0
 41
1.0
 10
998.89125477871698
 20
1119.9566867711765
 30
0.0
 41
1.0
 10
998.88692028340233
 20
1119.9569949867753
 30
0.0
 41
0.9999814105534521
 10
998.88258235181252
 20
1119.9572503219499
 30
0.0
 41
1.0
 10
998.88257746740828
 20
1119.9572506094512
 30
0.0
 41
1.0
 10
998.88257258300405
 20
1119.9572508969522
 30
0.0
 41
1.0
 10
998.8782248826094
 20
1119.957506807129
 30
0.0
 41
0.9999868696465463
 10
998.87387478776986
 20
1119.957718144836
 30
0.0
 41
1.0
 10
998.87277929084507
 20
1119.9577713666199
 30
0.0
 41
1.0
 10
998.8716837939204
 20
1119.957824588404
 30
0.0
 41
1.0
 10
998.86514270523446
 20
1119.9581423696791
 30
0.0
 41
0.9999780025814951
 10
998.85859797660441
 20
1119.9583733531219
 30
0.0
 41
1.0
 10
998.85347614569389
 20
1119.958554118163
 30
0.0
 41
1.0
 10
998.84835431478336
 20
1119.9587348832038
 30
0.0
 41
1.0
 10
998.8315659243251
 20
1119.9593273967289
 30
0.0
 41
0.9999992319350698
 10
998.8147790542024
 20
1119.9599615237692
 30
0.0
 41
1.0
 10
998.81382470512267
 20
1119.9599975744773
 30
0.0
 41
1.0
 10
998.81287035604282
 20
1119.9600336251856
 30
0.0
 41
1.0
 10
998.79417478775395
 20
1119.9607398536427
 30
0.0
 41
0.9999982194873306
 10
998.77548201801324
 20
1119.9615166367439
 30
0.0
 41
1.0
 10
998.77420119509384
 20
1119.9615698616867
 30
0.0
 41
1.0
 10
998.77292037217444
 20
1119.9616230866295
 30
0.0
 41
1.0
 10
998.75166595659744
 20
1119.9625063196163
 30
0.0
 41
1.0
 10
998.66701613413511
 20
1119.9662091123046
 30
0.0
 41
1.0
 10
998.64593368081069
 20
1119.9671054136402
 30
0.0
 41
1.0
 10
998.64590965934644
 20
1119.9671064348909
 30
0.0
 41
1.0
 10
998.6458856378822
 20
1119.9671074561415
 30
0.0
 41
1.0
 10
998.62485122748467
 20
1119.9680017149758
 30
0.0
 41
0.9999987897400349
 10
998.60381413635253
 20
1119.9688305191203
 30
0.0
 41
1.0
 10
998.60379256487408
 20
1119.9688313689778
 30
0.0
 41
1.0
 10
998.60377099339553
 20
1119.9688322188354
 30
0.0
 41
1.0
 10
998.58277704522118
 20
1119.9696593232648
 30
0.0
 41
0.9999970658197676
 10
998.56177933618608
 20
1119.9703847039814
 30
0.0
 41
1.0
 10
998.56176047830138
 20
1119.9703853554404
 30
0.0
 41
1.0
 10
998.5617416204168
 20
1119.9703860068994
 30
0.0
 41
1.0
 10
998.54078162715064
 20
1119.971110084698
 30
0.0
 41
0.9999945787166672
 10
998.51981731994499
 20
1119.9716961133408
 30
0.0
 41
1.0
 10
998.51980153498937
 20
1119.9716965545877
 30
0.0
 41
1.0
 10
998.51978575003375
 20
1119.9716969958347
 30
0.0
 41
1.0
 10
998.4988530127373
 20
1119.9722821419837
 30
0.0
 41
0.9999913250537255
 10
998.47791612721016
 20
1119.9726928866412
 30
0.0
 41
1.0
 10
998.47790386997838
 20
1119.9726931271064
 30
0.0
 41
1.0
 10
998.47789161274659
 20
1119.9726933675715
 30
0.0
 41
1.0
 10
998.45697924168508
 20
1119.9731036312987
 30
0.0
 41
0.9999873082613412
 10
998.43606379835398
 20
1119.97330315605
 30
0.0
 41
1.0
 10
998.4151565354689
 20
1119.9735026027631
 30
0.0
 41
0.9999825539750249
 10
998.39424837537376
 20
1119.9734550446647
 30
0.0
 41
1.0
 10
998.37335185805921
 20
1119.9734074164196
 30
0.0
 41
0.999977051812186
 10
998.35245790418583
 20
1119.9730766659609
 30
0.0
 41
1.0
 10
998.33156542479855
 20
1119.9727458919215
 30
0.0
 41
0.9999708495470555
 10
998.31068043254481
 20
1119.9720961188987
 30
0.0
 41
1.0
 10
998.2897852100366
 20
1119.9714460579783
 30
0.0
 41
0.9999639998405189
 10
998.2689040278276
 20
1119.9704415021506
 30
0.0
 41
1.0
 10
998.24801460321373
 20
1119.9694366898975
 30
0.0
 41
0.9999566165192007
 10
998.22714752193963
 20
1119.9680429082093
 30
0.0
 41
1.0
 10
998.22713211845291
 20
1119.9680418793591
 30
0.0
 41
1.0
 10
998.2271167149662
 20
1119.9680408505092
 30
0.0
 41
1.0
 10
998.20621882671833
 20
1119.9666450111208
 30
0.0
 41
0.9999487794586986
 10
998.18535347362558
 20
1119.9648264564378
 30
0.0
 41
1.0
 10
998.1853301126921
 20
1119.9648244203768
 30
0.0
 41
1.0
 10
998.18530675175873
 20
1119.9648223843155
 30
0.0
 41
1.0
 10
998.16439467679936
 20
1119.9629997575103
 30
0.0
 41
0.9999386647666536
 10
998.14352810280047
 20
1119.9607143828866
 30
0.0
 41
1.0
 10
998.14089785567364
 20
1119.9604263097206
 30
0.0
 41
1.0
 10
998.13826760854681
 20
1119.9601382365545
 30
0.0
 41
1.0
 10
998.13695924347496
 20
1119.9599905191662
 30
0.0
 41
1.0
 10
998.13565087840311
 20
1119.959842801778
 30
0.0
 41
1.0
  0
LWPOLYLINE
  5
6B
100
AcDbEntity
  8
0
370
              15
  6
Continuous
 62
               7
100
AcDbPolyline
 90
       46
 70
             128
 10
996.99159966850084
 20
992.49157927703163
 10
996.93814853512299
 20
992.40255314026001
 42
-0.0112250566939688
 10
996.65501927409264
 20
991.95411136354505
 42
-0.0060326709383055
 10
996.35653053347369
 20
991.51562817162005
 10
996.34994218258305
 20
991.5061964809056
 42
-0.0122090666461345
 10
996.02210037095097
 20
991.06045788583151
 10
995.94006677273501
 20
990.95444719442412
 42
-0.0105620234291663
 10
995.59767813326971
 20
990.53078389993289
 10
995.57074598302893
 20
990.49886217328208
 42
-0.0077101417052426
 10
995.2679058762676
 20
990.15094593059257
 42
-0.0076269995423055
 10
994.95450719603286
 20
989.81244973430239
 42
-0.0075569658147611
 10
994.63091988857195
 20
989.48357032656531
 42
-0.0074952007572198
 10
994.29753969325282
 20
989.16454175384115
 42
-0.0074391735009274
 10
993.95465760306729
 20
988.855506068041
 42
-0.0074067726525807
 10
993.60264445986149
 20
988.55669418293735
 10
993.60093554093964
 20
988.55528655825219
 42
-0.0074950235436618
 10
993.2367162197354
 20
988.26433424400261
 10
993.235080934763
 20
988.2630675986934
 42
-0.0074497326941217
 10
992.8590344189422
 20
987.98065466420712
 42
-0.0074101641436626
 10
992.47478281920473
 20
987.70955488666641
 42
-0.0073768945756272
 10
992.08269585016205
 20
987.44994396950096
 42
-0.0073490705591127
 10
991.68314345814269
 20
987.20199709588542
 10
991.68254726342707
 20
987.20163914881141
 42
-0.0073309247861563
 10
991.27709537745591
 20
986.96622880463292
 10
991.27635167271978
 20
986.96581145820153
 42
-0.0072615607195447
 10
990.86570147767338
 20
986.74314503809273
 42
-0.0072114200991182
 10
990.44892238046486
 20
986.5325239969543
 42
-0.0071791681390923
 10
990.02639847632781
 20
986.33405115063817
 10
989.9199917772537
 20
986.28592109235069
 42
-0.0142545648138477
 10
989.27412555478145
 20
986.01568233611397
 10
989.2662254561609
 20
986.01263842067556
 42
-0.0071014873527824
 10
988.62511955277603
 20
985.77602071912906
 10
988.61996410853089
 20
985.77420072836276
 42
-0.0136291930097843
 10
987.98018028388788
 20
985.56777179303845
 10
987.97788897740622
 20
985.56710086424607
 42
-0.0067190548001381
 10
987.33465426894304
 20
985.38810074979892
 42
-0.0134061923765577
 10
986.68491283028493
 20
985.23516913314734
 10
986.55916508724749
 20
985.20910820552331
 42
-0.0132260619448076
 10
985.72948712737048
 20
985.05992793013138
 10
985.71257886198384
 20
985.05734735260398
 42
-0.0121261963001978
 10
984.9102817506481
 20
984.95473930232401
 10
984.89774611418795
 20
984.95344416587955
 42
-0.0120270166405972
 10
984.11654554170423
 20
984.89168061764349
 10
984.10394186750864
 20
984.89098867079224
 42
-0.011207589540309
 10
983.3459114539769
 20
984.86639628135254
 10
983.32062345145187
 20
984.86616166568911
  0
LWPOLYLINE
  5
6C
100
AcDbEntity
  8
0
370
              15
  6
Continuous
 62
               7
100
AcDbPolyline
 90
       11
 70
             128
 10
998.58773872682968
 20
996.36115152193815
 10
998.5841700241125
 20
996.34681655250085
 42
-0.0049617859636872
 10
998.51923383573092
 20
996.09659599744873
 10
998.51634429862042
 20
996.08589936925034
 42
-0.0041808316671133
 10
998.45280046282221
 20
995.8582478268454
 42
-0.0041865842061361
 10
998.38545602085003
 20
995.63169152212413
 10
998.37962222841418
 20
995.61265101336267
 42
-0.0056021761859816
 10
998.29576483755477
 20
995.34951718459854
 10
998.28950563844023
 20
995.3306114516655
 42
-0.0048409172932756
 10
998.20099206549526
 20
995.0716877806608
 10
998.20026949642966
 20
995.06963960252506
  0
LWPOLYLINE
  5
6D
100
AcDbEntity
  8
0
370
              15
  6
Continuous
 62
               7
100
AcDbPolyline
 90
       14
 70
             128
 10
999.00054052030532
 20
999.72315492193775
 10
999.00051312294431
 20
999.68094328709185
 42
-0.0065662826029996
 10
998.99644096356997
 20
999.38548023719068
 10
998.99549436326697
 20
999.35031717147535
 42
-0.0040419366703499
 10
998.98761598855208
 20
999.12529742203651
 42
-0.0040462458803257
 10
998.97609919124261
 20
998.90044003366938
 42
-0.0040526935344362
 10
998.9609434086733
 20
998.67581810215734
 10
998.96061190321529
 20
998.67143422756908
 42
-0.0040606047854453
 10
998.94254878431798
 20
998.45586352662986
 42
-0.0037590135568774
 10
998.92111656672273
 20
998.24060065274227
 10
998.91640592184604
 20
998.19664221988296
 42
-0.00724605776824
 10
998.87955016953697
 20
997.89415775640623
 10
998.87297486789703
 20
997.84601438581103
 10
998.87268837891861
 20
997.84391782414241
  0
SPLINE
  5
6E
100
AcDbEntity
  8
0
370
              15
  6
Continuous
 62
               7
100
AcDbSpline
210
0.0
220
0.0
230
1.0
 70
              12
 71
               2
 72
             136
 73
             133
 74
               0
 42
0.000001
 43
0.000001
 40
0.0
 40
0.0
 40
0.0
 40
1.0
 40
1.0
 40
2.0
 40
2.0
 40
3.0
 40
3.0
 40
4.0
 40
4.0
 40
5.0
 40
5.0
 40
6.0
 40
6.0
 40
7.0
 40
7.0
 40
8.0
 40
8.0
 40
9.0
 40
9.0
 40
10.0
 40
10.0
 40
11.0
 40
11.0
 40
12.0
 40
12.0
 40
13.0
 40
13.0
 40
14.0
 40
14.0
 40
15.0
 40
15.0
 40
16.0
 40
16.0
 40
17.0
 40
17.0
 40
18.0
 40
18.0
 40
19.0
 40
19.0
 40
20.0
 40
20.0
 40
21.0
 40
21.0
 40
22.0
 40
22.0
 40
23.0
 40
23.0
 40
24.0
 40
24.0
 40
25.0
 40
25.0
 40
26.0
 40
26.0
 40
27.0
 40
27.0
 40
28.0
 40
28.0
 40
29.0
 40
29.0
 40
30.0
 40
30.0
 40
31.0
 40
31.0
 40
32.0
 40
32.0
 40
33.0
 40
33.0
 40
34.0
 40
34.0
 40
35.0
 40
35.0
 40
36.0
 40
36.0
 40
37.0
 40
37.0
 40
38.0
 40
38.0
 40
39.0
 40
39.0
 40
40.0
 40
40.0
 40
41.0
 40
41.0
 40
42.0
 40
42.0
 40
43.0
 40
43.0
 40
44.0
 40
44.0
 40
45.0
 40
45.0
 40
46.0
 40
46.0
 40
47.0
 40
47.0
 40
48.0
 40
48.0
 40
49.0
 40
49.0
 40
50.0
 40
50.0
 40
51.0
 40
51.0
 40
52.0
 40
52.0
 40
53.0
 40
53.0
 40
54.0
 40
54.0
 40
55.0
 40
55.0
 40
56.0
 40
56.0
 40
57.0
 40
57.0
 40
58.0
 40
58.0
 40
59.0
 40
59.0
 40
60.0
 40
60.0
 40
61.0
 40
61.0
 40
62.0
 40
62.0
 40
63.0
 40
63.0
 40
64.0
 40
64.0
 40
65.0
 40
65.0
 40
66.0
 40
66.0
 40
66.0
 10
999.00062329054526
 20
1014.1380978918405
 30
0.0
 41
1.0
 10
999.00051432212945
 20
1014.1254142219223
 30
0.0
 41
1.0
 10
998.99836755180695
 20
1013.9285771623108
 30
0.0
 41
1.0
 10
998.99622078148434
 20
1013.7317401026994
 30
0.0
 41
0.9992922414554297
 10
998.97928184609816
 20
1013.5356214928551
 30
0.0
 41
1.0
 10
998.9713606242268
 20
1013.4439097656268
 30
0.0
 41
1.0
 10
998.96343940235545
 20
1013.3521980383985
 30
0.0
 41
1.0
 10
998.94595018266557
 20
1013.1497082493629
 30
0.0
 41
0.9997888582173186
 10
998.9201557848429
 20
1012.9481080596061
 30
0.0
 41
1.0
 10
998.89436264117398
 20
1012.7465152170164
 30
0.0
 41
0.9997814559453601
 10
998.86016508249077
 20
1012.5461767847978
 30
0.0
 41
1.0
 10
998.8259601625216
 20
1012.3458056200261
 30
0.0
 41
0.9997725495570903
 10
998.78324159374392
 20
1012.1470753905601
 30
0.0
 41
1.0
 10
998.7405144095269
 20
1011.948305081375
 30
0.0
 41
0.9997593270027362
 10
998.68910909560498
 20
1011.7516003743008
 30
0.0
 41
1.0
 10
998.68885890613103
 20
1011.7506430132144
 30
0.0
 41
1.0
 10
998.68860871665709
 20
1011.7496856521279
 30
0.0
 41
1.0
 10
998.6367030237875
 20
1011.5510662228819
 30
0.0
 41
0.9997544852858391
 10
998.57604851152485
 20
1011.3549414953015
 30
0.0
 41
1.0
 10
998.57577014217941
 20
1011.3540413955399
 30
0.0
 41
1.0
 10
998.57549177283408
 20
1011.3531412957782
 30
0.0
 41
1.0
 10
998.51427577647542
 20
1011.1552030795863
 30
0.0
 41
0.9997684594329973
 10
998.44459994338013
 20
1010.9600820558039
 30
0.0
 41
1.0
 10
998.37491156240003
 20
1010.7649284800381
 30
0.0
 41
0.9997808433466286
 10
998.29711505933892
 20
1010.5728631456091
 30
0.0
 41
1.0
 10
998.21930544843326
 20
1010.3807668458608
 30
0.0
 41
0.9997920843499013
 10
998.13372814497234
 20
1010.1920028422514
 30
0.0
 41
1.0
 10
998.04814553614619
 20
1010.0032271362172
 30
0.0
 41
0.9998022024304047
 10
997.95512315273959
 20
1009.8180043344156
 30
0.0
 41
1.0
 10
997.95501394913788
 20
1009.8177868921578
 30
0.0
 41
1.0
 10
997.95490474553617
 20
1009.8175694499
 30
0.0
 41
1.0
 10
997.8616639549266
 20
1009.6319117635834
 30
0.0
 41
0.9998091761273864
 10
997.76124211266574
 20
1009.4500379746001
 30
0.0
 41
1.0
 10
997.76060853432386
 20
1009.4488905021873
 30
0.0
 41
1.0
 10
997.75997495598199
 20
1009.4477430297743
 30
0.0
 41
1.0
 10
997.65828595703829
 20
1009.2635742959669
 30
0.0
 41
0.9998103763388035
 10
997.54950267699496
 20
1009.0835049398797
 30
0.0
 41
1.0
 10
997.54895495192932
 20
1009.0825982886015
 30
0.0
 41
1.0
 10
997.54840722686345
 20
1009.0816916373233
 30
0.0
 41
1.0
 10
997.43853562450727
 20
1008.8998198239016
 30
0.0
 41
0.9998194891959181
 10
997.32183357070357
 20
1008.7222536217132
 30
0.0
 41
1.0
 10
997.20513990151028
 20
1008.5447000306633
 30
0.0
 41
0.999828050376732
 10
997.08194261005269
 20
1008.3715956762917
 30
0.0
 41
1.0
 10
996.9587477284922
 20
1008.1984945897916
 30
0.0
 41
0.999835971161558
 10
996.82936441673519
 20
1008.0299688539867
 30
0.0
 41
1.0
 10
996.69998225808445
 20
1007.8614446201379
 30
0.0
 41
0.9998432542597492
 10
996.56471470681822
 20
1007.6976067431201
 30
0.0
 41
1.0
 10
996.56440999521828
 20
1007.6972376723329
 30
0.0
 41
1.0
 10
996.56410528361846
 20
1007.6968686015457
 30
0.0
 41
1.0
 10
996.42822830915418
 20
1007.5322925829555
 30
0.0
 41
0.9998470097059188
 10
996.28667795435661
 20
1007.3725699635752
 30
0.0
 41
1.0
 10
996.28565200233288
 20
1007.371412299613
 30
0.0
 41
1.0
 10
996.28462605030927
 20
1007.3702546356508
 30
0.0
 41
1.0
 10
996.14102379146516
 20
1007.208216688347
 30
0.0
 41
0.9998488535388679
 10
995.99187484126674
 20
1007.0512692584017
 30
0.0
 41
1.0
 10
995.99114225568053
 20
1007.0504983684638
 30
0.0
 41
1.0
 10
995.99040967009432
 20
1007.0497274785257
 30
0.0
 41
1.0
 10
995.83979521453398
 20
1006.891237940058
 30
0.0
 41
0.9998569117674554
 10
995.68390566037704
 20
1006.737934010127
 30
0.0
 41
1.0
 10
995.52801109233837
 20
1006.5846254431764
 30
0.0
 41
0.9998644901196964
 10
995.3671541355103
 20
1006.4365319845615
 30
0.0
 41
1.0
 10
995.20629050008279
 20
1006.2884324923025
 30
0.0
 41
0.9998715670306119
 10
995.04076306992499
 20
1006.1455645859146
 30
0.0
 41
1.0
 10
994.87523364085939
 20
1006.0026949542553
 30
0.0
 41
0.9998781484465361
 10
994.70532489267953
 20
1005.8650623242954
 30
0.0
 41
1.0
 10
994.70502063496815
 20
1005.8648158638308
 30
0.0
 41
1.0
 10
994.70471637725666
 20
1005.8645694033662
 30
0.0
 41
1.0
 10
994.53419911365495
 20
1005.7264438524779
 30
0.0
 41
0.9998824778765959
 10
994.35952737784362
 20
1005.5936109134021
 30
0.0
 41
1.0
 10
994.35881321452973
 20
1005.5930678123016
 30
0.0
 41
1.0
 10
994.35809905121585
 20
1005.5925247112009
 30
0.0
 41
1.0
 10
994.18199898877765
 20
1005.4586055699247
 30
0.0
 41
0.9998857316152188
 10
994.00193096355952
 20
1005.3300712372142
 30
0.0
 41
1.0
 10
994.00152349855921
 20
1005.3297803846774
 30
0.0
 41
1.0
 10
994.00111603355879
 20
1005.3294895321405
 30
0.0
 41
1.0
 10
993.82023661979383
 20
1005.2003758675789
 30
0.0
 41
0.9998909196813328
 10
993.63562255801889
 20
1005.076661079072
 30
0.0
 41
1.0
 10
993.45101203769798
 20
1004.9529486637874
 30
0.0
 41
0.9998949060161926
 10
993.2628924595931
 20
1004.8346404635564
 30
0.0
 41
1.0
 10
993.2158408080262
 20
1004.8050497305193
 30
0.0
 41
1.0
 10
993.1687891564593
 20
1004.775458997482
 30
0.0
 41
1.0
 10
992.88656627522062
 20
1004.5979693311766
 30
0.0
 41
0.999610926086464
 10
992.59488509094797
 20
1004.4364935649417
 30
0.0
 41
1.0
 10
992.54599728707058
 20
1004.4094290986123
 30
0.0
 41
1.0
 10
992.49710948319307
 20
1004.3823646322829
 30
0.0
 41
1.0
 10
992.11245964202908
 20
1004.1694210788994
 30
0.0
 41
0.999649214580821
 10
991.71707382090267
 20
1003.9771439099786
 30
0.0
 41
1.0
 10
991.71679640645016
 20
1003.9770090025979
 30
0.0
 41
1.0
 10
991.71651899199787
 20
1003.9768740952171
 30
0.0
 41
1.0
 10
991.32168799977626
 20
1003.7848667410581
 30
0.0
 41
0.9996754234515296
 10
990.9175893930535
 20
1003.6132198578534
 30
0.0
 41
1.0
 10
990.91473465520517
 20
1003.6120072655657
 30
0.0
 41
1.0
 10
990.91187991735683
 20
1003.6107946732778
 30
0.0
 41
1.0
 10
990.51349078633007
 20
1003.4415729746487
 30
0.0
 41
0.9996980082021282
 10
990.10726835205287
 20
1003.2921299524091
 30
0.0
 41
1.0
 10
990.10381978604914
 20
1003.2908612777067
 30
0.0
 41
1.0
 10
990.10037122004542
 20
1003.2895926030041
 30
0.0
 41
1.0
 10
989.70104591777567
 20
1003.1426869301697
 30
0.0
 41
0.9997314193426165
 10
989.29534225874374
 20
1003.0144429642587
 30
0.0
 41
1.0
 10
989.29479444822368
 20
1003.0142697999501
 30
0.0
 41
1.0
 10
989.29424663770351
 20
1003.0140966356413
 30
0.0
 41
1.0
 10
988.88963859971204
 20
1002.8861989983479
 30
0.0
 41
0.9997465435088673
 10
988.47968337534985
 20
1002.7766445185189
 30
0.0
 41
1.0
 10
988.47325093616723
 20
1002.7749255441364
 30
0.0
 41
1.0
 10
988.46681849698473
 20
1002.7732065697538
 30
0.0
 41
1.0
 10
988.069728150988
 20
1002.66709003869
 30
0.0
 41
0.9997579960052909
 10
987.66835439476074
 20
1002.5785430519445
 30
0.0
 41
1.0
 10
987.66116998211169
 20
1002.5769581000593
 30
0.0
 41
1.0
 10
987.65398556946263
 20
1002.5753731481741
 30
0.0
 41
1.0
 10
987.26698063853451
 20
1002.4899960651993
 30
0.0
 41
0.9997953149043315
 10
986.87683856390822
 20
1002.4203453332066
 30
0.0
 41
1.0
 10
986.87612812221516
 20
1002.4202185004777
 30
0.0
 41
1.0
 10
986.87541768052211
 20
1002.4200916677489
 30
0.0
 41
1.0
 10
986.48669648928251
 20
1002.3506946012141
 30
0.0
 41
0.9998038959779949
 10
986.09553214832044
 20
1002.2967448493841
 30
0.0
 41
1.0
 10
986.08118596044392
 20
1002.2947662097317
 30
0.0
 41
1.0
 10
986.06683977256739
 20
1002.2927875700793
 30
0.0
 41
1.0
 10
985.70436780735815
 20
1002.2427950975543
 30
0.0
 41
0.9998093379345641
 10
985.34022026146556
 20
1002.2069937331712
 30
0.0
 41
1.0
 10
985.3253843182182
 20
1002.2055351293274
 30
0.0
 41
1.0
 10
985.31054837497072
 20
1002.2040765254835
 30
0.0
 41
1.0
 10
984.97607271557263
 20
1002.1711923687881
 30
0.0
 41
0.9998623173662594
 10
984.64069006910165
 20
1002.1494250782443
 30
0.0
 41
1.0
 10
984.63506107243688
 20
1002.1490597403023
 30
0.0
 41
1.0
 10
984.629432075772
 20
1002.1486944023602
 30
0.0
 41
1.0
 10
984.30530742263159
 20
1002.1276577877007
 30
0.0
 41
0.9998633701777252
 10
983.98066452220655
 20
1002.1173467676535
 30
0.0
 41
1.0
 10
983.97547734991383
 20
1002.117182017285
 30
0.0
 41
1.0
 10
983.97029017762111
 20
1002.1170172669165
 30
0.0
 41
1.0
 10
983.65602162178311
 20
1002.1070357476065
 30
0.0
 41
0.999879775511256
 10
983.34159467927611
 20
1002.1068039221864
 30
0.0
 41
1.0
 10
983.33110906536399
 20
1002.106801610169
 30
0.0
 41
1.0
 10
983.32062345145187
 20
1002.1067992981516
 30
0.0
 41
1.0
  0
LWPOLYLINE
  5
6F
100
AcDbEntity
  8
0
370
              15
  6
Continuous
 62
               7
100
AcDbPolyline
 90
       16
 70
             128
 10
968.61635774938964
 20
994.59897641347561
 10
968.59233474001235
 20
994.66033569939077
 42
-0.0077208402994633
 10
968.4743806651112
 20
994.97588023838125
 10
968.45718153377493
 20
995.02415013867983
 42
-0.0041123878369132
 10
968.38032002676721
 20
995.24560857414463
 42
-0.0041149148688388
 10
968.30711148301862
 20
995.46830577437458
 42
-0.0041198523218971
 10
968.23758138415462
 20
995.69217480959696
 42
-0.0041271996118542
 10
968.17176067426419
 20
995.91713300935044
 42
-0.0041369514415228
 10
968.10968029848084
 20
996.14309770452883
 42
-0.0041491017889492
 10
968.0513712033636
 20
996.36998622633882
 42
-0.0041636438196356
 10
967.99686433689567
 20
996.59771590640003
 42
-0.0041782614239913
 10
967.94617626510581
 20
996.8262690819688
 10
967.9389182071983
 20
996.86034022457989
 42
-0.0067124417872584
 10
967.87962361855557
 20
997.15825532761369
 10
967.87327825125976
 20
997.19253391227448
 10
967.87324068167413
 20
997.19273687308487
  0
SPLINE
  5
70
100
AcDbEntity
  8
0
370
              15
  6
Continuous
 62
               7
100
AcDbSpline
210
0.0
220
0.0
230
1.0
 70
              12
 71
               2
 72
              90
 73
              87
 74
               0
 42
0.000001
 43
0.000001
 40
0.0
 40
0.0
 40
0.0
 40
1.0
 40
1.0
 40
2.0
 40
2.0
 40
3.0
 40
3.0
 40
4.0
 40
4.0
 40
5.0
 40
5.0
 40
6.0
 40
6.0
 40
7.0
 40
7.0
 40
8.0
 40
8.0
 40
9.0
 40
9.0
 40
10.0
 40
10.0
 40
11.0
 40
11.0
 40
12.0
 40
12.0
 40
13.0
 40
13.0
 40
14.0
 40
14.0
 40
15.0
 40
15.0
 40
16.0
 40
16.0
 40
17.0
 40
17.0
 40
18.0
 40
18.0
 40
19.0
 40
19.0
 40
20.0
 40
20.0
 40
21.0
 40
21.0
 40
22.0
 40
22.0
 40
23.0
 40
23.0
 40
24.0
 40
24.0
 40
25.0
 40
25.0
 40
26.0
 40
26.0
 40
27.0
 40
27.0
 40
28.0
 40
28.0
 40
29.0
 40
29.0
 40
30.0
 40
30.0
 40
31.0
 40
31.0
 40
32.0
 40
32.0
 40
33.0
 40
33.0
 40
34.0
 40
34.0
 40
35.0
 40
35.0
 40
36.0
 40
36.0
 40
37.0
 40
37.0
 40
38.0
 40
38.0
 40
39.0
 40
39.0
 40
40.0
 40
40.0
 40
41.0
 40
41.0
 40
42.0
 40
42.0
 40
43.0
 40
43.0
 40
43.0
 10
983.32062345145187
 20
984.86616166568911
 30
0.0
 41
1.0
 10
983.31460566037413
 20
984.86622082645147
 30
0.0
 41
1.0
 10
983.30858786929616
 20
984.86627998721383
 30
0.0
 41
1.0
 10
982.93655145506636
 20
984.86993746843837
 30
0.0
 41
0.9997728055246686
 10
982.56500898529259
 20
984.8894480767467
 30
0.0
 41
1.0
 10
982.5230310863202
 20
984.89165243939999
 30
0.0
 41
1.0
 10
982.48105318734781
 20
984.89385680205316
 30
0.0
 41
1.0
 10
982.19346651551882
 20
984.90895868505504
 30
0.0
 41
0.9997390415045121
 10
981.90686979240445
 20
984.93718064430959
 30
0.0
 41
1.0
 10
981.6202730692894
 20
984.96540260356426
 30
0.0
 41
0.9999341503329001
 10
981.33439953184097
 20
985.00019457491476
 30
0.0
 41
1.0
 10
981.33222390779247
 20
985.00045935720357
 30
0.0
 41
1.0
 10
981.33004828374396
 20
985.00072413949238
 30
0.0
 41
1.0
 10
981.03982349819739
 20
985.03604567542072
 30
0.0
 41
0.9997209457966062
 10
980.75159093352772
 20
985.08503573266933
 30
0.0
 41
1.0
 10
980.74776762944668
 20
985.08568556863088
 30
0.0
 41
1.0
 10
980.74394432536565
 20
985.08633540459232
 30
0.0
 41
1.0
 10
980.44806515253413
 20
985.13662513376403
 30
0.0
 41
0.9999218480129385
 10
980.1535358077881
 20
985.19429667665861
 30
0.0
 41
1.0
 10
980.1480300066396
 20
985.19537476294363
 30
0.0
 41
1.0
 10
980.1425242054911
 20
985.19645284922854
 30
0.0
 41
1.0
 10
979.83698500333708
 20
985.25628013149094
 30
0.0
 41
0.9996876826501812
 10
979.53481676472745
 20
985.33129921793761
 30
0.0
 41
1.0
 10
979.23265027100592
 20
985.4063178711823
 30
0.0
 41
0.9999217292193782
 10
978.93245540846965
 20
985.48887350557357
 30
0.0
 41
1.0
 10
978.9320453968503
 20
985.48898626156495
 30
0.0
 41
1.0
 10
978.93163538523095
 20
985.48909901755633
 30
0.0
 41
1.0
 10
978.6306204994562
 20
985.57188016393047
 30
0.0
 41
0.9996822989153528
 10
978.33415978600135
 20
985.6697255778812
 30
0.0
 41
1.0
 10
978.33213143018543
 20
985.67039502683497
 30
0.0
 41
1.0
 10
978.33010307436939
 20
985.67106447578863
 30
0.0
 41
1.0
 10
978.0295856492819
 20
985.77024878764723
 30
0.0
 41
0.999914013375687
 10
977.73177267985488
 20
985.87728002486426
 30
0.0
 41
1.0
 10
977.72810137074225
 20
985.87859945953255
 30
0.0
 41
1.0
 10
977.72443006162973
 20
985.87991889420073
 30
0.0
 41
1.0
 10
977.41928673284724
 20
985.98958385124206
 30
0.0
 41
0.9996532728945116
 10
977.12033976185921
 20
986.11516076966336
 30
0.0
 41
1.0
 10
976.82139472661754
 20
986.24073719990156
 30
0.0
 41
0.9999125347522714
 10
976.52587569303569
 20
986.37417660456913
 30
0.0
 41
1.0
 10
976.23034633633029
 20
986.50762067056587
 30
0.0
 41
0.9996446326220918
 10
975.94234896380544
 20
986.65662547868862
 30
0.0
 41
1.0
 10
975.89443148067289
 20
986.68141714715875
 30
0.0
 41
1.0
 10
975.84651399754034
 20
986.70620881562877
 30
0.0
 41
1.0
 10
975.65312764866917
 20
986.80626353333162
 30
0.0
 41
0.9999086779734973
 10
975.4625160259028
 20
986.91150818037477
 30
0.0
 41
1.0
 10
975.27190440313677
 20
987.01675282741792
 30
0.0
 41
0.9999083055619827
 10
975.08421283276687
 20
987.12712085212263
 30
0.0
 41
1.0
 10
975.03715684328813
 20
987.15479112308401
 30
0.0
 41
1.0
 10
974.99010085380928
 20
987.18246139404528
 30
0.0
 41
1.0
 10
974.7083065920408
 20
987.34816379572021
 30
0.0
 41
0.999629599191727
 10
974.43594565112653
 20
987.52895320290645
 30
0.0
 41
1.0
 10
974.43565076165328
 20
987.52914894644039
 30
0.0
 41
1.0
 10
974.43535587218003
 20
987.52934468997421
 30
0.0
 41
1.0
 10
974.16359399777048
 20
987.70973644514083
 30
0.0
 41
0.9999064592750269
 10
973.89686793947112
 20
987.89749403230826
 30
0.0
 41
1.0
 10
973.89615686545187
 20
987.89799458160974
 30
0.0
 41
1.0
 10
973.89544579143262
 20
987.89849513091121
 30
0.0
 41
1.0
 10
973.63014188117086
 20
988.08525161947648
 30
0.0
 41
0.9996223188701445
 10
973.37549942659837
 20
988.28630228759448
 30
0.0
 41
1.0
 10
973.37445556799753
 20
988.28712645679866
 30
0.0
 41
1.0
 10
973.37341170939669
 20
988.28795062600284
 30
0.0
 41
1.0
 10
973.12085697202497
 20
988.48735295571328
 30
0.0
 41
0.9999064054553294
 10
972.87385247112115
 20
988.69359058806003
 30
0.0
 41
1.0
 10
972.62684797021711
 20
988.89982822040713
 30
0.0
 41
0.9996160855300555
 10
972.39164680305339
 20
989.1194314886618
 30
0.0
 41
1.0
 10
972.33774638764089
 20
989.16975737576342
 30
0.0
 41
1.0
 10
972.28384597222851
 20
989.22008326286505
 30
0.0
 41
1.0
 10
972.09769557706136
 20
989.39388867233038
 30
0.0
 41
0.999812829939226
 10
971.91840849186792
 20
989.57476551181935
 30
0.0
 41
1.0
 10
971.73912140667312
 20
989.75564235130969
 30
0.0
 41
0.9998983599192096
 10
971.56506430549609
 20
989.94155742738292
 30
0.0
 41
1.0
 10
971.542387697854
 20
989.96577892254948
 30
0.0
 41
1.0
 10
971.5197110902119
 20
989.99000041771603
 30
0.0
 41
1.0
 10
971.30259125698876
 20
990.22191195730704
 30
0.0
 41
0.9995998853318101
 10
971.0989330618055
 20
990.46573017588162
 30
0.0
 41
1.0
 10
971.09864815871492
 20
990.46607125994149
 30
0.0
 41
1.0
 10
971.09836325562424
 20
990.46641234400124
 30
0.0
 41
1.0
 10
970.89527486662155
 20
990.7095483944571
 30
0.0
 41
0.9999031355862891
 10
970.69903259380999
 20
990.95824299259129
 30
0.0
 41
1.0
 10
970.50279032099957
 20
991.2069375907239
 30
0.0
 41
0.9996226623324237
 10
970.32050170132152
 20
991.46603388925871
 30
0.0
 41
1.0
 10
970.29010919038797
 20
991.50923234618926
 30
0.0
 41
1.0
 10
970.25971667945419
 20
991.55243080311971
 30
0.0
 41
1.0
 10
970.03187565627786
 20
991.87627310256573
 30
0.0
 41
0.9996772289492394
 10
969.82077816829428
 20
992.21127044183868
 30
0.0
 41
1.0
 10
969.81374225872378
 20
992.22243595123382
 30
0.0
 41
1.0
 10
969.80672599543414
 20
992.23361120160007
 30
0.0
 41
1.0
  0
SPLINE
  5
71
100
AcDbEntity
  8
0
370
              15
  6
Continuous
 62
               7
100
AcDbSpline
210
0.0
220
0.0
230
1.0
 70
              12
 71
               2
 72
             138
 73
             135
 74
               0
 42
0.000001
 43
0.000001
 40
0.0
 40
0.0
 40
0.0
 40
1.0
 40
1.0
 40
2.0
 40
2.0
 40
3.0
 40
3.0
 40
4.0
 40
4.0
 40
5.0
 40
5.0
 40
6.0
 40
6.0
 40
7.0
 40
7.0
 40
8.0
 40
8.0
 40
9.0
 40
9.0
 40
10.0
 40
10.0
 40
11.0
 40
11.0
 40
12.0
 40
12.0
 40
13.0
 40
13.0
 40
14.0
 40
14.0
 40
15.0
 40
15.0
 40
16.0
 40
16.0
 40
17.0
 40
17.0
 40
18.0
 40
18.0
 40
19.0
 40
19.0
 40
20.0
 40
20.0
 40
21.0
 40
21.0
 40
22.0
 40
22.0
 40
23.0
 40
23.0
 40
24.0
 40
24.0
 40
25.0
 40
25.0
 40
26.0
 40
26.0
 40
27.0
 40
27.0
 40
28.0
 40
28.0
 40
29.0
 40
29.0
 40
30.0
 40
30.0
 40
31.0
 40
31.0
 40
32.0
 40
32.0
 40
33.0
 40
33.0
 40
34.0
 40
34.0
 40
35.0
 40
35.0
 40
36.0
 40
36.0
 40
37.0
 40
37.0
 40
38.0
 40
38.0
 40
39.0
 40
39.0
 40
40.0
 40
40.0
 40
41.0
 40
41.0
 40
42.0
 40
42.0
 40
43.0
 40
43.0
 40
44.0
 40
44.0
 40
45.0
 40
45.0
 40
46.0
 40
46.0
 40
47.0
 40
47.0
 40
48.0
 40
48.0
 40
49.0
 40
49.0
 40
50.0
 40
50.0
 40
51.0
 40
51.0
 40
52.0
 40
52.0
 40
53.0
 40
53.0
 40
54.0
 40
54.0
 40
55.0
 40
55.0
 40
56.0
 40
56.0
 40
57.0
 40
57.0
 40
58.0
 40
58.0
 40
59.0
 40
59.0
 40
60.0
 40
60.0
 40
61.0
 40
61.0
 40
62.0
 40
62.0
 40
63.0
 40
63.0
 40
64.0
 40
64.0
 40
65.0
 40
65.0
 40
66.0
 40
66.0
 40
67.0
 40
67.0
 40
67.0
 10
999.00062334455424
 20
1014.1380935018133
 30
0.0
 41
1.0
 10
999.00046101699013
 20
1014.1269896363538
 30
0.0
 41
1.0
 10
998.99902212488189
 20
1014.0436529693607
 30
0.0
 41
1.0
 10
998.99758323277365
 20
1013.9603163023685
 30
0.0
 41
0.9998192041807891
 10
998.99297671010322
 20
1013.8770946079328
 30
0.0
 41
1.0
 10
998.99067068250372
 20
1013.8354337852296
 30
0.0
 41
1.0
 10
998.9883646549041
 20
1013.7937729625264
 30
0.0
 41
1.0
 10
998.97914607703456
 20
1013.6272296226844
 30
0.0
 41
0.9997544794793776
 10
998.96255780034755
 20
1013.4612582537671
 30
0.0
 41
1.0
 10
998.9619988525086
 20
1013.4556657899003
 30
0.0
 41
1.0
 10
998.96143990466965
 20
1013.4500733260334
 30
0.0
 41
1.0
 10
998.94373108968489
 20
1013.2728989315792
 30
0.0
 41
0.9997426648611972
 10
998.91800420740219
 20
1013.0967101245956
 30
0.0
 41
1.0
 10
998.89227797861372
 20
1012.9205202126553
 30
0.0
 41
0.9997285452076558
 10
998.85837186795084
 20
1012.7457200422409
 30
0.0
 41
1.0
 10
998.8541290448851
 20
1012.7238465161881
 30
0.0
 41
1.0
 10
998.84988622181936
 20
1012.7019729901355
 30
0.0
 41
1.0
 10
998.82446905340191
 20
1012.570936864672
 30
0.0
 41
0.9997117329288645
 10
998.79279080615504
 20
1012.441271960869
 30
0.0
 41
1.0
 10
998.76111255890828
 20
1012.3116070570666
 30
0.0
 41
0.9999229712429069
 10
998.72622558257763
 20
1012.1827684079382
 30
0.0
 41
1.0
 10
998.71993720843432
 20
1012.1595452537691
 30
0.0
 41
1.0
 10
998.71364883429112
 20
1012.1363220996
 30
0.0
 41
1.0
 10
998.66618510967396
 20
1011.9610371421336
 30
0.0
 41
0.9992798594623344
 10
998.60556554171194
 20
1011.7898562744859
 30
0.0
 41
1.0
 10
998.59012228546067
 20
1011.7462467587261
 30
0.0
 41
1.0
 10
998.57467902920939
 20
1011.7026372429663
 30
0.0
 41
1.0
 10
998.51298567820209
 20
1011.5284241677402
 30
0.0
 41
0.9997044686172203
 10
998.44289751402971
 20
1011.3574156463701
 30
0.0
 41
1.0
 10
998.37279222654433
 20
1011.1863703276873
 30
0.0
 41
0.9997290598332819
 10
998.29480230652371
 20
1011.0187731178303
 30
0.0
 41
1.0
 10
998.21678272313466
 20
1010.8511150298792
 30
0.0
 41
0.999751764011137
 10
998.13137151938611
 20
1010.6870991278397
 30
0.0
 41
1.0
 10
998.04594777558236
 20
1010.5230591450197
 30
0.0
 41
0.9997720503232942
 10
997.95359881035665
 20
1010.3628155785631
 30
0.0
 41
1.0
 10
997.95336752484741
 20
1010.3624142528439
 30
0.0
 41
1.0
 10
997.95313623933816
 20
1010.3620129271249
 30
0.0
 41
1.0
 10
997.86032470309431
 20
1010.2009667092306
 30
0.0
 41
0.9997858021270986
 10
997.76092788327742
 20
1010.0438994059231
 30
0.0
 41
1.0
 10
997.7596058909844
 20
1010.0418103877348
 30
0.0
 41
1.0
 10
997.75828389869139
 20
1010.0397213695464
 30
0.0
 41
1.0
 10
997.65624309428836
 20
1009.8784760298623
 30
0.0
 41
0.9997831943244654
 10
997.54757726023195
 20
1009.7216190190475
 30
0.0
 41
1.0
 10
997.54644118812598
 20
1009.7199791211333
 30
0.0
 41
1.0
 10
997.54530511602002
 20
1009.7183392232191
 30
0.0
 41
1.0
 10
997.43438281608769
 20
1009.5582232127679
 30
0.0
 41
0.9997985707987903
 10
997.31712401393077
 20
1009.4026877931947
 30
0.0
 41
1.0
 10
997.19988452189477
 20
1009.2471776184598
 30
0.0
 41
0.9998132280659916
 10
997.07672283490888
 20
1009.096314396309
 30
0.0
 41
1.0
 10
996.95356611647867
 20
1008.945457141225
 30
0.0
 41
0.9998268928209855
 10
996.82488193014024
 20
1008.7992864571174
 30
0.0
 41
1.0
 10
996.69619908057291
 20
1008.6531172914305
 30
0.0
 41
0.9998395188271199
 10
996.56236251509426
 20
1008.5116518380109
 30
0.0
 41
1.0
 10
996.56176113123956
 20
1008.5110161743612
 30
0.0
 41
1.0
 10
996.56115974738486
 20
1008.5103805107115
 30
0.0
 41
1.0
 10
996.42612041419784
 20
1008.3676437299935
 30
0.0
 41
0.9998456156726577
 10
996.286149146036
 20
1008.2297399440905
 30
0.0
 41
1.0
 10
996.28414279471338
 20
1008.2277632281053
 30
0.0
 41
1.0
 10
996.28213644339075
 20
1008.2257865121201
 30
0.0
 41
1.0
 10
996.13815247258515
 20
1008.0839292942482
 30
0.0
 41
0.9998453316820647
 10
995.98926857807817
 20
1007.9472236247684
 30
0.0
 41
1.0
 10
995.9878429332764
 20
1007.9459145931387
 30
0.0
 41
1.0
 10
995.98641728847474
 20
1007.944605561509
 30
0.0
 41
1.0
 10
995.83468147067538
 20
1007.8052812852434
 30
0.0
 41
0.9998569986176874
 10
995.67832088533373
 20
1007.6711679760165
 30
0.0
 41
1.0
 10
995.5219520714561
 20
1007.5370480259181
 30
0.0
 41
0.9998680188539519
 10
995.36130845080402
 20
1007.4080790602256
 30
0.0
 41
1.0
 10
995.20065287542525
 20
1007.2791007152773
 30
0.0
 41
0.9998783165525113
 10
995.03605192249836
 20
1007.1551969071779
 30
0.0
 41
1.0
 10
994.87144660969022
 20
1007.0312898171665
 30
0.0
 41
0.9998879234231622
 10
994.70320539537011
 20
1006.912366439468
 30
0.0
 41
1.0
 10
994.70247302753603
 20
1006.9118487562304
 30
0.0
 41
1.0
 10
994.70174065970207
 20
1006.9113310729927
 30
0.0
 41
1.0
 10
994.53203470971437
 20
1006.7913723288193
 30
0.0
 41
0.9998930325337855
 10
994.35889268043104
 20
1006.6764286580013
 30
0.0
 41
1.0
 10
994.35718541259223
 20
1006.675295255365
 30
0.0
 41
1.0
 10
994.35547814475342
 20
1006.6741618527285
 30
0.0
 41
1.0
 10
994.17892157979315
 20
1006.5569513766383
 30
0.0
 41
0.9998951959294943
 10
993.99904555957028
 20
1006.4449016837149
 30
0.0
 41
1.0
 10
993.99807259407453
 20
1006.4442955968954
 30
0.0
 41
1.0
 10
993.99709962857889
 20
1006.4436895100757
 30
0.0
 41
1.0
 10
993.81528322537145
 20
1006.3304308872038
 30
0.0
 41
0.9999016824521
 10
993.63036233683454
 20
1006.2223152772631
 30
0.0
 41
1.0
 10
993.44544640348022
 20
1006.114202585673
 30
0.0
 41
0.9999079042590148
 10
993.25766437514073
 20
1006.0111483944734
 30
0.0
 41
1.0
 10
993.06988176417201
 20
1005.9080938831852
 30
0.0
 41
0.9999137830269351
 10
992.87945770006161
 20
1005.810006080239
 30
0.0
 41
1.0
 10
992.68903364614607
 20
1005.7119182825443
 30
0.0
 41
0.9999186347048532
 10
992.49616928821524
 20
1005.6187202363973
 30
0.0
 41
1.0
 10
992.44761335460976
 20
1005.5952565016283
 30
0.0
 41
1.0
 10
992.39905742100416
 20
1005.5717927668593
 30
0.0
 41
1.0
 10
992.10908119586134
 20
1005.4316672511738
 30
0.0
 41
0.9997026475259295
 10
991.81261799790298
 20
1005.3058461736478
 30
0.0
 41
1.0
 10
991.76289441720451
 20
1005.2847431344003
 30
0.0
 41
1.0
 10
991.71317083650604
 20
1005.2636400951528
 30
0.0
 41
1.0
 10
991.31717494907832
 20
1005.0955812433081
 30
0.0
 41
0.999730196230198
 10
990.91380117105177
 20
1004.9460950708917
 30
0.0
 41
1.0
 10
990.91185652085483
 20
1004.9453744035344
 30
0.0
 41
1.0
 10
990.90991187065788
 20
1004.9446537361771
 30
0.0
 41
1.0
 10
990.51034186495315
 20
1004.7965772026519
 30
0.0
 41
0.9997562267349271
 10
990.10462422749663
 20
1004.6662850390508
 30
0.0
 41
1.0
 10
990.10228364246643
 20
1004.6655333835655
 30
0.0
 41
1.0
 10
990.09994305743623
 20
1004.6647817280802
 30
0.0
 41
1.0
 10
989.69890659004022
 20
1004.5359928754498
 30
0.0
 41
0.9997844992093535
 10
989.29286975859054
 20
1004.4239620392918
 30
0.0
 41
1.0
 10
989.29249990468202
 20
1004.4238599917942
 30
0.0
 41
1.0
 10
989.29213005077361
 20
1004.4237579442965
 30
0.0
 41
1.0
 10
988.88683292714074
 20
1004.311931203134
 30
0.0
 41
0.9997988762507305
 10
988.47737733932968
 20
1004.2164476963203
 30
0.0
 41
1.0
 10
988.47149496757379
 20
1004.2150759492973
 30
0.0
 41
1.0
 10
988.4656125958179
 20
1004.2137042022744
 30
0.0
 41
1.0
 10
988.06792175151827
 20
1004.1209641895066
 30
0.0
 41
0.9998113512951239
 10
987.66692903299872
 20
1004.0437401174677
 30
0.0
 41
1.0
 10
987.66037287334507
 20
1004.0424775176199
 30
0.0
 41
1.0
 10
987.65381671369141
 20
1004.041214917772
 30
0.0
 41
1.0
 10
987.26593631447975
 20
1003.9665160454289
 30
0.0
 41
0.9998409015423145
 10
986.87563830214299
 20
1003.9057000344719
 30
0.0
 41
1.0
 10
986.87498808040925
 20
1003.9055987172968
 30
0.0
 41
1.0
 10
986.8743378586754
 20
1003.9054974001216
 30
0.0
 41
1.0
 10
986.48534028980623
 20
1003.8448840235151
 30
0.0
 41
0.9998487460466718
 10
986.09446998430303
 20
1003.7978362362705
 30
0.0
 41
1.0
 10
986.08034000901228
 20
1003.7961354571071
 30
0.0
 41
1.0
 10
986.06621003372152
 20
1003.7944346779435
 30
0.0
 41
1.0
 10
985.70359967879915
 20
1003.7507884490261
 30
0.0
 41
0.9998547082882339
 10
985.3397122843744
 20
1003.7195278192389
 30
0.0
 41
1.0
 10
984.97582488994976
 20
1003.6882671894518
 30
0.0
 41
0.9998948722168481
 10
984.61118405504806
 20
1003.6675711918167
 30
0.0
 41
1.0
 10
984.54731411521595
 20
1003.6639461120197
 30
0.0
 41
1.0
 10
984.48344417538385
 20
1003.6603210322228
 30
0.0
 41
1.0
 10
983.99106346081749
 20
1003.6323748749937
 30
0.0
 41
0.999604653622151
 10
983.49789036219704
 20
1003.6321499815075
 30
0.0
 41
1.0
 10
983.41974063659791
 20
1003.6321143441942
 30
0.0
 41
1.0
 10
983.34159091099878
 20
1003.6320787068807
 30
0.0
 41
1.0
 10
983.33110718122532
 20
1003.6320788036096
 30
0.0
 41
1.0
 10
983.32062345145187
 20
1003.6320789003385
 30
0.0
 41
1.0
  0
LWPOLYLINE
  5
72
100
AcDbEntity
  8
0
370
              15
  6
Continuous
 62
               7
100
AcDbPolyline
 90
        8
 70
             128
 10
994.10981896256294
 20
1119.9155238913072
 10
992.98215306670249
 20
1119.9156503224283
 42
0.0000084282179944
 10
988.0113872287144
 20
1119.9161238430393
 42
0.0000036280100931
 10
983.04062137951428
 20
1119.9164775062866
 10
981.91357075015151
 20
1119.9165495165116
 42
0.0000158668926074
 10
974.68870363151461
 20
1119.916781859873
 10
972.47508690062273
 20
1119.9167828007883
 10
972.42305058021634
 20
1119.9167828149866
  0
SPLINE
  5
73
100
AcDbEntity
  8
0
370
              15
  6
Continuous
 62
               7
100
AcDbSpline
210
0.0
220
0.0
230
1.0
 70
              12
 71
               2
 72
             138
 73
             135
 74
               0
 42
0.000001
 43
0.000001
 40
0.0
 40
0.0
 40
0.0
 40
1.0
 40
1.0
 40
2.0
 40
2.0
 40
3.0
 40
3.0
 40
4.0
 40
4.0
 40
5.0
 40
5.0
 40
6.0
 40
6.0
 40
7.0
 40
7.0
 40
8.0
 40
8.0
 40
9.0
 40
9.0
 40
10.0
 40
10.0
 40
11.0
 40
11.0
 40
12.0
 40
12.0
 40
13.0
 40
13.0
 40
14.0
 40
14.0
 40
15.0
 40
15.0
 40
16.0
 40
16.0
 40
17.0
 40
17.0
 40
18.0
 40
18.0
 40
19.0
 40
19.0
 40
20.0
 40
20.0
 40
21.0
 40
21.0
 40
22.0
 40
22.0
 40
23.0
 40
23.0
 40
24.0
 40
24.0
 40
25.0
 40
25.0
 40
26.0
 40
26.0
 40
27.0
 40
27.0
 40
28.0
 40
28.0
 40
29.0
 40
29.0
 40
30.0
 40
30.0
 40
31.0
 40
31.0
 40
32.0
 40
32.0
 40
33.0
 40
33.0
 40
34.0
 40
34.0
 40
35.0
 40
35.0
 40
36.0
 40
36.0
 40
37.0
 40
37.0
 40
38.0
 40
38.0
 40
39.0
 40
39.0
 40
40.0
 40
40.0
 40
41.0
 40
41.0
 40
42.0
 40
42.0
 40
43.0
 40
43.0
 40
44.0
 40
44.0
 40
45.0
 40
45.0
 40
46.0
 40
46.0
 40
47.0
 40
47.0
 40
48.0
 40
48.0
 40
49.0
 40
49.0
 40
50.0
 40
50.0
 40
51.0
 40
51.0
 40
52.0
 40
52.0
 40
53.0
 40
53.0
 40
54.0
 40
54.0
 40
55.0
 40
55.0
 40
56.0
 40
56.0
 40
57.0
 40
57.0
 40
58.0
 40
58.0
 40
59.0
 40
59.0
 40
60.0
 40
60.0
 40
61.0
 40
61.0
 40
62.0
 40
62.0
 40
63.0
 40
63.0
 40
64.0
 40
64.0
 40
65.0
 40
65.0
 40
66.0
 40
66.0
 40
67.0
 40
67.0
 40
67.0
 10
983.32062345145187
 20
1002.1067992981516
 30
0.0
 41
1.0
 10
983.31494072852422
 20
1002.1068033465988
 30
0.0
 41
1.0
 10
983.30925800559658
 20
1002.1068073950458
 30
0.0
 41
1.0
 10
982.96045675163668
 20
1002.1070558856791
 30
0.0
 41
0.9998607054323452
 10
982.6118581222845
 20
1002.118945886783
 30
0.0
 41
1.0
 10
982.26325949293278
 20
1002.1308358878869
 30
0.0
 41
0.9998421344969511
 10
981.91530343222644
 20
1002.1551043103656
 30
0.0
 41
1.0
 10
981.90925594920247
 20
1002.1555260960148
 30
0.0
 41
1.0
 10
981.90320846617851
 20
1002.1559478816639
 30
0.0
 41
1.0
 10
981.54315743942391
 20
1002.1810598754411
 30
0.0
 41
0.9998411710432575
 10
981.18423010304309
 20
1002.2189877187313
 30
0.0
 41
1.0
 10
981.1683728733949
 20
1002.2206633518196
 30
0.0
 41
1.0
 10
981.15251564374671
 20
1002.2223389849078
 30
0.0
 41
1.0
 10
980.76187384806951
 20
1002.2636180943746
 30
0.0
 41
0.9997793349368173
 10
980.37331071135509
 20
1002.3212693406358
 30
0.0
 41
1.0
 10
980.35800009560194
 20
1002.323540981962
 30
0.0
 41
1.0
 10
980.34268947984856
 20
1002.3258126232881
 30
0.0
 41
1.0
 10
979.92350511162851
 20
1002.3880071522017
 30
0.0
 41
0.9997724495839571
 10
979.50735509081733
 20
1002.4680249887523
 30
0.0
 41
1.0
 10
979.45711191379939
 20
1002.4776858084696
 30
0.0
 41
1.0
 10
979.40686873678146
 20
1002.4873466281869
 30
0.0
 41
1.0
 10
979.08938921854019
 20
1002.5483919794506
 30
0.0
 41
0.9997623870721247
 10
978.77487216062059
 20
1002.6232171068591
 30
0.0
 41
1.0
 10
978.46035510270053
 20
1002.6980422342679
 30
0.0
 41
0.9999342183972149
 10
978.14763716212644
 20
1002.7800621651137
 30
0.0
 41
1.0
 10
978.14362414527227
 20
1002.7811147026313
 30
0.0
 41
1.0
 10
978.1396111284181
 20
1002.7821672401487
 30
0.0
 41
1.0
 10
977.81887957080698
 20
1002.8662883592868
 30
0.0
 41
0.9997254988405073
 10
977.50244082702864
 20
1002.9653419617889
 30
0.0
 41
1.0
 10
977.18608981894897
 20
1003.0643661142416
 30
0.0
 41
0.9999289427101724
 10
976.87218948403779
 20
1003.170904008085
 30
0.0
 41
1.0
 10
976.8719013675493
 20
1003.1710017949316
 30
0.0
 41
1.0
 10
976.87161325106081
 20
1003.1710995817781
 30
0.0
 41
1.0
 10
976.55836446815294
 20
1003.2774163386222
 30
0.0
 41
0.9997035743745598
 10
976.25066244676316
 20
1003.398855701314
 30
0.0
 41
1.0
 10
976.25021378191536
 20
1003.3990327738368
 30
0.0
 41
1.0
 10
976.24976511706757
 20
1003.3992098463596
 30
0.0
 41
1.0
 10
975.94296042537314
 20
1003.5202950640059
 30
0.0
 41
0.9999235106884897
 10
975.63924458640327
 20
1003.6489319091866
 30
0.0
 41
1.0
 10
975.33553973168728
 20
1003.7775634256899
 30
0.0
 41
0.9996744049516635
 10
975.03879262785267
 20
1003.9215212743179
 30
0.0
 41
1.0
 10
975.03834196916819
 20
1003.9217398976974
 30
0.0
 41
1.0
 10
975.03789131048381
 20
1003.9219585210768
 30
0.0
 41
1.0
 10
974.74205650827184
 20
1004.0654737942688
 30
0.0
 41
0.9999144086122997
 10
974.4500780004322
 20
1004.2166803245468
 30
0.0
 41
1.0
 10
974.44901762636778
 20
1004.217229459085
 30
0.0
 41
1.0
 10
974.44795725230347
 20
1004.2177785936233
 30
0.0
 41
1.0
 10
974.15809949259199
 20
1004.3678868548253
 30
0.0
 41
0.9996386473395101
 10
973.8767277499644
 20
1004.5333557443369
 30
0.0
 41
1.0
 10
973.875149703425
 20
1004.5342837607967
 30
0.0
 41
1.0
 10
973.87357165688547
 20
1004.5352117772566
 30
0.0
 41
1.0
 10
973.59535600733557
 20
1004.6988246338493
 30
0.0
 41
0.9999077701082818
 10
973.32168672773582
 20
1004.8699334877974
 30
0.0
 41
1.0
 10
973.04802981782791
 20
1005.0410336002791
 30
0.0
 41
0.999601996358033
 10
972.78445838470975
 20
1005.2272953850756
 30
0.0
 41
1.0
 10
972.74052622144472
 20
1005.258341553634
 30
0.0
 41
1.0
 10
972.6965940581797
 20
1005.2893877221921
 30
0.0
 41
1.0
 10
972.52089932128456
 20
1005.413548428405
 30
0.0
 41
0.9998931204252332
 10
972.34890979236275
 20
1005.5427928614827
 30
0.0
 41
1.0
 10
972.3484363808866
 20
1005.5431486145231
 30
0.0
 41
1.0
 10
972.34796296941056
 20
1005.5435043675636
 30
0.0
 41
1.0
 10
972.17692026344037
 20
1005.6720372945609
 30
0.0
 41
0.9998886259666269
 10
972.00978986075279
 20
1005.8056177912108
 30
0.0
 41
1.0
 10
972.00896281026303
 20
1005.8062788188481
 30
0.0
 41
1.0
 10
972.00813575977304
 20
1005.8069398464853
 30
0.0
 41
1.0
 10
971.8426594580643
 20
1005.9391982878617
 30
0.0
 41
0.9998859589426518
 10
971.68125290348598
 20
1006.0763938631594
 30
0.0
 41
1.0
 10
971.68090024454534
 20
1006.0766936232675
 30
0.0
 41
1.0
 10
971.6805475856047
 20
1006.0769933833756
 30
0.0
 41
1.0
 10
971.51984634890755
 20
1006.2135894384573
 30
0.0
 41
0.9998822541136221
 10
971.36341251378462
 20
1006.3550525960936
 30
0.0
 41
1.0
 10
971.20697984536605
 20
1006.4965146299473
 30
0.0
 41
0.99987616275619
 10
971.05507653936843
 20
1006.642829606616
 30
0.0
 41
1.0
 10
970.90317440007516
 20
1006.789143459502
 30
0.0
 41
0.9998699487161632
 10
970.75606991931113
 20
1006.9402800705759
 30
0.0
 41
1.0
 10
970.74227746793133
 20
1006.9544505727191
 30
0.0
 41
1.0
 10
970.72848501655153
 20
1006.9686210748623
 30
0.0
 41
1.0
 10
970.55386027341615
 20
1007.1480258757165
 30
0.0
 41
0.999736698804179
 10
970.38765060956962
 20
1007.3352536277421
 30
0.0
 41
1.0
 10
970.37354166010095
 20
1007.3511467282475
 30
0.0
 41
1.0
 10
970.35943271063218
 20
1007.3670398287528
 30
0.0
 41
1.0
 10
970.2215055861119
 20
1007.5224085652609
 30
0.0
 41
0.9998523098297262
 10
970.08899948238104
 20
1007.6824256532127
 30
0.0
 41
1.0
 10
970.08811548783433
 20
1007.6834931831539
 30
0.0
 41
1.0
 10
970.08723149328762
 20
1007.6845607130952
 30
0.0
 41
1.0
 10
969.95649337865177
 20
1007.8424427411626
 30
0.0
 41
0.9998537215267239
 10
969.83123168950965
 20
1008.0047039461338
 30
0.0
 41
1.0
 10
969.70596678670518
 20
1008.166969628974
 30
0.0
 41
0.9998475297507697
 10
969.58644433846916
 20
1008.3335104109751
 30
0.0
 41
1.0
 10
969.46691832951024
 20
1008.5000561928047
 30
0.0
 41
0.9998406928586663
 10
969.3534129036741
 20
1008.6707620291672
 30
0.0
 41
1.0
 10
969.23990505206257
 20
1008.8414717759269
 30
0.0
 41
0.999833261686373
 10
969.13270637742028
 20
1009.0162124242352
 30
0.0
 41
1.0
 10
969.13259494581894
 20
1009.0163940648227
 30
0.0
 41
1.0
 10
969.13248351421771
 20
1009.0165757054103
 30
0.0
 41
1.0
 10
969.02550562406259
 20
1009.1909564609815
 30
0.0
 41
0.9998252696762405
 10
968.92512077371259
 20
1009.3692141360366
 30
0.0
 41
1.0
 10
968.92453364822723
 20
1009.370256719889
 30
0.0
 41
1.0
 10
968.92394652274174
 20
1009.3712993037414
 30
0.0
 41
1.0
 10
968.82473592336339
 20
1009.5474718110903
 30
0.0
 41
0.9998184204253455
 10
968.73231039751215
 20
1009.727296774724
 30
0.0
 41
1.0
 10
968.73186485655128
 20
1009.7281636281863
 30
0.0
 41
1.0
 10
968.73141931559041
 20
1009.7290304816485
 30
0.0
 41
1.0
 10
968.6398848716608
 20
1009.907121738358
 30
0.0
 41
0.9998177057950709
 10
968.5552166363135
 20
1010.0885779040432
 30
0.0
 41
1.0
 10
968.47054863043024
 20
1010.2700335232309
 30
0.0
 41
0.9998094015578579
 10
968.39302905550937
 20
1010.4546561883053
 30
0.0
 41
1.0
 10
968.31551482789109
 20
1010.6392646076389
 30
0.0
 41
0.9998000076994265
 10
968.24544495178657
 20
1010.8268250950418
 30
0.0
 41
1.0
 10
968.17538019351957
 20
1011.0143718832041
 30
0.0
 41
0.9997910579989704
 10
968.11303972658663
 20
1011.2046257511896
 30
0.0
 41
1.0
 10
968.1052484052675
 20
1011.228403709402
 30
0.0
 41
1.0
 10
968.09745708394848
 20
1011.2521816676144
 30
0.0
 41
1.0
 10
968.01953397437705
 20
1011.4899914520262
 30
0.0
 41
0.9994911278834874
 10
967.95693305023497
 20
1011.7322859605559
 30
0.0
 41
1.0
 10
967.94909921241344
 20
1011.7626065334686
 30
0.0
 41
1.0
 10
967.94126537459204
 20
1011.7929271063812
 30
0.0
 41
1.0
 10
967.88896749020671
 20
1011.9953440893241
 30
0.0
 41
0.9997145360536401
 10
967.84639900467641
 20
1012.2000283039929
 30
0.0
 41
1.0
 10
967.84511675883107
 20
1012.2061937919261
 30
0.0
 41
1.0
 10
967.84383451298572
 20
1012.2123592798594
 30
0.0
 41
1.0
 10
967.80383051914646
 20
1012.4047125186604
 30
0.0
 41
0.9997862938366026
 10
967.7718119971006
 20
1012.598554986263
 30
0.0
 41
1.0
 10
967.73979275529484
 20
1012.7924032689708
 30
0.0
 41
0.9997944605717878
 10
967.71565839490552
 20
1012.9873902459799
 30
0.0
 41
1.0
 10
967.69152331475595
 20
1013.182383038096
 30
0.0
 41
0.9998006744476683
 10
967.67519208497129
 20
1013.3781839114461
 30
0.0
 41
1.0
 10
967.6716209056442
 20
1013.4210000398294
 30
0.0
 41
1.0
 10
967.66804972631724
 20
1013.4638161682128
 30
0.0
 41
1.0
 10
967.6445761378784
 20
1013.7452492983311
 30
0.0
 41
0.9993324886998026
 10
967.64171403154728
 20
1014.0276451630845
 30
0.0
 41
1.0
 10
967.64127890284976
 20
1014.0705780700337
 30
0.0
 41
1.0
 10
967.64084377415224
 20
1014.113510976983
 30
0.0
 41
1.0
 10
967.64071944374007
 20
1014.1257783039855
 30
0.0
 41
1.0
 10
967.6406234515764
 20
1014.1380416260272
 30
0.0
 41
1.0
  0
SPLINE
  5
74
100
AcDbEntity
  8
0
370
              15
  6
Continuous
 62
               7
100
AcDbSpline
210
0.0
220
0.0
230
1.0
 70
              12
 71
               2
 72
             144
 73
             141
 74
               0
 42
0.000001
 43
0.000001
 40
0.0
 40
0.0
 40
0.0
 40
1.0
 40
1.0
 40
2.0
 40
2.0
 40
3.0
 40
3.0
 40
4.0
 40
4.0
 40
5.0
 40
5.0
 40
6.0
 40
6.0
 40
7.0
 40
7.0
 40
8.0
 40
8.0
 40
9.0
 40
9.0
 40
10.0
 40
10.0
 40
11.0
 40
11.0
 40
12.0
 40
12.0
 40
13.0
 40
13.0
 40
14.0
 40
14.0
 40
15.0
 40
15.0
 40
16.0
 40
16.0
 40
17.0
 40
17.0
 40
18.0
 40
18.0
 40
19.0
 40
19.0
 40
20.0
 40
20.0
 40
21.0
 40
21.0
 40
22.0
 40
22.0
 40
23.0
 40
23.0
 40
24.0
 40
24.0
 40
25.0
 40
25.0
 40
26.0
 40
26.0
 40
27.0
 40
27.0
 40
28.0
 40
28.0
 40
29.0
 40
29.0
 40
30.0
 40
30.0
 40
31.0
 40
31.0
 40
32.0
 40
32.0
 40
33.0
 40
33.0
 40
34.0
 40
34.0
 40
35.0
 40
35.0
 40
36.0
 40
36.0
 40
37.0
 40
37.0
 40
38.0
 40
38.0
 40
39.0
 40
39.0
 40
40.0
 40
40.0
 40
41.0
 40
41.0
 40
42.0
 40
42.0
 40
43.0
 40
43.0
 40
44.0
 40
44.0
 40
45.0
 40
45.0
 40
46.0
 40
46.0
 40
47.0
 40
47.0
 40
48.0
 40
48.0
 40
49.0
 40
49.0
 40
50.0
 40
50.0
 40
51.0
 40
51.0
 40
52.0
 40
52.0
 40
53.0
 40
53.0
 40
54.0
 40
54.0
 40
55.0
 40
55.0
 40
56.0
 40
56.0
 40
57.0
 40
57.0
 40
58.0
 40
58.0
 40
59.0
 40
59.0
 40
60.0
 40
60.0
 40
61.0
 40
61.0
 40
62.0
 40
62.0
 40
63.0
 40
63.0
 40
64.0
 40
64.0
 40
65.0
 40
65.0
 40
66.0
 40
66.0
 40
67.0
 40
67.0
 40
68.0
 40
68.0
 40
69.0
 40
69.0
 40
70.0
 40
70.0
 40
70.0
 10
983.32062345145187
 20
1003.6320789003385
 30
0.0
 41
1.0
 10
983.31493496921041
 20
1003.6320809964319
 30
0.0
 41
1.0
 10
983.30924648696896
 20
1003.6320830925252
 30
0.0
 41
1.0
 10
982.96059439562941
 20
1003.632211563936
 30
0.0
 41
0.9998921660558157
 10
982.61209645516328
 20
1003.6425789546702
 30
0.0
 41
1.0
 10
982.26359851469624
 20
1003.6529463454045
 30
0.0
 41
0.9998784626663043
 10
981.91559320977558
 20
1003.6741738051428
 30
0.0
 41
1.0
 10
981.90956388032873
 20
1003.6745415792723
 30
0.0
 41
1.0
 10
981.90353455088189
 20
1003.6749093534017
 30
0.0
 41
1.0
 10
981.54347058706685
 20
1003.6968723613992
 30
0.0
 41
0.9998787417907799
 10
981.18426520898015
 20
1003.7300375255287
 30
0.0
 41
1.0
 10
981.16870865612532
 20
1003.7314738504286
 30
0.0
 41
1.0
 10
981.15315210327049
 20
1003.7329101753285
 30
0.0
 41
1.0
 10
980.76283361947458
 20
1003.7689479892579
 30
0.0
 41
0.999831708732805
 10
980.37409989703997
 20
1003.8192802440137
 30
0.0
 41
1.0
 10
980.35905640838587
 20
1003.8212280367048
 30
0.0
 41
1.0
 10
980.34401291973188
 20
1003.823175829396
 30
0.0
 41
1.0
 10
979.92519221999055
 20
1003.8774036695339
 30
0.0
 41
0.9998242133770725
 10
979.50869911492236
 20
1003.9472959481462
 30
0.0
 41
1.0
 10
979.50831692533711
 20
1003.9473600839042
 30
0.0
 41
1.0
 10
979.50793473575186
 20
1003.947424219662
 30
0.0
 41
1.0
 10
979.09067725151442
 20
1004.01744476979
 30
0.0
 41
0.9998151775334581
 10
978.6764200425115
 20
1004.1034543645013
 30
0.0
 41
1.0
 10
978.62250494411342
 20
1004.1146484141431
 30
0.0
 41
1.0
 10
978.56858984571522
 20
1004.1258424637849
 30
0.0
 41
1.0
 10
978.24734263332527
 20
1004.192540983302
 30
0.0
 41
0.9997902579139263
 10
977.9290963391087
 20
1004.2723392300932
 30
0.0
 41
1.0
 10
977.61084415310495
 20
1004.3521390861405
 30
0.0
 41
0.9999451214637661
 10
977.29433375787971
 20
1004.438589306706
 30
0.0
 41
1.0
 10
977.29404480474295
 20
1004.4386682300615
 30
0.0
 41
1.0
 10
977.29375585160619
 20
1004.4387471534169
 30
0.0
 41
1.0
 10
976.97781747086776
 20
1004.5250411365276
 30
0.0
 41
0.9997672172990497
 10
976.66589607674996
 20
1004.6248847934962
 30
0.0
 41
1.0
 10
976.66412465885776
 20
1004.6254518108401
 30
0.0
 41
1.0
 10
976.66235324096556
 20
1004.626018828184
 30
0.0
 41
1.0
 10
976.3539746826317
 20
1004.724728450465
 30
0.0
 41
0.9999399239053126
 10
976.04783405469334
 20
1004.8301743640723
 30
0.0
 41
1.0
 10
976.04721541479898
 20
1004.8303874460448
 30
0.0
 41
1.0
 10
976.04659677490463
 20
1004.8306005280173
 30
0.0
 41
1.0
 10
975.74169342675407
 20
1004.9356202776798
 30
0.0
 41
0.9997442786718259
 10
975.44185046543953
 20
1005.0543190480294
 30
0.0
 41
1.0
 10
975.14199658336543
 20
1005.1730224402675
 30
0.0
 41
0.9999314345362768
 10
974.84500480133897
 20
1005.2987154286634
 30
0.0
 41
1.0
 10
974.84416744445105
 20
1005.299069815202
 30
0.0
 41
1.0
 10
974.84333008756312
 20
1005.2994242017404
 30
0.0
 41
1.0
 10
974.54800209855284
 20
1005.4244130389479
 30
0.0
 41
0.9997009381997023
 10
974.25913865207804
 20
1005.5636923978286
 30
0.0
 41
1.0
 10
974.20886680511558
 20
1005.58793163855
 30
0.0
 41
1.0
 10
974.158594958153
 20
1005.6121708792713
 30
0.0
 41
1.0
 10
973.970275205603
 20
1005.7029717567094
 30
0.0
 41
0.9999216800859668
 10
973.7842870768884
 20
1005.7984575908504
 30
0.0
 41
1.0
 10
973.78325781677313
 20
1005.7989860103863
 30
0.0
 41
1.0
 10
973.78222855665786
 20
1005.7995144299223
 30
0.0
 41
1.0
 10
973.59829894817392
 20
1005.8939434249914
 30
0.0
 41
0.999920477325393
 10
973.41680935513625
 20
1005.9929811127968
 30
0.0
 41
1.0
 10
973.235320289985
 20
1006.0920184944067
 30
0.0
 41
0.9999149582302017
 10
973.05647589763339
 20
1006.1957555034733
 30
0.0
 41
1.0
 10
972.87763317234976
 20
1006.2994915038608
 30
0.0
 41
0.9999091269298752
 10
972.70165213195048
 20
1006.4080113250147
 30
0.0
 41
1.0
 10
972.52566773928379
 20
1006.5165333891439
 30
0.0
 41
0.9999029866151803
 10
972.35277455151004
 20
1006.6299154445433
 30
0.0
 41
1.0
 10
972.35176429488013
 20
1006.6305779632617
 30
0.0
 41
1.0
 10
972.35075403825022
 20
1006.6312404819801
 30
0.0
 41
1.0
 10
972.1798768722864
 20
1006.743300445402
 30
0.0
 41
0.9998965828027787
 10
972.01229320667073
 20
1006.8602284414887
 30
0.0
 41
1.0
 10
972.01052386983542
 20
1006.8614629592432
 30
0.0
 41
1.0
 10
972.008754533
 20
1006.8626974769977
 30
0.0
 41
1.0
 10
971.84470954105404
 20
1006.9771564375764
 30
0.0
 41
0.9998948365726633
 10
971.68405303167469
 20
1007.0963248018074
 30
0.0
 41
1.0
 10
971.68329433493352
 20
1007.0968875717192
 30
0.0
 41
1.0
 10
971.68253563819223
 20
1007.097450341631
 30
0.0
 41
1.0
 10
971.52339652229534
 20
1007.2154931660388
 30
0.0
 41
0.9998903234902959
 10
971.36782330181973
 20
1007.3381974433628
 30
0.0
 41
1.0
 10
971.21225332484664
 20
1007.4608989962204
 30
0.0
 41
0.9998812710059032
 10
971.06053824628157
 20
1007.5883361326642
 30
0.0
 41
1.0
 10
970.90882641121868
 20
1007.7157705446417
 30
0.0
 41
0.9998720653958061
 10
970.76126841535415
 20
1007.847992509954
 30
0.0
 41
1.0
 10
970.74730948338981
 20
1007.8605006590867
 30
0.0
 41
1.0
 10
970.73335055142536
 20
1007.8730088082194
 30
0.0
 41
1.0
 10
970.55838280055264
 20
1008.0297917717663
 30
0.0
 41
0.9997325466163272
 10
970.39085195202688
 20
1008.194497649913
 30
0.0
 41
1.0
 10
970.37570399419701
 20
1008.2093901769817
 30
0.0
 41
1.0
 10
970.36055603636703
 20
1008.2242827040504
 30
0.0
 41
1.0
 10
970.22332110350021
 20
1008.3592035280608
 30
0.0
 41
0.9998464204682905
 10
970.09089879450789
 20
1008.4988508969291
 30
0.0
 41
1.0
 10
970.08917771233132
 20
1008.5006658826319
 30
0.0
 41
1.0
 10
970.08745663015497
 20
1008.5024808683346
 30
0.0
 41
1.0
 10
969.95847648551478
 20
1008.638498265798
 30
0.0
 41
0.9998514364654226
 10
969.8342612769444
 20
1008.7788805726755
 30
0.0
 41
1.0
 10
969.71004196140632
 20
1008.919267869506
 30
0.0
 41
0.999840380429895
 10
969.59091762387834
 20
1009.0640035723327
 30
0.0
 41
1.0
 10
969.47178858157326
 20
1009.2087450489173
 30
0.0
 41
0.9998283602952061
 10
969.35810365319298
 20
1009.3578006117909
 30
0.0
 41
1.0
 10
969.24441289034951
 20
1009.5068644009625
 30
0.0
 41
0.9998153927977439
 10
969.1365332577268
 20
1009.6601862443617
 30
0.0
 41
1.0
 10
969.1363017491999
 20
1009.6605152713823
 30
0.0
 41
1.0
 10
969.13607024067301
 20
1009.6608442984029
 30
0.0
 41
1.0
 10
969.02864838844994
 20
1009.8135155302547
 30
0.0
 41
0.9998015340808165
 10
968.92739368013088
 20
1009.9703448751275
 30
0.0
 41
1.0
 10
968.92616520592594
 20
1009.9722476094097
 30
0.0
 41
1.0
 10
968.924936731721
 20
1009.9741503436919
 30
0.0
 41
1.0
 10
968.82613897181182
 20
1010.1271742200003
 30
0.0
 41
0.9997910516492367
 10
968.73367853166008
 20
1010.2841085090845
 30
0.0
 41
1.0
 10
968.73274071631124
 20
1010.2857002750853
 30
0.0
 41
1.0
 10
968.73180290096241
 20
1010.2872920410863
 30
0.0
 41
1.0
 10
968.64121809150811
 20
1010.441042798169
 30
0.0
 41
0.9997929153958404
 10
968.55696469799932
 20
1010.598352266064
 30
0.0
 41
1.0
 10
968.47271341774103
 20
1010.7556573522235
 30
0.0
 41
0.9997759511402902
 10
968.39519553798527
 20
1010.9163873950747
 30
0.0
 41
1.0
 10
968.3176914103899
 20
1011.0770859278553
 30
0.0
 41
0.9997568721556256
 10
968.24734768642395
 20
1011.241045278704
 30
0.0
 41
1.0
 10
968.17702715357404
 20
1011.4049467462438
 30
0.0
 41
0.9997358096549504
 10
968.1143134876055
 20
1011.5719068148314
 30
0.0
 41
1.0
 10
968.10646928392043
 20
1011.5927901225609
 30
0.0
 41
1.0
 10
968.09862508023548
 20
1011.6136734302904
 30
0.0
 41
1.0
 10
968.05161137384323
 20
1011.7388361284453
 30
0.0
 41
0.9997120358393703
 10
968.01065708609315
 20
1011.8661103831591
 30
0.0
 41
1.0
 10
967.96970279834295
 20
1011.9933846378735
 30
0.0
 41
0.9999225330622308
 10
967.93192932104023
 20
1012.1216388932053
 30
0.0
 41
1.0
 10
967.93076980953924
 20
1012.1255758430104
 30
0.0
 41
1.0
 10
967.92961029803826
 20
1012.1295127928156
 30
0.0
 41
1.0
 10
967.88951779773367
 20
1012.2656409477572
 30
0.0
 41
0.9996314586998393
 10
967.85687254336426
 20
1012.4037444253225
 30
0.0
 41
1.0
 10
967.85080592449469
 20
1012.4294088344114
 30
0.0
 41
1.0
 10
967.84473930562513
 20
1012.4550732435002
 30
0.0
 41
1.0
 10
967.80515097897569
 20
1012.6225489053352
 30
0.0
 41
0.9997295768671395
 10
967.77339249797058
 20
1012.7916841523956
 30
0.0
 41
1.0
 10
967.74163206740548
 20
1012.9608331997141
 30
0.0
 41
0.9997439103546861
 10
967.71755786823564
 20
1013.1312461044272
 30
0.0
 41
1.0
 10
967.69348334995948
 20
1013.3016559115173
 30
0.0
 41
0.9997563059772192
 10
967.67695423338148
 20
1013.4729622835175
 30
0.0
 41
1.0
 10
967.67643269013229
 20
1013.4783675138232
 30
0.0
 41
1.0
 10
967.67591114688321
 20
1013.4837727441289
 30
0.0
 41
1.0
 10
967.66042674725668
 20
1013.6442517576388
 30
0.0
 41
0.9997671287092332
 10
967.65188137090195
 20
1013.8052494500193
 30
0.0
 41
1.0
 10
967.65159440134732
 20
1013.8106560505195
 30
0.0
 41
1.0
 10
967.6513074317927
 20
1013.8160626510197
 30
0.0
 41
1.0
 10
967.64333599454721
 20
1013.9662471423981
 30
0.0
 41
0.9998281138885633
 10
967.64093801100398
 20
1014.116623918987
 30
0.0
 41
1.0
 10
967.6407668285791
 20
1014.1273587137875
 30
0.0
 41
1.0
 10
967.64062356867862
 20
1014.1380931043377
 30
0.0
 41
1.0
  0
SPLINE
  5
75
100
AcDbEntity
  8
0
370
              15
  6
Continuous
 62
               7
100
AcDbSpline
210
0.0
220
0.0
230
1.0
 70
              12
 71
               2
 72
              30
 73
              27
 74
               0
 42
0.000001
 43
0.000001
 40
0.0
 40
0.0
 40
0.0
 40
1.0
 40
1.0
 40
2.0
 40
2.0
 40
3.0
 40
3.0
 40
4.0
 40
4.0
 40
5.0
 40
5.0
 40
6.0
 40
6.0
 40
7.0
 40
7.0
 40
8.0
 40
8.0
 40
9.0
 40
9.0
 40
10.0
 40
10.0
 40
11.0
 40
11.0
 40
12.0
 40
12.0
 40
13.0
 40
13.0
 40
13.0
 10
972.42305058021634
 20
1119.9468793302931
 30
0.0
 41
1.0
 10
972.01515497550486
 20
1119.9484132171299
 30
0.0
 41
0.9999999975729195
 10
971.60725916728882
 20
1119.9498904114409
 30
0.0
 41
1.0
 10
971.19936229312884
 20
1119.9513676097602
 30
0.0
 41
1.0
 10
970.87388480064533
 20
1119.9525590030455
 30
0.0
 41
1.0
 10
970.54840730824526
 20
1119.9537503963304
 30
0.0
 41
0.9999999951219051
 10
970.22292994916279
 20
1119.9549776704332
 30
0.0
 41
1.0
 10
970.10462364677971
 20
1119.9554237667805
 30
0.0
 41
1.0
 10
969.98631734439664
 20
1119.9558698631281
 30
0.0
 41
1.0
 10
969.82022140001197
 20
1119.9564961593831
 30
0.0
 41
1.000000017285074
 10
969.65412538502369
 20
1119.9571047822396
 30
0.0
 41
1.0
 10
969.48802876632703
 20
1119.9577134073081
 30
0.0
 41
0.9999999961705421
 10
969.32193200980828
 20
1119.9582837901448
 30
0.0
 41
1.0
 10
969.15583464791325
 20
1119.9588541752
 30
0.0
 41
0.9999999838439747
 10
968.98973709267864
 20
1119.9593655964422
 30
0.0
 41
1.0
 10
968.94894806556806
 20
1119.9594911875436
 30
0.0
 41
1.0
 10
968.90815903845748
 20
1119.9596167786449
 30
0.0
 41
1.0
 10
968.6604834296329
 20
1119.9603793820879
 30
0.0
 41
0.9999998937349276
 10
968.41280722292333
 20
1119.9609135504875
 30
0.0
 41
1.0
 10
968.36895786479056
 20
1119.9610081213054
 30
0.0
 41
1.0
 10
968.32510850665778
 20
1119.9611026921234
 30
0.0
 41
1.0
 10
967.98973358360468
 20
1119.9618260021589
 30
0.0
 41
0.9999999378320812
 10
967.65435823290363
 20
1119.9623121425709
 30
0.0
 41
1.0
 10
967.65129886480111
 20
1119.9623165772514
 30
0.0
 41
1.0
 10
967.64823949669858
 20
1119.9623210119316
 30
0.0
 41
1.0
 10
967.64468226995075
 20
1119.9623261849169
 30
0.0
 41
1.0
 10
967.64112504320292
 20
1119.9623313579023
 30
0.0
 41
1.0
  0
LWPOLYLINE
  5
76
100
AcDbEntity
  8
0
370
              15
  6
Continuous
 62
               7
100
AcDbPolyline
 90
       28
 70
             128
 10
997.01541449331853
 20
992.47238654997363
 10
997.05431530421174
 20
992.53892952600597
 42
0.0087355969004153
 10
997.24704068459891
 20
992.88222985791845
 42
0.0046656187238069
 10
997.43051685495152
 20
993.23060968624668
 10
997.43441555980473
 20
993.23818301365554
 42
0.0093607445788711
 10
997.61553635196924
 20
993.60681274187334
 10
997.64981197263319
 20
993.68000369401489
 42
0.009406068533232
 10
997.86265602603146
 20
994.15769887173929
 10
997.88011890989628
 20
994.19896246585051
 42
0.0085948363023241
 10
998.04213990174128
 20
994.60092015470445
 10
998.05374369979586
 20
994.63119883921661
 42
0.0063668840798899
 10
998.18124343091813
 20
994.97700807043793
 42
0.0063818578177782
 10
998.29989555562031
 20
995.32598491582394
 42
0.0064024238926164
 10
998.40960165765136
 20
995.67792492929675
 42
0.0064289218787026
 10
998.51024538660135
 20
996.03257802385315
 42
0.0064612181616352
 10
998.60171020281859
 20
996.38969372049223
 42
0.0064992591593182
 10
998.68387952465548
 20
996.7490215703283
 42
0.0065483973084026
 10
998.75663954836045
 20
997.11034584455433
 10
998.76497015113387
 20
997.15470999074523
 42
0.0087263041823271
 10
998.83174452620028
 20
997.54803841623198
 42
0.0054676632859796
 10
998.887333075166
 20
997.94314021459081
 10
998.89145031819464
 20
997.97491905654215
 42
0.0108178322973756
 10
998.94099174304108
 20
998.43525842301483
 10
998.9484121380857
 20
998.52176196812502
 42
0.0106849455457738
 10
998.9867836949345
 20
999.1186019327406
 10
998.98719665193607
 20
999.1282369592036
 42
0.0099124431644089
 10
999.0005135557069
 20
999.70689099256379
 10
999.00056254460742
 20
999.72618858417809
  0
LWPOLYLINE
  5
77
100
AcDbEntity
  8
0
370
              15
  6
Continuous
 62
               7
100
AcDbPolyline
 90
       31
 70
             128
 10
967.64065256784306
 20
999.72519822791128
 10
967.64093240093325
 20
999.63814153598048
 42
0.0099495696398153
 10
967.65121038944301
 20
999.19353351216705
 42
0.0053359838505967
 10
967.67507664718664
 20
998.74938473891268
 10
967.67569809572137
 20
998.73974151387347
 42
0.010775601142183
 10
967.71551091895299
 20
998.27743269987741
 10
967.72380703670683
 20
998.20052606465788
 42
0.0054413016864227
 10
967.76033473762993
 20
997.89329975149849
 42
0.0054721916503584
 10
967.80355893436467
 20
997.58694404293055
 10
967.80515652709846
 20
997.57645229653417
 42
0.0062770332991661
 10
967.8590240543582
 20
997.2502624546911
 10
967.86162512931082
 20
997.23565503993859
 42
0.0065673966746519
 10
967.9294377616352
 20
996.88181739509093
 10
967.93029179421353
 20
996.87765749422033
 42
0.0065197083727771
 10
968.00916397789479
 20
996.51739086064117
 42
0.0064791168783816
 10
968.09738505426742
 20
996.15924981861735
 42
0.0064440816093742
 10
968.1948379845727
 20
995.80348526311354
 42
0.0064147578738039
 10
968.30140572696337
 20
995.4503480320227
 42
0.0063913043034347
 10
968.4169712336768
 20
995.10008911705972
 10
968.4174715647041
 20
995.09863542646451
 42
0.0063742934545315
 10
968.54089523554262
 20
994.75435939038471
 42
0.00626286207091
 10
968.67298015805159
 20
994.41331141983255
 10
968.68948217101729
 20
994.37223779268288
 42
0.0093948157156495
 10
968.86670187486675
 20
993.95402727887551
 10
968.88534026137859
 20
993.9122466113281
 42
0.0093481652679267
 10
969.11692318887913
 20
993.41815905530302
 10
969.12066729650337
 20
993.41054471331142
 42
0.0093079551865662
 10
969.36273994257476
 20
992.9405467404431
 10
969.36677012922837
 20
992.93306729276742
 42
0.0086934154697175
 10
969.61729077663028
 20
992.48689109775114
 10
969.62591013484746
 20
992.4721659868801
  0
SPLINE
  5
78
100
AcDbEntity
  8
0
370
              15
  6
Continuous
 62
               7
100
AcDbSpline
210
0.0
220
0.0
230
1.0
 70
              12
 71
               2
 72
              90
 73
              87
 74
               0
 42
0.000001
 43
0.000001
 40
0.0
 40
0.0
 40
0.0
 40
1.0
 40
1.0
 40
2.0
 40
2.0
 40
3.0
 40
3.0
 40
4.0
 40
4.0
 40
5.0
 40
5.0
 40
6.0
 40
6.0
 40
7.0
 40
7.0
 40
8.0
 40
8.0
 40
9.0
 40
9.0
 40
10.0
 40
10.0
 40
11.0
 40
11.0
 40
12.0
 40
12.0
 40
13.0
 40
13.0
 40
14.0
 40
14.0
 40
15.0
 40
15.0
 40
16.0
 40
16.0
 40
17.0
 40
17.0
 40
18.0
 40
18.0
 40
19.0
 40
19.0
 40
20.0
 40
20.0
 40
21.0
 40
21.0
 40
22.0
 40
22.0
 40
23.0
 40
23.0
 40
24.0
 40
24.0
 40
25.0
 40
25.0
 40
26.0
 40
26.0
 40
27.0
 40
27.0
 40
28.0
 40
28.0
 40
29.0
 40
29.0
 40
30.0
 40
30.0
 40
31.0
 40
31.0
 40
32.0
 40
32.0
 40
33.0
 40
33.0
 40
34.0
 40
34.0
 40
35.0
 40
35.0
 40
36.0
 40
36.0
 40
37.0
 40
37.0
 40
38.0
 40
38.0
 40
39.0
 40
39.0
 40
40.0
 40
40.0
 40
41.0
 40
41.0
 40
42.0
 40
42.0
 40
43.0
 40
43.0
 40
43.0
 10
969.62593865490078
 20
992.47216414062223
 30
0.0
 41
1.0
 10
969.65055091847626
 20
992.43049575161831
 30
0.0
 41
1.0
 10
969.67516318205173
 20
992.38882736261428
 30
0.0
 41
1.0
 10
969.80088776547882
 20
992.1759765277634
 30
0.0
 41
0.9997728899117486
 10
969.93556831512456
 20
991.96867650769127
 30
0.0
 41
1.0
 10
970.07024886477097
 20
991.76137648761812
 30
0.0
 41
0.9999344439621846
 10
970.20964105389487
 20
991.5572148693193
 30
0.0
 41
1.0
 10
970.21265918957363
 20
991.55279433852559
 30
0.0
 41
1.0
 10
970.2156773252525
 20
991.54837380773188
 30
0.0
 41
1.0
 10
970.36110578573471
 20
991.33537112784461
 30
0.0
 41
0.99973194572193
 10
970.51623876719668
 20
991.1293290524809
 30
0.0
 41
1.0
 10
970.55292466352944
 20
991.0806041575828
 30
0.0
 41
1.0
 10
970.58961055986219
 20
991.03187926268458
 30
0.0
 41
1.0
 10
970.74569356245047
 20
990.82457540325254
 30
0.0
 41
0.9997962154454025
 10
970.91001745867834
 20
990.62374101635351
 30
0.0
 41
1.0
 10
970.92141079324256
 20
990.60981624086776
 30
0.0
 41
1.0
 10
970.93280412780678
 20
990.5958914653819
 30
0.0
 41
1.0
 10
971.07434135490428
 20
990.42290662945697
 30
0.0
 41
0.9998847072267991
 10
971.2210661202995
 20
990.25429944297184
 30
0.0
 41
1.0
 10
971.36780605521983
 20
990.08567482459034
 30
0.0
 41
0.9998869896412641
 10
971.51954914524958
 20
989.92153797603714
 30
0.0
 41
1.0
 10
971.67131946183315
 20
989.75737065370834
 30
0.0
 41
0.9998889314055719
 10
971.82791526246831
 20
989.59779968535895
 30
0.0
 41
1.0
 10
971.98452312013058
 20
989.43821567513237
 30
0.0
 41
0.9998903384864034
 10
972.14578837574345
 20
989.28333961263945
 30
0.0
 41
1.0
 10
972.1861743152831
 20
989.24455372988871
 30
0.0
 41
1.0
 10
972.22656025482274
 20
989.20576784713785
 30
0.0
 41
1.0
 10
972.4685973895148
 20
988.97332001914344
 30
0.0
 41
0.9995705154251352
 10
972.72383673785816
 20
988.7554511540734
 30
0.0
 41
1.0
 10
972.72443591602803
 20
988.75493970366938
 30
0.0
 41
1.0
 10
972.72503509419778
 20
988.75442825326536
 30
0.0
 41
1.0
 10
972.9814727988803
 20
988.53553648738784
 30
0.0
 41
0.9998911656731355
 10
973.24425687630185
 20
988.32430573630052
 30
0.0
 41
1.0
 10
973.24546955222604
 20
988.32333096473599
 30
0.0
 41
1.0
 10
973.24668222815023
 20
988.32235619317134
 30
0.0
 41
1.0
 10
973.51187127817423
 20
988.1091922801736
 30
0.0
 41
0.9995737537754639
 10
973.78904934483194
 20
987.91186918111725
 30
0.0
 41
1.0
 10
974.06621131558586
 20
987.71455941399688
 30
0.0
 41
0.9998948567051116
 10
974.34897845461228
 20
987.52536996577101
 30
0.0
 41
1.0
 10
974.63174987698039
 20
987.33617746826269
 30
0.0
 41
0.999584532240858
 10
974.92495311096718
 20
987.16359316422108
 30
0.0
 41
1.0
 10
974.97374747629397
 20
987.13487198858263
 30
0.0
 41
1.0
 10
975.02254184162075
 20
987.10615081294429
 30
0.0
 41
1.0
 10
975.21916668461893
 20
986.99041415743488
 30
0.0
 41
0.9998961123509751
 10
975.41904594288644
 20
986.88039332109975
 30
0.0
 41
1.0
 10
975.61892520115225
 20
986.77037248476563
 30
0.0
 41
0.9998968898080599
 10
975.82188149909098
 20
986.66613696567924
 30
0.0
 41
1.0
 10
975.87274709032442
 20
986.64001310867309
 30
0.0
 41
1.0
 10
975.92361268155776
 20
986.61388925166693
 30
0.0
 41
1.0
 10
976.22828979214864
 20
986.45741134436025
 30
0.0
 41
0.9995956744385572
 10
976.54136920916608
 20
986.31850577991781
 30
0.0
 41
1.0
 10
976.85443825636901
 20
986.17960554126728
 30
0.0
 41
0.9999000952354035
 10
977.17130853191634
 20
986.04961041409376
 30
0.0
 41
1.0
 10
977.17156243313912
 20
986.04950625184097
 30
0.0
 41
1.0
 10
977.17181633436189
 20
986.04940208958806
 30
0.0
 41
1.0
 10
977.48919441235398
 20
985.91919863790929
 30
0.0
 41
0.9996027687299001
 10
977.81340454038548
 20
985.80708451702685
 30
0.0
 41
1.0
 10
977.86759215836878
 20
985.7883460612303
 30
0.0
 41
1.0
 10
977.92177977635197
 20
985.76960760543375
 30
0.0
 41
1.0
 10
978.13927437633765
 20
985.69439645758303
 30
0.0
 41
0.9999005724243143
 10
978.35880341235247
 20
985.62534850228622
 30
0.0
 41
1.0
 10
978.57833121910414
 20
985.55630093362674
 30
0.0
 41
0.9999011662550457
 10
978.79971354177974
 20
985.49345276832628
 30
0.0
 41
1.0
 10
979.02109463519253
 20
985.43060498966315
 30
0.0
 41
0.9999015717950154
 10
979.24415193348557
 20
985.37399338765783
 30
0.0
 41
1.0
 10
979.29994210210032
 20
985.35983392797823
 30
0.0
 41
1.0
 10
979.35573227071518
 20
985.34567446829851
 30
0.0
 41
1.0
 10
979.69038517658782
 20
985.26074007134241
 30
0.0
 41
0.9996082952595343
 10
980.02926605145615
 20
985.19466305685364
 30
0.0
 41
1.0
 10
980.08564432654748
 20
985.18366993506174
 30
0.0
 41
1.0
 10
980.14202260163881
 20
985.17267681326973
 30
0.0
 41
1.0
 10
980.3681621966748
 20
985.12858216677341
 30
0.0
 41
0.9999019784033099
 10
980.59544776464338
 20
985.0908366387539
 30
0.0
 41
1.0
 10
980.82280630085017
 20
985.05307899283059
 30
0.0
 41
0.9999026245865372
 10
981.05112999628568
 20
985.02168100062636
 30
0.0
 41
1.0
 10
981.27952665995815
 20
984.99027089051845
 30
0.0
 41
0.9999035883521064
 10
981.50870746913688
 20
984.96521519857629
 30
0.0
 41
1.0
 10
981.56603234175759
 20
984.95894803181761
 30
0.0
 41
1.0
 10
981.6233572143783
 20
984.95268086505894
 30
0.0
 41
1.0
 10
981.96718776879766
 20
984.91509083959966
 30
0.0
 41
0.9996204462141992
 10
982.31256678461591
 20
984.89649525951563
 30
0.0
 41
1.0
 10
982.37015044186637
 20
984.89339489307508
 30
0.0
 41
1.0
 10
982.42773409911683
 20
984.89029452663442
 30
0.0
 41
1.0
 10
982.85945645658876
 20
984.8670501275692
 30
0.0
 41
0.9996708100051389
 10
983.29180279427442
 20
984.86598227049581
 30
0.0
 41
1.0
 10
983.3062143331465
 20
984.86594667527334
 30
0.0
 41
1.0
 10
983.32062345145187
 20
984.86593551703118
 30
0.0
 41
1.0
  0
SPLINE
  5
79
100
AcDbEntity
  8
0
370
              15
  6
Continuous
 62
               7
100
AcDbSpline
210
0.0
220
0.0
230
1.0
 70
              12
 71
               2
 72
              96
 73
              93
 74
               0
 42
0.000001
 43
0.000001
 40
0.0
 40
0.0
 40
0.0
 40
1.0
 40
1.0
 40
2.0
 40
2.0
 40
3.0
 40
3.0
 40
4.0
 40
4.0
 40
5.0
 40
5.0
 40
6.0
 40
6.0
 40
7.0
 40
7.0
 40
8.0
 40
8.0
 40
9.0
 40
9.0
 40
10.0
 40
10.0
 40
11.0
 40
11.0
 40
12.0
 40
12.0
 40
13.0
 40
13.0
 40
14.0
 40
14.0
 40
15.0
 40
15.0
 40
16.0
 40
16.0
 40
17.0
 40
17.0
 40
18.0
 40
18.0
 40
19.0
 40
19.0
 40
20.0
 40
20.0
 40
21.0
 40
21.0
 40
22.0
 40
22.0
 40
23.0
 40
23.0
 40
24.0
 40
24.0
 40
25.0
 40
25.0
 40
26.0
 40
26.0
 40
27.0
 40
27.0
 40
28.0
 40
28.0
 40
29.0
 40
29.0
 40
30.0
 40
30.0
 40
31.0
 40
31.0
 40
32.0
 40
32.0
 40
33.0
 40
33.0
 40
34.0
 40
34.0
 40
35.0
 40
35.0
 40
36.0
 40
36.0
 40
37.0
 40
37.0
 40
38.0
 40
38.0
 40
39.0
 40
39.0
 40
40.0
 40
40.0
 40
41.0
 40
41.0
 40
42.0
 40
42.0
 40
43.0
 40
43.0
 40
44.0
 40
44.0
 40
45.0
 40
45.0
 40
46.0
 40
46.0
 40
46.0
 10
983.32062345145187
 20
984.86593496300429
 30
0.0
 41
1.0
 10
983.33502380733626
 20
984.86594610570683
 30
0.0
 41
1.0
 10
983.55828450931801
 20
984.86649595513518
 30
0.0
 41
1.0
 10
983.78154521129932
 20
984.86704580456353
 30
0.0
 41
0.9996710006489676
 10
984.00448395380022
 20
984.87904415762284
 30
0.0
 41
1.0
 10
984.10875026930285
 20
984.8846556724792
 30
0.0
 41
1.0
 10
984.21301658480547
 20
984.89026718733555
 30
0.0
 41
1.0
 10
984.44309669320512
 20
984.90264988197862
 30
0.0
 41
0.9999055183784865
 10
984.67274945784527
 20
984.92135269193386
 30
0.0
 41
1.0
 10
984.90239939677622
 20
984.94005527176478
 30
0.0
 41
0.9999048088657729
 10
985.1314458457706
 20
984.96508735410544
 30
0.0
 41
1.0
 10
985.36048856315665
 20
984.99011910731735
 30
0.0
 41
0.9999039126631332
 10
985.58874931993705
 20
985.02149078197044
 30
0.0
 41
1.0
 10
985.81700917081844
 20
985.05286235761923
 30
0.0
 41
0.9999027327166817
 10
986.04430520938195
 20
985.0905882921636
 30
0.0
 41
1.0
 10
986.10098203278267
 20
985.09999534625615
 30
0.0
 41
1.0
 10
986.15765885618339
 20
985.1094024003487
 30
0.0
 41
1.0
 10
986.49819035191513
 20
985.16592282630722
 30
0.0
 41
0.9996091562840768
 10
986.83503064497563
 20
985.24138722259295
 30
0.0
 41
1.0
 10
987.17174007722997
 20
985.31682916304874
 30
0.0
 41
0.9999021434366083
 10
987.50620714932518
 20
985.40166138471432
 30
0.0
 41
1.0
 10
987.8406487850325
 20
985.48648752961435
 30
0.0
 41
0.9996061613456272
 10
988.16980461266996
 20
985.58994343174345
 30
0.0
 41
1.0
 10
988.17043694333347
 20
985.59014217903427
 30
0.0
 41
1.0
 10
988.17106927399686
 20
985.5903409263251
 30
0.0
 41
1.0
 10
988.49894767509352
 20
985.693396096166
 30
0.0
 41
0.9999006642174387
 10
988.82379101934589
 20
985.80565212331385
 30
0.0
 41
1.0
 10
988.82425288263539
 20
985.80581172928669
 30
0.0
 41
1.0
 10
988.82471474592478
 20
985.80597133525941
 30
0.0
 41
1.0
 10
989.14863436359769
 20
985.91790815046159
 30
0.0
 41
0.9996032426869765
 10
989.46573675678064
 20
986.04790754103306
 30
0.0
 41
1.0
 10
989.46597248751118
 20
986.04800418127286
 30
0.0
 41
1.0
 10
989.46620821824172
 20
986.04810082151266
 30
0.0
 41
1.0
 10
989.7828391499628
 20
986.1779069316043
 30
0.0
 41
0.999900460867948
 10
990.09568147390246
 20
986.31659526381827
 30
0.0
 41
1.0
 10
990.40850637681342
 20
986.45527587299352
 30
0.0
 41
0.9995960408362449
 10
990.71294619976675
 20
986.61150687325471
 30
0.0
 41
1.0
 10
990.71330840464384
 20
986.61169274930251
 30
0.0
 41
1.0
 10
990.71367060952093
 20
986.6118786253503
 30
0.0
 41
1.0
 10
991.01736860169149
 20
986.76773015047706
 30
0.0
 41
0.9998973675480823
 10
991.31647670500865
 20
986.93221878492932
 30
0.0
 41
1.0
 10
991.31679933886801
 20
986.93239621109194
 30
0.0
 41
1.0
 10
991.31712197272736
 20
986.93257363725445
 30
0.0
 41
1.0
 10
991.61558480832514
 20
987.09670741938123
 30
0.0
 41
0.9995854139290895
 10
991.90410511148582
 20
987.27774884373639
 30
0.0
 41
1.0
 10
991.91033484907121
 20
987.28165789468881
 30
0.0
 41
1.0
 10
991.9165645866567
 20
987.28556694564099
 30
0.0
 41
1.0
 10
992.19262541464673
 20
987.45879026809178
 30
0.0
 41
0.9998959181261995
 10
992.46357347627099
 20
987.6399063857998
 30
0.0
 41
1.0
 10
992.73451490371326
 20
987.82101806886737
 30
0.0
 41
0.9996293702203318
 10
992.99519737516255
 20
988.01660781278861
 30
0.0
 41
1.0
 10
993.03486461768682
 20
988.04637017963773
 30
0.0
 41
1.0
 10
993.0745318602111
 20
988.07613254648675
 30
0.0
 41
1.0
 10
993.25587321242972
 20
988.21219312206927
 30
0.0
 41
0.9998928955998327
 10
993.43315468137132
 20
988.35350287764913
 30
0.0
 41
1.0
 10
993.43366002267533
 20
988.3539056814875
 30
0.0
 41
1.0
 10
993.43416536397945
 20
988.35430848532587
 30
0.0
 41
1.0
 10
993.61043615031269
 20
988.49481263322889
 30
0.0
 41
0.9998916455509604
 10
993.78249436896158
 20
988.64044496167253
 30
0.0
 41
1.0
 10
993.78310465244033
 20
988.6409615135974
 30
0.0
 41
1.0
 10
993.78371493591908
 20
988.64147806552228
 30
0.0
 41
1.0
 10
993.9545525876099
 20
988.78607729011571
 30
0.0
 41
0.9998928802326993
 10
994.1210846340191
 20
988.9356149659925
 30
0.0
 41
1.0
 10
994.12119680482829
 20
988.93571568992206
 30
0.0
 41
1.0
 10
994.12130897563736
 20
988.93581641385151
 30
0.0
 41
1.0
 10
994.28761668042796
 20
989.08515264186906
 30
0.0
 41
0.9998923302392775
 10
994.44947049928123
 20
989.23930484909988
 30
0.0
 41
1.0
 10
994.61132431813417
 20
989.39345705633036
 30
0.0
 41
0.9998910628075595
 10
994.76855748444109
 20
989.55231955374313
 30
0.0
 41
1.0
 10
994.78820681118339
 20
989.57217249693633
 30
0.0
 41
1.0
 10
994.80785613792568
 20
989.59202544012942
 30
0.0
 41
1.0
 10
995.00438795771686
 20
989.79059382392813
 30
0.0
 41
0.9997498468467062
 10
995.19184295964533
 20
989.99775265547339
 30
0.0
 41
1.0
 10
995.22262094140706
 20
990.03176578221576
 30
0.0
 41
1.0
 10
995.25339892316879
 20
990.06577890895801
 30
0.0
 41
1.0
 10
995.41670888726037
 20
990.24625476179131
 30
0.0
 41
0.9998218233107807
 10
995.57309018467447
 20
990.4327663368922
 30
0.0
 41
1.0
 10
995.72947148209153
 20
990.61927791199662
 30
0.0
 41
0.9998990703873448
 10
995.88049050991617
 20
990.81015727459157
 30
0.0
 41
1.0
 10
995.8907341406391
 20
990.82310463447868
 30
0.0
 41
1.0
 10
995.90097777136202
 20
990.83605199436579
 30
0.0
 41
1.0
 10
996.07248406063445
 20
991.05282607673735
 30
0.0
 41
0.9997255758783926
 10
996.23364864372661
 20
991.27739541392475
 30
0.0
 41
1.0
 10
996.25686702900884
 20
991.30974828757326
 30
0.0
 41
1.0
 10
996.28008541429108
 20
991.34210116122176
 30
0.0
 41
1.0
 10
996.47515545799831
 20
991.61391491570816
 30
0.0
 41
0.9997336225153061
 10
996.65747412774158
 20
991.89444110297654
 30
0.0
 41
1.0
 10
996.66040616481826
 20
991.89895250701011
 30
0.0
 41
1.0
 10
996.66333820189493
 20
991.90346391104356
 30
0.0
 41
1.0
 10
996.83979279748473
 20
992.17496729024481
 30
0.0
 41
0.9997718858470971
 10
997.00449135764075
 20
992.4537587777495
 30
0.0
 41
1.0
 10
997.00997559154189
 20
992.46305684143499
 30
0.0
 41
1.0
 10
997.01545982544303
 20
992.47235490512048
 30
0.0
 41
1.0
  0
LWPOLYLINE
  5
7A
100
AcDbEntity
  8
0
370
              15
  6
Continuous
 62
               7
100
AcDbPolyline
 90
       81
 70
             128
 10
883.76506789589632
 20
1094.4152213189154
 10
883.71593031663349
 20
1094.4153143079088
 42
0.0007469641428702
 10
882.77985340540465
 20
1094.4156873260263
 10
882.60322442919198
 20
1094.4154938400077
 42
0.0002592246404967
 10
882.02040540077985
 20
1094.4145532354801
 10
881.95063168602974
 20
1094.4144044542729
 42
0.0001752941137996
 10
881.50736096064338
 20
1094.4133038445302
 42
0.0007408756294246
 10
881.0640934554649
 20
1094.4113910167405
 10
880.93561539199834
 20
1094.4106462192512
 42
0.0012221798486373
 10
880.45373729730261
 20
1094.406674792418
 42
0.0009920506229161
 10
879.97188102389271
 20
1094.4005694278585
 10
879.96949536898603
 20
1094.4005344661305
 42
0.0022715273895835
 10
879.48292234032397
 20
1094.3911925862124
 10
879.41535876627756
 20
1094.3895883238024
 42
0.0031040094745524
 10
878.83622549744882
 20
1094.3722392390578
 10
878.75464854277152
 20
1094.3692884547852
 42
0.0036425168998887
 10
878.33890854131994
 20
1094.351216913491
 10
878.33642024930532
 20
1094.3510905839496
 42
0.0020804457602193
 10
877.9258823381191
 20
1094.3285347704841
 42
0.0052830404829502
 10
877.51574499025151
 20
1094.2999373488924
 10
877.44743616599669
 20
1094.2944485803705
 42
0.0031462903351917
 10
877.17437213403343
 20
1094.2707770043444
 42
0.0033654006746395
 10
876.90164031099209
 20
1094.2435514093454
 10
876.83132499472924
 20
1094.2360538250953
 42
0.0073384313272288
 10
876.46477561548602
 20
1094.1915196008845
 10
876.45117614555863
 20
1094.1896644052581
 42
0.003761535237775
 10
876.11284611317728
 20
1094.1409151709818
 42
0.0087990278051623
 10
875.77590417075555
 20
1094.0836928022441
 10
875.71991236313499
 20
1094.0731668235528
 42
0.0049968085081851
 10
875.49641842287201
 20
1094.0288350258156
 10
875.49246188972938
 20
1094.0280090375768
 42
0.0053402872664794
 10
875.27782826196858
 20
1093.980803171868
 42
0.0052286999769167
 10
875.06423983117543
 20
1093.9290711896103
 10
875.02188513219664
 20
1093.9183426036168
 42
0.0107461211557351
 10
874.74600685152632
 20
1093.8421167650649
 10
874.70028717733408
 20
1093.8284202319951
 42
0.0059723565644097
 10
874.51816683261143
 20
1093.7714820790748
 42
0.0062423993593218
 10
874.33749283616919
 20
1093.710112706905
 10
874.29282223219877
 20
1093.6943147612574
 42
0.013761620075971
 10
874.02639643129953
 20
1093.5917594411269
 10
873.95346667617969
 20
1093.5613567742823
 42
0.0135214089889123
 10
873.70361541841498
 20
1093.4491769653919
 42
0.0089855594728157
 10
873.45901499934837
 20
1093.3258431407089
 10
873.44483160261859
 20
1093.3183688614031
 42
0.0165187256676678
 10
873.2164354704928
 20
1093.1881954637738
 10
873.206774590225
 20
1093.1822582019454
 42
0.0082624012421873
 10
873.00413706286201
 20
1093.0530628686215
 42
0.0157758346715152
 10
872.80801297780238
 20
1092.9143291788446
 10
872.77127342357653
 20
1092.8865610672892
 42
0.018247512201047
 10
872.51371008396541
 20
1092.6766986604082
 10
872.50077759815906
 20
1092.6653516233243
 42
0.0179227740414002
 10
872.2700972885176
 20
1092.4478365971568
 10
872.26489688664492
 20
1092.44256839791
 42
0.0163066644257951
 10
872.05965713759269
 20
1092.2206229193116
 42
0.0158631794449138
 10
871.86910131870457
 20
1091.9859300962676
 42
0.0155530998777891
 10
871.69364944137385
 20
1091.7397262988839
 10
871.69093765776233
 20
1091.7356590207301
 42
0.0160120890238205
 10
871.52621347905699
 20
1091.4705851961223
 10
871.52376798578393
 20
1091.4663534464412
 42
0.0142193990194481
 10
871.37964797019208
 20
1091.199741770592
 42
0.0134437968162529
 10
871.25048510061504
 20
1090.9255571593219
 10
871.250203312032
 20
1090.9249147314486
 42
0.0128364175370327
 10
871.13508869590214
 20
1090.6430159523027
 10
871.13474637412708
 20
1090.6421120286159
 42
0.0121575546218253
 10
871.03321675129882
 20
1090.3529805276896
 10
871.03313442293859
 20
1090.3527264808781
 42
0.0114472205444229
 10
870.94520608792936
 20
1090.0586044836032
 10
870.94505969007434
 20
1090.0580705310845
 42
0.0108629693513523
 10
870.87006638835589
 20
1089.7592378026966
 10
870.86983489083764
 20
1089.7582223845552
 42
0.0103791227491019
 10
870.8071786881635
 20
1089.4544285547572
 10
870.80002278195695
 20
1089.4156840006508
 42
0.0098126931600041
 10
870.76214760368589
 20
1089.1853991756275
 42
0.0046822321257237
 10
870.73095852733172
 20
1088.9540788886222
 10
870.7272008491816
 20
1088.9240913076578
 42
0.0129005763104225
 10
870.69820650900829
 20
1088.6317555714093
 10
870.69280356329966
 20
1088.5579336226147
 42
0.0095473334181662
 10
870.67636878862925
 20
1088.2536815878298
 10
870.67619734238747
 20
1088.2487669170716
 42
0.0090782924240284
 10
870.67126905601754
 20
1087.9539408904184
 10
870.67128939184295
 20
1087.9441102078044
  0
LWPOLYLINE
  5
7B
100
AcDbEntity
  8
0
370
              15
  6
Continuous
 62
               7
100
AcDbPolyline
 90
       84
 70
             128
 10
883.76506789589632
 20
1093.9174435411378
 42
0.0006672253721613
 10
882.87458954381304
 20
1093.9179000563945
 10
882.71401839273005
 20
1093.9177681009769
 42
0.0003186154835295
 10
882.08128032309355
 20
1093.9168449237163
 10
881.97558012264381
 20
1093.9166233493959
 42
0.0001723700624347
 10
881.55424339678507
 20
1093.9155948687635
 42
0.0007059645669136
 10
881.13290952267801
 20
1093.9138262425831
 10
881.0626721905536
 20
1093.9134322359846
 42
0.0011128362739984
 10
880.50087594659294
 20
1093.9090303267126
 10
880.48138632315261
 20
1093.908834236343
 42
0.0019128512256211
 10
879.88065254635046
 20
1093.9004915332137
 10
879.86117487939168
 20
1093.9001465023364
 42
0.0024931119609028
 10
879.29038319396523
 20
1093.8871881388736
 10
879.24228859420225
 20
1093.8858563114552
 42
0.0032624960882977
 10
878.76785666629416
 20
1093.8696197924146
 10
878.69031041102983
 20
1093.8664592212974
 42
0.0026013284770057
 10
878.37115326950322
 20
1093.851787670565
 42
0.002041556421953
 10
878.05214446382638
 20
1093.8341530890939
 10
878.01657367557539
 20
1093.8320410441793
 42
0.0051330715129758
 10
877.62677914254459
 20
1093.804878322389
 10
877.62610538834224
 20
1093.804824416236
 42
0.0029670959874376
 10
877.23814016716983
 20
1093.7714657302722
 10
877.22713634689876
 20
1093.770453765359
 42
0.0068727226345901
 10
876.86190811448739
 20
1093.731796267034
 10
876.84065683798178
 20
1093.7292511054113
 42
0.0032422397689
 10
876.51872630855587
 20
1093.6885758946391
 42
0.0076699428389298
 10
876.19779824330385
 20
1093.6408907745858
 10
876.14442340620121
 20
1093.6321212316097
 42
0.0043868643453057
 10
875.93130781117486
 20
1093.5951830077079
 42
0.0046442530269033
 10
875.71889511216864
 20
1093.5544018902137
 10
875.67078678990038
 20
1093.5447014093229
 42
0.0099322904535156
 10
875.36389218237116
 20
1093.4764493566236
 10
875.2723127573862
 20
1093.4541646574337
 42
0.0101843825156805
 10
875.01046630021415
 20
1093.3847695879567
 10
874.96704891127422
 20
1093.3723113159006
 42
0.0056526573520885
 10
874.79403614941759
 20
1093.3205427220992
 42
0.0059107165075131
 10
874.62226779635796
 20
1093.2647874830545
 10
874.57979574727688
 20
1093.2504441077881
 42
0.0130196623469329
 10
874.32616652669742
 20
1093.157366045861
 10
874.24761897049689
 20
1093.1261967109235
 42
0.0127846999168743
 10
874.02882507357049
 20
1093.0328318328934
 10
873.99275036382824
 20
1093.0163352589475
 42
0.006855422279655
 10
873.84942501321268
 20
1092.948402981664
 42
0.0070656062558818
 10
873.708047135475
 20
1092.8765075598417
 10
873.67294747938445
 20
1092.8580293802761
 42
0.0152837101602313
 10
873.46596897569475
 20
1092.7408513815933
 10
873.44649322035832
 20
1092.7290252889936
 42
0.0114996431718875
 10
873.22905184152523
 20
1092.590047430459
 42
0.0154064665110672
 10
873.01944386552623
 20
1092.4396077440551
 10
872.98069337075333
 20
1092.4099453256242
 42
0.0160347837455984
 10
872.80432318844942
 20
1092.2657404168999
 10
872.77602285345699
 20
1092.2410458227387
 42
0.0093244621443777
 10
872.66279238766901
 20
1092.1384607222353
 42
0.0081671737624819
 10
872.55321470022545
 20
1092.0319738123085
 10
872.53288893467993
 20
1092.0115653527978
 42
0.0158678416839807
 10
872.38927672497505
 20
1091.8579127449591
 10
872.36657333172252
 20
1091.8320220697665
 42
0.015611508847035
 10
872.18919100029325
 20
1091.6165226219227
 10
872.1889209859371
 20
1091.6161728755364
 42
0.015503684520049
 10
872.02582750458487
 20
1091.3908078947056
 10
872.02560838181
 20
1091.3904844497692
 42
0.0149101910033022
 10
871.87692861811479
 20
1091.1562733699716
 42
0.0141851157972206
 10
871.74211481281543
 20
1090.913801780971
 42
0.0135329265422589
 10
871.62093742228012
 20
1090.6642239857895
 10
871.62077316044815
 20
1090.6638609850911
 42
0.012968975354824
 10
871.51267483019899
 20
1090.4074724974648
 10
871.51250482342834
 20
1090.4070381374163
 42
0.0123057554713589
 10
871.41715411413634
 20
1090.1445670206153
 42
0.0116434717708623
 10
871.33445368614116
 20
1089.8777602142504
 10
871.33433874404079
 20
1089.8773563686468
 42
0.0111030151746747
 10
871.26364342299473
 20
1089.6062457137562
 10
871.26348034289254
 20
1089.605558132957
 42
0.0106160293965989
 10
871.20432599438357
 20
1089.330246150296
 10
871.20427110594551
 20
1089.3299613840395
 42
0.0100954909295165
 10
871.15646882255191
 20
1089.0518584852762
 10
871.15643016795343
 20
1089.0516027812523
 42
0.0096214740901122
 10
871.11956040682389
 20
1088.7713136524342
 10
871.11947882206391
 20
1088.7705853054999
 42
0.0096972136577343
 10
871.09332839346473
 20
1088.4876227139446
 10
871.09264562130716
 20
1088.4782555106806
 42
0.0098260591163797
 10
871.07845742087341
 20
1088.2113567202123
 10
871.07815915606898
 20
1088.2024454439684
 42
0.0087071107196474
 10
871.07415698620775
 20
1087.9530206509207
 10
871.07417488426972
 20
1087.9441102078044
  0
LWPOLYLINE
  5
7C
100
AcDbEntity
  8
0
370
              15
  6
Continuous
 62
               7
100
AcDbPolyline
 90
       81
 70
             128
 10
896.8588463999497
 20
1087.9441102078044
 10
896.85893928367307
 20
1088.0172914890998
 42
0.0172635916055918
 10
896.84435860829194
 20
1088.4555867153717
 10
896.84004477942779
 20
1088.5191354076817
 42
0.0093092365459945
 10
896.81317831141223
 20
1088.8293294136306
 10
896.81313132898822
 20
1088.8297751591763
 42
0.0092970407379735
 10
896.77485383216219
 20
1089.1378656216502
 10
896.77483121012131
 20
1089.1380236325999
 42
0.0097875319928667
 10
896.72487760129604
 20
1089.4441083379843
 10
896.72477768082558
 20
1089.444653265502
 42
0.0103225189710767
 10
896.66278103138745
 20
1089.7473901175017
 10
896.66252116885289
 20
1089.7485379620689
 42
0.0107950455137781
 10
896.58836846943893
 20
1090.046097915244
 10
896.58820417647337
 20
1090.0467013562995
 42
0.0113615411816535
 10
896.50130131380297
 20
1090.3394783214048
 10
896.48960435898277
 20
1090.3758360021509
 42
0.0120866765094475
 10
896.41421316397509
 20
1090.5920999256718
 42
0.0062460290458296
 10
896.33092746240766
 20
1090.8055006745353
 10
896.3240978330972
 20
1090.8223746103213
 42
0.0163842156632136
 10
896.21653576918618
 20
1091.0649571938247
 10
896.1940643484736
 20
1091.1114622518714
 42
0.013036709441065
 10
896.06003155296889
 20
1091.371326041341
 42
0.0147051881002163
 10
895.911808807125
 20
1091.6233343139618
 10
895.90918531715852
 20
1091.6275088116799
 42
0.0153929995046794
 10
895.74057921467556
 20
1091.8783139126504
 10
895.7404164111806
 20
1091.8785406855122
 42
0.0157230362774464
 10
895.55616555347535
 20
1092.1188634732794
 10
895.55431226904386
 20
1092.1211295582809
 42
0.0161758602313243
 10
895.35893219167053
 20
1092.3448537186277
 42
0.0158474252277343
 10
895.14963047807964
 20
1092.555619890037
 10
895.14714294963699
 20
1092.5579709064214
 42
0.0167413331851589
 10
894.91944547342882
 20
1092.7591776016536
 10
894.90397868613388
 20
1092.7719489623664
 42
0.0162416484818001
 10
894.67511466354745
 20
1092.9487487538813
 10
894.64600006465139
 20
1092.969766538072
 42
0.013135475968393
 10
894.4663990759766
 20
1093.092375438408
 42
0.0084350899003
 10
894.28164010575779
 20
1093.207148096732
 10
894.26351227921168
 20
1093.2179896734615
 42
0.0157312061481136
 10
894.03658982599006
 20
1093.3441870513655
 10
893.98667594266067
 20
1093.3699242023806
 42
0.0143736150617671
 10
893.69759743473855
 20
1093.5086139323744
 10
893.6635396762025
 20
1093.5237653714512
 42
0.0112317139315956
 10
893.43645522333475
 20
1093.6187385608332
 10
893.4137154275403
 20
1093.6276543402964
 42
0.0070202530061111
 10
893.22900176458927
 20
1093.6971006308158
 42
0.0066160065168853
 10
893.04246070393935
 20
1093.7614850123059
 42
0.0062909990556007
 10
892.85431808254361
 20
1093.8210337820883
 10
892.80706261996681
 20
1093.8353389837307
 42
0.0111235352706507
 10
892.52189212227984
 20
1093.9147858597373
 10
892.48184501541323
 20
1093.9249884718274
 42
0.0051151282918959
 10
892.26730452107165
 20
1093.9773146954367
 42
0.0055537182308274
 10
892.05169845600881
 20
1094.0250511527772
 10
892.0438511747227
 20
1094.0266973727807
 42
0.0051501122062028
 10
891.81155307221047
 20
1094.0729366791211
 42
0.0047473456675619
 10
891.5783879519222
 20
1094.1145682660645
 42
0.0043445015647291
 10
891.34449069410198
 20
1094.1519557105917
 42
0.0039455170671701
 10
891.10999621531903
 20
1094.1854616840515
 42
0.0036149446949083
 10
890.87502027744085
 20
1094.2154184236931
 10
890.79486786290659
 20
1094.2250485609834
 42
0.0071610430860404
 10
890.39877117192987
 20
1094.2668934810984
 10
890.31838211221577
 20
1094.274223548967
 42
0.0031302730332519
 10
890.03510217498001
 20
1094.2982664656256
 42
0.0029058850998723
 10
889.75155186623033
 20
1094.3188879346594
 10
889.68062590824923
 20
1094.3236318792246
 42
0.0046664235913986
 10
889.25487528882582
 20
1094.3481197422436
 10
889.1785935262493
 20
1094.3517933205035
 42
0.0036179982885209
 10
888.59987952914378
 20
1094.3754671607292
 10
888.59253409647215
 20
1094.3757144198394
 42
0.0029147553937631
 10
887.99886162430823
 20
1094.3922343014842
 10
887.99257712834685
 20
1094.3923725193197
 42
0.0021451600737593
 10
887.40308395173702
 20
1094.4028074055236
 10
887.39512671371983
 20
1094.4029141128449
 42
0.0013853485094001
 10
886.82148633445468
 20
1094.4090170715767
 10
886.8177426616835
 20
1094.4090465270319
 42
0.0009383892173368
 10
886.25156635230223
 20
1094.4124385996911
 42
0.0005253795327907
 10
885.68538185413649
 20
1094.4141731602685
 10
885.58604441664909
 20
1094.4143731096615
 42
0.0002722573768461
 10
884.82118260939103
 20
1094.4154961667971
 10
884.72183388101826
 20
1094.4155879449786
 42
0.0006426078669555
 10
883.78026253220423
 20
1094.4152476445379
 10
883.76506789589632
 20
1094.4152213189154
  0
LWPOLYLINE
  5
7D
100
AcDbEntity
  8
0
370
              15
  6
Continuous
 62
               7
100
AcDbPolyline
 90
       79
 70
             128
 10
896.45596090752292
 20
1087.9441102078044
 10
896.456044898502
 20
1088.0148735827549
 42
0.0183476019113263
 10
896.44162165885928
 20
1088.4209437058012
 10
896.4371393963529
 20
1088.4829210872695
 42
0.0095857690331162
 10
896.41138537430606
 20
1088.7640132158435
 10
896.41134336917673
 20
1088.764391676033
 42
0.0095813510508046
 10
896.37493425586263
 20
1089.0435353335865
 42
0.0100448063974517
 10
896.32762326257398
 20
1089.3208948752026
 10
896.32755911410879
 20
1089.3212301271178
 42
0.0105634028939558
 10
896.26902705263547
 20
1089.5955960765205
 10
896.26883592400281
 20
1089.5964075715519
 42
0.0110341012928632
 10
896.19893066535747
 20
1089.8663709261368
 10
896.1987959615301
 20
1089.8668475350926
 42
0.0115578972664489
 10
896.11706192015868
 20
1090.1324252007821
 42
0.012203244185909
 10
896.02282681579095
 20
1090.3937590035666
 10
896.02268219761777
 20
1090.3941313149219
 42
0.0128656631256689
 10
895.91580008879839
 20
1090.6496155580999
 10
895.91566037067798
 20
1090.6499267897909
 42
0.0134310253513507
 10
895.79579574006584
 20
1090.8988175051491
 42
0.0140789858879687
 10
895.6624310216414
 20
1091.1407318052993
 10
895.66024050777287
 20
1091.1444534266229
 42
0.0157880281044956
 10
895.50807632475119
 20
1091.3852490021986
 10
895.50567075458969
 20
1091.3888021821544
 42
0.0154777631211983
 10
895.34184607788131
 20
1091.6153482329382
 42
0.015652274116489
 10
895.16422762347577
 20
1091.8312832879496
 42
0.0159477065682038
 10
894.97331185260998
 20
1092.0355889549637
 10
894.97134242841287
 20
1092.0375661691055
 42
0.0166477802207616
 10
894.76346711174222
 20
1092.2328121339883
 10
894.7605326993031
 20
1092.2353899016821
 42
0.0162265362362341
 10
894.53424376766088
 20
1092.4215224527884
 10
894.52004140523582
 20
1092.4324516638533
 42
0.0156075192518655
 10
894.30779364007537
 20
1092.5854799561866
 10
894.28033593209534
 20
1092.6040023958585
 42
0.0116879123069083
 10
894.11575894214707
 20
1092.7095112239303
 42
0.0080682975967192
 10
893.94711860519476
 20
1092.8084509455232
 10
893.92583704934589
 20
1092.8204793204172
 42
0.0149994214566729
 10
893.70962268883898
 20
1092.9342666935459
 10
893.6570364650629
 20
1092.9599577342274
 42
0.0136135384105181
 10
893.39279876836463
 20
1093.0802550450612
 10
893.36075207654505
 20
1093.093804001443
 42
0.0097442485874101
 10
893.15573345246924
 20
1093.1758117615818
 10
893.13980865191832
 20
1093.1818244500862
 42
0.0066983473058641
 10
892.96418875012318
 20
1093.2454581171705
 42
0.0063109656616504
 10
892.7869737138011
 20
1093.3045011467198
 42
0.0059970667144937
 10
892.60836040509037
 20
1093.3591639815857
 10
892.56351533560132
 20
1093.3723022458712
 42
0.0106595491762415
 10
892.29299913827401
 20
1093.4453314036102
 10
892.22333735405118
 20
1093.4625530317194
 42
0.0079927990087226
 10
891.95543365851552
 20
1093.5242568363064
 10
891.93094544648375
 20
1093.5294862432377
 42
0.0050571475077336
 10
891.71057928331413
 20
1093.5742194541776
 42
0.0047835375588111
 10
891.48937426007615
 20
1093.6146074262278
 10
891.43396651370028
 20
1093.6241770439356
 42
0.0082407839332793
 10
891.10070085171037
 20
1093.6760953205908
 42
0.0036219635603543
 10
890.76625768886936
 20
1093.7200982862551
 10
890.75429824269474
 20
1093.7215837502636
 42
0.0067087115326216
 10
890.39508431422678
 20
1093.7613149880849
 10
890.38381121937232
 20
1093.762408974414
 42
0.003233594262334
 10
890.00129405483767
 20
1093.7970344062303
 10
889.99071826554746
 20
1093.7979228096474
 42
0.0054547118918605
 10
889.58650539272878
 20
1093.8274411965081
 42
0.0023190664515467
 10
889.18186456999194
 20
1093.8506727800554
 10
889.17989036640336
 20
1093.8507769403086
 42
0.0037180411976995
 10
888.77105564468593
 20
1093.8692998856513
 10
888.69654182295551
 20
1093.8721208108168
 42
0.0030313441000754
 10
888.13843415882184
 20
1093.8898617719444
 10
888.13339947002737
 20
1093.8899912641559
 42
0.0023499209541093
 10
887.5652944962452
 20
1093.9019314642142
 10
887.55772652378255
 20
1093.9020549145821
 42
0.0016265693490844
 10
887.00491363783419
 20
1093.9092737505043
 10
886.99757249992774
 20
1093.9093457289482
 42
0.0010527536569572
 10
886.45940968190769
 20
1093.9134891192275
 42
0.0007015464820774
 10
885.921254361048
 20
1093.9157442117539
 42
0.0002919123070733
 10
885.3831145690458
 20
1093.9169299342493
 10
885.28990891948786
 20
1093.9170808850763
 42
0.0002924474216414
 10
884.56535669764048
 20
1093.917830543048
 10
884.47213591209095
 20
1093.9178724695489
 42
0.0005170879352615
 10
883.77950390176807
 20
1093.9174676808434
 10
883.76506789589632
 20
1093.9174435411378
  0
LWPOLYLINE
  5
7E
100
AcDbEntity
  8
0
370
              15
  6
Continuous
 62
               7
100
AcDbPolyline
 90
       81
 70
             128
 10
1082.8761790070075
 20
1094.4152213189154
 10
1082.8270414277424
 20
1094.4153143079086
 42
0.0007469641419691
 10
1081.8909645165159
 20
1094.4156873260263
 10
1081.7143355403143
 20
1094.4154938400081
 42
0.0002592246414603
 10
1081.1315165118908
 20
1094.4145532354805
 10
1081.0617427971065
 20
1094.4144044542732
 42
0.0001752941128892
 10
1080.6184720717547
 20
1094.4133038445307
 42
0.0007408756303425
 10
1080.1752045665799
 20
1094.4113910167412
 10
1080.0467265031027
 20
1094.4106462192515
 42
0.0012221798483137
 10
1079.5648484084136
 20
1094.406674792418
 42
0.0009920506228322
 10
1079.0829921350066
 20
1094.4005694278585
 10
1079.0806064800972
 20
1094.4005344661305
 42
0.002271527389498
 10
1078.5940334514369
 20
1094.3911925862124
 10
1078.5264698773874
 20
1094.3895883238024
 42
0.0031040094745814
 10
1077.9473366085599
 20
1094.3722392390578
 10
1077.8657596538819
 20
1094.3692884547852
 42
0.0036425168998582
 10
1077.4500196524314
 20
1094.351216913491
 10
1077.4475313604162
 20
1094.3510905839494
 42
0.0020804457601759
 10
1077.0369934492305
 20
1094.3285347704841
 42
0.0052830404829581
 10
1076.6268561013626
 20
1094.2999373488924
 10
1076.5585472771077
 20
1094.2944485803705
 42
0.0031462903351829
 10
1076.2854832451446
 20
1094.2707770043444
 42
0.0033654006746601
 10
1076.0127514221024
 20
1094.2435514093454
 10
1075.9424361058393
 20
1094.236053825095
 42
0.0073384313278369
 10
1075.5758867265972
 20
1094.191519600884
 10
1075.5622872566735
 20
1094.1896644052581
 42
0.0037615352363674
 10
1075.2239572242886
 20
1094.1409151709813
 42
0.0087990278058107
 10
1074.8870152818668
 20
1094.0836928022441
 10
1074.8310234742466
 20
1094.0731668235528
 42
0.0049968085080712
 10
1074.6075295339829
 20
1094.0288350258156
 10
1074.6035730008389
 20
1094.0280090375766
 42
0.0053402872665379
 10
1074.3889393730797
 20
1093.980803171868
 42
0.0052286999768941
 10
1074.1753509422838
 20
1093.9290711896097
 10
1074.1329962433072
 20
1093.9183426036166
 42
0.0107461211557778
 10
1073.8571179626374
 20
1093.8421167650649
 10
1073.8113982884468
 20
1093.8284202319956
 42
0.0059723565641621
 10
1073.6292779437226
 20
1093.7714820790748
 42
0.0062423993593996
 10
1073.448603947279
 20
1093.7101127069045
 10
1073.4039333433097
 20
1093.6943147612574
 42
0.0137616200759408
 10
1073.13750754241
 20
1093.5917594411267
 10
1073.0645777872905
 20
1093.5613567742821
 42
0.0135214089889606
 10
1072.8147265295261
 20
1093.4491769653919
 42
0.0089855594725515
 10
1072.5701261104609
 20
1093.3258431407098
 10
1072.5559427137309
 20
1093.3183688614038
 42
0.0165187256677856
 10
1072.3275465816041
 20
1093.1881954637738
 10
1072.3178857013347
 20
1093.1822582019445
 42
0.0082624012420025
 10
1072.1152481739732
 20
1093.0530628686215
 42
0.0157758346722487
 10
1071.9191240889129
 20
1092.9143291788437
 10
1071.8823845346876
 20
1092.8865610672888
 42
0.0182475122000985
 10
1071.6248211950758
 20
1092.6766986604071
 10
1071.6118887092721
 20
1092.6653516233255
 42
0.0179227740415727
 10
1071.3812083996288
 20
1092.4478365971568
 10
1071.3760079977556
 20
1092.4425683979093
 42
0.0163066644258356
 10
1071.1707682487038
 20
1092.2206229193116
 42
0.0158631794442246
 10
1070.9802124298155
 20
1091.985930096268
 42
0.0155530998790829
 10
1070.8047605524846
 20
1091.7397262988841
 10
1070.8020487688732
 20
1091.7356590207305
 42
0.0160120890235017
 10
1070.6373245901677
 20
1091.4705851961214
 10
1070.634879096895
 20
1091.466353446441
 42
0.0142193990191107
 10
1070.4907590813032
 20
1091.199741770592
 42
0.0134437968165958
 10
1070.3615962117262
 20
1090.9255571593221
 10
1070.3613144231431
 20
1090.9249147314486
 42
0.0128364175366329
 10
1070.246199807013
 20
1090.6430159523015
 10
1070.2458574852383
 20
1090.6421120286159
 42
0.0121575546223256
 10
1070.1443278624101
 20
1090.3529805276892
 10
1070.1442455340498
 20
1090.3527264808777
 42
0.0114472205439371
 10
1070.0563171990409
 20
1090.0586044836036
 10
1070.0561708011855
 20
1090.058070531084
 42
0.0108629693514731
 10
1069.9811774994673
 20
1089.759237802697
 10
1069.9809460019487
 20
1089.7582223845548
 42
0.0103791227489902
 10
1069.9182897992741
 20
1089.4544285547549
 10
1069.9111338930679
 20
1089.4156840006508
 42
0.0098126931602447
 10
1069.873258714797
 20
1089.1853991756275
 42
0.0046822321255473
 10
1069.8420696384433
 20
1088.954078888625
 10
1069.8383119602927
 20
1088.9240913076578
 42
0.0129005763105856
 10
1069.8093176201194
 20
1088.6317555714083
 10
1069.8039146744113
 20
1088.5579336226201
 42
0.0095473334177139
 10
1069.7874798997404
 20
1088.2536815878298
 10
1069.7873084534986
 20
1088.248766917068
 42
0.0090782924242594
 10
1069.7823801671286
 20
1087.9539408904184
 10
1069.782400502954
 20
1087.9441102078044
  0
LWPOLYLINE
  5
7F
100
AcDbEntity
  8
0
370
              15
  6
Continuous
 62
               7
100
AcDbPolyline
 90
       84
 70
             128
 10
1082.8761790070075
 20
1093.9174435411378
 42
0.0006672253721613
 10
1081.9857006549312
 20
1093.9179000563945
 10
1081.825129503829
 20
1093.9177681009769
 42
0.0003186154835295
 10
1081.1923914342051
 20
1093.9168449237163
 10
1081.0866912337424
 20
1093.9166233493956
 42
0.0001723700624347
 10
1080.6653545078964
 20
1093.9155948687635
 42
0.0007059645668349
 10
1080.2440206337983
 20
1093.9138262425831
 10
1080.1737833016648
 20
1093.9134322359846
 42
0.0011128362740296
 10
1079.6119870576954
 20
1093.9090303267126
 10
1079.5924974342638
 20
1093.908834236343
 42
0.0019128512252112
 10
1078.9917636574669
 20
1093.9004915332143
 10
1078.9722859905019
 20
1093.9001465023368
 42
0.0024931119620801
 10
1078.4014943050765
 20
1093.8871881388736
 10
1078.3533997053123
 20
1093.885856311455
 42
0.0032624960870236
 10
1077.8789677774055
 20
1093.8696197924141
 10
1077.8014215221397
 20
1093.866459221297
 42
0.0026013284775419
 10
1077.4822643806144
 20
1093.851787670565
 42
0.0020415564225274
 10
1077.1632555749361
 20
1093.8341530890934
 10
1077.1276847866866
 20
1093.8320410441788
 42
0.0051330715118172
 10
1076.7378902536557
 20
1093.8048783223885
 10
1076.7372164994508
 20
1093.8048244162353
 42
0.0029670959885719
 10
1076.3492512782809
 20
1093.7714657302718
 10
1076.3382474580096
 20
1093.7704537653585
 42
0.0068727226333743
 10
1075.9730192255986
 20
1093.7317962670336
 10
1075.9517679490918
 20
1093.7292511054106
 42
0.0032422397695892
 10
1075.6298374196672
 20
1093.6885758946391
 42
0.0076699428388909
 10
1075.3089093544152
 20
1093.6408907745858
 10
1075.2555345173123
 20
1093.6321212316097
 42
0.0043868643454592
 10
1075.0424189222858
 20
1093.5951830077079
 42
0.0046442530269212
 10
1074.8300062232777
 20
1093.5544018902135
 10
1074.7818979010115
 20
1093.5447014093229
 42
0.0099322904535121
 10
1074.4750032934837
 20
1093.4764493566238
 10
1074.3834238684963
 20
1093.4541646574335
 42
0.0101843825170655
 10
1074.1215774113252
 20
1093.3847695879563
 10
1074.0781600223852
 20
1093.3723113158999
 42
0.0056526573498946
 10
1073.9051472605288
 20
1093.3205427220987
 42
0.0059107165097169
 10
1073.7333789074687
 20
1093.2647874830541
 10
1073.6909068583882
 20
1093.2504441077876
 42
0.0130196623445852
 10
1073.4372776378077
 20
1093.1573660458605
 10
1073.3587300816091
 20
1093.1261967109242
 42
0.0127846999191173
 10
1073.1399361846816
 20
1093.0328318328939
 10
1073.1038614749432
 20
1093.0163352589493
 42
0.0068554222784645
 10
1072.9605361243239
 20
1092.948402981664
 42
0.0070656062551461
 10
1072.8191582465824
 20
1092.8765075598401
 10
1072.7840585904955
 20
1092.8580293802765
 42
0.0152837101621281
 10
1072.5770800868054
 20
1092.7408513815933
 10
1072.5576043314679
 20
1092.7290252889929
 42
0.0114996431719419
 10
1072.3401629526365
 20
1092.5900474304585
 42
0.015406466509694
 10
1072.1305549766387
 20
1092.4396077440554
 10
1072.0918044818627
 20
1092.4099453256224
 42
0.0160347837463686
 10
1071.9154342995607
 20
1092.2657404168999
 10
1071.8871339645682
 20
1092.2410458227384
 42
0.0093244621440249
 10
1071.7739034987803
 20
1092.1384607222353
 42
0.0081671737625796
 10
1071.6643258113388
 20
1092.0319738123108
 10
1071.644000045791
 20
1092.0115653527978
 42
0.0158678416839929
 10
1071.5003878360862
 20
1091.8579127449593
 10
1071.4776844428336
 20
1091.8320220697665
 42
0.015611508846962
 10
1071.3003021114046
 20
1091.6165226219227
 10
1071.3000320970486
 20
1091.6161728755371
 42
0.0155036845209924
 10
1071.1369386156962
 20
1091.3908078947052
 10
1071.1367194929189
 20
1091.3904844497656
 42
0.0149101910021284
 10
1070.9880397292261
 20
1091.1562733699711
 42
0.0141851157980093
 10
1070.8532259239264
 20
1090.913801780971
 42
0.0135329265423118
 10
1070.7320485333905
 20
1090.6642239857879
 10
1070.7318842715592
 20
1090.6638609850911
 42
0.012968975354884
 10
1070.6237859413104
 20
1090.4074724974653
 10
1070.6236159345394
 20
1090.4070381374163
 42
0.0123057554715507
 10
1070.5282652252477
 20
1090.1445670206153
 42
0.0116434717707836
 10
1070.4455647972525
 20
1089.87776021425
 10
1070.4454498551522
 20
1089.8773563686468
 42
0.0111030151739138
 10
1070.3747545341066
 20
1089.6062457137589
 10
1070.3745914540036
 20
1089.605558132957
 42
0.0106160293967186
 10
1070.3154371054952
 20
1089.3302461502997
 10
1070.3153822170564
 20
1089.3299613840395
 42
0.0100954909293528
 10
1070.2675799336628
 20
1089.0518584852757
 10
1070.2675412790643
 20
1089.0516027812523
 42
0.0096214740901699
 10
1070.2306715179352
 20
1088.7713136524378
 10
1070.2305899331748
 20
1088.7705853054999
 42
0.0096972136580714
 10
1070.2044395045755
 20
1088.48762271394
 10
1070.2037567324182
 20
1088.4782555106819
 42
0.0098260591160886
 10
1070.1895685319846
 20
1088.2113567202127
 10
1070.1892702671801
 20
1088.2024454439647
 42
0.0087071107191236
 10
1070.1852680973188
 20
1087.9530206509207
 10
1070.1852859953808
 20
1087.9441102078044
  0
LWPOLYLINE
  5
80
100
AcDbEntity
  8
0
370
              15
  6
Continuous
 62
               7
100
AcDbPolyline
 90
       81
 70
             128
 10
1095.9699575110608
 20
1087.9441102078044
 10
1095.9700503947843
 20
1088.0172914891016
 42
0.0172635916055371
 10
1095.955469719403
 20
1088.4555867153717
 10
1095.9511558905385
 20
1088.5191354076862
 42
0.0093092365462681
 10
1095.9242894225233
 20
1088.8293294136306
 10
1095.9242424400995
 20
1088.8297751591745
 42
0.0092970407380489
 10
1095.8859649432729
 20
1089.1378656216502
 10
1095.8859423212318
 20
1089.1380236326017
 42
0.0097875319921249
 10
1095.835988712407
 20
1089.4441083379843
 10
1095.8358887919364
 20
1089.4446532655029
 42
0.0103225189719422
 10
1095.7738921424987
 20
1089.7473901175017
 10
1095.7736322799649
 20
1089.7485379620653
 42
0.0107950455132353
 10
1095.6994795805499
 20
1090.046097915244
 10
1095.6993152875839
 20
1090.0467013563018
 42
0.0113615411822431
 10
1095.6124124249138
 20
1090.3394783214048
 10
1095.6007154700942
 20
1090.3758360021491
 42
0.0120866765086237
 10
1095.5253242750859
 20
1090.5920999256718
 42
0.0062460290459551
 10
1095.4420385735209
 20
1090.8055006745296
 10
1095.4352089442082
 20
1090.8223746103213
 42
0.0163842156635893
 10
1095.3276468802965
 20
1091.0649571938259
 10
1095.3051754595851
 20
1091.1114622518703
 42
0.0130367094410192
 10
1095.1711426640798
 20
1091.371326041341
 42
0.0147051881001549
 10
1095.0229199182359
 20
1091.6233343139622
 10
1095.0202964282696
 20
1091.6275088116799
 42
0.0153929995043834
 10
1094.8516903257882
 20
1091.8783139126483
 10
1094.8515275222917
 20
1091.8785406855122
 42
0.0157230362778917
 10
1094.6672766645866
 20
1092.1188634732794
 10
1094.6654233801537
 20
1092.1211295582825
 42
0.0161758602304148
 10
1094.4700433027815
 20
1092.3448537186282
 42
0.015847425229679
 10
1094.2607415891919
 20
1092.5556198900358
 10
1094.2582540607482
 20
1092.5579709064214
 42
0.0167413331834867
 10
1094.0305565845406
 20
1092.7591776016529
 10
1094.0150897972453
 20
1092.771948962366
 42
0.0162416484827368
 10
1093.7862257746588
 20
1092.9487487538813
 10
1093.7571111757627
 20
1092.9697665380718
 42
0.0131354759682355
 10
1093.5775101870877
 20
1093.092375438408
 42
0.0084350899002251
 10
1093.3927512168693
 20
1093.207148096732
 10
1093.374623390323
 20
1093.2179896734615
 42
0.0157312061484156
 10
1093.1477009371013
 20
1093.3441870513657
 10
1093.0977870537722
 20
1093.3699242023804
 42
0.0143736150615448
 10
1092.8087085458501
 20
1093.5086139323744
 10
1092.7746507873144
 20
1093.523765371451
 42
0.0112317139319009
 10
1092.5475663344459
 20
1093.6187385608332
 10
1092.5248265386492
 20
1093.6276543402973
 42
0.0070202530060765
 10
1092.3401128757005
 20
1093.6971006308158
 42
0.0066160065168833
 10
1092.1535718150506
 20
1093.7614850123059
 42
0.0062909990556194
 10
1091.9654291936542
 20
1093.8210337820885
 10
1091.918173731078
 20
1093.8353389837307
 42
0.0111235352704978
 10
1091.6330032333908
 20
1093.9147858597373
 10
1091.5929561265257
 20
1093.9249884718272
 42
0.0051151282918538
 10
1091.3784156321826
 20
1093.9773146954367
 42
0.0055537182308387
 10
1091.1628095671192
 20
1094.0250511527772
 10
1091.1549622858338
 20
1094.0266973727807
 42
0.0051501122063469
 10
1090.9226641833213
 20
1094.0729366791211
 42
0.0047473456673879
 10
1090.6894990630331
 20
1094.1145682660645
 42
0.0043445015648137
 10
1090.4556018052131
 20
1094.1519557105917
 42
0.0039455170671666
 10
1090.2211073264302
 20
1094.1854616840515
 42
0.003614944694939
 10
1089.9861313885513
 20
1094.2154184236931
 10
1089.9059789740177
 20
1094.2250485609834
 42
0.0071610430860724
 10
1089.5098822830407
 20
1094.2668934810984
 10
1089.429493223327
 20
1094.274223548967
 42
0.0031302730331632
 10
1089.1462132860911
 20
1094.2982664656256
 42
0.0029058850998914
 10
1088.8626629773412
 20
1094.3188879346596
 10
1088.7917370193604
 20
1094.3236318792246
 42
0.0046664235914015
 10
1088.3659863999371
 20
1094.3481197422436
 10
1088.2897046373605
 20
1094.3517933205035
 42
0.0036179982884691
 10
1087.7109906402547
 20
1094.3754671607292
 10
1087.7036452075833
 20
1094.3757144198394
 42
0.002914755393706
 10
1087.1099727354201
 20
1094.3922343014842
 10
1087.1036882394578
 20
1094.3923725193197
 42
0.0021451600740957
 10
1086.5141950628483
 20
1094.4028074055232
 10
1086.5062378248294
 20
1094.4029141128444
 42
0.0013853485085386
 10
1085.932597445566
 20
1094.4090170715763
 10
1085.9288537728005
 20
1094.4090465270315
 42
0.0009383892173442
 10
1085.3626774634135
 20
1094.4124385996915
 42
0.0005253795334775
 10
1084.7964929652535
 20
1094.414173160269
 10
1084.6971555277603
 20
1094.4143731096619
 42
0.0002722573767951
 10
1083.9322937204913
 20
1094.4154961667966
 10
1083.8329449921223
 20
1094.4155879449781
 42
0.0006426078661672
 10
1082.8913736433153
 20
1094.4152476445379
 10
1082.8761790070075
 20
1094.4152213189154
  0
LWPOLYLINE
  5
81
100
AcDbEntity
  8
0
370
              15
  6
Continuous
 62
               7
100
AcDbPolyline
 90
       79
 70
             128
 10
1095.5670720186342
 20
1087.9441102078044
 10
1095.5671560096132
 20
1088.0148735827549
 42
0.0183476019105586
 10
1095.5527327699706
 20
1088.4209437058012
 10
1095.5482505074642
 20
1088.4829210872695
 42
0.0095857690336122
 10
1095.5224964854174
 20
1088.7640132158435
 10
1095.5224544802877
 20
1088.7643916760385
 42
0.0095813510509227
 10
1095.4860453669735
 20
1089.0435353335865
 42
0.0100448063970509
 10
1095.4387343736848
 20
1089.3208948752026
 10
1095.4386702252191
 20
1089.3212301271215
 42
0.0105634028950014
 10
1095.3801381637463
 20
1089.5955960765205
 10
1095.3799470351139
 20
1089.596407571551
 42
0.0110341012924857
 10
1095.3100417764686
 20
1089.8663709261368
 10
1095.3099070726416
 20
1089.8668475350908
 42
0.0115578972668387
 10
1095.2281730312698
 20
1090.1324252007817
 42
0.0122032441853964
 10
1095.1339379269023
 20
1090.3937590035662
 10
1095.1337933087284
 20
1090.394131314923
 42
0.012865663126296
 10
1095.0269111999096
 20
1090.6496155580999
 10
1095.0267714817894
 20
1090.6499267897907
 42
0.0134310253510658
 10
1094.9069068511769
 20
1090.8988175051491
 42
0.0140789858880555
 10
1094.773542132752
 20
1091.1407318053004
 10
1094.7713516188842
 20
1091.1444534266229
 42
0.0157880281043851
 10
1094.6191874358635
 20
1091.3852490021973
 10
1094.6167818657016
 20
1091.3888021821535
 42
0.0154777631203062
 10
1094.4529571889925
 20
1091.6153482329387
 42
0.0156522741176499
 10
1094.275338734587
 20
1091.8312832879501
 42
0.0159477065678336
 10
1094.0844229637219
 20
1092.0355889549628
 10
1094.0824535395241
 20
1092.0375661691055
 42
0.016647780220631
 10
1093.8745782228525
 20
1092.232812133989
 10
1093.8716438104143
 20
1092.2353899016821
 42
0.0162265362360915
 10
1093.6453548787727
 20
1092.4215224527879
 10
1093.6311525163467
 20
1092.4324516638535
 42
0.0156075192519376
 10
1093.4189047511866
 20
1092.5854799561866
 10
1093.3914470432057
 20
1092.604002395859
 42
0.011687912305902
 10
1093.2268700532582
 20
1092.7095112239308
 42
0.008068297598549
 10
1093.0582297163082
 20
1092.8084509455223
 10
1093.0369481604571
 20
1092.8204793204177
 42
0.0149994214558316
 10
1092.8207337999499
 20
1092.9342666935461
 10
1092.7681475761742
 20
1092.9599577342271
 42
0.013613538410638
 10
1092.5039098794759
 20
1093.0802550450612
 10
1092.471863187656
 20
1093.093804001443
 42
0.0097442485873374
 10
1092.2668445635804
 20
1093.1758117615818
 10
1092.2509197630282
 20
1093.1818244500867
 42
0.0066983473057988
 10
1092.0752998612345
 20
1093.2454581171705
 42
0.0063109656631108
 10
1091.8980848249123
 20
1093.3045011467193
 42
0.0059970667124095
 10
1091.7194715162027
 20
1093.3591639815847
 10
1091.6746264467124
 20
1093.3723022458707
 42
0.0106595491771083
 10
1091.4041102493845
 20
1093.4453314036105
 10
1091.3344484651623
 20
1093.4625530317194
 42
0.0079927990087009
 10
1091.0665447696265
 20
1093.5242568363064
 10
1091.0420565575942
 20
1093.5294862432379
 42
0.0050571475077706
 10
1090.8216903944253
 20
1093.5742194541776
 42
0.0047835375589895
 10
1090.6004853711888
 20
1093.6146074262276
 10
1090.5450776248115
 20
1093.6241770439356
 42
0.0082407839332052
 10
1090.2118119628217
 20
1093.6760953205908
 42
0.0036219635598792
 10
1089.8773687999787
 20
1093.7200982862557
 10
1089.8654093538059
 20
1093.721583750264
 42
0.006708711533803
 10
1089.5061954253385
 20
1093.7613149880854
 10
1089.4949223304834
 20
1093.7624089744145
 42
0.0032335942618254
 10
1089.1124051659483
 20
1093.7970344062305
 10
1089.1018293766585
 20
1093.7979228096474
 42
0.0054547118918617
 10
1088.69761650384
 20
1093.8274411965081
 42
0.0023190664510052
 10
1088.2929756811038
 20
1093.8506727800559
 10
1088.2910014775146
 20
1093.8507769403091
 42
0.0037180411986196
 10
1087.8821667557984
 20
1093.869299885652
 10
1087.8076529340667
 20
1093.8721208108173
 42
0.003031344100144
 10
1087.2495452699304
 20
1093.889861771944
 10
1087.2445105811385
 20
1093.8899912641555
 42
0.0023499209537077
 10
1086.6764056073564
 20
1093.9019314642132
 10
1086.6688376348898
 20
1093.9020549145812
 42
0.0016265693487346
 10
1086.1160247489456
 20
1093.9092737505039
 10
1086.1086836110446
 20
1093.9093457289478
 42
0.0010527536576361
 10
1085.5705207930189
 20
1093.9134891192271
 42
0.0007015464808015
 10
1085.032365472159
 20
1093.9157442117539
 42
0.0002919123082619
 10
1084.4942256801507
 20
1093.9169299342498
 10
1084.4010200305988
 20
1093.9170808850768
 42
0.0002924474213329
 10
1083.6764678087645
 20
1093.917830543048
 10
1083.5832470231999
 20
1093.9178724695489
 42
0.0005170879353285
 10
1082.8906150128792
 20
1093.9174676808434
 10
1082.8761790070075
 20
1093.9174435411378
  0
LWPOLYLINE
  5
82
100
AcDbEntity
  8
0
370
              15
  6
Continuous
 62
               7
100
AcDbPolyline
 90
       57
 70
             128
 10
1431.6903874104128
 20
774.82523935352685
 42
0.0022652210149254
 10
1431.0232592585185
 20
774.6232111968759
 10
1430.9943888840926
 20
774.61432531874743
 42
0.0031427947110529
 10
1430.3100896467172
 20
774.39899018181632
 10
1430.2493508042053
 20
774.3794564756779
 42
0.0017579860229723
 10
1429.6885245839831
 20
774.19691562908542
 42
0.0008835368939072
 10
1429.1286679702614
 20
774.01141361836881
 10
1428.7359875766697
 20
773.88053298738487
 42
0.0021929311845856
 10
1427.3930897872888
 20
773.42639061277646
 10
1427.0941318261516
 20
773.32382542056416
 42
0.001246493788079
 10
1425.1569802139938
 20
772.6538335659227
 10
1425.0745417291623
 20
772.62509072407295
 42
0.0012846243864122
 10
1422.976078764952
 20
771.88739240103575
 10
1422.8955053004233
 20
771.85883461964181
 42
0.0008925305322816
 10
1420.639226346897
 20
771.0546016526057
 10
1419.7587782340647
 20
770.73900035339148
 42
0.0023478057074352
 10
1415.750291192066
 20
769.28086018931572
 10
1414.9226010940322
 20
768.97536773699255
 42
0.0008967307683565
 10
1412.5783071577403
 20
768.10533107348488
 10
1412.2850218623689
 20
767.99588540093919
 42
0.0013319878096299
 10
1410.5306171847992
 20
767.3358619785605
 10
1410.2943472222735
 20
767.24625578922405
 42
0.0005176873358256
 10
1409.0147447896525
 20
766.75944617763355
 10
1408.98522125662
 20
766.74817929275798
 42
0.001839166028344
 10
1407.7668990445072
 20
766.27809717380455
 10
1407.4966090580076
 20
766.17266358983784
 42
0.0005243515355293
 10
1406.8208732252829
 20
765.9082585835713
 10
1406.7127234401014
 20
765.86581040584713
 42
0.0001215561993464
 10
1406.2536083004161
 20
765.68548149203093
 10
1406.2416022386024
 20
765.68076244258452
 42
0.0001734786956237
 10
1405.8066024457289
 20
765.50960908470392
 42
0.0022723326535464
 10
1405.3725254183669
 20
765.336361999784
 10
1405.3241455931493
 20
765.31679738969945
 42
0.0019845700295871
 10
1404.9882369367501
 20
765.17940345055388
 10
1404.9667486283413
 20
765.17051454419061
 42
0.0032500992969207
 10
1404.6751604507381
 20
765.0476697429342
 10
1404.6301265432521
 20
765.02835152214084
 42
0.0007448235486835
 10
1404.429533414067
 20
764.94194894824579
 42
-0.0003671176176843
 10
1404.2290054431633
 20
764.85539479592705
 10
1404.2289033679576
 20
764.85535082595368
 42
-0.0014707567605457
 10
1404.0278550087567
 20
764.76944735615416
 10
1403.9533990770344
 20
764.73789267383268
 42
-0.0046241878986862
 10
1403.7471464832024
 20
764.65272347816119
 10
1403.6864497282859
 20
764.62831416037648
 42
0.0007952489153474
 10
1403.6008579488253
 20
764.59373500893889
 42
0.0053726280561746
 10
1403.5157040353547
 20
764.55810469685775
 10
1403.5015008198636
 20
764.5519815999578
 42
0.0102438630249073
 10
1403.3900811185581
 20
764.50121645471916
 10
1403.3761888851022
 20
764.49453988267169
 42
0.0153012625781003
 10
1403.2948850511498
 20
764.45235622034659
 10
1403.2886020049045
 20
764.44884829274179
 42
0.0095334225431209
 10
1403.2218978024716
 20
764.40991984603215
 42
0.0166794134110197
 10
1403.1573491919755
 20
764.36756557989474
 10
1403.1399582215181
 20
764.35530557250922
 42
0.018632776851193
 10
1403.0447465317638
 20
764.28272807786846
 10
1403.0345744616307
 20
764.27435708930045
 10
1403.0327545460386
 20
764.27286207429131
  0
LWPOLYLINE
  5
83
100
AcDbEntity
  8
0
370
              15
  6
Continuous
 62
               7
100
AcDbPolyline
 90
       29
 70
             128
 10
1432.5015151338794
 20
774.99861376897582
 10
1432.4970453436974
 20
774.99881962101642
 42
0.0094452019351039
 10
1432.4702295345182
 20
774.99954735839935
 42
0.0052645632854641
 10
1432.4434006229681
 20
774.99948599628647
 10
1432.4425107417583
 20
774.99947459077623
 42
0.0106911506766284
 10
1432.4139267818896
 20
774.99849670454864
 10
1432.409164394546
 20
774.9982317196301
 42
0.0054268167631764
 10
1432.390143014054
 20
774.99696612580681
 42
0.0054747192658852
 10
1432.3711544245825
 20
774.99528620526701
 42
0.0055306269768493
 10
1432.352208127113
 20
774.99318884269826
 42
0.005588101627946
 10
1432.3333124878704
 20
774.99067063123516
 42
0.0056490029236423
 10
1432.3144775122726
 20
774.98772833890769
 10
1432.3135578505321
 20
774.98757401154455
 42
0.006813327551372
 10
1432.2929678197177
 20
774.98382967376187
 10
1432.2916398853145
 20
774.98356944523789
 42
0.0072336361418211
 10
1432.2685156140308
 20
774.97868950149814
 10
1432.2681023154701
 20
774.97859601754726
 42
0.0071389618364574
 10
1432.2442994627318
 20
774.9728536344611
 42
0.0070511002058613
 10
1432.2206604477833
 20
774.96643591693032
 42
0.0069700618422239
 10
1432.1972032741373
 20
774.95935581987158
 42
0.0068960688590822
 10
1432.1739459234427
 20
774.95162628589594
 42
0.0068294217281692
 10
1432.1509063769367
 20
774.94326025521571
 42
0.0067703438294456
 10
1432.1281026183474
 20
774.93427066800007
 42
0.0067191695462949
 10
1432.1055526224995
 20
774.92467045531589
 10
1432.1051983905445
 20
774.92451399123229
 42
0.0066768913159448
 10
1432.0836201389661
 20
774.91463645997453
 10
1432.0832716880943
 20
774.91447129217079
 42
0.0062280702742006
 10
1432.0626479620532
 20
774.90437903039765
 10
1432.0619650323679
 20
774.9040338757668
  0
LINE
  5
84
100
AcDbEntity
  8
0
370
              15
  6
Continuous
 62
               7
100
AcDbLine
 10
1390.4593529394615
 20
795.90718935990913
 30
0.0
 11
1403.2293101037458
 21
809.57698063973135
 31
0.0
  0
LINE
  5
85
100
AcDbEntity
  8
0
370
              15
  6
Continuous
 62
               7
100
AcDbLine
 10
1415.2608775014169
 20
822.36687636097577
 30
0.0
 11
1403.2296351735413
 21
809.57740212597128
 31
0.0
  0
LWPOLYLINE
  5
86
100
AcDbEntity
  8
0
370
              15
  6
Continuous
 62
               7
100
AcDbPolyline
 90
        3
 70
             128
 10
1297.5036412574345
 20
843.29514836101134
 42
-0.0002724551873536
 10
1297.5184661350686
 20
844.13826166564581
 10
1297.5184786434793
 20
844.13895165763347
  0
SPLINE
  5
87
100
AcDbEntity
  8
0
370
              15
  6
Continuous
 62
               7
100
AcDbSpline
210
0.0
220
0.0
230
1.0
 70
              12
 71
               2
 72
              68
 73
              65
 74
               0
 42
0.000001
 43
0.000001
 40
0.0
 40
0.0
 40
0.0
 40
1.0
 40
1.0
 40
2.0
 40
2.0
 40
3.0
 40
3.0
 40
4.0
 40
4.0
 40
5.0
 40
5.0
 40
6.0
 40
6.0
 40
7.0
 40
7.0
 40
8.0
 40
8.0
 40
9.0
 40
9.0
 40
10.0
 40
10.0
 40
11.0
 40
11.0
 40
12.0
 40
12.0
 40
13.0
 40
13.0
 40
14.0
 40
14.0
 40
15.0
 40
15.0
 40
16.0
 40
16.0
 40
17.0
 40
17.0
 40
18.0
 40
18.0
 40
19.0
 40
19.0
 40
20.0
 40
20.0
 40
21.0
 40
21.0
 40
22.0
 40
22.0
 40
23.0
 40
23.0
 40
24.0
 40
24.0
 40
25.0
 40
25.0
 40
26.0
 40
26.0
 40
27.0
 40
27.0
 40
28.0
 40
28.0
 40
29.0
 40
29.0
 40
30.0
 40
30.0
 40
31.0
 40
31.0
 40
32.0
 40
32.0
 40
32.0
 10
1429.2326561458613
 20
773.78620088325135
 30
0.0
 41
1.0
 10
1429.2874239170781
 20
773.80685299786137
 30
0.0
 41
0.9999996716386892
 10
1429.3422250895594
 20
773.82741631709325
 30
0.0
 41
1.0
 10
1429.3513570579905
 20
773.83084295148024
 30
0.0
 41
1.0
 10
1429.3604890264219
 20
773.8342695858671
 30
0.0
 41
1.0
 10
1429.4335541357673
 20
773.8616861738733
 30
0.0
 41
0.9999994825003575
 10
1429.5066748769518
 20
773.88895404343032
 30
0.0
 41
1.0
 10
1429.5188597133963
 20
773.89349795977137
 30
0.0
 41
1.0
 10
1429.5310445498408
 20
773.89804187611253
 30
0.0
 41
1.0
 10
1429.6285342659787
 20
773.93439731854414
 30
0.0
 41
0.9999999572321336
 10
1429.7260451641923
 20
773.97069590910428
 30
0.0
 41
1.0
 10
1429.8235570424931
 20
774.00699486450367
 30
0.0
 41
0.9999999130403233
 10
1429.9210386259133
 20
774.04337509906486
 30
0.0
 41
1.0
 10
1429.9332220294068
 20
774.04792195850109
 30
0.0
 41
1.0
 10
1429.9454054329003
 20
774.05246881793744
 30
0.0
 41
1.0
 10
1430.0185218873626
 20
774.0797559582752
 30
0.0
 41
0.9999993214465857
 10
1430.0915745668508
 20
774.10721337912571
 30
0.0
 41
1.0
 10
1430.10023190069
 20
774.11046730574867
 30
0.0
 41
1.0
 10
1430.108889234529
 20
774.11372123237163
 30
0.0
 41
1.0
 10
1430.1646272463422
 20
774.13467079997747
 30
0.0
 41
0.9999996339690956
 10
1430.2203293285288
 20
774.15571571346823
 30
0.0
 41
1.0
 10
1430.2760314107234
 20
774.17676062696216
 30
0.0
 41
0.9999990933449081
 10
1430.3316766137802
 20
774.19795547826016
 30
0.0
 41
1.0
 10
1430.3351869283767
 20
774.19929253144346
 30
0.0
 41
1.0
 10
1430.3386972429735
 20
774.20062958462677
 30
0.0
 41
1.0
 10
1430.3933567084537
 20
774.22144897568364
 30
0.0
 41
0.9999996988297417
 10
1430.447983792064
 20
774.24235318454635
 30
0.0
 41
1.0
 10
1430.5026108756711
 20
774.26325739340768
 30
0.0
 41
1.0
 10
1430.5572321468849
 20
774.2841815754432
 30
0.0
 41
1.0
 10
1430.6118531012237
 20
774.30510563638416
 30
0.0
 41
0.999999918477076
 10
1430.6664909152687
 20
774.32598563280521
 30
0.0
 41
1.0
 10
1430.7211270545436
 20
774.34686499226655
 30
0.0
 41
0.9999995164346236
 10
1430.7758041548991
 20
774.36763684972493
 30
0.0
 41
1.0
 10
1430.8304776831367
 20
774.38840735804854
 30
0.0
 41
0.9999987773494381
 10
1430.8852159034032
 20
774.40900677426293
 30
0.0
 41
1.0
 10
1430.9399491347324
 20
774.42960432657401
 30
0.0
 41
0.9999977006042569
 10
1430.9947702043182
 20
774.44996694188762
 30
0.0
 41
1.0
 10
1431.0495855685497
 20
774.47032745615525
 30
0.0
 41
0.9999962871582246
 10
1431.104511083473
 20
774.49038892438068
 30
0.0
 41
1.0
 10
1431.1594311136623
 20
774.51044840841905
 30
0.0
 41
0.9999945290516055
 10
1431.2144826487811
 20
774.53014412107279
 30
0.0
 41
1.0
 10
1431.2695300386995
 20
774.5498383646003
 30
0.0
 41
0.9999924644142988
 10
1431.3247286803339
 20
774.56910461298048
 30
0.0
 41
1.0
 10
1431.3799257308626
 20
774.58837030600921
 30
0.0
 41
0.9999899233597267
 10
1431.4352935310712
 20
774.60713964310662
 30
0.0
 41
1.0
 10
1431.4406732389393
 20
774.60896333034145
 30
0.0
 41
1.0
 10
1431.4460529468076
 20
774.61078701757629
 30
0.0
 41
1.0
 10
1431.5049403172438
 20
774.63074946691199
 30
0.0
 41
0.9999800669781946
 10
1431.5640750702919
 20
774.64996671859728
 30
0.0
 41
1.0
 10
1431.569476528296
 20
774.65172205150361
 30
0.0
 41
1.0
 10
1431.5748779863004
 20
774.65347738441005
 30
0.0
 41
1.0
 10
1431.6232098233406
 20
774.66918397028292
 30
0.0
 41
0.9999919439554648
 10
1431.6716661937007
 20
774.68450204728413
 30
0.0
 41
1.0
 10
1431.7201244340281
 20
774.699820700705
 30
0.0
 41
0.9999935726840951
 10
1431.7686912726795
 20
774.7147914849761
 30
0.0
 41
1.0
 10
1431.8172599812999
 20
774.72976284566755
 30
0.0
 41
0.9999947698959941
 10
1431.8659245146753
 20
774.74441973105672
 30
0.0
 41
1.0
 10
1431.8758107158123
 20
774.74739727767962
 30
0.0
 41
1.0
 10
1431.8856969169497
 20
774.75037482430241
 30
0.0
 41
1.0
 10
1431.9541338526021
 20
774.77098680293818
 30
0.0
 41
0.9999890503375126
 10
1432.0227607027869
 20
774.79095736273086
 30
0.0
 41
1.0
 10
1432.0326733385216
 20
774.79384196087449
 30
0.0
 41
1.0
 10
1432.0425859742563
 20
774.796726559018
 30
0.0
 41
1.0
 10
1432.0441109387612
 20
774.79717035977467
 30
0.0
 41
1.0
 10
1432.045635903266
 20
774.79761416053134
 30
0.0
 41
1.0
  0
SPLINE
  5
88
100
AcDbEntity
  8
0
370
              15
  6
Continuous
 62
               7
100
AcDbSpline
210
0.0
220
0.0
230
1.0
 70
              12
 71
               2
 72
              74
 73
              71
 74
               0
 42
0.000001
 43
0.000001
 40
0.0
 40
0.0
 40
0.0
 40
1.0
 40
1.0
 40
2.0
 40
2.0
 40
3.0
 40
3.0
 40
4.0
 40
4.0
 40
5.0
 40
5.0
 40
6.0
 40
6.0
 40
7.0
 40
7.0
 40
8.0
 40
8.0
 40
9.0
 40
9.0
 40
10.0
 40
10.0
 40
11.0
 40
11.0
 40
12.0
 40
12.0
 40
13.0
 40
13.0
 40
14.0
 40
14.0
 40
15.0
 40
15.0
 40
16.0
 40
16.0
 40
17.0
 40
17.0
 40
18.0
 40
18.0
 40
19.0
 40
19.0
 40
20.0
 40
20.0
 40
21.0
 40
21.0
 40
22.0
 40
22.0
 40
23.0
 40
23.0
 40
24.0
 40
24.0
 40
25.0
 40
25.0
 40
26.0
 40
26.0
 40
27.0
 40
27.0
 40
28.0
 40
28.0
 40
29.0
 40
29.0
 40
30.0
 40
30.0
 40
31.0
 40
31.0
 40
32.0
 40
32.0
 40
33.0
 40
33.0
 40
34.0
 40
34.0
 40
35.0
 40
35.0
 40
35.0
 10
1406.3161756818436
 20
765.4452644945402
 30
0.0
 41
1.0
 10
1406.5263088842844
 20
765.52376874672791
 30
0.0
 41
0.9999985579387941
 10
1406.7367075163404
 20
765.60155882324386
 30
0.0
 41
1.0
 10
1406.7450182083994
 20
765.60463151133536
 30
0.0
 41
1.0
 10
1406.7533289004587
 20
765.60770419942685
 30
0.0
 41
1.0
 10
1406.9803489166338
 20
765.69163965212601
 30
0.0
 41
0.9999958879931806
 10
1407.2078466089536
 20
765.77427165532845
 30
0.0
 41
1.0
 10
1407.2661279034774
 20
765.79544066177687
 30
0.0
 41
1.0
 10
1407.3244091980011
 20
765.8166096682254
 30
0.0
 41
1.0
 10
1407.6043664810925
 20
765.91829611118249
 30
0.0
 41
0.9999972080132833
 10
1407.8848012155436
 20
766.01865831897771
 30
0.0
 41
1.0
 10
1408.165235950001
 20
766.11902052677522
 30
0.0
 41
0.9999998814419204
 10
1408.4457683831729
 20
766.21910932226649
 30
0.0
 41
1.0
 10
1408.5241912709128
 20
766.24708916147472
 30
0.0
 41
1.0
 10
1408.6026141586526
 20
766.27506900068283
 30
0.0
 41
1.0
 10
1409.039992367326
 20
766.43111747459841
 30
0.0
 41
0.9999986276091808
 10
1409.4768511135935
 20
766.58861432988283
 30
0.0
 41
1.0
 10
1409.5381215583168
 20
766.6107036263619
 30
0.0
 41
1.0
 10
1409.5993920030401
 20
766.63279292284096
 30
0.0
 41
1.0
 10
1410.158791638846
 20
766.83446837111671
 30
0.0
 41
0.9999998260915182
 10
1410.7179529444686
 20
767.03680366977096
 30
0.0
 41
1.0
 10
1410.7379712563602
 20
767.04404739546237
 30
0.0
 41
1.0
 10
1410.757989568252
 20
767.05129112115378
 30
0.0
 41
1.0
 10
1411.3571874998115
 20
767.26811387196949
 30
0.0
 41
0.9999999887709155
 10
1411.9564539121875
 20
767.48474726687152
 30
0.0
 41
1.0
 10
1411.9663143693222
 20
767.48831179887316
 30
0.0
 41
1.0
 10
1411.9761748264568
 20
767.49187633087467
 30
0.0
 41
1.0
 10
1412.5951621551767
 20
767.71563879052997
 30
0.0
 41
1.0
 10
1413.4289199891746
 20
768.01713956074025
 30
0.0
 41
1.0
 10
1414.2626778231647
 20
768.31864033094757
 30
0.0
 41
0.9999998146731486
 10
1415.0960679575392
 20
768.6211559902174
 30
0.0
 41
1.0
 10
1415.5590334699684
 20
768.78920971611956
 30
0.0
 41
1.0
 10
1416.0219989823977
 20
768.9572634420216
 30
0.0
 41
1.0
 10
1417.7814532119473
 20
769.59593485682853
 30
0.0
 41
0.999999628287735
 10
1419.5398035411981
 20
770.23763921454656
 30
0.0
 41
1.0
 10
1420.0024170371839
 20
770.40646846954257
 30
0.0
 41
1.0
 10
1420.4650305331697
 20
770.5752977245387
 30
0.0
 41
1.0
 10
1421.2982869406346
 20
770.87939187594941
 30
0.0
 41
0.9999998128563898
 10
1422.1311706541355
 20
771.18450532012139
 30
0.0
 41
1.0
 10
1422.9640543674977
 20
771.48961876424278
 30
0.0
 41
1.0
 10
1423.5823191565332
 20
771.71616455326011
 30
0.0
 41
1.0
 10
1423.5922156675731
 20
771.71979085212388
 30
0.0
 41
1.0
 10
1423.602112178613
 20
771.72341715098776
 30
0.0
 41
1.0
 10
1424.2005839455535
 20
771.94271034227199
 30
0.0
 41
0.9999999879610181
 10
1424.7991209190141
 20
772.16182549685777
 30
0.0
 41
1.0
 10
1424.8657875394317
 20
772.1862311183753
 30
0.0
 41
1.0
 10
1424.9324541598496
 20
772.21063673989295
 30
0.0
 41
1.0
 10
1425.3976578924628
 20
772.38094065143935
 30
0.0
 41
0.9999998492016532
 10
1425.8626742287192
 20
772.55175558679377
 30
0.0
 41
1.0
 10
1425.8772289560379
 20
772.55710198994609
 30
0.0
 41
1.0
 10
1425.8917836833564
 20
772.56244839309841
 30
0.0
 41
1.0
 10
1426.3276905649777
 20
772.722570522149
 30
0.0
 41
0.9999989056529346
 10
1426.7631217605372
 20
772.88398173486451
 30
0.0
 41
1.0
 10
1426.7946616629577
 20
772.89567334986714
 30
0.0
 41
1.0
 10
1426.8262015653779
 20
772.90736496486977
 30
0.0
 41
1.0
 10
1427.1985529568699
 20
773.0453929478665
 30
0.0
 41
0.9999999830006825
 10
1427.5709536767386
 20
773.18328778206296
 30
0.0
 41
1.0
 10
1427.6015663120929
 20
773.19462321739184
 30
0.0
 41
1.0
 10
1427.6321789474473
 20
773.20595865272071
 30
0.0
 41
1.0
 10
1427.9433543973837
 20
773.32118261654705
 30
0.0
 41
0.9999968576959478
 10
1428.2551036473806
 20
773.43484495686505
 30
0.0
 41
1.0
 10
1428.2974735949329
 20
773.45029284454404
 30
0.0
 41
1.0
 10
1428.3398435424851
 20
773.46574073222291
 30
0.0
 41
1.0
 10
1428.5668528973818
 20
773.54850729718476
 30
0.0
 41
0.9999959379689047
 10
1428.7943303761426
 20
773.6299784463281
 30
0.0
 41
1.0
 10
1428.8060564308678
 20
773.63417813747367
 30
0.0
 41
1.0
 10
1428.8177824855929
 20
773.63837782861924
 30
0.0
 41
1.0
 10
1429.0218078549037
 20
773.71144959547155
 30
0.0
 41
0.9999987062057503
 10
1429.2260672543352
 20
773.78386459515718
 30
0.0
 41
1.0
 10
1429.2293617000983
 20
773.78503273920433
 30
0.0
 41
1.0
 10
1429.2326561458613
 20
773.78620088325135
 30
0.0
 41
1.0
  0
SPLINE
  5
89
100
AcDbEntity
  8
0
370
              15
  6
Continuous
 62
               7
100
AcDbSpline
210
0.0
220
0.0
230
1.0
 70
              12
 71
               2
 72
              35
 73
              32
 74
               0
 42
0.000001
 43
0.000001
 40
0.0
 40
0.0
 40
0.0
 40
1.0
 40
1.0
 40
2.0
 40
2.0
 40
3.0
 40
3.0
 40
4.0
 40
4.0
 40
5.0
 40
5.0
 40
6.0
 40
7.0
 40
7.0
 40
8.0
 40
8.0
 40
9.0
 40
9.0
 40
10.0
 40
10.0
 40
11.0
 40
11.0
 40
12.0
 40
12.0
 40
13.0
 40
13.0
 40
14.0
 40
14.0
 40
15.0
 40
15.0
 40
16.0
 40
16.0
 40
16.0
 10
1403.0330002900928
 20
764.27221496168681
 30
0.0
 41
1.0
 10
1403.0575375988528
 20
764.28102848497906
 30
0.0
 41
1.0
 10
1403.0820749076131
 20
764.28984200827131
 30
0.0
 41
1.0
 10
1403.2730307929919
 20
764.35843119871674
 30
0.0
 41
0.9999999915152562
 10
1403.4640063519305
 20
764.42696559223486
 30
0.0
 41
1.0
 10
1403.6549819107904
 20
764.49549998572456
 30
0.0
 41
1.0
 10
1403.8111679534468
 20
764.55158070925052
 30
0.0
 41
1.0
 10
1403.8178363031307
 20
764.55397507092744
 30
0.0
 41
1.0
 10
1403.8245046528145
 20
764.55636943260424
 30
0.0
 41
1.0
 10
1403.9673539960706
 20
764.60766143276487
 30
0.0
 41
0.9999999378608449
 10
1404.1101670197459
 20
764.65905447170621
 30
0.0
 41
1.0
 10
1404.2529800433886
 20
764.71044751063584
 30
0.0
 41
1.0
 10
1404.4863440644731
 20
764.79447729466506
 30
0.0
 41
1.0
 10
1404.6030354490249
 20
764.83646597964866
 30
0.0
 41
1.0
 10
1404.7197267739459
 20
764.87845464321765
 30
0.0
 41
0.9999999511133055
 10
1404.8364442590814
 20
764.92037053353965
 30
0.0
 41
1.0
 10
1404.9531616845813
 20
764.96228640244522
 30
0.0
 41
0.9999998650453639
 10
1405.0699226028239
 20
765.00408096492129
 30
0.0
 41
1.0
 10
1405.0933374812864
 20
765.01246231902076
 30
0.0
 41
1.0
 10
1405.1167523597492
 20
765.02084367312023
 30
0.0
 41
1.0
 10
1405.2803430349136
 20
765.07940094379398
 30
0.0
 41
0.9999991562102786
 10
1405.4440852982048
 20
765.1375329844949
 30
0.0
 41
1.0
 10
1405.4691451595452
 20
765.14642977662493
 30
0.0
 41
1.0
 10
1405.4942050208856
 20
765.15532656875484
 30
0.0
 41
1.0
 10
1405.6987385143871
 20
765.22794037737049
 30
0.0
 41
0.999999414168502
 10
1405.9034287343225
 20
765.30011120959068
 30
0.0
 41
1.0
 10
1405.9050532508454
 20
765.30068399078868
 30
0.0
 41
1.0
 10
1405.9066777673681
 20
765.3012567719868
 30
0.0
 41
1.0
 10
1406.1081189542738
 20
765.37228204181656
 30
0.0
 41
0.9999996776789502
 10
1406.3096739271623
 20
765.4429837648529
 30
0.0
 41
1.0
 10
1406.3129248045029
 20
765.44412412969655
 30
0.0
 41
1.0
 10
1406.3161756818436
 20
765.4452644945402
 30
0.0
 41
1.0
  0
LWPOLYLINE
  5
8A
100
AcDbEntity
  8
0
370
              15
  6
Continuous
 62
               7
100
AcDbPolyline
 90
        9
 70
             128
 10
1310.6134978244208
 20
810.12134926988244
 42
-0.0030278590305312
 10
1310.9002325931617
 20
810.0379997141647
 10
1310.9269485820648
 20
810.0300580054311
 42
-0.0032429842815149
 10
1311.1663955997055
 20
809.95718539894017
 10
1311.1746432170078
 20
809.95461677850653
 42
-0.0019440652652512
 10
1311.3968495829226
 20
809.88446438010067
 42
-0.0027240022661108
 10
1311.6183897101757
 20
809.8122410505016
 10
1311.638890753914
 20
809.80543381384825
 10
1311.6393424181815
 20
809.80528383454021
  0
LWPOLYLINE
  5
8B
100
AcDbEntity
  8
0
370
              15
  6
Continuous
 62
               7
100
AcDbPolyline
 90
       22
 70
             128
 10
1306.0685218676572
 20
810.86998226554465
 42
-0.0044145794352697
 10
1306.3959979049082
 20
810.85354731716643
 10
1306.4113250966684
 20
810.85264236583021
 42
-0.0053946603590905
 10
1306.7690407115765
 20
810.82764649965213
 10
1306.8050568876583
 20
810.82473902681102
 42
-0.0063598723142684
 10
1307.2340247324378
 20
810.78461201198434
 10
1307.3128700091024
 20
810.77622366075616
 42
-0.0073239338166242
 10
1307.7328061163566
 20
810.72531580948305
 10
1307.7663328859601
 20
810.72075221312355
 42
-0.003978317572955
 10
1308.1180660695732
 20
810.67002139918463
 42
-0.0053329050968471
 10
1308.4687847489513
 20
810.61275112308715
 10
1308.4800788180687
 20
810.61078297694939
 42
-0.0044331386847495
 10
1308.8521696801304
 20
810.54253647769633
 10
1308.8650468607234
 20
810.54005642048571
 42
-0.0057622102814802
 10
1309.2613526283346
 20
810.45898333519722
 10
1309.2848796710975
 20
810.45388720025664
 42
-0.0042807695416734
 10
1309.6428584365876
 20
810.37313163039494
 42
-0.0043313383676056
 10
1309.9993929180837
 20
810.28622255427513
 10
1310.0522459070276
 20
810.27285298654044
 42
-0.0067029851272888
 10
1310.5120857966313
 20
810.14995129718
 10
1310.559936698085
 20
810.1364723432547
 10
1310.5644033508033
 20
810.1352134995002
  0
LWPOLYLINE
  5
8C
100
AcDbEntity
  8
0
370
              15
  6
Continuous
 62
               7
100
AcDbPolyline
 90
        4
 70
             128
 10
1305.5195416223232
 20
810.88436983134011
 10
1305.519699257874
 20
810.8843680537841
 42
-0.0034209604472158
 10
1305.7716375364289
 20
810.87980299147375
 10
1305.7721022206524
 20
810.87979138483354
  0
LWPOLYLINE
  5
8D
100
AcDbEntity
  8
0
370
              15
  6
Continuous
 62
               7
100
AcDbPolyline
 90
       66
 70
             128
 10
1322.9524554806521
 20
844.53959187299347
 10
1322.9524561450039
 20
844.51597628828461
 42
0.0138994487533855
 10
1322.9618128074326
 20
844.17979777859114
 10
1322.9628844249632
 20
844.16055169816309
 42
0.0105407187525638
 10
1322.9857057738668
 20
843.86360666478515
 42
0.0110929598569576
 10
1323.0213484315225
 20
843.56793365416786
 10
1323.0289899333159
 20
843.51454101598915
 42
0.0146349521774935
 10
1323.0804325956688
 20
843.2173916652423
 10
1323.0899845331862
 20
843.1704367313431
 42
0.0073304588561155
 10
1323.1339710175298
 20
842.96934820965419
 42
0.0076916604322265
 10
1323.1839776379991
 20
842.7696739182511
 10
1323.1854806226625
 20
842.76404166828547
 42
0.0082025245003627
 10
1323.2449971008959
 20
842.554848626791
 10
1323.2459987535326
 20
842.55153543254596
 42
0.0082138214725829
 10
1323.3144623034682
 20
842.33781535904654
 42
0.0082352974992604
 10
1323.389918933241
 20
842.12646110547803
 10
1323.3905601426518
 20
842.12475438141837
 42
0.0085262920991132
 10
1323.4743975893591
 20
841.91265932867236
 10
1323.4754623654949
 20
841.91009443557505
 42
0.0086769650562501
 10
1323.568763468362
 20
841.69591860842422
 10
1323.5691604148224
 20
841.69504894069667
 42
0.008697426877515
 10
1323.6706706347695
 20
841.48251693791644
 42
0.0087305098596362
 10
1323.7795263195019
 20
841.2736497083738
 10
1323.7807440895717
 20
841.27140943534914
 42
0.0091345375415421
 10
1323.8995062443278
 20
841.06213239167778
 10
1323.9009391813188
 20
841.05971146185664
 42
0.0091906632018852
 10
1324.0302433650595
 20
840.85013939750468
 10
1324.0303871854662
 20
840.84991560947162
 42
0.0092213695841259
 10
1324.1676146892246
 20
840.64480401852359
 10
1324.1678434771507
 20
840.64447533427358
 42
0.009326366860435
 10
1324.3130524395579
 20
840.44394622083234
 10
1324.3145860415698
 20
840.44190944161255
 42
0.0096743626096449
 10
1324.4704513419097
 20
840.24303162660578
 10
1324.4718108317697
 20
840.24136444302201
 42
0.0096988519424564
 10
1324.6380466379196
 20
840.04539157576573
 42
0.0097401948466856
 10
1324.8117748320803
 20
839.85602656030221
 10
1324.8122407413384
 20
839.8555381641969
 42
0.0098953600902474
 10
1324.9942190982574
 20
839.67218280597444
 10
1324.9954108221627
 20
839.67102866817572
 42
0.0100636767145929
 10
1325.1869888841779
 20
839.49282321970691
 10
1325.2123213810301
 20
839.47019266197628
 42
0.0151682801855058
 10
1325.4647070123638
 20
839.25813284006472
 10
1325.489696188921
 20
839.23839660104602
 42
0.010204746163785
 10
1325.7019391189633
 20
839.07769187086012
 10
1325.7079567246005
 20
839.07332580630418
 42
0.0103759328478313
 10
1325.9144198996974
 20
838.9299703842255
 42
0.0090981855935713
 10
1326.1263192250244
 20
838.79475582538964
 42
0.0104368479188042
 10
1326.3433271536969
 20
838.66792742336497
 10
1326.3506890768385
 20
838.66382850846958
 42
0.010506984667323
 10
1326.5877063721468
 20
838.53831375170739
 10
1326.5878466335425
 20
838.53824320783838
 42
0.0105384376161797
 10
1326.830320493284
 20
838.42262888452808
 42
0.010543305576777
 10
1327.0775547649041
 20
838.31728845273551
 42
0.0105706271772769
 10
1327.3289163365071
 20
838.22251594771433
 10
1327.3291056540206
 20
838.22244910738482
 42
0.0106008096769988
 10
1327.5837723538261
 20
838.13856456864289
 42
0.0106052750234812
 10
1327.8416755424969
 20
838.06557854804964
 42
0.0106439044139312
 10
1328.1023548428002
 20
838.00364110359226
 42
0.0107173147071755
 10
1328.3654289230458
 20
837.952895659663
 42
0.0107235565897589
 10
1328.6304112329285
 20
837.9134783077742
 42
0.0106116587284672
 10
1328.896816628258
 20
837.88540228647253
 10
1328.901001098528
 20
837.88505089959551
 42
0.0105223497832436
 10
1329.1599712602228
 20
837.86878343260662
 10
1329.1641671684265
 20
837.86860840528777
 42
0.0098035496666911
 10
1329.4151966161626
 20
837.86306397808085
 10
1329.4235665917631
 20
837.86304866321575
  0
LWPOLYLINE
  5
8E
100
AcDbEntity
  8
0
370
              15
  6
Continuous
 62
               7
100
AcDbPolyline
 90
       53
 70
             128
 10
1323.4502312925815
 20
844.04181191382918
 10
1323.4502277847339
 20
844.04211771094742
 42
0.0084537811341509
 10
1323.4496871527294
 20
844.06116381638515
 42
0.0090952843162723
 10
1323.448478552634
 20
844.08017879345903
 10
1323.4484533618638
 20
844.08048657171139
 42
0.0092013598531887
 10
1323.4464882693674
 20
844.10005868758992
 42
0.0093245870817472
 10
1323.4437997946088
 20
844.11954257724551
 42
0.0094643342679122
 10
1323.4403819268086
 20
844.13890751492522
 42
0.0096201039534837
 10
1323.4362286417136
 20
844.1581227203875
 42
0.0097811666105627
 10
1323.4313336979917
 20
844.1771595844624
 10
1323.430922635001
 20
844.17863773439808
 42
0.0131393376039234
 10
1323.4242589218011
 20
844.20037073790581
 10
1323.4237821610946
 20
844.20179145980035
 42
0.0102574622455223
 10
1323.4171163460987
 20
844.22038186168209
 42
0.0102413914397454
 10
1323.4096942033257
 20
844.23868345839787
 10
1323.40968386123
 20
844.23870753217432
 42
0.0101427172582942
 10
1323.4014990245746
 20
844.25674204103029
 42
0.0100636970797078
 10
1323.3925896775145
 20
844.27443657980984
 42
0.0100022917419884
 10
1323.3829752071269
 20
844.29176398071763
 42
0.0099590568494815
 10
1323.372674994619
 20
844.30869707399256
 42
0.0099344481593843
 10
1323.3617084135458
 20
844.32520868627523
 42
0.0099284355028006
 10
1323.3500948370552
 20
844.34127164414451
 42
0.0099423486986238
 10
1323.3378535087254
 20
844.35685887597151
 42
0.0099729765080919
 10
1323.3250033158924
 20
844.37194376534444
 42
0.0099431885524331
 10
1323.3115648811586
 20
844.38650244141377
 42
0.0099143260517345
 10
1323.2975608452971
 20
844.4005141661562
 42
0.0098999280716939
 10
1323.2830137137726
 20
844.41395910383108
 42
0.0098991073070672
 10
1323.2679457939134
 20
844.42681757540981
 42
0.0099118371716239
 10
1323.252379390512
 20
844.43906989944048
 42
0.0099383269298187
 10
1323.2363368012516
 20
844.45069638383814
 42
0.0099770695601267
 10
1323.2198403375587
 20
844.46167735741051
 42
0.0100330898495679
 10
1323.2029121631745
 20
844.47199307512778
 42
0.0100858191675716
 10
1323.1855753838145
 20
844.48162376222331
 42
0.0100092393099817
 10
1323.1678586597991
 20
844.49055385313068
 42
0.0099381652590286
 10
1323.149796153903
 20
844.49877208185126
 42
0.0098920353635278
 10
1323.1314229247409
 20
844.50626735408935
 42
0.0098695012041233
 10
1323.1127739604231
 20
844.51302854375604
 42
0.0098709810490948
 10
1323.0938842609844
 20
844.51904451456539
 10
1323.0938742941007
 20
844.51904747325443
 42
0.0099021610785614
 10
1323.0747887762705
 20
844.52430412722083
 10
1323.0747761118873
 20
844.52430734692712
 42
0.0099519702078633
 10
1323.0555224517002
 20
844.52879628700794
 10
1323.0551828891021
 20
844.52886836133109
 42
0.0100332982928111
 10
1323.0364470410937
 20
844.53245388854691
 10
1323.0356979811088
 20
844.53258171455036
 42
0.0094314778410932
 10
1323.0183387504776
 20
844.53520811167664
 10
1323.0179233064891
 20
844.53526297326619
 42
0.0085037010314948
 10
1323.0013129878025
 20
844.53716965288754
 42
0.0084274023284283
 10
1322.984647597297
 20
844.53851290185878
 10
1322.9808446374864
 20
844.5387549930349
 42
0.0156551349868913
 10
1322.956526103691
 20
844.53953990599052
 10
1322.9527179395491
 20
844.53954355198027
 10
1322.9524553626788
 20
844.53954375717126
  0
ARC
  5
8F
100
AcDbEntity
  8
0
370
              15
  6
Continuous
 62
               7
100
AcDbCircle
 10
868.08506789589637
 20
1068.5100000000002
 30
0.0
 40
0.4977777777778556
100
AcDbArc
 50
180.0
 51
270.0
  0
ARC
  5
90
100
AcDbEntity
  8
0
370
              15
  6
Continuous
 62
               7
100
AcDbCircle
 10
899.44506789589627
 20
1068.5100000000002
 30
0.0
 40
0.4977777777776282
100
AcDbArc
 50
270.0
 51
0.0
  0
ARC
  5
91
100
AcDbEntity
  8
0
370
              15
  6
Continuous
 62
               7
100
AcDbCircle
 10
1067.1961790070075
 20
1068.5100000000002
 30
0.0
 40
0.4977777777778556
100
AcDbArc
 50
180.0
 51
270.0
  0
ARC
  5
92
100
AcDbEntity
  8
0
370
              15
  6
Continuous
 62
               7
100
AcDbCircle
 10
1098.5561790070074
 20
1068.5100000000002
 30
0.0
 40
0.4977777777776282
100
AcDbArc
 50
270.0
 51
0.0
  0
ARC
  5
93
100
AcDbEntity
  8
0
370
              15
  6
Continuous
 62
               7
100
AcDbCircle
 10
959.17840122922962
 20
1125.0077777777778
 30
0.0
 40
1.7422222222221535
100
AcDbArc
 50
90.0
 51
134.3223953572961
  0
ARC
  5
94
100
AcDbEntity
  8
0
370
              15
  6
Continuous
 62
               7
100
AcDbCircle
 10
1007.4628456736741
 20
1125.0077777777778
 30
0.0
 40
1.7422222222223256
100
AcDbArc
 50
45.677604642703905
 51
90.0
  0
ARC
  5
95
100
AcDbEntity
  8
0
370
              15
  6
Continuous
 62
               7
100
AcDbCircle
 10
1390.1136041438704
 20
793.94633249171352
 30
0.0
 40
1.9911105013333259
100
AcDbArc
 50
19.999909832300059
 51
80.000090719313022
  0
ARC
  5
96
100
AcDbEntity
  8
0
370
              15
  6
Continuous
 62
               7
100
AcDbCircle
 10
1413.3898385414168
 20
821.68586845720688
 30
0.0
 40
1.9911098323197669
100
AcDbArc
 50
20.000147341602958
 51
79.999848062396353
  0
ARC
  5
97
100
AcDbEntity
  8
0
370
              15
  6
Continuous
 62
               7
100
AcDbCircle
 10
1329.4235665917631
 20
844.04181409521573
 30
0.0
 40
5.9733333333333576
100
AcDbArc
 50
180.00000000000054
 51
270.0
  0
ARC
  5
98
100
AcDbEntity
  8
0
370
              15
  6
Continuous
 62
               7
100
AcDbCircle
 10
1348.8576767995683
 20
837.57070298410463
 30
0.0
 40
0.4977777777776282
100
AcDbArc
 50
0.0
 51
90.0
  0
ARC
  5
99
100
AcDbEntity
  8
0
370
              15
  6
Continuous
 62
               7
100
AcDbCircle
 10
1348.8576767995683
 20
812.68181409521571
 30
0.0
 40
0.4977777777777988
100
AcDbArc
 50
270.0
 51
0.0
  0
ARC
  5
9A
100
AcDbEntity
  8
0
370
              15
  6
Continuous
 62
               7
100
AcDbCircle
 10
1408.8046401909105
 20
762.24108273825573
 30
0.0
 40
0.9955555555554437
100
AcDbArc
 50
200.00000000000117
 51
289.99999999998965
  0
ARC
  5
9B
100
AcDbEntity
  8
0
370
              15
  6
Continuous
 62
               7
100
AcDbCircle
 10
1429.3859967920298
 20
769.73208392193578
 30
0.0
 40
0.9955555555558032
100
AcDbArc
 50
290.00000000003888
 51
19.999999999983288
  0
LINE
  5
9C
100
AcDbEntity
  8
0
370
              15
  6
Continuous
 62
               7
100
AcDbLine
 10
1110.7517345625629
 20
1125.2566666666671
 30
0.0
 11
1110.7517345625629
 21
1119.2833333333338
 31
0.0
  0
LINE
  5
9D
100
AcDbEntity
  8
0
370
              15
  6
Continuous
 62
               7
100
AcDbLine
 10
1099.0539567847852
 20
1068.5100000000002
 30
0.0
 11
1099.0539567847852
 21
1119.7811111111114
 31
0.0
  0
LINE
  5
9E
100
AcDbEntity
  8
0
370
              15
  6
Continuous
 62
               7
100
AcDbLine
 10
1095.9699575110608
 20
1068.5100000000002
 30
0.0
 11
1095.9699575110608
 21
1087.9441102078044
 31
0.0
  0
LINE
  5
9F
100
AcDbEntity
  8
0
370
              15
  6
Continuous
 62
               7
100
AcDbLine
 10
1095.567072018634
 20
1068.0122222222226
 30
0.0
 11
1095.567072018634
 21
1087.9441102078044
 31
0.0
  0
LINE
  5
A0
100
AcDbEntity
  8
0
370
              15
  6
Continuous
 62
               7
100
AcDbLine
 10
1070.1852859953808
 20
1087.9441102078044
 30
0.0
 11
1070.1852859953808
 21
1068.0122222222226
 31
0.0
  0
LINE
  5
A1
100
AcDbEntity
  8
0
370
              15
  6
Continuous
 62
               7
100
AcDbLine
 10
1069.782400502954
 20
1087.9441102078044
 30
0.0
 11
1069.782400502954
 21
1068.5100000000002
 31
0.0
  0
LINE
  5
A2
100
AcDbEntity
  8
0
370
              15
  6
Continuous
 62
               7
100
AcDbLine
 10
1066.6984012292296
 20
1068.5100000000002
 30
0.0
 11
1066.6984012292296
 21
1119.7811111111114
 31
0.0
  0
LINE
  5
A3
100
AcDbEntity
  8
0
370
              15
  6
Continuous
 62
               7
100
AcDbLine
 10
1055.0006234514519
 20
1125.2566666666671
 30
0.0
 11
1055.0006234514519
 21
1119.2833333333338
 31
0.0
  0
POLYLINE
  5
A4
100
AcDbEntity
  8
0
370
              15
  6
Continuous
 62
               7
100
AcDb2dPolyline
 66
               1
 10
0.0
 20
0.0
 30
0.0
 75
               5
  0
VERTEX
  5
A5
100
AcDbEntity
  8
0
370
              15
  6
Continuous
 62
               7
100
AcDbVertex
100
AcDb2dVertex
 10
1095.5670720186342
 20
1068.0122222222226
 30
0.0
  0
VERTEX
  5
A6
100
AcDbEntity
  8
0
370
              15
  6
Continuous
 62
               7
100
AcDbVertex
100
AcDb2dVertex
 10
1095.6916381632741
 20
1068.0366123792182
 30
0.0
  0
VERTEX
  5
A7
100
AcDbEntity
  8
0
370
              15
  6
Continuous
 62
               7
100
AcDbVertex
100
AcDb2dVertex
 10
1095.8039974857809
 20
1068.1073928724982
 30
0.0
  0
VERTEX
  5
A8
100
AcDbEntity
  8
0
370
              15
  6
Continuous
 62
               7
100
AcDbVertex
100
AcDb2dVertex
 10
1095.8931396761986
 20
1068.2176287159473
 30
0.0
  0
VERTEX
  5
A9
100
AcDbEntity
  8
0
370
              15
  6
Continuous
 62
               7
100
AcDbVertex
100
AcDb2dVertex
 10
1095.9503279664564
 20
1068.3565173348443
 30
0.0
  0
VERTEX
  5
AA
100
AcDbEntity
  8
0
370
              15
  6
Continuous
 62
               7
100
AcDbVertex
100
AcDb2dVertex
 10
1095.9699575110608
 20
1068.5100000000002
 30
0.0
  0
SEQEND
  5
AB
100
AcDbEntity
  8
0
370
              15
  6
Continuous
 62
               7
  0
POLYLINE
  5
AC
100
AcDbEntity
  8
0
370
              15
  6
Continuous
 62
               7
100
AcDb2dPolyline
 66
               1
 10
0.0
 20
0.0
 30
0.0
 75
               5
  0
VERTEX
  5
AD
100
AcDbEntity
  8
0
370
              15
  6
Continuous
 62
               7
100
AcDbVertex
100
AcDb2dVertex
 10
871.07417488426972
 20
1068.0122222222226
 30
0.0
  0
VERTEX
  5
AE
100
AcDbEntity
  8
0
370
              15
  6
Continuous
 62
               7
100
AcDbVertex
100
AcDb2dVertex
 10
870.94960873950527
 20
1068.0366123792182
 30
0.0
  0
VERTEX
  5
AF
100
AcDbEntity
  8
0
370
              15
  6
Continuous
 62
               7
100
AcDbVertex
100
AcDb2dVertex
 10
870.83724941712308
 20
1068.1073928724982
 30
0.0
  0
VERTEX
  5
B0
100
AcDbEntity
  8
0
370
              15
  6
Continuous
 62
               7
100
AcDbVertex
100
AcDb2dVertex
 10
870.74810722670532
 20
1068.2176287159473
 30
0.0
  0
VERTEX
  5
B1
100
AcDbEntity
  8
0
370
              15
  6
Continuous
 62
               7
100
AcDbVertex
100
AcDb2dVertex
 10
870.69091893632299
 20
1068.3565173348443
 30
0.0
  0
VERTEX
  5
B2
100
AcDbEntity
  8
0
370
              15
  6
Continuous
 62
               7
100
AcDbVertex
100
AcDb2dVertex
 10
870.67128939184295
 20
1068.5100000000002
 30
0.0
  0
SEQEND
  5
B3
100
AcDbEntity
  8
0
370
              15
  6
Continuous
 62
               7
  0
LINE
  5
B4
100
AcDbEntity
  8
0
370
              15
  6
Continuous
 62
               7
100
AcDbLine
 10
999.00062345145193
 20
999.72259589907571
 30
0.0
 11
999.00062345145193
 21
1119.9436729812269
 31
0.0
  0
LINE
  5
B5
100
AcDbEntity
  8
0
370
              15
  6
Continuous
 62
               7
100
AcDbLine
 10
999.00062344323851
 20
1014.1384868588802
 30
0.0
 11
999.00062345145193
 21
1014.1380978918405
 31
0.0
  0
LINE
  5
B6
100
AcDbEntity
  8
0
370
              15
  6
Continuous
 62
               7
100
AcDbLine
 10
999.0006231322518
 20
999.72611091292492
 30
0.0
 11
999.00062345145193
 21
999.72315492119105
 31
0.0
  0
LINE
  5
B7
100
AcDbEntity
  8
0
370
              15
  6
Continuous
 62
               7
100
AcDbLine
 10
899.44502533962964
 20
1068.0122222222226
 30
0.0
 11
868.08511047045636
 21
1068.0122222222226
 31
0.0
  0
LINE
  5
B8
100
AcDbEntity
  8
0
370
              15
  6
Continuous
 62
               7
100
AcDbLine
 10
1098.5561364507407
 20
1068.0122222222226
 30
0.0
 11
1067.1962215815674
 21
1068.0122222222226
 31
0.0
  0
POLYLINE
  5
B9
100
AcDbEntity
  8
0
370
              15
  6
Continuous
 62
               7
100
AcDb2dPolyline
 66
               1
 10
0.0
 20
0.0
 30
0.0
 75
               5
  0
VERTEX
  5
BA
100
AcDbEntity
  8
0
370
              15
  6
Continuous
 62
               7
100
AcDbVertex
100
AcDb2dVertex
 10
896.45596090752292
 20
1068.0122222222226
 30
0.0
  0
VERTEX
  5
BB
100
AcDbEntity
  8
0
370
              15
  6
Continuous
 62
               7
100
AcDbVertex
100
AcDb2dVertex
 10
896.58052705216301
 20
1068.0366123792182
 30
0.0
  0
VERTEX
  5
BC
100
AcDbEntity
  8
0
370
              15
  6
Continuous
 62
               7
100
AcDbVertex
100
AcDb2dVertex
 10
896.69288637466957
 20
1068.1073928724982
 30
0.0
  0
VERTEX
  5
BD
100
AcDbEntity
  8
0
370
              15
  6
Continuous
 62
               7
100
AcDbVertex
100
AcDb2dVertex
 10
896.78202856508744
 20
1068.2176287159473
 30
0.0
  0
VERTEX
  5
BE
100
AcDbEntity
  8
0
370
              15
  6
Continuous
 62
               7
100
AcDbVertex
100
AcDb2dVertex
 10
896.83921685534528
 20
1068.3565173348443
 30
0.0
  0
VERTEX
  5
BF
100
AcDbEntity
  8
0
370
              15
  6
Continuous
 62
               7
100
AcDbVertex
100
AcDb2dVertex
 10
896.8588463999497
 20
1068.5100000000002
 30
0.0
  0
SEQEND
  5
C0
100
AcDbEntity
  8
0
370
              15
  6
Continuous
 62
               7
  0
LINE
  5
C1
100
AcDbEntity
  8
0
370
              15
  6
Continuous
 62
               7
100
AcDbLine
 10
1066.6984012292296
 20
1068.5100000000002
 30
0.0
 11
1099.0539567847852
 21
1068.5100000000002
 31
0.0
  0
LINE
  5
C2
100
AcDbEntity
  8
0
370
              15
  6
Continuous
 62
               7
100
AcDbLine
 10
867.58729011811852
 20
1068.5100000000002
 30
0.0
 11
899.94284567367413
 21
1068.5100000000002
 31
0.0
  0
LINE
  5
C3
100
AcDbEntity
  8
0
370
              15
  6
Continuous
 62
               7
100
AcDbLine
 10
967.6406234514518
 20
1014.1380931043377
 30
0.0
 11
967.64062345667855
 21
1014.1383666958227
 31
0.0
  0
LINE
  5
C4
100
AcDbEntity
  8
0
370
              15
  6
Continuous
 62
               7
100
AcDbLine
 10
967.6406234514518
 20
999.72310454558283
 30
0.0
 11
967.6406234514518
 21
1119.9435956377602
 31
0.0
  0
POLYLINE
  5
C5
100
AcDbEntity
  8
0
370
              15
  6
Continuous
 62
               7
100
AcDb2dPolyline
 66
               1
 10
0.0
 20
0.0
 30
0.0
 75
               5
  0
VERTEX
  5
C6
100
AcDbEntity
  8
0
370
              15
  6
Continuous
 62
               7
100
AcDbVertex
100
AcDb2dVertex
 10
1070.1852859953808
 20
1068.0122222222226
 30
0.0
  0
VERTEX
  5
C7
100
AcDbEntity
  8
0
370
              15
  6
Continuous
 62
               7
100
AcDbVertex
100
AcDb2dVertex
 10
1070.0607198506164
 20
1068.0366123792182
 30
0.0
  0
VERTEX
  5
C8
100
AcDbEntity
  8
0
370
              15
  6
Continuous
 62
               7
100
AcDbVertex
100
AcDb2dVertex
 10
1069.9483605282342
 20
1068.1073928724982
 30
0.0
  0
VERTEX
  5
C9
100
AcDbEntity
  8
0
370
              15
  6
Continuous
 62
               7
100
AcDbVertex
100
AcDb2dVertex
 10
1069.8592183378164
 20
1068.2176287159473
 30
0.0
  0
VERTEX
  5
CA
100
AcDbEntity
  8
0
370
              15
  6
Continuous
 62
               7
100
AcDbVertex
100
AcDb2dVertex
 10
1069.8020300474341
 20
1068.3565173348443
 30
0.0
  0
VERTEX
  5
CB
100
AcDbEntity
  8
0
370
              15
  6
Continuous
 62
               7
100
AcDbVertex
100
AcDb2dVertex
 10
1069.782400502954
 20
1068.5100000000002
 30
0.0
  0
SEQEND
  5
CC
100
AcDbEntity
  8
0
370
              15
  6
Continuous
 62
               7
  0
LINE
  5
CD
100
AcDbEntity
  8
0
370
              15
  6
Continuous
 62
               7
100
AcDbLine
 10
1069.782400502954
 20
1087.9441102078044
 30
0.0
 11
1095.9699575110608
 21
1087.9441102078044
 31
0.0
  0
LINE
  5
CE
100
AcDbEntity
  8
0
370
              15
  6
Continuous
 62
               7
100
AcDbLine
 10
870.67128939184295
 20
1087.9441102078044
 30
0.0
 11
896.8588463999497
 21
1087.9441102078044
 31
0.0
  0
LINE
  5
CF
100
AcDbEntity
  8
0
370
              15
  6
Continuous
 62
               7
100
AcDbLine
 10
967.63890686864306
 20
1119.9446191356983
 30
0.0
 11
967.973176621834
 21
1120.278888888889
 31
0.0
  0
LINE
  5
D0
100
AcDbEntity
  8
0
370
              15
  6
Continuous
 62
               7
100
AcDbLine
 10
967.64112504320292
 20
1119.9468793302931
 30
0.0
 11
967.6406234514518
 21
1119.9458002151468
 31
0.0
  0
LINE
  5
D1
100
AcDbEntity
  8
0
370
              15
  6
Continuous
 62
               7
100
AcDbLine
 10
955.44506789589627
 20
1126.2522222222224
 30
0.0
 11
955.44506789589627
 21
1120.278888888889
 31
0.0
  0
LINE
  5
D2
100
AcDbEntity
  8
0
370
              15
  6
Continuous
 62
               7
100
AcDbLine
 10
867.58747967625186
 20
1119.7811111111114
 30
0.0
 11
899.94265611554079
 21
1119.7811111111114
 31
0.0
  0
LINE
  5
D3
100
AcDbEntity
  8
0
370
              15
  6
Continuous
 62
               7
100
AcDbLine
 10
955.44511027682074
 20
1120.278888888889
 30
0.0
 11
1011.196136626083
 21
1120.278888888889
 31
0.0
  0
LINE
  5
D4
100
AcDbEntity
  8
0
370
              15
  6
Continuous
 62
               7
100
AcDbLine
 10
855.88951234034084
 20
1120.278888888889
 30
0.0
 11
911.6406234514518
 21
1120.278888888889
 31
0.0
  0
LINE
  5
D5
100
AcDbEntity
  8
0
370
              15
  6
Continuous
 62
               7
100
AcDbLine
 10
1055.0006554535853
 20
1119.2833333333338
 30
0.0
 11
1110.7517025603051
 21
1119.2833333333338
 31
0.0
  0
LINE
  5
D6
100
AcDbEntity
  8
0
370
              15
  6
Continuous
 62
               7
100
AcDbLine
 10
955.44511027682074
 20
1126.2522222222224
 30
0.0
 11
1011.196136626083
 21
1126.2522222222224
 31
0.0
  0
LINE
  5
D7
100
AcDbEntity
  8
0
370
              15
  6
Continuous
 62
               7
100
AcDbLine
 10
855.88951234034084
 20
1126.2522222222224
 30
0.0
 11
911.6406234514518
 21
1126.2522222222224
 31
0.0
  0
LINE
  5
D8
100
AcDbEntity
  8
0
370
              15
  6
Continuous
 62
               7
100
AcDbLine
 10
959.17840122922962
 20
1126.75
 30
0.0
 11
1007.4628456736741
 21
1126.75
 31
0.0
  0
LINE
  5
D9
100
AcDbEntity
  8
0
370
              15
  6
Continuous
 62
               7
100
AcDbLine
 10
1055.0006554535853
 20
1125.2566666666671
 30
0.0
 11
1110.7517025603051
 21
1125.2566666666671
 31
0.0
  0
LINE
  5
DA
100
AcDbEntity
  8
0
370
              15
  6
Continuous
 62
               7
100
AcDbLine
 10
911.6406234514518
 20
1126.2522222222224
 30
0.0
 11
911.6406234514518
 21
1120.278888888889
 31
0.0
  0
LINE
  5
DB
100
AcDbEntity
  8
0
370
              15
  6
Continuous
 62
               7
100
AcDbLine
 10
999.00062342071419
 20
1119.9455220848004
 30
0.0
 11
999.00011097205629
 21
1119.9465708368716
 31
0.0
  0
LINE
  5
DC
100
AcDbEntity
  8
0
370
              15
  6
Continuous
 62
               7
100
AcDbLine
 10
999.00214372476739
 20
1119.9448154451911
 30
0.0
 11
998.66807028106973
 21
1120.278888888889
 31
0.0
  0
LINE
  5
DD
100
AcDbEntity
  8
0
370
              15
  6
Continuous
 62
               7
100
AcDbLine
 10
899.94284567367413
 20
1068.5100000000002
 30
0.0
 11
899.94284567367413
 21
1119.7811111111114
 31
0.0
  0
LINE
  5
DE
100
AcDbEntity
  8
0
370
              15
  6
Continuous
 62
               7
100
AcDbLine
 10
898.6984012292296
 20
1120.278888888889
 30
0.0
 11
898.6984012292296
 21
1119.7811111111114
 31
0.0
  0
LINE
  5
DF
100
AcDbEntity
  8
0
370
              15
  6
Continuous
 62
               7
100
AcDbLine
 10
896.8588463999497
 20
1068.5100000000002
 30
0.0
 11
896.8588463999497
 21
1087.9441102078044
 31
0.0
  0
LINE
  5
E0
100
AcDbEntity
  8
0
370
              15
  6
Continuous
 62
               7
100
AcDbLine
 10
896.45596090752292
 20
1068.0122222222226
 30
0.0
 11
896.45596090752292
 21
1087.9441102078044
 31
0.0
  0
LINE
  5
E1
100
AcDbEntity
  8
0
370
              15
  6
Continuous
 62
               7
100
AcDbLine
 10
871.07417488426972
 20
1087.9441102078044
 30
0.0
 11
871.07417488426972
 21
1068.0122222222226
 31
0.0
  0
LINE
  5
E2
100
AcDbEntity
  8
0
370
              15
  6
Continuous
 62
               7
100
AcDbLine
 10
870.67128939184295
 20
1087.9441102078044
 30
0.0
 11
870.67128939184295
 21
1068.5100000000002
 31
0.0
  0
LINE
  5
E3
100
AcDbEntity
  8
0
370
              15
  6
Continuous
 62
               7
100
AcDbLine
 10
868.83173456256304
 20
1120.278888888889
 30
0.0
 11
868.83173456256304
 21
1119.7811111111114
 31
0.0
  0
LINE
  5
E4
100
AcDbEntity
  8
0
370
              15
  6
Continuous
 62
               7
100
AcDbLine
 10
867.58729011811852
 20
1068.5100000000002
 30
0.0
 11
867.58729011811852
 21
1119.7811111111114
 31
0.0
  0
LINE
  5
E5
100
AcDbEntity
  8
0
370
              15
  6
Continuous
 62
               7
100
AcDbLine
 10
855.88951234034084
 20
1126.2522222222224
 30
0.0
 11
855.88951234034084
 21
1120.278888888889
 31
0.0
  0
LINE
  5
E6
100
AcDbEntity
  8
0
370
              15
  6
Continuous
 62
               7
100
AcDbLine
 10
1432.2042404979147
 20
774.35996426159795
 30
0.0
 11
1432.5017412825364
 21
774.99795675320684
 31
0.0
  0
LINE
  5
E7
100
AcDbEntity
  8
0
370
              15
  6
Continuous
 62
               7
100
AcDbLine
 10
1432.5015151338794
 20
774.9986137689757
 30
0.0
 11
1415.2608775014169
 21
822.36687636097577
 31
0.0
  0
LINE
  5
E8
100
AcDbEntity
  8
0
370
              15
  6
Continuous
 62
               7
100
AcDbLine
 10
1429.1638128182703
 20
773.25333908680682
 30
0.0
 11
1430.3215130011322
 21
770.07258397566022
 31
0.0
  0
LINE
  5
E9
100
AcDbEntity
  8
0
370
              15
  6
Continuous
 62
               7
100
AcDbLine
 10
1409.1451402447592
 20
761.30556652915357
 30
0.0
 11
1429.7264968457548
 21
768.79656771270902
 31
0.0
  0
LINE
  5
EA
100
AcDbEntity
  8
0
370
              15
  6
Continuous
 62
               7
100
AcDbLine
 10
1407.8691239818081
 20
761.90058268453129
 30
0.0
 11
1430.3215130011322
 21
770.07258397566022
 31
0.0
  0
LINE
  5
EB
100
AcDbEntity
  8
0
370
              15
  6
Continuous
 62
               7
100
AcDbLine
 10
1432.2042404979147
 20
774.35996426159795
 30
0.0
 11
1403.6709961191773
 21
763.97471262076238
 31
0.0
  0
LINE
  5
EC
100
AcDbEntity
  8
0
370
              15
  6
Continuous
 62
               7
100
AcDbLine
 10
1406.7114237989454
 20
765.08133779555351
 30
0.0
 11
1407.8691239818081
 21
761.90058268453129
 31
0.0
  0
LINE
  5
ED
100
AcDbEntity
  8
0
370
              15
  6
Continuous
 62
               7
100
AcDbLine
 10
1403.0327545460386
 20
764.27286207429131
 30
0.0
 11
1391.984632541772
 21
794.62732780817578
 31
0.0
  0
LINE
  5
EE
100
AcDbEntity
  8
0
370
              15
  6
Continuous
 62
               7
100
AcDbLine
 10
1291.1154545773461
 20
856.23736965077137
 30
0.0
 11
1297.0887879106795
 21
856.23736965077137
 31
0.0
  0
POLYLINE
  5
EF
100
AcDbEntity
  8
0
370
              15
  6
Continuous
 62
               7
100
AcDb2dPolyline
 66
               1
 10
0.0
 20
0.0
 30
0.0
 75
               5
  0
VERTEX
  5
F0
100
AcDbEntity
  8
0
370
              15
  6
Continuous
 62
               7
100
AcDbVertex
100
AcDb2dVertex
 10
1349.3554545773459
 20
837.57070298410463
 30
0.0
  0
VERTEX
  5
F1
100
AcDbEntity
  8
0
370
              15
  6
Continuous
 62
               7
100
AcDbVertex
100
AcDb2dVertex
 10
1349.3310644203502
 20
837.66109187838015
 30
0.0
  0
VERTEX
  5
F2
100
AcDbEntity
  8
0
370
              15
  6
Continuous
 62
               7
100
AcDbVertex
100
AcDb2dVertex
 10
1349.2602839270703
 20
837.74262313978465
 30
0.0
  0
VERTEX
  5
F3
100
AcDbEntity
  8
0
370
              15
  6
Continuous
 62
               7
100
AcDbVertex
100
AcDb2dVertex
 10
1349.1500480836212
 20
837.80730736069131
 30
0.0
  0
VERTEX
  5
F4
100
AcDbEntity
  8
0
370
              15
  6
Continuous
 62
               7
100
AcDbVertex
100
AcDb2dVertex
 10
1349.0111594647233
 20
837.84880488264685
 30
0.0
  0
VERTEX
  5
F5
100
AcDbEntity
  8
0
370
              15
  6
Continuous
 62
               7
100
AcDbVertex
100
AcDb2dVertex
 10
1348.8576767995683
 20
837.86304866321575
 30
0.0
  0
SEQEND
  5
F6
100
AcDbEntity
  8
0
370
              15
  6
Continuous
 62
               7
  0
LINE
  5
F7
100
AcDbEntity
  8
0
370
              15
  6
Continuous
 62
               7
100
AcDbLine
 10
1322.9524554806521
 20
844.53959187299347
 30
0.0
 11
1297.5865656884571
 21
844.53959187299347
 31
0.0
  0
LINE
  5
F8
100
AcDbEntity
  8
0
370
              15
  6
Continuous
 62
               7
100
AcDbLine
 10
1297.0887879106795
 20
843.29514742854906
 30
0.0
 11
1297.5865656884571
 21
843.29514742854906
 31
0.0
  0
LINE
  5
F9
100
AcDbEntity
  8
0
370
              15
  6
Continuous
 62
               7
100
AcDbLine
 10
1297.5865656884571
 20
844.12694607461128
 30
0.0
 11
1297.5184786434793
 21
844.13895165763347
 31
0.0
  0
LINE
  5
FA
100
AcDbEntity
  8
0
370
              15
  6
Continuous
 62
               7
100
AcDbLine
 10
1331.9458298709633
 20
838.06848076188248
 30
0.0
 11
1326.0781680154614
 21
839.10310786078014
 31
0.0
  0
LINE
  5
FB
100
AcDbEntity
  8
0
370
              15
  6
Continuous
 62
               7
100
AcDbLine
 10
1413.73559789923
 20
823.64673791270911
 30
0.0
 11
1349.3554545773459
 21
834.99869420216692
 31
0.0
  0
LINE
  5
FC
100
AcDbEntity
  8
0
370
              15
  6
Continuous
 62
               7
100
AcDbLine
 10
1329.4235665917631
 20
838.06848076188248
 30
0.0
 11
1348.8576767995683
 21
838.06848076188248
 31
0.0
  0
LINE
  5
FD
100
AcDbEntity
  8
0
370
              15
  6
Continuous
 62
               7
100
AcDbLine
 10
1329.4235665917631
 20
837.86304866321575
 30
0.0
 11
1348.8576767995683
 21
837.86304866321575
 31
0.0
  0
LINE
  5
FE
100
AcDbEntity
  8
0
370
              15
  6
Continuous
 62
               7
100
AcDbLine
 10
1349.3554545773459
 20
812.68181409521571
 30
0.0
 11
1349.3554545773459
 21
837.57070298410463
 31
0.0
  0
LINE
  5
FF
100
AcDbEntity
  8
0
370
              15
  6
Continuous
 62
               7
100
AcDbLine
 10
1348.8576767995683
 20
838.06848076188248
 30
0.0
 11
1348.8576767995683
 21
812.18403631743786
 31
0.0
  0
LINE
  5
100
100
AcDbEntity
  8
0
370
              15
  6
Continuous
 62
               7
100
AcDbLine
 10
1297.0887879106795
 20
813.42848076188238
 30
0.0
 11
1297.5865656884571
 21
813.42848076188238
 31
0.0
  0
LINE
  5
101
100
AcDbEntity
  8
0
370
              15
  6
Continuous
 62
               7
100
AcDbLine
 10
1348.8576767995683
 20
812.18403631743786
 30
0.0
 11
1297.5865656884571
 21
812.18403631743786
 31
0.0
  0
LINE
  5
102
100
AcDbEntity
  8
0
370
              15
  6
Continuous
 62
               7
100
AcDbLine
 10
1329.4235665917631
 20
838.06848076188248
 30
0.0
 11
1329.4235665917631
 21
837.86304866321575
 31
0.0
  0
LINE
  5
103
100
AcDbEntity
  8
0
370
              15
  6
Continuous
 62
               7
100
AcDbLine
 10
1403.6709961191773
 20
763.97471262076238
 30
0.0
 11
1403.0330002900928
 21
764.27221496168681
 31
0.0
  0
LINE
  5
104
100
AcDbEntity
  8
0
370
              15
  6
Continuous
 62
               7
100
AcDbLine
 10
1305.5195416223232
 20
810.88436983134011
 30
0.0
 11
1298.1487667082256
 21
812.18403631743786
 31
0.0
  0
LINE
  5
105
100
AcDbEntity
  8
0
370
              15
  6
Continuous
 62
               7
100
AcDbLine
 10
1390.4593529394615
 20
795.90718935990913
 30
0.0
 11
1311.6393424181815
 21
809.80528383454021
 31
0.0
  0
LINE
  5
106
100
AcDbEntity
  8
0
370
              15
  6
Continuous
 62
               7
100
AcDbLine
 10
1291.1154545773461
 20
800.48625853966018
 30
0.0
 11
1297.0887879106795
 21
800.48625853966018
 31
0.0
  0
LINE
  5
107
100
AcDbEntity
  8
0
370
              15
  6
Continuous
 62
               7
100
AcDbLine
 10
1297.5865656884571
 20
812.51658948794466
 30
0.0
 11
1297.0887879106795
 21
813.01436726572251
 31
0.0
  0
LINE
  5
108
100
AcDbEntity
  8
0
370
              15
  6
Continuous
 62
               7
100
AcDbLine
 10
1297.5865656884571
 20
812.18403631743786
 30
0.0
 11
1297.5865656884571
 21
844.53959187299347
 31
0.0
  0
LINE
  5
109
100
AcDbEntity
  8
0
370
              15
  6
Continuous
 62
               7
100
AcDbLine
 10
1297.0887879106795
 20
856.23736965077137
 30
0.0
 11
1297.0887879106795
 21
800.48625853966018
 31
0.0
  0
LINE
  5
10A
100
AcDbEntity
  8
0
370
              15
  6
Continuous
 62
               7
100
AcDbLine
 10
1291.1154545773461
 20
856.23736965077137
 30
0.0
 11
1291.1154545773461
 21
800.48625853966018
 31
0.0
  0
LINE
  5
10B
100
AcDbEntity
  8
0
370
              15
  6
Continuous
 62
               7
100
AcDbLine
 10
1297.5184786434793
 20
844.13895165763347
 30
0.0
 11
1297.0887879106795
 21
843.70926092483353
 31
0.0
  0
ARC
  5
10C
100
AcDbEntity
  8
一般
370
              15
  6
Continuous
 62
               7
100
AcDbCircle
 10
983.32062345145187
 20
840.99660922096325
 30
0.0
 40
27.999999999999993
100
AcDbArc
 50
304.41956200948067
 51
235.54356075461544
  0
LWPOLYLINE
  5
10D
100
AcDbEntity
  8
一般
370
              15
  6
Continuous
 62
               7
100
AcDbPolyline
 90
        5
 70
             128
 10
999.16600787102698
 20
822.37221114808926
 10
999.32062345145187
 20
840.99660922096325
 42
0.414213562373095
 10
983.32062345145187
 20
856.99660922096325
 42
0.414213562373095
 10
967.32062345145187
 20
840.99660922096325
 10
967.32062345145187
 20
820.15324922591537
  0
LWPOLYLINE
  5
10E
100
AcDbEntity
  8
一般
370
              15
  6
Continuous
 62
               7
100
AcDbPolyline
 90
        3
 70
             128
 10
999.14758654625734
 20
822.49999999999932
 42
0.3717272651759286
 10
983.32062345145187
 20
836.15324922591537
 42
0.414213562373095
 10
967.32062345145187
 20
820.15324922591537
 42
0.414213562373095
  0
LWPOLYLINE
  5
10F
100
AcDbEntity
  8
一般
370
              15
  6
Continuous
 62
               7
100
AcDbPolyline
 90
        4
 70
             128
 10
967.66815370326026
 20
782.38475739331716
 10
967.57062345145187
 20
782.38475739331716
 10
967.57062345145187
 20
817.33589230851942
 42
-0.0442808294001105
 10
967.32062345145187
 20
820.15324922591526
 42
-0.0442808294001105
  0
LWPOLYLINE
  5
110
100
AcDbEntity
  8
一般
370
              15
  6
Continuous
 62
               7
100
AcDbPolyline
 90
        4
 70
             128
 10
999.07014737315944
 20
782.38475739331716
 10
999.32062345145187
 20
782.38475739331716
 10
999.32062345145187
 20
820.15324922591537
 42
0.036817363058875
 10
999.14758654625734
 20
822.49999999999932
 42
0.036817363058875
  0
SPLINE
  5
111
100
AcDbEntity
  8
一般
370
              15
  6
Continuous
 62
               7
100
AcDbSpline
210
0.0
220
0.0
230
1.0
 70
               8
 71
               2
 72
              17
 73
              14
 74
               0
 42
0.000001
 43
0.000001
 40
0.0
 40
0.0
 40
0.0
 40
1.0
 40
1.0
 40
2.0
 40
3.0
 40
4.0
 40
5.0
 40
6.0
 40
7.0
 40
8.0
 40
9.0
 40
9.0
 40
10.0
 40
10.0
 40
10.0
 10
971.82238364471618
 20
778.75823870193608
 30
0.0
 10
970.60376237201126
 20
779.19676516237405
 30
0.0
 10
969.68072334184694
 20
779.73475739331718
 30
0.0
 10
967.57062345145187
 20
780.96462667343224
 30
0.0
 10
967.57062345145187
 20
783.8048881132022
 30
0.0
 10
971.79082323224202
 20
786.2646266734323
 30
0.0
 10
979.10042367066171
 20
787.68475739331723
 30
0.0
 10
987.54082323224202
 20
787.68475739331723
 30
0.0
 10
994.85042367066171
 20
786.2646266734323
 30
0.0
 10
999.07062345145187
 20
783.8048881132022
 30
0.0
 10
999.07062345145187
 20
780.96462667343224
 30
0.0
 10
996.96052356105679
 20
779.73475739331718
 30
0.0
 10
996.03749561698555
 20
779.19677162389075
 30
0.0
 10
994.81889253047052
 20
778.75824923573123
 30
0.0
  0
SPLINE
  5
112
100
AcDbEntity
  8
一般
370
              15
  6
Continuous
 62
               7
100
AcDbSpline
210
0.0
220
0.0
230
1.0
 70
               8
 71
               2
 72
              29
 73
              26
 74
               0
 42
0.000001
 43
0.000001
 40
0.0
 40
0.0
 40
0.0
 40
1.0
 40
1.0
 40
2.0
 40
2.0
 40
3.0
 40
3.0
 40
4.0
 40
4.0
 40
5.0
 40
5.0
 40
6.0
 40
7.0
 40
8.0
 40
9.0
 40
9.0
 40
10.0
 40
10.0
 40
11.0
 40
11.0
 40
12.0
 40
12.0
 40
13.0
 40
13.0
 40
14.0
 40
14.0
 40
14.0
 10
971.82144140678724
 20
778.64128971979096
 30
0.0
 10
971.82103242911955
 20
778.64128971979096
 30
0.0
 10
971.82062345145187
 20
778.64128971979096
 30
0.0
 10
971.82062345145187
 20
780.69128971979092
 30
0.0
 10
971.82062345145187
 20
782.74128971979087
 30
0.0
 10
971.82062345145187
 20
782.76312673279858
 30
0.0
 10
971.82062345145187
 20
782.78496374580618
 30
0.0
 10
971.82091731815422
 20
782.78496374580618
 30
0.0
 10
971.82121118485657
 20
782.78496374580618
 30
0.0
 10
971.84972793340251
 20
783.85785382702056
 30
0.0
 10
973.36133130793087
 20
784.79128971979094
 30
0.0
 10
974.90203916440976
 20
785.74269803082336
 30
0.0
 10
980.23920773849397
 20
786.84128971979089
 30
0.0
 10
986.40203916440976
 20
786.84128971979089
 30
0.0
 10
991.73920773849397
 20
785.74269803082336
 30
0.0
 10
993.27991559497286
 20
784.79128971979094
 30
0.0
 10
994.78839578863949
 20
783.85978243419686
 30
0.0
 10
994.82000596404362
 20
782.78496374580618
 30
0.0
 10
994.82031470774768
 20
782.78496374580618
 30
0.0
 10
994.82062345145187
 20
782.78496374580618
 30
0.0
 10
994.82062345145187
 20
782.76312673279858
 30
0.0
 10
994.82062345145187
 20
782.74128971979087
 30
0.0
 10
994.82062345145187
 20
780.69128971979092
 30
0.0
 10
994.82062345145187
 20
778.64128971979096
 30
0.0
 10
994.82028105235281
 20
778.64128971979096
 30
0.0
 10
994.81993865325387
 20
778.64128971979096
 30
0.0
  0
SPLINE
  5
113
100
AcDbEntity
  8
一般
370
              15
  6
Continuous
 62
               7
100
AcDbSpline
210
0.0
220
0.0
230
1.0
 70
               9
 71
               2
 72
              17
 73
              14
 74
               0
 42
0.000001
 43
0.000001
 40
0.0
 40
0.0
 40
0.0
 40
1.0
 40
2.0
 40
3.0
 40
4.0
 40
5.0
 40
6.0
 40
7.0
 40
8.0
 40
9.0
 40
10.0
 40
11.0
 40
12.0
 40
12.0
 40
12.0
 10
977.57062345145187
 20
782.23566790132236
 30
0.0
 10
980.23920773849397
 20
782.78496374580618
 30
0.0
 10
986.40203916440976
 20
782.78496374580618
 30
0.0
 10
991.73920773849397
 20
781.68637205683854
 30
0.0
 10
994.82062345145187
 20
779.7835554347738
 30
0.0
 10
994.82062345145187
 20
777.58637205683863
 30
0.0
 10
991.73920773849397
 20
775.68355543477378
 30
0.0
 10
986.40203916440976
 20
774.58496374580625
 30
0.0
 10
980.23920773849397
 20
774.58496374580625
 30
0.0
 10
974.90203916440976
 20
775.68355543477378
 30
0.0
 10
971.82062345145187
 20
777.58637205683863
 30
0.0
 10
971.82062345145187
 20
779.7835554347738
 30
0.0
 10
974.90203916440976
 20
781.68637205683854
 30
0.0
 10
977.57062345145187
 20
782.23566790132236
 30
0.0
  0
LINE
  5
114
100
AcDbEntity
  8
一般
370
               5
  6
Continuous
 62
               7
100
AcDbLine
 10
1011.196136626083
 20
1126.2522222222224
 30
0.0
 11
1011.196136626083
 21
1120.278888888889
 31
0.0
  0
ENDSEC
  0
SECTION
  2
OBJECTS
  0
DICTIONARY
  5
19
100
AcDbDictionary
280
               0
281
               1
  3
ACAD_GROUP
350
1A
  3
ACAD_MLINESTYLE
350
1B
  3
ACAD_LAYOUT
350
1E
  3
ACAD_PLOTSETTINGS
350
22
  3
ACAD_PLOTSTYLENAME
350
1F
  3
ACAD_WIPEOUT_VARS
350
23
  0
DICTIONARY
  5
1A
102
{ACAD_REACTORS
330
19
102
}
100
AcDbDictionary
280
               0
281
               1
  0
DICTIONARY
  5
1B
102
{ACAD_REACTORS
330
19
102
}
100
AcDbDictionary
280
               0
281
               1
  3
Standard
350
1C
  0
MLINESTYLE
  5
1C
102
{ACAD_REACTORS
330
1B
102
}
100
AcDbMlineStyle
  2
Standard
 70
               0
  3

 62
               0
 51
90.0
 52
90.0
 71
               2
 49
0.5
 62
             256
  6
ByLayer
 49
-0.5
 62
             256
  6
ByLayer
  0
ACDBDICTIONARYWDFLT
  5
1F
102
{ACAD_REACTORS
330
19
102
}
100
AcDbDictionary
281
               1
  3
Normal
350
1D
100
AcDbDictionaryWithDefault
340
1D
  0
ACDBPLACEHOLDER
  5
1D
102
{ACAD_REACTORS
330
1F
102
}
  0
LAYOUT
  5
20
102
{ACAD_REACTORS
330
1E
102
}
100
AcDbPlotSettings
  1

  2

  4

  6

 40
0.0
 41
0.0
 42
0.0
 43
0.0
 44
0.0
 45
0.0
 46
0.0
 47
0.0
 48
0.0
 49
0.0
140
0.0
141
0.0
142
1.0
143
1.0
 70
            1024
 72
               0
 73
               0
 74
               0
  7

 75
               0
147
1.0
148
0.0
149
0.0
100
AcDbLayout
  1
Model
 70
               0
 71
               0
 10
0.0
 20
0.0
 11
0.0
 21
0.0
 12
0.0
 22
0.0
 32
0.0
 14
0.0
 24
0.0
 34
0.0
 15
0.0
 25
0.0
 35
0.0
146
0.0
 13
0.0
 23
0.0
 33
0.0
 16
0.0
 26
0.0
 36
0.0
 17
0.0
 27
0.0
 37
0.0
 76
               0
330
A
331
0
345
0
346
0
  0
LAYOUT
  5
21
102
{ACAD_REACTORS
330
1E
102
}
100
AcDbPlotSettings
  1

  2

  4

  6

 40
0.0
 41
0.0
 42
0.0
 43
0.0
 44
0.0
 45
0.0
 46
0.0
 47
0.0
 48
0.0
 49
0.0
140
0.0
141
0.0
142
1.0
143
1.0
 70
               0
 72
               0
 73
               0
 74
               0
  7

 75
               0
147
1.0
148
0.0
149
0.0
100
AcDbLayout
  1
Layout1
 70
               0
 71
               0
 10
0.0
 20
0.0
 11
0.0
 21
0.0
 12
0.0
 22
0.0
 32
0.0
 14
0.0
 24
0.0
 34
0.0
 15
0.0
 25
0.0
 35
0.0
146
0.0
 13
0.0
 23
0.0
 33
0.0
 16
0.0
 26
0.0
 36
0.0
 17
0.0
 27
0.0
 37
0.0
 76
               0
330
B
331
0
345
0
346
0
  0
DICTIONARY
  5
1E
102
{ACAD_REACTORS
330
19
102
}
100
AcDbDictionary
280
               0
281
               1
  3
Layout1
350
21
  3
Model
350
20
  0
DICTIONARY
  5
22
102
{ACAD_REACTORS
330
19
102
}
100
AcDbDictionary
280
               0
281
               1
  0
WIPEOUTVARIABLES
  5
23
100
AcDbWipeoutVariables
 70
               0
  0
ENDSEC
  0
EOF
