  0
SECTION
  2
HEADER
  9
$ACADVER
  1
AC1015
  9
$ACADMAINTVER
 70
               6
  9
$DWGCODEPAGE
  3
ANSI_932
  9
$INSBASE
 10
0.0
 20
0.0
 30
0.0
  9
$EXTMIN
 10
1122.9307806183469
 20
642.92893218813447
 30
-7.4083333333333323
  9
$EXTMAX
 10
1836.3324811575601
 20
1409.8394120770147
 30
7.4083333333333323
  9
$LIMMIN
 10
0.0
 20
0.0
  9
$LIMMAX
 10
0.0
 20
0.0
  9
$ORTHOMODE
 70
               0
  9
$REGENMODE
 70
               1
  9
$FILLMODE
 70
               1
  9
$QTEXTMODE
 70
               0
  9
$MIRRTEXT
 70
               1
  9
$LTSCALE
 40
25.399999999999999
  9
$ATTMODE
 70
               1
  9
$TEXTSIZE
 40
0.2
  9
$TRACEWID
 40
1.0
  9
$TEXTSTYLE
  7
Standard
  9
$CLAYER
  8
一般
  9
$CELTYPE
  6
Continuous
  9
$CECOLOR
 62
             256
  9
$CELTSCALE
 40
1.0
  9
$DISPSILH
 70
               0
  9
$DIMSCALE
 40
1.0
  9
$DIMASZ
 40
0.18
  9
$DIMEXO
 40
0.0625
  9
$DIMDLI
 40
0.38
  9
$DIMRND
 40
0.0
  9
$DIMDLE
 40
0.0
  9
$DIMEXE
 40
0.18
  9
$DIMTP
 40
0.0
  9
$DIMTM
 40
0.0
  9
$DIMTXT
 40
0.18
  9
$DIMCEN
 40
0.09
  9
$DIMTSZ
 40
0.0
  9
$DIMTOL
 70
               0
  9
$DIMLIM
 70
               0
  9
$DIMTIH
 70
               1
  9
$DIMTOH
 70
               1
  9
$DIMSE1
 70
               0
  9
$DIMSE2
 70
               0
  9
$DIMTAD
 70
               0
  9
$DIMZIN
 70
               0
  9
$DIMBLK
  1

  9
$DIMASO
 70
               1
  9
$DIMSHO
 70
               1
  9
$DIMPOST
  1

  9
$DIMAPOST
  1

  9
$DIMALT
 70
               0
  9
$DIMALTD
 70
               2
  9
$DIMALTF
 40
25.399999999999999
  9
$DIMLFAC
 40
1.0
  9
$DIMTOFL
 70
               0
  9
$DIMTVP
 40
0.0
  9
$DIMTIX
 70
               0
  9
$DIMSOXD
 70
               0
  9
$DIMSAH
 70
               0
  9
$DIMBLK1
  1

  9
$DIMBLK2
  1

  9
$DIMSTYLE
  2
Standard
  9
$DIMCLRD
 70
               0
  9
$DIMCLRE
 70
               0
  9
$DIMCLRT
 70
               0
  9
$DIMTFAC
 40
1.0
  9
$DIMGAP
 40
0.09
  9
$DIMJUST
 70
               0
  9
$DIMSD1
 70
               0
  9
$DIMSD2
 70
               0
  9
$DIMTOLJ
 70
               1
  9
$DIMTZIN
 70
               0
  9
$DIMALTZ
 70
               0
  9
$DIMALTTZ
 70
               0
  9
$DIMUPT
 70
               0
  9
$DIMDEC
 70
               4
  9
$DIMTDEC
 70
               4
  9
$DIMALTU
 70
               2
  9
$DIMALTTD
 70
               2
  9
$DIMTXSTY
  7
Standard
  9
$DIMAUNIT
 70
               0
  9
$DIMADEC
 70
               0
  9
$DIMALTRND
 40
0.0
  9
$DIMAZIN
 70
               0
  9
$DIMDSEP
 70
               0
  9
$DIMATFIT
 70
               3
  9
$DIMFRAC
 70
               0
  9
$DIMLDRBLK
  1

  9
$DIMLUNIT
 70
               2
  9
$DIMLWD
 70
               0
  9
$DIMLWE
 70
               0
  9
$DIMTMOVE
 70
               0
  9
$LUNITS
 70
               2
  9
$LUPREC
 70
               4
  9
$SKETCHINC
 40
0.1
  9
$FILLETRAD
 40
0.0
  9
$AUNITS
 70
               0
  9
$AUPREC
 70
               0
  9
$MENU
  1
acad
  9
$ELEVATION
 40
0.0
  9
$PELEVATION
 40
0.0
  9
$THICKNESS
 40
0.0
  9
$LIMCHECK
 70
               0
  9
$CHAMFERA
 40
0.0
  9
$CHAMFERB
 40
0.0
  9
$CHAMFERC
 40
0.0
  9
$CHAMFERD
 40
0.0
  9
$SKPOLY
 70
               0
  9
$TDCREATE
 40
2455119.811354167
  9
$TDUCREATE
 40
0.000000000
  9
$TDUPDATE
 40
2455119.811354167
  9
$TDUUPDATE
 40
0.000000000
  9
$TDINDWG
 40
0.0000000000
  9
$TDUSRTIMER
 40
0.0000000000
  9
$USRTIMER
 70
               1
  9
$ANGBASE
 50
0.0
  9
$ANGDIR
 70
               0
  9
$PDMODE
 70
               1
  9
$PDSIZE
 40
-2.0
  9
$PLINEWID
 40
0.0
  9
$SPLFRAME
 70
               0
  9
$SPLINETYPE
 70
               6
  9
$SPLINESEGS
 70
               8
  9
$HANDSEED
  5
1E9
  9
$SURFTAB1
 70
               6
  9
$SURFTAB2
 70
               6
  9
$SURFTYPE
 70
               6
  9
$SURFU
 70
               6
  9
$SURFV
 70
               6
  9
$UCSBASE
  2

  9
$UCSNAME
  2

  9
$UCSORG
 10
0.0
 20
0.0
 30
0.0
  9
$UCSXDIR
 10
1.0
 20
0.0
 30
0.0
  9
$UCSYDIR
 10
0.0
 20
1.0
 30
0.0
  9
$UCSORTHOREF
  2

  9
$UCSORTHOVIEW
 70
               0
  9
$UCSORGTOP
 10
0.0
 20
0.0
 30
0.0
  9
$UCSORGBOTTOM
 10
0.0
 20
0.0
 30
0.0
  9
$UCSORGLEFT
 10
0.0
 20
0.0
 30
0.0
  9
$UCSORGRIGHT
 10
0.0
 20
0.0
 30
0.0
  9
$UCSORGFRONT
 10
0.0
 20
0.0
 30
0.0
  9
$UCSORGBACK
 10
0.0
 20
0.0
 30
0.0
  9
$PUCSBASE
  2

  9
$PUCSNAME
  2

  9
$PUCSORG
 10
0.0
 20
0.0
 30
0.0
  9
$PUCSXDIR
 10
1.0
 20
0.0
 30
0.0
  9
$PUCSYDIR
 10
0.0
 20
1.0
 30
0.0
  9
$PUCSORTHOREF
  2

  9
$PUCSORTHOVIEW
 70
               0
  9
$PUCSORGTOP
 10
0.0
 20
0.0
 30
0.0
  9
$PUCSORGBOTTOM
 10
0.0
 20
0.0
 30
0.0
  9
$PUCSORGLEFT
 10
0.0
 20
0.0
 30
0.0
  9
$PUCSORGRIGHT
 10
0.0
 20
0.0
 30
0.0
  9
$PUCSORGFRONT
 10
0.0
 20
0.0
 30
0.0
  9
$PUCSORGBACK
 10
0.0
 20
0.0
 30
0.0
  9
$USERI1
 70
               0
  9
$USERI2
 70
               0
  9
$USERI3
 70
               0
  9
$USERI4
 70
               0
  9
$USERI5
 70
               0
  9
$USERR1
 40
0.0
  9
$USERR2
 40
0.0
  9
$USERR3
 40
0.0
  9
$USERR4
 40
0.0
  9
$USERR5
 40
0.0
  9
$WORLDVIEW
 70
               1
  9
$SHADEDGE
 70
               3
  9
$SHADEDIF
 70
              70
  9
$TILEMODE
 70
               1
  9
$MAXACTVP
 70
              64
  9
$PINSBASE
 10
0.0
 20
0.0
 30
0.0
  9
$PLIMCHECK
 70
               0
  9
$PEXTMIN
 10
1.0000000000000000E+20
 20
1.0000000000000000E+20
 30
1.0000000000000000E+20
  9
$PEXTMAX
 10
-1.0000000000000000E+20
 20
-1.0000000000000000E+20
 30
-1.0000000000000000E+20
  9
$PLIMMIN
 10
0.0
 20
0.0
  9
$PLIMMAX
 10
12.0
 20
9.0
  9
$UNITMODE
 70
               0
  9
$VISRETAIN
 70
               0
  9
$PLINEGEN
 70
               1
  9
$PSLTSCALE
 70
               0
  9
$TREEDEPTH
 70
            3020
  9
$CMLSTYLE
  2
Standard
  9
$CMLJUST
 70
               0
  9
$CMLSCALE
 40
1.0
  9
$PROXYGRAPHICS
 70
               0
  9
$MEASUREMENT
 70
               1
  9
$CELWEIGHT
370
               0
  9
$ENDCAPS
280
               0
  9
$JOINSTYLE
280
               0
  9
$LWDISPLAY
290
               1
  9
$INSUNITS
 70
               4
  9
$HYPERLINKBASE
  1

  9
$STYLESHEET
  1

  9
$XEDIT
290
               1
  9
$CEPSNTYPE
380
               0
  9
$PSTYLEMODE
290
               1
  9
$FINGERPRINTGUID
  2

  9
$VERSIONGUID
  2

  9
$EXTNAMES
290
               1
  9
$PSVPSCALE
 40
0.0
  0
ENDSEC
  0
SECTION
  2
CLASSES
  0
CLASS
  1
LWPOLYLINE
  2
AcDbPolyline
  3
AutoCAD 2000
 90
        0
280
               0
281
               1
  0
CLASS
  1
IMAGE
  2
AcDbRasterImage
  3
ISM
 90
    32895
280
               0
281
               1
  0
CLASS
  1
OLE2FRAME
  2
AcDbOle2Frame
  3
AutoCAD 2000
 90
    32768
280
               0
281
               1
  0
CLASS
  1
HATCH
  2
AcDbHatch
  3
AutoCAD 2000
 90
    32768
280
               0
281
               1
  0
CLASS
  1
DICTIONARYVAR
  2
AcDbDictionaryVar
  3
AutoCAD 2000
 90
    32768
280
               0
281
               0
  0
CLASS
  1
RASTERVARIABLES
  2
AcDbRasterVariables
  3
ISM
 90
    32768
280
               0
281
               0
  0
CLASS
  1
IMAGEDEF
  2
AcDbRasterImageDef
  3
ISM
 90
    32768
280
               0
281
               0
  0
CLASS
  1
IMAGEDEF_REACTOR
  2
AcDbRasterImageDefReactor
  3
ISM
 90
    32769
280
               0
281
               0
  0
CLASS
  1
IDBUFFER
  2
AcDbIdBuffer
  3
AutoCAD 2000
 90
    32768
280
               0
281
               0
  0
CLASS
  1
SPATIAL_FILTER
  2
AcDbSpatialFilter
  3
AutoCAD 2000
 90
    32768
280
               0
281
               0
  0
CLASS
  1
XRECORD
  2
AcDbXrecord
  3
AutoCAD 2000
 90
    32768
280
               0
281
               0
  0
CLASS
  1
SORTENTSTABLE
  2
AcDbSortentsTable
  3
AutoCAD 2000
 90
    32768
280
               0
281
               0
  0
CLASS
  1
LAYER_INDEX
  2
AcDbLayerIndex
  3
AutoCAD 2000
 90
    32768
280
               0
281
               0
  0
CLASS
  1
SPATIAL_INDEX
  2
AcDbSpatialIndex
  3
AutoCAD 2000
 90
    32768
280
               0
281
               0
  0
CLASS
  1
OBJECT_PTR
  2
CAseDLPNTableRecord
  3
"ASE-LPNTableRecord"
 90
    32769
280
               0
281
               0
  0
CLASS
  1
LAYOUT
  2
AcDbLayout
  3
AutoCAD 2000
 90
        0
280
               0
281
               0
  0
CLASS
  1
PLOTSETTINGS
  2
AcDbPlotSettings
  3
AutoCAD 2000
 90
    32768
280
               0
281
               0
  0
CLASS
  1
ACDBDICTIONARYWDFLT
  2
AcDbDictionaryWithDefault
  3
AutoCAD 2000
 90
        0
280
               0
281
               0
  0
CLASS
  1
ACDBPLACEHOLDER
  2
AcDbPlaceHolder
  3
AutoCAD 2000
 90
        0
280
               0
281
               0
  0
CLASS
  1
VBA_PROJECT
  2
AcDbVbaProject
  3
acadvba
 90
    32768
280
               0
281
               0
  0
CLASS
  1
WIPEOUT
  2
AcDbWipeout
  3
WipeOut|AutoCAD Express Tool|expresstools@autodesk.com
 90
    32895
280
               0
281
               1
  0
CLASS
  1
WIPEOUTVARIABLES
  2
AcDbWipeoutVariables
  3
WipeOut|AutoCAD Express Tool|expresstools@autodesk.com
 90
        0
280
               0
281
               0
  0
CLASS
  1
RTEXT
  2
RText
  3
RText|AutoCAD Express Tool|expresstools@autodesk.com
 90
    32768
280
               0
281
               1
  0
CLASS
  1
ARCALIGNEDTEXT
  2
AcDbArcAlignedText
  3
ATEXT|AutoCAD Express Tool|expresstools@autodesk.com
 90
    32768
280
               0
281
               1
  0
ENDSEC
  0
SECTION
  2
TABLES
  0
TABLE
  2
VPORT
  5
7
100
AcDbSymbolTable
 70
               1
  0
VPORT
  5
15
100
AcDbSymbolTableRecord
100
AcDbViewportTableRecord
  2
*ACTIVE
 70
               0
 10
0.0
 20
0.0
 11
1.0
 21
1.0
 12
1479.6316308879536
 22
1026.3841721325746
 13
0.0
 23
0.0
 14
1.0
 24
1.0
 15
0.0
 25
0.0
 16
0.0
 26
0.0
 36
1.0
 17
0.0
 27
0.0
 37
0.0
 40
766.91047988888022
 41
0.688564
 42
50.0
 43
0.0
 44
0.0
 50
0.0
 51
0.0
 71
               0
 72
            2000
 73
               1
 74
               1
 75
               0
 76
               0
 77
               0
 78
               0
281
               0
 65
               0
110
0.0
120
0.0
130
0.0
111
1.0
121
0.0
131
0.0
112
0.0
122
1.0
132
0.0
345
0
346
0
 79
               0
146
0.0
  0
ENDTAB
  0
TABLE
  2
LTYPE
  5
4
100
AcDbSymbolTable
 70
              13
  0
LTYPE
  5
11
100
AcDbSymbolTableRecord
100
AcDbLinetypeTableRecord
  2
ByBlock
 70
              64
  3

 72
              65
 73
               0
 40
0.0
  0
LTYPE
  5
12
100
AcDbSymbolTableRecord
100
AcDbLinetypeTableRecord
  2
ByLayer
 70
              64
  3

 72
              65
 73
               0
 40
0.0
  0
LTYPE
  5
13
100
AcDbSymbolTableRecord
100
AcDbLinetypeTableRecord
  2
Continuous
 70
              64
  3
Solid line
 72
              65
 73
               0
 40
0.0
  0
LTYPE
  5
2B
100
AcDbSymbolTableRecord
100
AcDbLinetypeTableRecord
  2
STYLE_01
 70
               0
  3

 72
              65
 73
               2
 40
0.41664
 49
0.20828
 74
               0
 49
-0.20836
 74
               0
  0
LTYPE
  5
2C
100
AcDbSymbolTableRecord
100
AcDbLinetypeTableRecord
  2
STYLE_02
 70
               0
  3

 72
              65
 73
               2
 40
0.6944250000000001
 49
0.48607
 74
               0
 49
-0.2083550000000001
 74
               0
  0
LTYPE
  5
2D
100
AcDbSymbolTableRecord
100
AcDbLinetypeTableRecord
  2
STYLE_03
 70
               0
  3

 72
              65
 73
               2
 40
1.25
 49
1.0416400000000001
 74
               0
 49
-0.2083599999999999
 74
               0
  0
LTYPE
  5
2E
100
AcDbSymbolTableRecord
100
AcDbLinetypeTableRecord
  2
STYLE_04
 70
               0
  3

 72
              65
 73
               2
 40
1.5277099999999999
 49
1.3194249999999998
 74
               0
 49
-0.208285
 74
               0
  0
LTYPE
  5
2F
100
AcDbSymbolTableRecord
100
AcDbLinetypeTableRecord
  2
STYLE_05
 70
               0
  3

 72
              65
 73
               2
 40
0.20828
 49
0.069425
 74
               0
 49
-0.138855
 74
               0
  0
LTYPE
  5
30
100
AcDbSymbolTableRecord
100
AcDbLinetypeTableRecord
  2
STYLE_06
 70
               0
  3

 72
              65
 73
               4
 40
1.0416400000000001
 49
0.625
 74
               0
 49
-0.20828
 74
               0
 49
0.06943
 74
               0
 49
-0.13893
 74
               0
  0
LTYPE
  5
31
100
AcDbSymbolTableRecord
100
AcDbLinetypeTableRecord
  2
STYLE_07
 70
               0
  3

 72
              65
 73
               6
 40
1.875
 49
0.625
 74
               0
 49
-0.20828
 74
               0
 49
0.6250000000000001
 74
               0
 49
-0.2083599999999999
 74
               0
 49
0.06943
 74
               0
 49
-0.1389299999999999
 74
               0
  0
LTYPE
  5
32
100
AcDbSymbolTableRecord
100
AcDbLinetypeTableRecord
  2
STYLE_08
 70
               0
  3

 72
              65
 73
               6
 40
1.25
 49
0.625
 74
               0
 49
-0.20828
 74
               0
 49
0.06943
 74
               0
 49
-0.13893
 74
               0
 49
0.0694299999999999
 74
               0
 49
-0.13893
 74
               0
  0
LTYPE
  5
33
100
AcDbSymbolTableRecord
100
AcDbLinetypeTableRecord
  2
STYLE_09
 70
               0
  3

 72
              65
 73
               4
 40
5.0
 49
3.75
 74
               0
 49
-0.2777849999999998
 74
               0
 49
0.6944300000000003
 74
               0
 49
-0.2777849999999998
 74
               0
  0
LTYPE
  5
34
100
AcDbSymbolTableRecord
100
AcDbLinetypeTableRecord
  2
STYLE_10
 70
               0
  3

 72
              65
 73
               6
 40
5.9375
 49
3.75
 74
               0
 49
-0.2777849999999998
 74
               0
 49
0.6944300000000003
 74
               0
 49
-0.2777849999999998
 74
               0
 49
0.625
 74
               0
 49
-0.3125
 74
               0
  0
ENDTAB
  0
TABLE
  2
LAYER
  5
2
100
AcDbSymbolTable
 70
               5
  0
LAYER
  5
14
100
AcDbSymbolTableRecord
100
AcDbLayerTableRecord
  2
0
 70
               0
 62
               7
  6
Continuous
290
               1
370
              15
390
1D
  0
LAYER
  5
35
100
AcDbSymbolTableRecord
100
AcDbLayerTableRecord
  2
一般
 70
               0
 62
               7
  6
Continuous
290
               1
370
               5
390
1D
  0
LAYER
  5
36
100
AcDbSymbolTableRecord
100
AcDbLayerTableRecord
  2
寸法
 70
               0
 62
               7
  6
Continuous
290
               1
370
               5
390
1D
  0
LAYER
  5
37
100
AcDbSymbolTableRecord
100
AcDbLayerTableRecord
  2
dim
 70
               0
 62
               7
  6
Continuous
290
               1
370
              15
390
1D
  0
LAYER
  5
38
100
AcDbSymbolTableRecord
100
AcDbLayerTableRecord
  2
排水
 70
               0
 62
               7
  6
Continuous
290
               1
370
              15
390
1D
  0
ENDTAB
  0
TABLE
  2
STYLE
  5
3
100
AcDbSymbolTable
 70
               3
  0
STYLE
  5
17
100
AcDbSymbolTableRecord
100
AcDbTextStyleTableRecord
  2
Standard
 70
               0
 40
0.0
 41
1.0
 50
0.0
 71
               0
 42
0.0
  3
txt
  4
BIGFONT.SHX
  0
STYLE
  5
29
100
AcDbSymbolTableRecord
100
AcDbTextStyleTableRecord
  2
Arial
 70
               0
 40
0.0
 41
1.0
 50
0.0
 71
               0
 42
0.0
  3

  4
Arial
1001
ACAD
1000
Arial
1071
        0
  0
STYLE
  5
2A
100
AcDbSymbolTableRecord
100
AcDbTextStyleTableRecord
  2
ＭＳ ゴシック
 70
               0
 40
0.0
 41
1.0
 50
0.0
 71
               0
 42
0.0
  3

  4
ＭＳ ゴシック
1001
ACAD
1000
ＭＳ ゴシック
1071
        0
  0
ENDTAB
  0
TABLE
  2
VIEW
  5
5
100
AcDbSymbolTable
 70
               0
  0
ENDTAB
  0
TABLE
  2
UCS
  5
6
100
AcDbSymbolTable
 70
               0
  0
ENDTAB
  0
TABLE
  2
APPID
  5
8
100
AcDbSymbolTable
 70
               1
  0
APPID
  5
16
100
AcDbSymbolTableRecord
100
AcDbRegAppTableRecord
  2
ACAD
 70
               0
  0
ENDTAB
  0
TABLE
  2
DIMSTYLE
  5
9
100
AcDbSymbolTable
 70
               1
100
AcDbDimStyleTable
 71
               0
  0
DIMSTYLE
105
18
100
AcDbSymbolTableRecord
100
AcDbDimStyleTableRecord
  2
Standard
 70
               0
  3

  4

 40
1.0
 41
0.18
 42
0.0625
 43
0.38
 44
0.18
 45
0.0
 46
0.0
 47
0.0
 48
0.0
 71
               0
 72
               0
 73
               1
 74
               1
 75
               0
 76
               0
 77
               0
 78
               0
 79
               0
140
0.18
141
0.09
142
0.0
143
25.399999999999999
144
1.0
145
0.0
146
1.0
147
0.09
148
0.0
170
               0
171
               2
172
               0
173
               0
174
               0
175
               0
176
               0
177
               0
178
               0
179
               0
271
               4
272
               4
273
               2
274
               2
275
               0
276
               0
277
               2
278
              46
279
               0
280
               0
281
               0
282
               0
283
               1
284
               0
285
               0
286
               0
288
               0
340
17
341
0
342
0
343
0
344
0
371
              -2
372
              -2
  0
ENDTAB
  0
TABLE
  2
BLOCK_RECORD
  5
1
100
AcDbSymbolTable
 70
               5
  0
BLOCK_RECORD
  5
A
100
AcDbSymbolTableRecord
100
AcDbBlockTableRecord
  2
*MODEL_SPACE
340
20
  0
BLOCK_RECORD
  5
B
100
AcDbSymbolTableRecord
100
AcDbBlockTableRecord
  2
*PAPER_SPACE
340
21
  0
BLOCK_RECORD
  5
24
100
AcDbSymbolTableRecord
100
AcDbBlockTableRecord
  2
グループ
340
0
102
{BLKREFS
331
46
102
}
  0
BLOCK_RECORD
  5
25
100
AcDbSymbolTableRecord
100
AcDbBlockTableRecord
  2
スケール1：5
340
0
102
{BLKREFS
331
55
102
}
  0
BLOCK_RECORD
  5
26
100
AcDbSymbolTableRecord
100
AcDbBlockTableRecord
  2
グループ-1
340
0
102
{BLKREFS
331
56
102
}
  0
BLOCK_RECORD
  5
27
100
AcDbSymbolTableRecord
100
AcDbBlockTableRecord
  2
グループ-2
340
0
102
{BLKREFS
331
1E7
102
}
  0
BLOCK_RECORD
  5
28
100
AcDbSymbolTableRecord
100
AcDbBlockTableRecord
  2
グループ-3
340
0
102
{BLKREFS
331
1E8
102
}
  0
ENDTAB
  0
ENDSEC
  0
SECTION
  2
BLOCKS
  0
BLOCK
  5
D
100
AcDbEntity
  8
0
100
AcDbBlockBegin
  2
*MODEL_SPACE
 70
               0
 10
0.0
 20
0.0
 30
0.0
  3
*MODEL_SPACE
  1

  0
ENDBLK
  5
E
100
AcDbEntity
  8
0
100
AcDbBlockEnd
  0
BLOCK
  5
F
100
AcDbEntity
 67
               1
  8
0
100
AcDbBlockBegin
  2
*PAPER_SPACE
 70
               0
 10
0.0
 20
0.0
 30
0.0
  3
*PAPER_SPACE
  1

  0
ENDBLK
  5
10
100
AcDbEntity
 67
               1
  8
0
100
AcDbBlockEnd
  0
BLOCK
  5
39
100
AcDbEntity
  8
一般
100
AcDbBlockBegin
  2
グループ
 70
               0
 10
0.0
 20
0.0
 30
0.0
  3
グループ
  1

  0
MTEXT
  5
3A
100
AcDbEntity
  8
一般
 62
               8
100
AcDbMText
 10
-61.590303983041849
 20
8.3342057291666851
 30
0.0
 40
8.1442057291666661
 41
7.3612159321675676
 71
               1
 72
               1
  1
0
  7
ＭＳ ゴシック
 73
               1
 44
0.7828267384257843
  0
MTEXT
  5
3B
100
AcDbEntity
  8
一般
 62
               8
100
AcDbMText
 10
-12.909696016958151
 20
8.3342057291666851
 30
0.0
 40
8.1442057291666661
 41
12.75
 71
               1
 72
               1
  1
50
  7
ＭＳ ゴシック
 73
               1
 44
0.7828267384257843
  0
MTEXT
  5
3C
100
AcDbEntity
  8
一般
 62
               8
100
AcDbMText
 10
33.590303983041849
 20
8.3342057291666851
 30
0.0
 40
8.1442057291666661
 41
27.999999999999972
 71
               1
 72
               1
  1
100mm
  7
ＭＳ ゴシック
 73
               1
 44
0.7828267384257843
  0
LINE
  5
3D
100
AcDbEntity
  8
寸法
370
              15
 62
               8
100
AcDbLine
 10
-7.9096960169581507
 20
-1.2916666666666288
 30
0.0
 11
-7.9096960169581507
 21
-9.2916666666666288
 31
0.0
  0
POLYLINE
  5
3E
100
AcDbEntity
  8
一般
370
              15
  6
Continuous
 62
               8
100
AcDb2dPolyline
 66
               1
 10
0.0
 20
0.0
 30
0.0
 75
               5
  0
VERTEX
  5
3F
100
AcDbEntity
  8
一般
370
              15
  6
Continuous
 62
               8
100
AcDbVertex
100
AcDb2dVertex
 10
-57.909696016958151
 20
-1.2916666666666288
 30
0.0
  0
VERTEX
  5
40
100
AcDbEntity
  8
一般
370
              15
  6
Continuous
 62
               8
100
AcDbVertex
100
AcDb2dVertex
 10
-57.909696016958151
 20
-9.2916666666666288
 30
0.0
  0
VERTEX
  5
41
100
AcDbEntity
  8
一般
370
              15
  6
Continuous
 62
               8
100
AcDbVertex
100
AcDb2dVertex
 10
42.090303983041849
 20
-9.2916666666666288
 30
0.0
  0
VERTEX
  5
42
100
AcDbEntity
  8
一般
370
              15
  6
Continuous
 62
               8
100
AcDbVertex
100
AcDb2dVertex
 10
42.090303983041849
 20
-1.2916666666666288
 30
0.0
  0
SEQEND
  5
43
100
AcDbEntity
  8
一般
370
              15
  6
Continuous
 62
               8
  0
ENDBLK
  5
44
100
AcDbEntity
  8
一般
100
AcDbBlockEnd
  0
BLOCK
  5
45
100
AcDbEntity
  8
一般
100
AcDbBlockBegin
  2
スケール1：5
 70
               0
 10
0.0
 20
0.0
 30
0.0
  3
スケール1：5
  1

  0
INSERT
  5
46
100
AcDbEntity
  8
一般
 62
               7
100
AcDbBlockReference
  2
グループ
 10
0.0
 20
0.0
 30
0.0
  0
ENDBLK
  5
47
100
AcDbEntity
  8
一般
100
AcDbBlockEnd
  0
BLOCK
  5
48
100
AcDbEntity
  8
一般
100
AcDbBlockBegin
  2
グループ-1
 70
               0
 10
0.0
 20
0.0
 30
0.0
  3
グループ-1
  1

  0
LINE
  5
49
100
AcDbEntity
  8
一般
370
               5
  6
Continuous
 62
               7
100
AcDbLine
 10
-290.49815156978758
 20
-362.92893218813452
 30
0.0
 11
-304.64028719351853
 21
-377.07106781186548
 31
0.0
  0
LINE
  5
4A
100
AcDbEntity
  8
一般
370
               5
  6
Continuous
 62
               7
100
AcDbLine
 10
-290.49815156978758
 20
-377.07106781186548
 30
0.0
 11
-304.64028719351853
 21
-362.92893218813452
 31
0.0
  0
ENDBLK
  5
4B
100
AcDbEntity
  8
一般
100
AcDbBlockEnd
  0
BLOCK
  5
4C
100
AcDbEntity
  8
一般
100
AcDbBlockBegin
  2
グループ-2
 70
               0
 10
0.0
 20
0.0
 30
0.0
  3
グループ-2
  1

  0
LINE
  5
4D
100
AcDbEntity
  8
一般
370
               5
  6
Continuous
 62
               7
100
AcDbLine
 10
-114.22153385438759
 20
-362.92893218813452
 30
0.0
 11
-128.36366947811854
 21
-377.07106781186548
 31
0.0
  0
LINE
  5
4E
100
AcDbEntity
  8
一般
370
               5
  6
Continuous
 62
               7
100
AcDbLine
 10
-114.22153385438759
 20
-377.07106781186548
 30
0.0
 11
-128.36366947811854
 21
-362.92893218813452
 31
0.0
  0
ENDBLK
  5
4F
100
AcDbEntity
  8
一般
100
AcDbBlockEnd
  0
BLOCK
  5
50
100
AcDbEntity
  8
一般
100
AcDbBlockBegin
  2
グループ-3
 70
               0
 10
0.0
 20
0.0
 30
0.0
  3
グループ-3
  1

  0
LINE
  5
51
100
AcDbEntity
  8
一般
370
               5
  6
Continuous
 62
               7
100
AcDbLine
 10
-290.49815156978747
 20
367.91047988888022
 30
0.0
 11
-304.64028719351842
 21
353.76834426514927
 31
0.0
  0
LINE
  5
52
100
AcDbEntity
  8
一般
370
               5
  6
Continuous
 62
               7
100
AcDbLine
 10
-290.49815156978747
 20
353.76834426514927
 30
0.0
 11
-304.64028719351842
 21
367.91047988888022
 31
0.0
  0
ENDBLK
  5
53
100
AcDbEntity
  8
一般
100
AcDbBlockEnd
  0
ENDSEC
  0
SECTION
  2
ENTITIES
  0
MTEXT
  5
54
100
AcDbEntity
  8
一般
 62
               7
100
AcDbMText
 10
1671.2324838490408
 20
1291.5910654350243
 30
0.0
 40
30.316840277777771
 41
0.0
 71
               1
 72
               1
  1
BX-7204
  7
Arial
 73
               1
 44
0.9673603504928806
  0
INSERT
  5
55
100
AcDbEntity
  8
一般
 62
               7
100
AcDbBlockReference
  2
スケール1：5
 10
1416.9096960169586
 20
1154.8262949232985
 30
0.0
  0
INSERT
  5
56
100
AcDbEntity
  8
一般
 62
               7
100
AcDbBlockReference
  2
グループ-1
 10
1450.0
 20
1020.0
 30
0.0
  0
LINE
  5
57
100
AcDbEntity
  8
0
370
              15
  6
Continuous
 62
               7
100
AcDbLine
 10
1388.2073983337468
 20
964.09999999999991
 30
0.0
 11
1388.2073983337468
 21
894.5
 31
0.0
  0
LINE
  5
58
100
AcDbEntity
  8
0
370
              15
  6
Continuous
 62
               7
100
AcDbLine
 10
1406.2073983337468
 20
964.09999999999991
 30
0.0
 11
1406.2073983337468
 21
894.5
 31
0.0
  0
LINE
  5
59
100
AcDbEntity
  8
0
370
              15
  6
Continuous
 62
               7
100
AcDbLine
 10
1315.7073983337468
 20
901.29999999999973
 30
0.0
 11
1315.7073983337468
 21
1014.1867672703997
 31
0.0
  0
LINE
  5
5A
100
AcDbEntity
  8
0
370
              15
  6
Continuous
 62
               7
100
AcDbLine
 10
1341.7073983337468
 20
901.29999999999973
 30
0.0
 11
1341.7073983337468
 21
1014.1867672703997
 31
0.0
  0
LINE
  5
5B
100
AcDbEntity
  8
0
370
              15
  6
Continuous
 62
               7
100
AcDbLine
 10
1143.4307806183469
 20
964.09999999999991
 30
0.0
 11
1143.4307806183469
 21
894.5
 31
0.0
  0
LINE
  5
5C
100
AcDbEntity
  8
0
370
              15
  6
Continuous
 62
               7
100
AcDbLine
 10
1161.4307806183469
 20
964.09999999999991
 30
0.0
 11
1161.4307806183469
 21
894.5
 31
0.0
  0
LINE
  5
5D
100
AcDbEntity
  8
0
370
              15
  6
Continuous
 62
               7
100
AcDbLine
 10
1139.4307806183469
 20
901.29999999999973
 30
0.0
 11
1139.4307806183469
 21
1106.3990273647
 31
0.0
  0
LINE
  5
5E
100
AcDbEntity
  8
0
370
              15
  6
Continuous
 62
               7
100
AcDbLine
 10
1165.4307806183469
 20
901.29999999999973
 30
0.0
 11
1165.4307806183469
 21
1106.3990273647
 31
0.0
  0
LINE
  5
5F
100
AcDbEntity
  8
0
370
              15
  6
Continuous
 62
               7
100
AcDbLine
 10
1174.9307806183469
 20
657.5
 30
0.0
 11
1174.9307806183469
 21
670.09999999999991
 31
0.0
  0
LINE
  5
60
100
AcDbEntity
  8
0
370
              15
  6
Continuous
 62
               7
100
AcDbLine
 10
1306.2073983337468
 20
657.5
 30
0.0
 11
1306.2073983337468
 21
901.29999999999973
 31
0.0
  0
LINE
  5
61
100
AcDbEntity
  8
0
370
              15
  6
Continuous
 62
               7
100
AcDbLine
 10
1351.2073983337468
 20
657.5
 30
0.0
 11
1351.2073983337468
 21
834.29999999999973
 31
0.0
  0
LINE
  5
62
100
AcDbEntity
  8
0
370
              15
  6
Continuous
 62
               7
100
AcDbLine
 10
1129.9307806183469
 20
901.29999999999973
 30
0.0
 11
1129.9307806183469
 21
657.5
 31
0.0
  0
LINE
  5
63
100
AcDbEntity
  8
0
370
              15
  6
Continuous
 62
               7
100
AcDbLine
 10
1358.2073983337468
 20
650.0
 30
0.0
 11
1299.2073983337468
 21
650.0
 31
0.0
  0
LINE
  5
64
100
AcDbEntity
  8
0
370
              15
  6
Continuous
 62
               7
100
AcDbLine
 10
1299.2073983337468
 20
657.0
 30
0.0
 11
1358.2073983337468
 21
657.0
 31
0.0
  0
LINE
  5
65
100
AcDbEntity
  8
0
370
              15
  6
Continuous
 62
               7
100
AcDbLine
 10
1299.7073983337468
 20
657.5
 30
0.0
 11
1357.7073983337468
 21
657.5
 31
0.0
  0
ARC
  5
66
100
AcDbEntity
  8
0
370
              15
  6
Continuous
 62
               7
100
AcDbCircle
 10
1181.4307806183469
 20
657.0
 30
0.0
 40
0.5
100
AcDbArc
 50
0.0
 51
90.0
  0
LINE
  5
67
100
AcDbEntity
  8
0
370
              15
  6
Continuous
 62
               7
100
AcDbLine
 10
1181.9307806183469
 20
657.0
 30
0.0
 11
1181.9307806183469
 21
650.0
 31
0.0
  0
ARC
  5
68
100
AcDbEntity
  8
0
370
              15
  6
Continuous
 62
               7
100
AcDbCircle
 10
1123.4307806183469
 20
657.0
 30
0.0
 40
0.5
100
AcDbArc
 50
90.0
 51
180.0
  0
LINE
  5
69
100
AcDbEntity
  8
0
370
              15
  6
Continuous
 62
               7
100
AcDbLine
 10
1122.9307806183469
 20
657.0
 30
0.0
 11
1122.9307806183469
 21
650.0
 31
0.0
  0
LINE
  5
6A
100
AcDbEntity
  8
0
370
              15
  6
Continuous
 62
               7
100
AcDbLine
 10
1122.9308254690468
 20
650.0
 30
0.0
 11
1181.9307357676471
 21
650.0
 31
0.0
  0
LINE
  5
6B
100
AcDbEntity
  8
0
370
              15
  6
Continuous
 62
               7
100
AcDbLine
 10
1122.9307806183469
 20
657.0
 30
0.0
 11
1181.9307806183469
 21
657.0
 31
0.0
  0
LINE
  5
6C
100
AcDbEntity
  8
0
370
              15
  6
Continuous
 62
               7
100
AcDbLine
 10
1181.4307806183469
 20
657.5
 30
0.0
 11
1123.4307806183469
 21
657.5
 31
0.0
  0
ARC
  5
6D
100
AcDbEntity
  8
0
370
              15
  6
Continuous
 62
               7
100
AcDbCircle
 10
1299.7073983337468
 20
657.0
 30
0.0
 40
0.5
100
AcDbArc
 50
90.0
 51
180.0
  0
LINE
  5
6E
100
AcDbEntity
  8
0
370
              15
  6
Continuous
 62
               7
100
AcDbLine
 10
1299.2073983337468
 20
657.0
 30
0.0
 11
1299.2073983337468
 21
650.0
 31
0.0
  0
ARC
  5
6F
100
AcDbEntity
  8
0
370
              15
  6
Continuous
 62
               7
100
AcDbCircle
 10
1357.7073983337468
 20
657.0
 30
0.0
 40
0.5
100
AcDbArc
 50
0.0
 51
90.0
  0
LINE
  5
70
100
AcDbEntity
  8
0
370
              15
  6
Continuous
 62
               7
100
AcDbLine
 10
1358.2073983337468
 20
657.0
 30
0.0
 11
1358.2073983337468
 21
650.0
 31
0.0
  0
LINE
  5
71
100
AcDbEntity
  8
0
370
              15
  6
Continuous
 62
               7
100
AcDbLine
 10
1351.2073983337468
 20
901.29999999999973
 30
0.0
 11
1306.2073983337468
 21
901.29999999999973
 31
0.0
  0
LINE
  5
72
100
AcDbEntity
  8
0
370
              15
  6
Continuous
 62
               7
100
AcDbLine
 10
1315.7073983337468
 20
901.40000000000009
 30
0.0
 11
1341.7073983337468
 21
901.40000000000009
 31
0.0
  0
LINE
  5
73
100
AcDbEntity
  8
0
370
              15
  6
Continuous
 62
               7
100
AcDbLine
 10
1351.2073983337468
 20
806.29999999999973
 30
0.0
 11
1306.2073983337468
 21
806.29999999999973
 31
0.0
  0
LINE
  5
74
100
AcDbEntity
  8
0
370
              15
  6
Continuous
 62
               7
100
AcDbLine
 10
1174.9307806183469
 20
670.09999999999991
 30
0.0
 11
1174.9250241695468
 21
811.3305814452001
 31
0.0
  0
LINE
  5
75
100
AcDbEntity
  8
0
370
              15
  6
Continuous
 62
               7
100
AcDbLine
 10
1174.9307806183469
 20
901.29999999999973
 30
0.0
 11
1174.9307806183469
 21
895.40000000000009
 31
0.0
  0
ARC
  5
76
100
AcDbEntity
  8
0
370
              15
  6
Continuous
 62
               7
100
AcDbCircle
 10
1161.2307806183467
 20
894.5
 30
0.0
 40
0.1999999999998181
100
AcDbArc
 50
270.0
 51
0.0
  0
LINE
  5
77
100
AcDbEntity
  8
0
370
              15
  6
Continuous
 62
               7
100
AcDbLine
 10
1161.4307806183469
 20
901.40000000000009
 30
0.0
 11
1165.4307806183469
 21
901.40000000000009
 31
0.0
  0
LINE
  5
78
100
AcDbEntity
  8
0
370
              15
  6
Continuous
 62
               7
100
AcDbLine
 10
1157.3807806183468
 20
880.84844405429976
 30
0.0
 11
1157.3807806183468
 21
894.29999999999973
 31
0.0
  0
LINE
  5
79
100
AcDbEntity
  8
0
370
              15
  6
Continuous
 62
               7
100
AcDbLine
 10
1161.4307806183469
 20
901.29999999999973
 30
0.0
 11
1174.9307806183469
 21
901.29999999999973
 31
0.0
  0
LINE
  5
7A
100
AcDbEntity
  8
0
370
              15
  6
Continuous
 62
               7
100
AcDbLine
 10
1174.9307806183469
 20
887.40000000000009
 30
0.0
 11
1174.9307806183469
 21
858.80024132710014
 31
0.0
  0
LINE
  5
7B
100
AcDbEntity
  8
0
370
              15
  6
Continuous
 62
               7
100
AcDbLine
 10
1147.4807806183467
 20
880.84846659929963
 30
0.0
 11
1147.4807806183467
 21
894.29999999999973
 31
0.0
  0
ARC
  5
7C
100
AcDbEntity
  8
0
370
              15
  6
Continuous
 62
               7
100
AcDbCircle
 10
1143.6307806183468
 20
894.5
 30
0.0
 40
0.2000000000000455
100
AcDbArc
 50
180.0
 51
270.0
  0
LINE
  5
7D
100
AcDbEntity
  8
0
370
              15
  6
Continuous
 62
               7
100
AcDbLine
 10
1139.4307806183469
 20
901.40000000000009
 30
0.0
 11
1143.4307806183469
 21
901.40000000000009
 31
0.0
  0
LINE
  5
7E
100
AcDbEntity
  8
0
370
              15
  6
Continuous
 62
               7
100
AcDbLine
 10
1161.2307806183467
 20
894.29999999999973
 30
0.0
 11
1143.6307806183468
 21
894.29999999999973
 31
0.0
  0
LINE
  5
7F
100
AcDbEntity
  8
0
370
              15
  6
Continuous
 62
               7
100
AcDbLine
 10
1143.4307806183469
 20
894.5
 30
0.0
 11
1161.4307806183469
 21
894.5
 31
0.0
  0
LINE
  5
80
100
AcDbEntity
  8
0
370
              15
  6
Continuous
 62
               7
100
AcDbLine
 10
1143.4307806183469
 20
901.29999999999973
 30
0.0
 11
1129.9307806183469
 21
901.29999999999973
 31
0.0
  0
LINE
  5
81
100
AcDbEntity
  8
0
370
              15
  6
Continuous
 62
               7
100
AcDbLine
 10
1129.9307806183469
 20
806.29999999999973
 30
0.0
 11
1174.9307806183469
 21
806.29999999999973
 31
0.0
  0
LINE
  5
82
100
AcDbEntity
  8
0
370
              15
  6
Continuous
 62
               7
100
AcDbLine
 10
1174.9307806183469
 20
896.45598792548981
 30
0.0
 11
1174.9307806183469
 21
810.0
 31
0.0
  0
CIRCLE
  5
83
100
AcDbEntity
  8
0
370
              15
  6
Continuous
 62
               7
100
AcDbCircle
 10
1152.4307806183469
 20
858.90000000000009
 30
0.0
 40
22.5
  0
CIRCLE
  5
84
100
AcDbEntity
  8
0
370
              15
  6
Continuous
 62
               7
100
AcDbCircle
 10
1152.4307806183469
 20
858.90000000000009
 30
0.0
 40
21.999999608400003
  0
ARC
  5
85
100
AcDbEntity
  8
0
370
              15
  6
Continuous
 62
               7
100
AcDbCircle
 10
1152.4307806183469
 20
858.79999999999973
 30
0.0
 40
22.5
100
AcDbArc
 50
180.0
 51
0.0269283023033893
  0
ARC
  5
86
100
AcDbEntity
  8
0
370
              15
  6
Continuous
 62
               7
100
AcDbCircle
 10
1406.007398333747
 20
894.5
 30
0.0
 40
0.1999999999998181
100
AcDbArc
 50
270.0
 51
0.0
  0
ARC
  5
87
100
AcDbEntity
  8
0
370
              15
  6
Continuous
 62
               7
100
AcDbCircle
 10
1409.7073983337468
 20
880.90000000000009
 30
0.0
 40
0.5
100
AcDbArc
 50
0.0
 51
90.0
  0
LWPOLYLINE
  5
88
100
AcDbEntity
  8
0
370
              15
  6
Continuous
 62
               7
100
AcDbPolyline
 90
        4
 70
             128
 10
1402.3073983337467
 20
881.40000000000009
 10
1402.307192790405
 20
881.39995341073495
 42
-0.0015062204140207
 10
1402.1575601585346
 20
881.3665106834228
 10
1402.1574534127467
 20
881.3664871635001
  0
LINE
  5
89
100
AcDbEntity
  8
0
370
              15
  6
Continuous
 62
               7
100
AcDbLine
 10
1409.7073983337468
 20
881.40000000000009
 30
0.0
 11
1402.3073983337467
 21
881.40000000000009
 31
0.0
  0
LINE
  5
8A
100
AcDbEntity
  8
0
370
              15
  6
Continuous
 62
               7
100
AcDbLine
 10
1402.1573983337471
 20
881.36673714700009
 30
0.0
 11
1402.1573983337471
 21
894.29999999999973
 31
0.0
  0
LWPOLYLINE
  5
8B
100
AcDbEntity
  8
0
370
              15
  6
Continuous
 62
               7
100
AcDbPolyline
 90
        4
 70
             128
 10
1392.2573430263469
 20
881.36648721370011
 10
1392.2572335693312
 20
881.36651133127225
 42
-0.0015061775441883
 10
1392.1076012994554
 20
881.39995399411464
 10
1392.1073983337469
 20
881.40000000000009
  0
LINE
  5
8C
100
AcDbEntity
  8
0
370
              15
  6
Continuous
 62
               7
100
AcDbLine
 10
1392.257398333747
 20
881.36673823379988
 30
0.0
 11
1392.257398333747
 21
894.29999999999973
 31
0.0
  0
LWPOLYLINE
  5
8D
100
AcDbEntity
  8
0
370
              15
  6
Continuous
 62
               7
100
AcDbPolyline
 90
       32
 70
             128
 10
1402.1574534127467
 20
881.3664871635001
 42
-0.0041905090148882
 10
1401.7423083533236
 20
881.27867381595024
 10
1401.7012535232986
 20
881.27034856041655
 42
-0.0060922500011116
 10
1401.2021064447317
 20
881.17544618444617
 10
1401.1154141902582
 20
881.16005546254155
 42
-0.0081539568691395
 10
1400.4399552981995
 20
881.05146978385164
 10
1400.3490668941679
 20
881.0383753409875
 42
-0.0073098934057266
 10
1399.7763758738615
 20
880.96439569687391
 10
1399.7693719383731
 20
880.96359484965569
 42
-0.0053246927482658
 10
1399.2089890889324
 20
880.9055578702089
 42
-0.0072214661198127
 10
1398.6473532629195
 20
880.86160088417614
 10
1398.6109033748362
 20
880.85927719499614
 42
-0.0059640680852318
 10
1398.0766510203453
 20
880.83161237738955
 42
-0.0061818709385646
 10
1397.5418871574773
 20
880.8169323563443
 10
1397.5377132100282
 20
880.81686940455734
 42
-0.0062025013863239
 10
1396.9943969519502
 20
880.81541556220441
 10
1396.9915470463595
 20
880.81544328976088
 42
-0.0061871556320919
 10
1396.4540546457813
 20
880.82732549240359
 10
1396.4485249332618
 20
880.82751621747821
 42
-0.0060324459219612
 10
1395.922534578161
 20
880.85201457054609
 10
1395.912634858568
 20
880.85259542642166
 42
-0.0058562512937667
 10
1395.4071565438726
 20
880.88819893454661
 42
-0.0054871524327921
 10
1394.9026117305116
 20
880.93526025711083
 10
1394.8065373080271
 20
880.94528622569874
 42
-0.0098816312911136
 10
1394.1120673843743
 20
881.03166301254441
 10
1393.9662556098504
 20
881.05273258513967
 42
-0.0080782142370606
 10
1393.2959982612203
 20
881.16066538585414
 10
1393.2111901439721
 20
881.17573168263107
 42
-0.0060444168341856
 10
1392.7134371701113
 20
881.27037903417909
 10
1392.6716566391362
 20
881.27884813537685
 42
-0.0042099906365414
 10
1392.2593431666519
 20
881.36604649053606
 10
1392.2573430263469
 20
881.36648721370011
  0
ARC
  5
8E
100
AcDbEntity
  8
0
370
              15
  6
Continuous
 62
               7
100
AcDbCircle
 10
1388.4073983337471
 20
894.5
 30
0.0
 40
0.2000000000000455
100
AcDbArc
 50
180.0
 51
270.0
  0
ARC
  5
8F
100
AcDbEntity
  8
0
370
              15
  6
Continuous
 62
               7
100
AcDbCircle
 10
1375.9696620010468
 20
860.25411575869975
 30
0.0
 40
19.999999999999883
100
AcDbArc
 50
71.816508382599054
 51
77.767052522702201
  0
ARC
  5
90
100
AcDbEntity
  8
0
370
              15
  6
Continuous
 62
               7
100
AcDbCircle
 10
1379.2073983337468
 20
880.29999999999973
 30
0.0
 40
1.0
100
AcDbArc
 50
0.0
 51
90.0
  0
LINE
  5
91
100
AcDbEntity
  8
0
370
              15
  6
Continuous
 62
               7
100
AcDbLine
 10
1380.2073983337468
 20
858.79999999999973
 30
0.0
 11
1379.2073983337468
 21
858.79999999999973
 31
0.0
  0
LINE
  5
92
100
AcDbEntity
  8
0
370
              15
  6
Continuous
 62
               7
100
AcDbLine
 10
1382.2073983337468
 20
881.40000000000009
 30
0.0
 11
1382.2073983337468
 21
858.90000000000009
 31
0.0
  0
LINE
  5
93
100
AcDbEntity
  8
0
370
              15
  6
Continuous
 62
               7
100
AcDbLine
 10
1392.1073983337469
 20
881.40000000000009
 30
0.0
 11
1382.2073983337468
 21
881.40000000000009
 31
0.0
  0
LINE
  5
94
100
AcDbEntity
  8
0
370
              15
  6
Continuous
 62
               7
100
AcDbLine
 10
1388.4073983337471
 20
894.29999999999973
 30
0.0
 11
1406.007398333747
 21
894.29999999999973
 31
0.0
  0
LINE
  5
95
100
AcDbEntity
  8
0
370
              15
  6
Continuous
 62
               7
100
AcDbLine
 10
1388.2073983337468
 20
894.5
 30
0.0
 11
1406.2073983337468
 21
894.5
 31
0.0
  0
ARC
  5
96
100
AcDbEntity
  8
0
370
              15
  6
Continuous
 62
               7
100
AcDbCircle
 10
1409.7073983337468
 20
836.90000000000009
 30
0.0
 40
0.5
100
AcDbArc
 50
270.0
 51
0.0
  0
LINE
  5
97
100
AcDbEntity
  8
0
370
              15
  6
Continuous
 62
               7
100
AcDbLine
 10
1409.7073983337468
 20
836.40000000000009
 30
0.0
 11
1390.2073983337468
 21
836.40000000000009
 31
0.0
  0
ARC
  5
98
100
AcDbEntity
  8
0
370
              15
  6
Continuous
 62
               7
100
AcDbCircle
 10
1379.2073983337468
 20
837.29999999999973
 30
0.0
 40
1.0
100
AcDbArc
 50
270.0
 51
0.0
  0
ARC
  5
99
100
AcDbEntity
  8
0
370
              15
  6
Continuous
 62
               7
100
AcDbCircle
 10
1375.9696620010468
 20
857.3458842412997
 30
0.0
 40
20.000000000000153
100
AcDbArc
 50
282.23294747729778
 51
308.2382400459984
  0
LINE
  5
9A
100
AcDbEntity
  8
0
370
              15
  6
Continuous
 62
               7
100
AcDbLine
 10
1379.2073983337468
 20
836.29999999999973
 30
0.0
 11
1379.2073983337468
 21
881.29999999999973
 31
0.0
  0
LINE
  5
9B
100
AcDbEntity
  8
0
370
              15
  6
Continuous
 62
               7
100
AcDbLine
 10
1380.2073983337468
 20
837.29999999999973
 30
0.0
 11
1380.2073983337468
 21
880.29999999999973
 31
0.0
  0
LINE
  5
9C
100
AcDbEntity
  8
0
370
              15
  6
Continuous
 62
               7
100
AcDbLine
 10
1409.7073983337468
 20
881.40000000000009
 30
0.0
 11
1409.7073983337468
 21
836.40000000000009
 31
0.0
  0
LINE
  5
9D
100
AcDbEntity
  8
0
370
              15
  6
Continuous
 62
               7
100
AcDbLine
 10
1410.2073983337468
 20
880.90000000000009
 30
0.0
 11
1410.2073983337468
 21
836.90000000000009
 31
0.0
  0
LINE
  5
9E
100
AcDbEntity
  8
0
370
              15
  6
Continuous
 62
               7
100
AcDbLine
 10
1390.2073983337468
 20
836.40000000000009
 30
0.0
 11
1382.2073983337468
 21
858.90000000000009
 31
0.0
  0
ARC
  5
9F
100
AcDbEntity
  8
0
370
              15
  6
Continuous
 62
               7
100
AcDbCircle
 10
1353.2073973596471
 20
883.29999902600002
 30
0.0
 40
2.0000023145000707
100
AcDbArc
 50
179.99997320920909
 51
270.00002671000061
  0
LINE
  5
A0
100
AcDbEntity
  8
0
370
              15
  6
Continuous
 62
               7
100
AcDbLine
 10
1351.2073983337468
 20
901.29999999999973
 30
0.0
 11
1351.2073983337468
 21
883.29999999999973
 31
0.0
  0
LWPOLYLINE
  5
A1
100
AcDbEntity
  8
0
370
              15
  6
Continuous
 62
               7
100
AcDbPolyline
 90
       15
 70
             128
 10
1333.9784827952451
 20
868.30088545245508
 42
-0.0014725363714978
 10
1334.1378083279958
 20
868.52398125871127
 10
1334.2409806219052
 20
868.6675524945681
 42
-0.009628064320142
 10
1335.0936451707571
 20
869.8071331623803
 10
1335.2080695278096
 20
869.95407500238105
 42
-0.0058021494760082
 10
1335.8633665565785
 20
870.77574693114457
 10
1335.8779746389457
 20
870.79363409487053
 42
-0.0056035562132902
 10
1336.5222325191912
 20
871.56470668033512
 42
-0.0052767737859912
 10
1337.1831201297418
 20
872.32158386553306
 10
1337.3429807419448
 20
872.50080978268761
 42
-0.0101949686497073
 10
1338.2986682583673
 20
873.52926668294162
 10
1338.3207893434862
 20
873.552119549179
 42
-0.0046805666654049
 10
1339.2621419745115
 20
874.50656996229418
 42
-0.0091412759880234
 10
1340.2293963007955
 20
875.43452269952536
 10
1340.397178413547
 20
875.5896977778998
  0
SPLINE
  5
A2
100
AcDbEntity
  8
0
370
              15
  6
Continuous
 62
               7
100
AcDbSpline
210
0.0
220
0.0
230
1.0
 70
               8
 71
               2
 72
               6
 73
               3
 74
               0
 42
0.000001
 43
0.000001
 40
0.0
 40
0.0
 40
0.0
 40
1.0
 40
1.0
 40
1.0
 10
1328.7072926943142
 20
858.80001972647847
 30
0.0
 10
1328.7072881640331
 20
858.80000906546195
 30
0.0
 10
1328.7072836611469
 20
858.79999846889996
 30
0.0
  0
LWPOLYLINE
  5
A3
100
AcDbEntity
  8
0
370
              15
  6
Continuous
 62
               7
100
AcDbPolyline
 90
       30
 70
             128
 10
1351.2073983337468
 20
883.29999999999973
 42
0.0031265807315839
 10
1350.8359997327609
 20
883.10296348521274
 10
1350.777829815087
 20
883.07163516603623
 42
0.0044853845118709
 10
1350.293712981301
 20
882.8052765871023
 10
1350.2467363394931
 20
882.77887856199845
 42
0.0029461925275057
 10
1349.7888771906596
 20
882.51802784185975
 42
0.0030377475211261
 10
1349.3341730753832
 20
882.25171663780623
 10
1349.3048373852048
 20
882.23429508234176
 42
0.0032853104493734
 10
1348.7950988285913
 20
881.92702885430481
 10
1348.7562461139401
 20
881.90325932143969
 42
0.0035898994953082
 10
1348.1734226361389
 20
881.54092008336363
 10
1348.1427246122093
 20
881.52152826546717
 42
0.0036715882857571
 10
1347.5041173635723
 20
881.11153131324863
 10
1347.4687381940162
 20
881.0884486490711
 42
0.0041441863146716
 10
1346.7662513639755
 20
880.62177432688065
 10
1346.7292478741256
 20
880.59674775412327
 42
0.0043300085273344
 10
1345.9612050808198
 20
880.06754632541004
 10
1345.934074962621
 20
880.04850439288248
 42
0.0046668370996237
 10
1345.1217827348471
 20
879.46698587458263
 10
1345.0861808062291
 20
879.44099252472961
 42
0.0051453409722329
 10
1344.2148022237125
 20
878.79093815333567
 10
1344.1216772447697
 20
878.71996305386165
 42
0.0069516381864431
 10
1343.0820760314341
 20
877.90453660476078
 10
1342.9729592148503
 20
877.81647166012874
 42
0.0062081395294998
 10
1342.048610873821
 20
877.05131232259032
 10
1341.9991958742678
 20
877.00936270509203
 42
0.0054114274883514
 10
1341.1907706473398
 20
876.30787546803617
 10
1341.1782285629417
 20
876.29675223394759
 42
0.0050188096271759
 10
1340.4094632422843
 20
875.60104497189695
 10
1340.397178413547
 20
875.5896977778998
  0
ARC
  5
A4
100
AcDbEntity
  8
0
370
              15
  6
Continuous
 62
               7
100
AcDbCircle
 10
1353.2073973989468
 20
834.30000093479975
 30
0.0
 40
2.000002162499841
100
AcDbArc
 50
89.999974351904513
 51
180.00002573319136
  0
LWPOLYLINE
  5
A5
100
AcDbEntity
  8
0
370
              15
  6
Continuous
 62
               7
100
AcDbPolyline
 90
       27
 70
             128
 10
1340.3971772725467
 20
842.01030437849977
 10
1340.4359684680612
 20
841.97448262858541
 42
0.006338721143165
 10
1341.3519826280121
 20
841.14985633402193
 10
1341.3536014624854
 20
841.14843574247277
 42
0.0056799652285004
 10
1342.2859159983923
 20
840.34885518425563
 42
0.0061356514272135
 10
1343.236853089142
 20
839.57153567238458
 10
1343.2720907006562
 20
839.54344578091377
 42
0.0054413262652824
 10
1344.1863635325292
 20
838.83076010546074
 10
1344.2150470733254
 20
838.80889859373781
 42
0.0051466596992163
 10
1345.0864002442599
 20
838.15885530395917
 10
1345.1220031731516
 20
838.13286105080806
 42
0.0046671364568376
 10
1345.9342697959094
 20
837.55135770490142
 10
1345.9614077267645
 20
837.53231020899443
 42
0.0043311738303074
 10
1346.7294104872708
 20
837.00313677010672
 10
1346.7664103643845
 20
836.97811278576421
 42
0.0041433156075759
 10
1347.4688643767336
 20
836.51146122455543
 42
0.0036577633026362
 10
1348.1785187080952
 20
836.0558223052243
 10
1348.2439701606565
 20
836.01447175008707
 42
0.0052141939278639
 10
1348.9570203092157
 20
835.57432101675204
 10
1349.0756041243615
 20
835.50281870322112
 42
0.0033139970632467
 10
1349.5579758556596
 20
835.21630595474562
 42
0.0028185896847616
 10
1350.0438282863627
 20
834.93572925744365
 10
1350.0822494300146
 20
834.91382917413398
 42
0.0050543885596838
 10
1350.6497192805077
 20
834.59792774206244
 10
1350.7152684415878
 20
834.56230069894798
 42
0.0040721600562058
 10
1351.2063815778538
 20
834.30053127137126
 10
1351.2073983337468
 20
834.29999999999973
  0
SPLINE
  5
A6
100
AcDbEntity
  8
0
370
              15
  6
Continuous
 62
               7
100
AcDbSpline
210
0.0
220
0.0
230
1.0
 70
               8
 71
               2
 72
               6
 73
               3
 74
               0
 42
0.000001
 43
0.000001
 40
0.0
 40
0.0
 40
0.0
 40
1.0
 40
1.0
 40
1.0
 10
1328.7072836611469
 20
858.79999846889996
 30
0.0
 10
1328.7119095600879
 20
858.78911242632944
 30
0.0
 10
1328.7571139439178
 20
858.68300118914976
 30
0.0
  0
LWPOLYLINE
  5
A7
100
AcDbEntity
  8
0
370
              15
  6
Continuous
 62
               7
100
AcDbPolyline
 90
       19
 70
             128
 10
1332.698631149316
 20
851.19941752529257
 42
0.0026235121219522
 10
1332.9645417880986
 20
850.78783575566013
 10
1332.9688881539482
 20
850.78118518254951
 42
0.0062998642832049
 10
1333.6278732398591
 20
849.80006158078186
 10
1333.6423141390405
 20
849.77913590567198
 42
0.0063681862360463
 10
1334.2965313231352
 20
848.85649970853729
 10
1334.3130492259222
 20
848.83382240186234
 42
0.0058543698572867
 10
1334.9560686038894
 20
847.97240271430428
 10
1334.9581103609021
 20
847.96973325904185
 42
0.0057979306139279
 10
1335.6168841392032
 20
847.12882099270246
 42
0.0058034145090404
 10
1336.2949899702367
 20
846.303418956006
 10
1336.4539219885096
 20
846.11447838714912
 42
0.0105266728584088
 10
1337.4167718428087
 20
845.0175599699603
 10
1337.4441459359573
 20
844.98766769091787
 42
0.0051551959709945
 10
1338.3857283744051
 20
843.98051563118293
 42
0.0093336040593715
 10
1339.3559781762956
 20
843.00118534639398
 10
1339.5043818277388
 20
842.85688249992836
 42
0.0062454977252336
 10
1340.392497591994
 20
842.01463195785345
 10
1340.3971772725467
 20
842.01030437849977
  0
LINE
  5
A8
100
AcDbEntity
  8
0
370
              15
  6
Continuous
 62
               7
100
AcDbLine
 10
1353.2073983337468
 20
836.29999999999973
 30
0.0
 11
1379.2073983337468
 21
836.29999999999973
 31
0.0
  0
LINE
  5
A9
100
AcDbEntity
  8
0
370
              15
  6
Continuous
 62
               7
100
AcDbLine
 10
1353.2073983337468
 20
881.29999999999973
 30
0.0
 11
1379.2073983337468
 21
881.29999999999973
 31
0.0
  0
ARC
  5
AA
100
AcDbEntity
  8
0
370
              15
  6
Continuous
 62
               7
100
AcDbCircle
 10
1420.9206310634468
 20
1014.1867672703997
 30
0.0
 40
105.21323272969994
100
AcDbArc
 50
24.999999999993427
 51
180.0
  0
LINE
  5
AB
100
AcDbEntity
  8
0
370
              15
  6
Continuous
 62
               7
100
AcDbLine
 10
1165.4189198010467
 20
1033.4764774667001
 30
0.0
 11
1165.3359959816466
 21
1034.0622330297997
 31
0.0
  0
LINE
  5
AC
100
AcDbEntity
  8
0
370
              15
  6
Continuous
 62
               7
100
AcDbLine
 10
1165.3359959816466
 20
1034.0622330297997
 30
0.0
 11
1164.5859917732469
 21
1035.3482125125997
 31
0.0
  0
LINE
  5
AD
100
AcDbEntity
  8
0
370
              15
  6
Continuous
 62
               7
100
AcDbLine
 10
1164.5859917732469
 20
1035.3482125125997
 30
0.0
 11
1163.1295708749467
 21
1036.5209689656999
 31
0.0
  0
LINE
  5
AE
100
AcDbEntity
  8
0
370
              15
  6
Continuous
 62
               7
100
AcDbLine
 10
1161.051375175547
 20
1037.5123460467998
 30
0.0
 11
1158.4721818549469
 21
1038.2647285233998
 31
0.0
  0
LINE
  5
AF
100
AcDbEntity
  8
0
370
              15
  6
Continuous
 62
               7
100
AcDbLine
 10
1163.1295708749467
 20
1036.5209689656999
 30
0.0
 11
1161.051375175547
 21
1037.5123460467998
 31
0.0
  0
LINE
  5
B0
100
AcDbEntity
  8
0
370
              15
  6
Continuous
 62
               7
100
AcDbLine
 10
1161.6807806183469
 20
1015.5023411952998
 30
0.0
 11
1161.6807806183469
 21
1013.9143825788001
 31
0.0
  0
POLYLINE
  5
B1
100
AcDbEntity
  8
0
370
              15
  6
Continuous
 62
               7
100
AcDb2dPolyline
 66
               1
 10
0.0
 20
0.0
 30
0.0
 75
               5
  0
VERTEX
  5
B2
100
AcDbEntity
  8
0
370
              15
  6
Continuous
 62
               7
100
AcDbVertex
100
AcDb2dVertex
 10
1161.673706089447
 20
1015.5071453675
 30
0.0
  0
VERTEX
  5
B3
100
AcDbEntity
  8
0
370
              15
  6
Continuous
 62
               7
100
AcDbVertex
100
AcDb2dVertex
 10
1162.1247832777467
 20
1014.9518490772998
 30
0.0
  0
VERTEX
  5
B4
100
AcDbEntity
  8
0
370
              15
  6
Continuous
 62
               7
100
AcDbVertex
100
AcDb2dVertex
 10
1162.396625548447
 20
1014.2633779731
 30
0.0
  0
VERTEX
  5
B5
100
AcDbEntity
  8
0
370
              15
  6
Continuous
 62
               7
100
AcDbVertex
100
AcDb2dVertex
 10
1162.4307806183469
 20
1013.9143825788001
 30
0.0
  0
SEQEND
  5
B6
100
AcDbEntity
  8
0
370
              15
  6
Continuous
 62
               7
  0
POLYLINE
  5
B7
100
AcDbEntity
  8
0
370
              15
  6
Continuous
 62
               7
100
AcDb2dPolyline
 66
               1
 10
0.0
 20
0.0
 30
0.0
 75
               5
  0
VERTEX
  5
B8
100
AcDbEntity
  8
0
370
              15
  6
Continuous
 62
               7
100
AcDbVertex
100
AcDb2dVertex
 10
1162.4307806183469
 20
1013.9143825788001
 30
0.0
  0
VERTEX
  5
B9
100
AcDbEntity
  8
0
370
              15
  6
Continuous
 62
               7
100
AcDbVertex
100
AcDb2dVertex
 10
1162.396625548447
 20
1013.5653871844002
 30
0.0
  0
VERTEX
  5
BA
100
AcDbEntity
  8
0
370
              15
  6
Continuous
 62
               7
100
AcDbVertex
100
AcDb2dVertex
 10
1162.1247832777467
 20
1012.8769160801999
 30
0.0
  0
VERTEX
  5
BB
100
AcDbEntity
  8
0
370
              15
  6
Continuous
 62
               7
100
AcDbVertex
100
AcDb2dVertex
 10
1161.5885138849467
 20
1012.2167443576
 30
0.0
  0
VERTEX
  5
BC
100
AcDbEntity
  8
0
370
              15
  6
Continuous
 62
               7
100
AcDbVertex
100
AcDb2dVertex
 10
1160.8024454009469
 20
1011.6028797802996
 30
0.0
  0
VERTEX
  5
BD
100
AcDbEntity
  8
0
370
              15
  6
Continuous
 62
               7
100
AcDbVertex
100
AcDb2dVertex
 10
1159.788019725147
 20
1011.0520669736998
 30
0.0
  0
VERTEX
  5
BE
100
AcDbEntity
  8
0
370
              15
  6
Continuous
 62
               7
100
AcDbVertex
100
AcDb2dVertex
 10
1159.4780826282467
 20
1010.9314867158
 30
0.0
  0
SEQEND
  5
BF
100
AcDbEntity
  8
0
370
              15
  6
Continuous
 62
               7
  0
POLYLINE
  5
C0
100
AcDbEntity
  8
0
370
              15
  6
Continuous
 62
               7
100
AcDb2dPolyline
 66
               1
 10
0.0
 20
0.0
 30
0.0
 75
               5
  0
VERTEX
  5
C1
100
AcDbEntity
  8
0
370
              15
  6
Continuous
 62
               7
100
AcDbVertex
100
AcDb2dVertex
 10
1158.3883975690469
 20
1016.9006013478997
 30
0.0
  0
VERTEX
  5
C2
100
AcDbEntity
  8
0
370
              15
  6
Continuous
 62
               7
100
AcDbVertex
100
AcDb2dVertex
 10
1158.4822063807469
 20
1016.8709815855
 30
0.0
  0
VERTEX
  5
C3
100
AcDbEntity
  8
0
370
              15
  6
Continuous
 62
               7
100
AcDbVertex
100
AcDb2dVertex
 10
1159.417021821047
 20
1016.4765416076998
 30
0.0
  0
VERTEX
  5
C4
100
AcDbEntity
  8
0
370
              15
  6
Continuous
 62
               7
100
AcDbVertex
100
AcDb2dVertex
 10
1160.2094213284468
 20
1016.02980751
 30
0.0
  0
VERTEX
  5
C5
100
AcDbEntity
  8
0
370
              15
  6
Continuous
 62
               7
100
AcDbVertex
100
AcDb2dVertex
 10
1160.8431822605467
 20
1015.5398978211001
 30
0.0
  0
VERTEX
  5
C6
100
AcDbEntity
  8
0
370
              15
  6
Continuous
 62
               7
100
AcDbVertex
100
AcDb2dVertex
 10
1161.3053245078468
 20
1015.0168388972997
 30
0.0
  0
VERTEX
  5
C7
100
AcDbEntity
  8
0
370
              15
  6
Continuous
 62
               7
100
AcDbVertex
100
AcDb2dVertex
 10
1161.5864333911468
 20
1014.4712969720999
 30
0.0
  0
VERTEX
  5
C8
100
AcDbEntity
  8
0
370
              15
  6
Continuous
 62
               7
100
AcDbVertex
100
AcDb2dVertex
 10
1161.6807806183469
 20
1013.9143825788001
 30
0.0
  0
SEQEND
  5
C9
100
AcDbEntity
  8
0
370
              15
  6
Continuous
 62
               7
  0
LINE
  5
CA
100
AcDbEntity
  8
0
370
              15
  6
Continuous
 62
               7
100
AcDbLine
 10
1155.5418842541467
 20
1038.7343906607998
 30
0.0
 11
1152.4307806183469
 21
1038.8940374027002
 31
0.0
  0
LINE
  5
CB
100
AcDbEntity
  8
0
370
              15
  6
Continuous
 62
               7
100
AcDbLine
 10
1143.1807806183469
 20
1015.5023411952998
 30
0.0
 11
1143.1807806183469
 21
1013.9143825788001
 31
0.0
  0
POLYLINE
  5
CC
100
AcDbEntity
  8
0
370
              15
  6
Continuous
 62
               7
100
AcDb2dPolyline
 66
               1
 10
0.0
 20
0.0
 30
0.0
 75
               5
  0
VERTEX
  5
CD
100
AcDbEntity
  8
0
370
              15
  6
Continuous
 62
               7
100
AcDbVertex
100
AcDb2dVertex
 10
1143.1878551472469
 20
1015.5071453675
 30
0.0
  0
VERTEX
  5
CE
100
AcDbEntity
  8
0
370
              15
  6
Continuous
 62
               7
100
AcDbVertex
100
AcDb2dVertex
 10
1142.7367779589467
 20
1014.9518490772998
 30
0.0
  0
VERTEX
  5
CF
100
AcDbEntity
  8
0
370
              15
  6
Continuous
 62
               7
100
AcDbVertex
100
AcDb2dVertex
 10
1142.4649356883469
 20
1014.2633779731
 30
0.0
  0
VERTEX
  5
D0
100
AcDbEntity
  8
0
370
              15
  6
Continuous
 62
               7
100
AcDbVertex
100
AcDb2dVertex
 10
1142.4307806183469
 20
1013.9143825788001
 30
0.0
  0
SEQEND
  5
D1
100
AcDbEntity
  8
0
370
              15
  6
Continuous
 62
               7
  0
POLYLINE
  5
D2
100
AcDbEntity
  8
0
370
              15
  6
Continuous
 62
               7
100
AcDb2dPolyline
 66
               1
 10
0.0
 20
0.0
 30
0.0
 75
               5
  0
VERTEX
  5
D3
100
AcDbEntity
  8
0
370
              15
  6
Continuous
 62
               7
100
AcDbVertex
100
AcDb2dVertex
 10
1142.4307806183469
 20
1013.9143825788001
 30
0.0
  0
VERTEX
  5
D4
100
AcDbEntity
  8
0
370
              15
  6
Continuous
 62
               7
100
AcDbVertex
100
AcDb2dVertex
 10
1142.4649356883469
 20
1013.5653871844002
 30
0.0
  0
VERTEX
  5
D5
100
AcDbEntity
  8
0
370
              15
  6
Continuous
 62
               7
100
AcDbVertex
100
AcDb2dVertex
 10
1142.7367779589467
 20
1012.8769160801999
 30
0.0
  0
VERTEX
  5
D6
100
AcDbEntity
  8
0
370
              15
  6
Continuous
 62
               7
100
AcDbVertex
100
AcDb2dVertex
 10
1143.2730473518468
 20
1012.2167443576
 30
0.0
  0
VERTEX
  5
D7
100
AcDbEntity
  8
0
370
              15
  6
Continuous
 62
               7
100
AcDbVertex
100
AcDb2dVertex
 10
1144.059115835747
 20
1011.6028797802996
 30
0.0
  0
VERTEX
  5
D8
100
AcDbEntity
  8
0
370
              15
  6
Continuous
 62
               7
100
AcDbVertex
100
AcDb2dVertex
 10
1145.0735415116469
 20
1011.0520669736998
 30
0.0
  0
VERTEX
  5
D9
100
AcDbEntity
  8
0
370
              15
  6
Continuous
 62
               7
100
AcDbVertex
100
AcDb2dVertex
 10
1145.388750003347
 20
1010.9294358927
 30
0.0
  0
SEQEND
  5
DA
100
AcDbEntity
  8
0
370
              15
  6
Continuous
 62
               7
  0
POLYLINE
  5
DB
100
AcDbEntity
  8
0
370
              15
  6
Continuous
 62
               7
100
AcDb2dPolyline
 66
               1
 10
0.0
 20
0.0
 30
0.0
 75
               5
  0
VERTEX
  5
DC
100
AcDbEntity
  8
0
370
              15
  6
Continuous
 62
               7
100
AcDbVertex
100
AcDb2dVertex
 10
1142.6997265768468
 20
1015.1756669345
 30
0.0
  0
VERTEX
  5
DD
100
AcDbEntity
  8
0
370
              15
  6
Continuous
 62
               7
100
AcDbVertex
100
AcDb2dVertex
 10
1141.9691589391468
 20
1014.4446332667999
 30
0.0
  0
VERTEX
  5
DE
100
AcDbEntity
  8
0
370
              15
  6
Continuous
 62
               7
100
AcDbVertex
100
AcDb2dVertex
 10
1141.5662088718468
 20
1013.7353074703001
 30
0.0
  0
VERTEX
  5
DF
100
AcDbEntity
  8
0
370
              15
  6
Continuous
 62
               7
100
AcDbVertex
100
AcDb2dVertex
 10
1141.4307806183469
 20
1013.0080747917
 30
0.0
  0
VERTEX
  5
E0
100
AcDbEntity
  8
0
370
              15
  6
Continuous
 62
               7
100
AcDbVertex
100
AcDb2dVertex
 10
1141.5662088718468
 20
1012.2808421130999
 30
0.0
  0
VERTEX
  5
E1
100
AcDbEntity
  8
0
370
              15
  6
Continuous
 62
               7
100
AcDbVertex
100
AcDb2dVertex
 10
1141.9691589391468
 20
1011.5715163166001
 30
0.0
  0
VERTEX
  5
E2
100
AcDbEntity
  8
0
370
              15
  6
Continuous
 62
               7
100
AcDbVertex
100
AcDb2dVertex
 10
1142.629708852347
 20
1010.8975633574
 30
0.0
  0
VERTEX
  5
E3
100
AcDbEntity
  8
0
370
              15
  6
Continuous
 62
               7
100
AcDbVertex
100
AcDb2dVertex
 10
1143.5315936802467
 20
1010.2755781941
 30
0.0
  0
VERTEX
  5
E4
100
AcDbEntity
  8
0
370
              15
  6
Continuous
 62
               7
100
AcDbVertex
100
AcDb2dVertex
 10
1144.6526060253468
 20
1009.7208761656998
 30
0.0
  0
VERTEX
  5
E5
100
AcDbEntity
  8
0
370
              15
  6
Continuous
 62
               7
100
AcDbVertex
100
AcDb2dVertex
 10
1145.9651428431471
 20
1009.2471158769999
 30
0.0
  0
VERTEX
  5
E6
100
AcDbEntity
  8
0
370
              15
  6
Continuous
 62
               7
100
AcDbVertex
100
AcDb2dVertex
 10
1147.4368851212471
 20
1008.8659628787
 30
0.0
  0
VERTEX
  5
E7
100
AcDbEntity
  8
0
370
              15
  6
Continuous
 62
               7
100
AcDbVertex
100
AcDb2dVertex
 10
1149.0315936802467
 20
1008.5868024225997
 30
0.0
  0
VERTEX
  5
E8
100
AcDbEntity
  8
0
370
              15
  6
Continuous
 62
               7
100
AcDbVertex
100
AcDb2dVertex
 10
1150.7100015029469
 20
1008.4165083655998
 30
0.0
  0
VERTEX
  5
E9
100
AcDbEntity
  8
0
370
              15
  6
Continuous
 62
               7
100
AcDbVertex
100
AcDb2dVertex
 10
1152.4307806183469
 20
1008.3592739126002
 30
0.0
  0
SEQEND
  5
EA
100
AcDbEntity
  8
0
370
              15
  6
Continuous
 62
               7
  0
POLYLINE
  5
EB
100
AcDbEntity
  8
0
370
              15
  6
Continuous
 62
               7
100
AcDb2dPolyline
 66
               1
 10
0.0
 20
0.0
 30
0.0
 75
               5
  0
VERTEX
  5
EC
100
AcDbEntity
  8
0
370
              15
  6
Continuous
 62
               7
100
AcDbVertex
100
AcDb2dVertex
 10
1143.1807806183469
 20
1013.9143825788001
 30
0.0
  0
VERTEX
  5
ED
100
AcDbEntity
  8
0
370
              15
  6
Continuous
 62
               7
100
AcDbVertex
100
AcDb2dVertex
 10
1143.2751216305469
 20
1014.4712787228
 30
0.0
  0
VERTEX
  5
EE
100
AcDbEntity
  8
0
370
              15
  6
Continuous
 62
               7
100
AcDbVertex
100
AcDb2dVertex
 10
1143.5562244225471
 20
1015.0168212038998
 30
0.0
  0
VERTEX
  5
EF
100
AcDbEntity
  8
0
370
              15
  6
Continuous
 62
               7
100
AcDbVertex
100
AcDb2dVertex
 10
1144.0183608035468
 20
1015.5398810234997
 30
0.0
  0
VERTEX
  5
F0
100
AcDbEntity
  8
0
370
              15
  6
Continuous
 62
               7
100
AcDbVertex
100
AcDb2dVertex
 10
1144.6521162908471
 20
1016.0297919989998
 30
0.0
  0
VERTEX
  5
F1
100
AcDbEntity
  8
0
370
              15
  6
Continuous
 62
               7
100
AcDbVertex
100
AcDb2dVertex
 10
1145.4445110039469
 20
1016.4765277709998
 30
0.0
  0
VERTEX
  5
F2
100
AcDbEntity
  8
0
370
              15
  6
Continuous
 62
               7
100
AcDbVertex
100
AcDb2dVertex
 10
1146.379321882247
 20
1016.8709695314997
 30
0.0
  0
VERTEX
  5
F3
100
AcDbEntity
  8
0
370
              15
  6
Continuous
 62
               7
100
AcDbVertex
100
AcDb2dVertex
 10
1146.4731873976471
 20
1016.9006074935
 30
0.0
  0
SEQEND
  5
F4
100
AcDbEntity
  8
0
370
              15
  6
Continuous
 62
               7
  0
POLYLINE
  5
F5
100
AcDbEntity
  8
0
370
              15
  6
Continuous
 62
               7
100
AcDb2dPolyline
 66
               1
 10
0.0
 20
0.0
 30
0.0
 75
               5
  0
VERTEX
  5
F6
100
AcDbEntity
  8
0
370
              15
  6
Continuous
 62
               7
100
AcDbVertex
100
AcDb2dVertex
 10
1152.4307806183469
 20
1009.5214741323998
 30
0.0
  0
VERTEX
  5
F7
100
AcDbEntity
  8
0
370
              15
  6
Continuous
 62
               7
100
AcDbVertex
100
AcDb2dVertex
 10
1151.2650133591469
 20
1009.5564579812999
 30
0.0
  0
VERTEX
  5
F8
100
AcDbEntity
  8
0
370
              15
  6
Continuous
 62
               7
100
AcDbVertex
100
AcDb2dVertex
 10
1150.1172823791467
 20
1009.6613699713998
 30
0.0
  0
VERTEX
  5
F9
100
AcDbEntity
  8
0
370
              15
  6
Continuous
 62
               7
100
AcDbVertex
100
AcDb2dVertex
 10
1149.0131938852469
 20
1009.8347040282001
 30
0.0
  0
VERTEX
  5
FA
100
AcDbEntity
  8
0
370
              15
  6
Continuous
 62
               7
100
AcDbVertex
100
AcDb2dVertex
 10
1147.9778229944468
 20
1010.0729714449999
 30
0.0
  0
VERTEX
  5
FB
100
AcDbEntity
  8
0
370
              15
  6
Continuous
 62
               7
100
AcDbVertex
100
AcDb2dVertex
 10
1147.0337273077471
 20
1010.3710480847999
 30
0.0
  0
VERTEX
  5
FC
100
AcDbEntity
  8
0
370
              15
  6
Continuous
 62
               7
100
AcDbVertex
100
AcDb2dVertex
 10
1146.1999258142469
 20
1010.722848935
 30
0.0
  0
VERTEX
  5
FD
100
AcDbEntity
  8
0
370
              15
  6
Continuous
 62
               7
100
AcDbVertex
100
AcDb2dVertex
 10
1145.4931497036468
 20
1011.1212947711997
 30
0.0
  0
VERTEX
  5
FE
100
AcDbEntity
  8
0
370
              15
  6
Continuous
 62
               7
100
AcDbVertex
100
AcDb2dVertex
 10
1144.9278696853471
 20
1011.5582522250002
 30
0.0
  0
VERTEX
  5
FF
100
AcDbEntity
  8
0
370
              15
  6
Continuous
 62
               7
100
AcDbVertex
100
AcDb2dVertex
 10
1144.5156641768467
 20
1012.0247780764998
 30
0.0
  0
VERTEX
  5
100
100
AcDbEntity
  8
0
370
              15
  6
Continuous
 62
               7
100
AcDbVertex
100
AcDb2dVertex
 10
1144.264931232347
 20
1012.5113582968002
 30
0.0
  0
VERTEX
  5
101
100
AcDbEntity
  8
0
370
              15
  6
Continuous
 62
               7
100
AcDbVertex
100
AcDb2dVertex
 10
1144.1807806187467
 20
1013.0080742631999
 30
0.0
  0
VERTEX
  5
102
100
AcDbEntity
  8
0
370
              15
  6
Continuous
 62
               7
100
AcDbVertex
100
AcDb2dVertex
 10
1144.2649308514469
 20
1013.5047901585999
 30
0.0
  0
VERTEX
  5
103
100
AcDbEntity
  8
0
370
              15
  6
Continuous
 62
               7
100
AcDbVertex
100
AcDb2dVertex
 10
1144.5156633444467
 20
1013.9913703007001
 30
0.0
  0
VERTEX
  5
104
100
AcDbEntity
  8
0
370
              15
  6
Continuous
 62
               7
100
AcDbVertex
100
AcDb2dVertex
 10
1144.9278683230468
 20
1014.4578960896001
 30
0.0
  0
VERTEX
  5
105
100
AcDbEntity
  8
0
370
              15
  6
Continuous
 62
               7
100
AcDbVertex
100
AcDb2dVertex
 10
1145.4931478155468
 20
1014.8948535627001
 30
0.0
  0
VERTEX
  5
106
100
AcDbEntity
  8
0
370
              15
  6
Continuous
 62
               7
100
AcDbVertex
100
AcDb2dVertex
 10
1146.1999235249468
 20
1015.2932995233
 30
0.0
  0
VERTEX
  5
107
100
AcDbEntity
  8
0
370
              15
  6
Continuous
 62
               7
100
AcDbVertex
100
AcDb2dVertex
 10
1147.0337243013469
 20
1015.6451003906
 30
0.0
  0
VERTEX
  5
108
100
AcDbEntity
  8
0
370
              15
  6
Continuous
 62
               7
100
AcDbVertex
100
AcDb2dVertex
 10
1147.9778184790471
 20
1015.9431769011999
 30
0.0
  0
VERTEX
  5
109
100
AcDbEntity
  8
0
370
              15
  6
Continuous
 62
               7
100
AcDbVertex
100
AcDb2dVertex
 10
1149.013189566047
 20
1016.1814447217998
 30
0.0
  0
VERTEX
  5
10A
100
AcDbEntity
  8
0
370
              15
  6
Continuous
 62
               7
100
AcDbVertex
100
AcDb2dVertex
 10
1150.117284680447
 20
1016.3547798633999
 30
0.0
  0
VERTEX
  5
10B
100
AcDbEntity
  8
0
370
              15
  6
Continuous
 62
               7
100
AcDbVertex
100
AcDb2dVertex
 10
1151.2650294479467
 20
1016.4596926028998
 30
0.0
  0
VERTEX
  5
10C
100
AcDbEntity
  8
0
370
              15
  6
Continuous
 62
               7
100
AcDbVertex
100
AcDb2dVertex
 10
1152.4307806183469
 20
1016.4946754510997
 30
0.0
  0
SEQEND
  5
10D
100
AcDbEntity
  8
0
370
              15
  6
Continuous
 62
               7
  0
POLYLINE
  5
10E
100
AcDbEntity
  8
0
370
              15
  6
Continuous
 62
               7
100
AcDb2dPolyline
 66
               1
 10
0.0
 20
0.0
 30
0.0
 75
               5
  0
VERTEX
  5
10F
100
AcDbEntity
  8
0
370
              15
  6
Continuous
 62
               7
100
AcDbVertex
100
AcDb2dVertex
 10
1152.4307806183469
 20
1038.8940374027002
 30
0.0
  0
VERTEX
  5
110
100
AcDbEntity
  8
0
370
              15
  6
Continuous
 62
               7
100
AcDbVertex
100
AcDb2dVertex
 10
1149.3196769826468
 20
1038.7343906607998
 30
0.0
  0
VERTEX
  5
111
100
AcDbEntity
  8
0
370
              15
  6
Continuous
 62
               7
100
AcDbVertex
100
AcDb2dVertex
 10
1146.389379381847
 20
1038.2647285233998
 30
0.0
  0
VERTEX
  5
112
100
AcDbEntity
  8
0
370
              15
  6
Continuous
 62
               7
100
AcDbVertex
100
AcDb2dVertex
 10
1143.8101860612469
 20
1037.5123460467998
 30
0.0
  0
VERTEX
  5
113
100
AcDbEntity
  8
0
370
              15
  6
Continuous
 62
               7
100
AcDbVertex
100
AcDb2dVertex
 10
1141.7319903617467
 20
1036.5209689656999
 30
0.0
  0
VERTEX
  5
114
100
AcDbEntity
  8
0
370
              15
  6
Continuous
 62
               7
100
AcDbVertex
100
AcDb2dVertex
 10
1140.275569463447
 20
1035.3482125125997
 30
0.0
  0
VERTEX
  5
115
100
AcDbEntity
  8
0
370
              15
  6
Continuous
 62
               7
100
AcDbVertex
100
AcDb2dVertex
 10
1139.5255652550468
 20
1034.0622330297997
 30
0.0
  0
VERTEX
  5
116
100
AcDbEntity
  8
0
370
              15
  6
Continuous
 62
               7
100
AcDbVertex
100
AcDb2dVertex
 10
1139.4426414356467
 20
1033.4764774667001
 30
0.0
  0
SEQEND
  5
117
100
AcDbEntity
  8
0
370
              15
  6
Continuous
 62
               7
  0
POLYLINE
  5
118
100
AcDbEntity
  8
0
370
              15
  6
Continuous
 62
               7
100
AcDb2dPolyline
 66
               1
 10
0.0
 20
0.0
 30
0.0
 75
               5
  0
VERTEX
  5
119
100
AcDbEntity
  8
0
370
              15
  6
Continuous
 62
               7
100
AcDbVertex
100
AcDb2dVertex
 10
1152.4307806183469
 20
1017.6568756708998
 30
0.0
  0
VERTEX
  5
11A
100
AcDbEntity
  8
0
370
              15
  6
Continuous
 62
               7
100
AcDbVertex
100
AcDb2dVertex
 10
1150.7100015029469
 20
1017.5996412177997
 30
0.0
  0
VERTEX
  5
11B
100
AcDbEntity
  8
0
370
              15
  6
Continuous
 62
               7
100
AcDbVertex
100
AcDb2dVertex
 10
1149.0315936802467
 20
1017.4293471607998
 30
0.0
  0
VERTEX
  5
11C
100
AcDbEntity
  8
0
370
              15
  6
Continuous
 62
               7
100
AcDbVertex
100
AcDb2dVertex
 10
1147.4368851212471
 20
1017.1501867047
 30
0.0
  0
VERTEX
  5
11D
100
AcDbEntity
  8
0
370
              15
  6
Continuous
 62
               7
100
AcDbVertex
100
AcDb2dVertex
 10
1145.9651428431471
 20
1016.7690337064
 30
0.0
  0
VERTEX
  5
11E
100
AcDbEntity
  8
0
370
              15
  6
Continuous
 62
               7
100
AcDbVertex
100
AcDb2dVertex
 10
1144.6526060253468
 20
1016.2952734177002
 30
0.0
  0
VERTEX
  5
11F
100
AcDbEntity
  8
0
370
              15
  6
Continuous
 62
               7
100
AcDbVertex
100
AcDb2dVertex
 10
1143.5315936802467
 20
1015.7405713892999
 30
0.0
  0
VERTEX
  5
120
100
AcDbEntity
  8
0
370
              15
  6
Continuous
 62
               7
100
AcDbVertex
100
AcDb2dVertex
 10
1142.6997265768468
 20
1015.1756669345
 30
0.0
  0
SEQEND
  5
121
100
AcDbEntity
  8
0
370
              15
  6
Continuous
 62
               7
  0
POLYLINE
  5
122
100
AcDbEntity
  8
0
370
              15
  6
Continuous
 62
               7
100
AcDb2dPolyline
 66
               1
 10
0.0
 20
0.0
 30
0.0
 75
               5
  0
VERTEX
  5
123
100
AcDbEntity
  8
0
370
              15
  6
Continuous
 62
               7
100
AcDbVertex
100
AcDb2dVertex
 10
1152.4307806183469
 20
1018.5021121943
 30
0.0
  0
VERTEX
  5
124
100
AcDbEntity
  8
0
370
              15
  6
Continuous
 62
               7
100
AcDbVertex
100
AcDb2dVertex
 10
1150.7339401195468
 20
1018.4551099426999
 30
0.0
  0
VERTEX
  5
125
100
AcDbEntity
  8
0
370
              15
  6
Continuous
 62
               7
100
AcDbVertex
100
AcDb2dVertex
 10
1149.0661330320468
 20
1018.3149074094999
 30
0.0
  0
VERTEX
  5
126
100
AcDbEntity
  8
0
370
              15
  6
Continuous
 62
               7
100
AcDbVertex
100
AcDb2dVertex
 10
1147.4558959976471
 20
1018.0839034988999
 30
0.0
  0
VERTEX
  5
127
100
AcDbEntity
  8
0
370
              15
  6
Continuous
 62
               7
100
AcDbVertex
100
AcDb2dVertex
 10
1145.9307806183469
 20
1017.7660507516998
 30
0.0
  0
VERTEX
  5
128
100
AcDbEntity
  8
0
370
              15
  6
Continuous
 62
               7
100
AcDbVertex
100
AcDb2dVertex
 10
1144.5168820412468
 20
1017.3667877168
 30
0.0
  0
VERTEX
  5
129
100
AcDbEntity
  8
0
370
              15
  6
Continuous
 62
               7
100
AcDbVertex
100
AcDb2dVertex
 10
1143.2383924629471
 20
1016.8929458951998
 30
0.0
  0
VERTEX
  5
12A
100
AcDbEntity
  8
0
370
              15
  6
Continuous
 62
               7
100
AcDbVertex
100
AcDb2dVertex
 10
1142.1171871945471
 20
1016.3526328519997
 30
0.0
  0
VERTEX
  5
12B
100
AcDbEntity
  8
0
370
              15
  6
Continuous
 62
               7
100
AcDbVertex
100
AcDb2dVertex
 10
1141.1724503691471
 20
1015.755093493
 30
0.0
  0
VERTEX
  5
12C
100
AcDbEntity
  8
0
370
              15
  6
Continuous
 62
               7
100
AcDbVertex
100
AcDb2dVertex
 10
1140.420346695747
 20
1015.1105518824997
 30
0.0
  0
VERTEX
  5
12D
100
AcDbEntity
  8
0
370
              15
  6
Continuous
 62
               7
100
AcDbVertex
100
AcDb2dVertex
 10
1139.8737448766469
 20
1014.4300363059997
 30
0.0
  0
VERTEX
  5
12E
100
AcDbEntity
  8
0
370
              15
  6
Continuous
 62
               7
100
AcDbVertex
100
AcDb2dVertex
 10
1139.541997420547
 20
1013.7251905737999
 30
0.0
  0
VERTEX
  5
12F
100
AcDbEntity
  8
0
370
              15
  6
Continuous
 62
               7
100
AcDbVertex
100
AcDb2dVertex
 10
1139.4307806183469
 20
1013.0080747917
 30
0.0
  0
SEQEND
  5
130
100
AcDbEntity
  8
0
370
              15
  6
Continuous
 62
               7
  0
POLYLINE
  5
131
100
AcDbEntity
  8
0
370
              15
  6
Continuous
 62
               7
100
AcDb2dPolyline
 66
               1
 10
0.0
 20
0.0
 30
0.0
 75
               5
  0
VERTEX
  5
132
100
AcDbEntity
  8
0
370
              15
  6
Continuous
 62
               7
100
AcDbVertex
100
AcDb2dVertex
 10
1152.4307806183469
 20
1038.8940374027002
 30
0.0
  0
VERTEX
  5
133
100
AcDbEntity
  8
0
370
              15
  6
Continuous
 62
               7
100
AcDbVertex
100
AcDb2dVertex
 10
1150.7339401195468
 20
1038.8470351511
 30
0.0
  0
VERTEX
  5
134
100
AcDbEntity
  8
0
370
              15
  6
Continuous
 62
               7
100
AcDbVertex
100
AcDb2dVertex
 10
1149.0661330320468
 20
1038.7068326178
 30
0.0
  0
VERTEX
  5
135
100
AcDbEntity
  8
0
370
              15
  6
Continuous
 62
               7
100
AcDbVertex
100
AcDb2dVertex
 10
1147.4558959976471
 20
1038.4758287072
 30
0.0
  0
VERTEX
  5
136
100
AcDbEntity
  8
0
370
              15
  6
Continuous
 62
               7
100
AcDbVertex
100
AcDb2dVertex
 10
1145.9307806183469
 20
1038.1579759601
 30
0.0
  0
VERTEX
  5
137
100
AcDbEntity
  8
0
370
              15
  6
Continuous
 62
               7
100
AcDbVertex
100
AcDb2dVertex
 10
1144.5168820412468
 20
1037.7587129251001
 30
0.0
  0
VERTEX
  5
138
100
AcDbEntity
  8
0
370
              15
  6
Continuous
 62
               7
100
AcDbVertex
100
AcDb2dVertex
 10
1143.2383924629471
 20
1037.2848711034999
 30
0.0
  0
VERTEX
  5
139
100
AcDbEntity
  8
0
370
              15
  6
Continuous
 62
               7
100
AcDbVertex
100
AcDb2dVertex
 10
1142.1171871945471
 20
1036.7445580602998
 30
0.0
  0
VERTEX
  5
13A
100
AcDbEntity
  8
0
370
              15
  6
Continuous
 62
               7
100
AcDbVertex
100
AcDb2dVertex
 10
1141.1724503691471
 20
1036.1470187013997
 30
0.0
  0
VERTEX
  5
13B
100
AcDbEntity
  8
0
370
              15
  6
Continuous
 62
               7
100
AcDbVertex
100
AcDb2dVertex
 10
1140.420346695747
 20
1035.5024770907999
 30
0.0
  0
VERTEX
  5
13C
100
AcDbEntity
  8
0
370
              15
  6
Continuous
 62
               7
100
AcDbVertex
100
AcDb2dVertex
 10
1139.8737448766469
 20
1034.8219615142998
 30
0.0
  0
VERTEX
  5
13D
100
AcDbEntity
  8
0
370
              15
  6
Continuous
 62
               7
100
AcDbVertex
100
AcDb2dVertex
 10
1139.541997420547
 20
1034.1171157821
 30
0.0
  0
VERTEX
  5
13E
100
AcDbEntity
  8
0
370
              15
  6
Continuous
 62
               7
100
AcDbVertex
100
AcDb2dVertex
 10
1139.4307806183469
 20
1033.4000000000001
 30
0.0
  0
SEQEND
  5
13F
100
AcDbEntity
  8
0
370
              15
  6
Continuous
 62
               7
  0
LWPOLYLINE
  5
140
100
AcDbEntity
  8
0
370
              15
  6
Continuous
 62
               7
100
AcDbPolyline
 90
       73
 70
             128
 10
1143.1807806183469
 20
1013.9143825788001
 10
1143.1808114836576
 20
1013.9116992058323
 42
0.0148550982482686
 10
1143.1877918436865
 20
1013.7424097326857
 42
0.0162952204381566
 10
1143.2052962572345
 20
1013.5738983212575
 10
1143.2071176056268
 20
1013.5605979376764
 42
0.0168859028175629
 10
1143.2330952500854
 20
1013.4091375136748
 42
0.0133301651059303
 10
1143.2681798017347
 20
1013.2594901838243
 10
1143.2690077347302
 20
1013.2563392255561
 42
0.0184047184332575
 10
1143.3153835308872
 20
1013.1030331565169
 10
1143.3199009274404
 20
1013.0898686155169
 42
0.0173584953661269
 10
1143.3870659572615
 20
1012.9142432802614
 10
1143.3911017109222
 20
1012.9046971203833
 42
0.0164022274503223
 10
1143.4612898996502
 20
1012.7527693801721
 10
1143.4704248016735
 20
1012.734587340806
 42
0.0122047590721446
 10
1143.5300579402578
 20
1012.6227826172437
 42
0.0086298946592089
 10
1143.5943061828816
 20
1012.5135427204391
 10
1143.6030427965252
 20
1012.4992580831979
 42
0.0163036167109257
 10
1143.691014879751
 20
1012.3654271945667
 10
1143.7081876235243
 20
1012.3410711119936
 42
0.0151728431094116
 10
1143.8327890422975
 20
1012.1752687052053
 10
1143.8469658577428
 20
1012.1575500957503
 42
0.0133074665570347
 10
1143.951541689147
 20
1012.0337506658316
 10
1143.9645819523964
 20
1012.0191214213297
 42
0.0077062251595762
 10
1144.0477672787536
 20
1011.9286464179991
 42
0.0074574386332545
 10
1144.13365839472
 20
1011.8407347072217
 10
1144.1554661267817
 20
1011.8190699712541
 42
0.0138128575978107
 10
1144.2897723578237
 20
1011.6928209289736
 10
1144.3127537792268
 20
1011.6723840052421
 42
0.0125070187513253
 10
1144.5004819703513
 20
1011.5136687039063
 10
1144.5026568957135
 20
1011.5119212802376
 42
0.0117827294179357
 10
1144.7023071614885
 20
1011.3591132096391
 10
1144.7078238159188
 20
1011.3550934132486
 42
0.0114858643536061
 10
1144.9255812704505
 20
1011.2039541784475
 10
1144.9289555463092
 20
1011.2017252557266
 42
0.0104768644502174
 10
1145.1599859217581
 20
1011.0559741538873
 42
0.0094552870737149
 10
1145.396648521159
 20
1010.919541931054
 10
1145.4002980612622
 20
1010.9175289965838
 42
0.0091113994219
 10
1145.6492354879517
 20
1010.7860834438713
 10
1145.6539883545283
 20
1010.783683516501
 42
0.0085717391647452
 10
1145.917007817686
 20
1010.6564842221198
 10
1145.9180610553269
 20
1010.6559969616085
 42
0.0078894424866516
 10
1146.1872521706764
 20
1010.536580346041
 10
1146.1879167427519
 20
1010.5362979967304
 42
0.0072619052344837
 10
1146.4619445510375
 20
1010.4245446204285
 10
1146.466242844318
 20
1010.4228640859033
 42
0.0071163743506396
 10
1146.7520143414793
 20
1010.3157972982905
 10
1146.7556765696543
 20
1010.3144843403311
 42
0.0066723826431934
 10
1147.051651187845
 20
1010.2128098152548
 42
0.0062223580897897
 10
1147.3501504992723
 20
1010.1188008317807
 10
1147.3522126574658
 20
1010.1181794777197
 42
0.0059575606178841
 10
1147.6570536751929
 20
1010.0302750157711
 10
1147.6609585279039
 20
1010.0291992307878
 42
0.0057972914852303
 10
1147.975616457139
 20
1009.9464239955649
 10
1147.977456904101
 20
1009.9459625871946
 42
0.0055098698141217
 10
1148.2975979941409
 20
1009.8694411598087
 42
0.0052117443931318
 10
1148.6193074841408
 20
1009.7998013332616
 10
1148.6222097641007
 20
1009.7992046813706
 42
0.0051588561970503
 10
1148.951110963294
 20
1009.7351185756856
 10
1148.9543253756499
 20
1009.7345266066907
 42
0.0050044619875998
 10
1149.2909022518324
 20
1009.6760190180491
 10
1149.2912051499416
 20
1009.6759694828304
 42
0.0048309034225377
 10
1149.6294755652577
 20
1009.6240000601791
 10
1149.630115868214
 20
1009.6239080119237
 42
0.0047173020224372
 10
1149.9705999334503
 20
1009.5782352762767
 10
1150.0600694003524
 20
1009.567092019199
 42
0.0091730284548579
 10
1150.5809359208217
 20
1009.5119018241871
 10
1150.5825547718878
 20
1009.5117602705066
 42
0.0043936236772945
 10
1151.1080345140545
 20
1009.4704612287118
 10
1151.1099327411221
 20
1009.4703288132698
 42
0.0087914456465809
 10
1151.6400576039516
 20
1009.4427043985194
 10
1151.7297802184028
 20
1009.4396095601244
 42
0.0086646620379928
 10
1152.4196454359126
 20
1009.4277766295745
 10
1152.430780617447
 20
1009.4277819193999
  0
POLYLINE
  5
141
100
AcDbEntity
  8
0
370
              15
  6
Continuous
 62
               7
100
AcDb2dPolyline
 66
               1
 10
0.0
 20
0.0
 30
0.0
 75
               5
  0
VERTEX
  5
142
100
AcDbEntity
  8
0
370
              15
  6
Continuous
 62
               7
100
AcDbVertex
100
AcDb2dVertex
 10
1139.4307806183469
 20
1013.0080747917
 30
0.0
  0
VERTEX
  5
143
100
AcDbEntity
  8
0
370
              15
  6
Continuous
 62
               7
100
AcDbVertex
100
AcDb2dVertex
 10
1139.541997420547
 20
1012.2909590096001
 30
0.0
  0
VERTEX
  5
144
100
AcDbEntity
  8
0
370
              15
  6
Continuous
 62
               7
100
AcDbVertex
100
AcDb2dVertex
 10
1139.8737448766469
 20
1011.5861132773998
 30
0.0
  0
VERTEX
  5
145
100
AcDbEntity
  8
0
370
              15
  6
Continuous
 62
               7
100
AcDbVertex
100
AcDb2dVertex
 10
1140.420346695747
 20
1010.9055977008998
 30
0.0
  0
VERTEX
  5
146
100
AcDbEntity
  8
0
370
              15
  6
Continuous
 62
               7
100
AcDbVertex
100
AcDb2dVertex
 10
1141.1724503691471
 20
1010.2610560904
 30
0.0
  0
VERTEX
  5
147
100
AcDbEntity
  8
0
370
              15
  6
Continuous
 62
               7
100
AcDbVertex
100
AcDb2dVertex
 10
1142.1171871945471
 20
1009.6635167314998
 30
0.0
  0
VERTEX
  5
148
100
AcDbEntity
  8
0
370
              15
  6
Continuous
 62
               7
100
AcDbVertex
100
AcDb2dVertex
 10
1143.2383924629471
 20
1009.1232036881997
 30
0.0
  0
VERTEX
  5
149
100
AcDbEntity
  8
0
370
              15
  6
Continuous
 62
               7
100
AcDbVertex
100
AcDb2dVertex
 10
1144.5168820412468
 20
1008.6493618667
 30
0.0
  0
VERTEX
  5
14A
100
AcDbEntity
  8
0
370
              15
  6
Continuous
 62
               7
100
AcDbVertex
100
AcDb2dVertex
 10
1145.9307806183469
 20
1008.2500988317001
 30
0.0
  0
VERTEX
  5
14B
100
AcDbEntity
  8
0
370
              15
  6
Continuous
 62
               7
100
AcDbVertex
100
AcDb2dVertex
 10
1147.4558959976471
 20
1007.9322460846001
 30
0.0
  0
VERTEX
  5
14C
100
AcDbEntity
  8
0
370
              15
  6
Continuous
 62
               7
100
AcDbVertex
100
AcDb2dVertex
 10
1149.0661330320468
 20
1007.7012421739
 30
0.0
  0
VERTEX
  5
14D
100
AcDbEntity
  8
0
370
              15
  6
Continuous
 62
               7
100
AcDbVertex
100
AcDb2dVertex
 10
1150.7339401195468
 20
1007.5610396406996
 30
0.0
  0
VERTEX
  5
14E
100
AcDbEntity
  8
0
370
              15
  6
Continuous
 62
               7
100
AcDbVertex
100
AcDb2dVertex
 10
1152.4307806183469
 20
1007.5140373890999
 30
0.0
  0
SEQEND
  5
14F
100
AcDbEntity
  8
0
370
              15
  6
Continuous
 62
               7
  0
POLYLINE
  5
150
100
AcDbEntity
  8
0
370
              15
  6
Continuous
 62
               7
100
AcDb2dPolyline
 66
               1
 10
0.0
 20
0.0
 30
0.0
 75
               5
  0
VERTEX
  5
151
100
AcDbEntity
  8
0
370
              15
  6
Continuous
 62
               7
100
AcDbVertex
100
AcDb2dVertex
 10
1165.4307806183469
 20
1013.0080747917
 30
0.0
  0
VERTEX
  5
152
100
AcDbEntity
  8
0
370
              15
  6
Continuous
 62
               7
100
AcDbVertex
100
AcDb2dVertex
 10
1165.319563816247
 20
1012.2909590096001
 30
0.0
  0
VERTEX
  5
153
100
AcDbEntity
  8
0
370
              15
  6
Continuous
 62
               7
100
AcDbVertex
100
AcDb2dVertex
 10
1164.987816360147
 20
1011.5861132773998
 30
0.0
  0
VERTEX
  5
154
100
AcDbEntity
  8
0
370
              15
  6
Continuous
 62
               7
100
AcDbVertex
100
AcDb2dVertex
 10
1164.441214541047
 20
1010.9055977008998
 30
0.0
  0
VERTEX
  5
155
100
AcDbEntity
  8
0
370
              15
  6
Continuous
 62
               7
100
AcDbVertex
100
AcDb2dVertex
 10
1163.6891108675468
 20
1010.2610560904
 30
0.0
  0
VERTEX
  5
156
100
AcDbEntity
  8
0
370
              15
  6
Continuous
 62
               7
100
AcDbVertex
100
AcDb2dVertex
 10
1162.7443740421468
 20
1009.6635167314998
 30
0.0
  0
VERTEX
  5
157
100
AcDbEntity
  8
0
370
              15
  6
Continuous
 62
               7
100
AcDbVertex
100
AcDb2dVertex
 10
1161.6231687737468
 20
1009.1232036881997
 30
0.0
  0
VERTEX
  5
158
100
AcDbEntity
  8
0
370
              15
  6
Continuous
 62
               7
100
AcDbVertex
100
AcDb2dVertex
 10
1160.344679195447
 20
1008.6493618667
 30
0.0
  0
VERTEX
  5
159
100
AcDbEntity
  8
0
370
              15
  6
Continuous
 62
               7
100
AcDbVertex
100
AcDb2dVertex
 10
1158.9307806183469
 20
1008.2500988317001
 30
0.0
  0
VERTEX
  5
15A
100
AcDbEntity
  8
0
370
              15
  6
Continuous
 62
               7
100
AcDbVertex
100
AcDb2dVertex
 10
1157.4056652391469
 20
1007.9322460846001
 30
0.0
  0
VERTEX
  5
15B
100
AcDbEntity
  8
0
370
              15
  6
Continuous
 62
               7
100
AcDbVertex
100
AcDb2dVertex
 10
1155.7954282047467
 20
1007.7012421739
 30
0.0
  0
VERTEX
  5
15C
100
AcDbEntity
  8
0
370
              15
  6
Continuous
 62
               7
100
AcDbVertex
100
AcDb2dVertex
 10
1154.1276211172467
 20
1007.5610396406996
 30
0.0
  0
VERTEX
  5
15D
100
AcDbEntity
  8
0
370
              15
  6
Continuous
 62
               7
100
AcDbVertex
100
AcDb2dVertex
 10
1152.4307806183469
 20
1007.5140373890999
 30
0.0
  0
SEQEND
  5
15E
100
AcDbEntity
  8
0
370
              15
  6
Continuous
 62
               7
  0
POLYLINE
  5
15F
100
AcDbEntity
  8
0
370
              15
  6
Continuous
 62
               7
100
AcDb2dPolyline
 66
               1
 10
0.0
 20
0.0
 30
0.0
 75
               5
  0
VERTEX
  5
160
100
AcDbEntity
  8
0
370
              15
  6
Continuous
 62
               7
100
AcDbVertex
100
AcDb2dVertex
 10
1162.161834659847
 20
1015.1756669345
 30
0.0
  0
VERTEX
  5
161
100
AcDbEntity
  8
0
370
              15
  6
Continuous
 62
               7
100
AcDbVertex
100
AcDb2dVertex
 10
1162.8924022976471
 20
1014.4446332667999
 30
0.0
  0
VERTEX
  5
162
100
AcDbEntity
  8
0
370
              15
  6
Continuous
 62
               7
100
AcDbVertex
100
AcDb2dVertex
 10
1163.2953523649467
 20
1013.7353074703001
 30
0.0
  0
VERTEX
  5
163
100
AcDbEntity
  8
0
370
              15
  6
Continuous
 62
               7
100
AcDbVertex
100
AcDb2dVertex
 10
1163.4307806183469
 20
1013.0080747917
 30
0.0
  0
VERTEX
  5
164
100
AcDbEntity
  8
0
370
              15
  6
Continuous
 62
               7
100
AcDbVertex
100
AcDb2dVertex
 10
1163.2953523649467
 20
1012.2808421130999
 30
0.0
  0
VERTEX
  5
165
100
AcDbEntity
  8
0
370
              15
  6
Continuous
 62
               7
100
AcDbVertex
100
AcDb2dVertex
 10
1162.8924022976471
 20
1011.5715163166001
 30
0.0
  0
VERTEX
  5
166
100
AcDbEntity
  8
0
370
              15
  6
Continuous
 62
               7
100
AcDbVertex
100
AcDb2dVertex
 10
1162.2318523844469
 20
1010.8975633574
 30
0.0
  0
VERTEX
  5
167
100
AcDbEntity
  8
0
370
              15
  6
Continuous
 62
               7
100
AcDbVertex
100
AcDb2dVertex
 10
1161.3299675564467
 20
1010.2755781941
 30
0.0
  0
VERTEX
  5
168
100
AcDbEntity
  8
0
370
              15
  6
Continuous
 62
               7
100
AcDbVertex
100
AcDb2dVertex
 10
1160.2089552114467
 20
1009.7208761656998
 30
0.0
  0
VERTEX
  5
169
100
AcDbEntity
  8
0
370
              15
  6
Continuous
 62
               7
100
AcDbVertex
100
AcDb2dVertex
 10
1158.8964183935468
 20
1009.2471158769999
 30
0.0
  0
VERTEX
  5
16A
100
AcDbEntity
  8
0
370
              15
  6
Continuous
 62
               7
100
AcDbVertex
100
AcDb2dVertex
 10
1157.4246761155468
 20
1008.8659628787
 30
0.0
  0
VERTEX
  5
16B
100
AcDbEntity
  8
0
370
              15
  6
Continuous
 62
               7
100
AcDbVertex
100
AcDb2dVertex
 10
1155.8299675564467
 20
1008.5868024225997
 30
0.0
  0
VERTEX
  5
16C
100
AcDbEntity
  8
0
370
              15
  6
Continuous
 62
               7
100
AcDbVertex
100
AcDb2dVertex
 10
1154.1515597338471
 20
1008.4165083655998
 30
0.0
  0
VERTEX
  5
16D
100
AcDbEntity
  8
0
370
              15
  6
Continuous
 62
               7
100
AcDbVertex
100
AcDb2dVertex
 10
1152.4307806183469
 20
1008.3592739126002
 30
0.0
  0
SEQEND
  5
16E
100
AcDbEntity
  8
0
370
              15
  6
Continuous
 62
               7
  0
POLYLINE
  5
16F
100
AcDbEntity
  8
0
370
              15
  6
Continuous
 62
               7
100
AcDb2dPolyline
 66
               1
 10
0.0
 20
0.0
 30
0.0
 75
               5
  0
VERTEX
  5
170
100
AcDbEntity
  8
0
370
              15
  6
Continuous
 62
               7
100
AcDbVertex
100
AcDb2dVertex
 10
1152.4307806183469
 20
1016.4946754510997
 30
0.0
  0
VERTEX
  5
171
100
AcDbEntity
  8
0
370
              15
  6
Continuous
 62
               7
100
AcDbVertex
100
AcDb2dVertex
 10
1153.596547877647
 20
1016.4596916021997
 30
0.0
  0
VERTEX
  5
172
100
AcDbEntity
  8
0
370
              15
  6
Continuous
 62
               7
100
AcDbVertex
100
AcDb2dVertex
 10
1154.7442788576468
 20
1016.3547796120997
 30
0.0
  0
VERTEX
  5
173
100
AcDbEntity
  8
0
370
              15
  6
Continuous
 62
               7
100
AcDbVertex
100
AcDb2dVertex
 10
1155.848367351447
 20
1016.1814455551998
 30
0.0
  0
VERTEX
  5
174
100
AcDbEntity
  8
0
370
              15
  6
Continuous
 62
               7
100
AcDbVertex
100
AcDb2dVertex
 10
1156.8837382422471
 20
1015.9431781384001
 30
0.0
  0
VERTEX
  5
175
100
AcDbEntity
  8
0
370
              15
  6
Continuous
 62
               7
100
AcDbVertex
100
AcDb2dVertex
 10
1157.8278339290468
 20
1015.6451014986001
 30
0.0
  0
VERTEX
  5
176
100
AcDbEntity
  8
0
370
              15
  6
Continuous
 62
               7
100
AcDbVertex
100
AcDb2dVertex
 10
1158.6616354225471
 20
1015.2933006485
 30
0.0
  0
VERTEX
  5
177
100
AcDbEntity
  8
0
370
              15
  6
Continuous
 62
               7
100
AcDbVertex
100
AcDb2dVertex
 10
1159.368411533047
 20
1014.8948548122999
 30
0.0
  0
VERTEX
  5
178
100
AcDbEntity
  8
0
370
              15
  6
Continuous
 62
               7
100
AcDbVertex
100
AcDb2dVertex
 10
1159.9336915514468
 20
1014.4578973583998
 30
0.0
  0
VERTEX
  5
179
100
AcDbEntity
  8
0
370
              15
  6
Continuous
 62
               7
100
AcDbVertex
100
AcDb2dVertex
 10
1160.3458970599468
 20
1013.9913715069001
 30
0.0
  0
VERTEX
  5
17A
100
AcDbEntity
  8
0
370
              15
  6
Continuous
 62
               7
100
AcDbVertex
100
AcDb2dVertex
 10
1160.5966300043469
 20
1013.5047912865998
 30
0.0
  0
VERTEX
  5
17B
100
AcDbEntity
  8
0
370
              15
  6
Continuous
 62
               7
100
AcDbVertex
100
AcDb2dVertex
 10
1160.6807806179468
 20
1013.0080753202997
 30
0.0
  0
VERTEX
  5
17C
100
AcDbEntity
  8
0
370
              15
  6
Continuous
 62
               7
100
AcDbVertex
100
AcDb2dVertex
 10
1160.596630385247
 20
1012.5113594249001
 30
0.0
  0
VERTEX
  5
17D
100
AcDbEntity
  8
0
370
              15
  6
Continuous
 62
               7
100
AcDbVertex
100
AcDb2dVertex
 10
1160.3458978923468
 20
1012.0247792826999
 30
0.0
  0
VERTEX
  5
17E
100
AcDbEntity
  8
0
370
              15
  6
Continuous
 62
               7
100
AcDbVertex
100
AcDb2dVertex
 10
1159.9336929137467
 20
1011.5582534937998
 30
0.0
  0
VERTEX
  5
17F
100
AcDbEntity
  8
0
370
              15
  6
Continuous
 62
               7
100
AcDbVertex
100
AcDb2dVertex
 10
1159.3684134212467
 20
1011.1212960206999
 30
0.0
  0
VERTEX
  5
180
100
AcDbEntity
  8
0
370
              15
  6
Continuous
 62
               7
100
AcDbVertex
100
AcDb2dVertex
 10
1158.6616377118467
 20
1010.7228500602
 30
0.0
  0
VERTEX
  5
181
100
AcDbEntity
  8
0
370
              15
  6
Continuous
 62
               7
100
AcDbVertex
100
AcDb2dVertex
 10
1157.8278369354471
 20
1010.3710491928
 30
0.0
  0
VERTEX
  5
182
100
AcDbEntity
  8
0
370
              15
  6
Continuous
 62
               7
100
AcDbVertex
100
AcDb2dVertex
 10
1156.8837427576468
 20
1010.0729726821996
 30
0.0
  0
VERTEX
  5
183
100
AcDbEntity
  8
0
370
              15
  6
Continuous
 62
               7
100
AcDbVertex
100
AcDb2dVertex
 10
1155.8483716707469
 20
1009.8347048617002
 30
0.0
  0
VERTEX
  5
184
100
AcDbEntity
  8
0
370
              15
  6
Continuous
 62
               7
100
AcDbVertex
100
AcDb2dVertex
 10
1154.7442765562469
 20
1009.6613697200996
 30
0.0
  0
VERTEX
  5
185
100
AcDbEntity
  8
0
370
              15
  6
Continuous
 62
               7
100
AcDbVertex
100
AcDb2dVertex
 10
1153.5965317888467
 20
1009.5564569804997
 30
0.0
  0
VERTEX
  5
186
100
AcDbEntity
  8
0
370
              15
  6
Continuous
 62
               7
100
AcDbVertex
100
AcDb2dVertex
 10
1152.4307806183469
 20
1009.5214741323998
 30
0.0
  0
SEQEND
  5
187
100
AcDbEntity
  8
0
370
              15
  6
Continuous
 62
               7
  0
POLYLINE
  5
188
100
AcDbEntity
  8
0
370
              15
  6
Continuous
 62
               7
100
AcDb2dPolyline
 66
               1
 10
0.0
 20
0.0
 30
0.0
 75
               5
  0
VERTEX
  5
189
100
AcDbEntity
  8
0
370
              15
  6
Continuous
 62
               7
100
AcDbVertex
100
AcDb2dVertex
 10
1152.4307806183469
 20
1017.6568756708998
 30
0.0
  0
VERTEX
  5
18A
100
AcDbEntity
  8
0
370
              15
  6
Continuous
 62
               7
100
AcDbVertex
100
AcDb2dVertex
 10
1154.1515597338471
 20
1017.5996412177997
 30
0.0
  0
VERTEX
  5
18B
100
AcDbEntity
  8
0
370
              15
  6
Continuous
 62
               7
100
AcDbVertex
100
AcDb2dVertex
 10
1155.8299675564467
 20
1017.4293471607998
 30
0.0
  0
VERTEX
  5
18C
100
AcDbEntity
  8
0
370
              15
  6
Continuous
 62
               7
100
AcDbVertex
100
AcDb2dVertex
 10
1157.4246761155468
 20
1017.1501867047
 30
0.0
  0
VERTEX
  5
18D
100
AcDbEntity
  8
0
370
              15
  6
Continuous
 62
               7
100
AcDbVertex
100
AcDb2dVertex
 10
1158.8964183935468
 20
1016.7690337064
 30
0.0
  0
VERTEX
  5
18E
100
AcDbEntity
  8
0
370
              15
  6
Continuous
 62
               7
100
AcDbVertex
100
AcDb2dVertex
 10
1160.2089552114467
 20
1016.2952734177002
 30
0.0
  0
VERTEX
  5
18F
100
AcDbEntity
  8
0
370
              15
  6
Continuous
 62
               7
100
AcDbVertex
100
AcDb2dVertex
 10
1161.3299675564467
 20
1015.7405713892999
 30
0.0
  0
VERTEX
  5
190
100
AcDbEntity
  8
0
370
              15
  6
Continuous
 62
               7
100
AcDbVertex
100
AcDb2dVertex
 10
1162.161834659847
 20
1015.1756669345
 30
0.0
  0
SEQEND
  5
191
100
AcDbEntity
  8
0
370
              15
  6
Continuous
 62
               7
  0
POLYLINE
  5
192
100
AcDbEntity
  8
0
370
              15
  6
Continuous
 62
               7
100
AcDb2dPolyline
 66
               1
 10
0.0
 20
0.0
 30
0.0
 75
               5
  0
VERTEX
  5
193
100
AcDbEntity
  8
0
370
              15
  6
Continuous
 62
               7
100
AcDbVertex
100
AcDb2dVertex
 10
1152.4307806183469
 20
1018.5021121943
 30
0.0
  0
VERTEX
  5
194
100
AcDbEntity
  8
0
370
              15
  6
Continuous
 62
               7
100
AcDbVertex
100
AcDb2dVertex
 10
1154.1276211172467
 20
1018.4551099426999
 30
0.0
  0
VERTEX
  5
195
100
AcDbEntity
  8
0
370
              15
  6
Continuous
 62
               7
100
AcDbVertex
100
AcDb2dVertex
 10
1155.7954282047467
 20
1018.3149074094999
 30
0.0
  0
VERTEX
  5
196
100
AcDbEntity
  8
0
370
              15
  6
Continuous
 62
               7
100
AcDbVertex
100
AcDb2dVertex
 10
1157.4056652391469
 20
1018.0839034988999
 30
0.0
  0
VERTEX
  5
197
100
AcDbEntity
  8
0
370
              15
  6
Continuous
 62
               7
100
AcDbVertex
100
AcDb2dVertex
 10
1158.9307806183469
 20
1017.7660507516998
 30
0.0
  0
VERTEX
  5
198
100
AcDbEntity
  8
0
370
              15
  6
Continuous
 62
               7
100
AcDbVertex
100
AcDb2dVertex
 10
1160.344679195447
 20
1017.3667877168
 30
0.0
  0
VERTEX
  5
199
100
AcDbEntity
  8
0
370
              15
  6
Continuous
 62
               7
100
AcDbVertex
100
AcDb2dVertex
 10
1161.6231687737468
 20
1016.8929458951998
 30
0.0
  0
VERTEX
  5
19A
100
AcDbEntity
  8
0
370
              15
  6
Continuous
 62
               7
100
AcDbVertex
100
AcDb2dVertex
 10
1162.7443740421468
 20
1016.3526328519997
 30
0.0
  0
VERTEX
  5
19B
100
AcDbEntity
  8
0
370
              15
  6
Continuous
 62
               7
100
AcDbVertex
100
AcDb2dVertex
 10
1163.6891108675468
 20
1015.755093493
 30
0.0
  0
VERTEX
  5
19C
100
AcDbEntity
  8
0
370
              15
  6
Continuous
 62
               7
100
AcDbVertex
100
AcDb2dVertex
 10
1164.441214541047
 20
1015.1105518824997
 30
0.0
  0
VERTEX
  5
19D
100
AcDbEntity
  8
0
370
              15
  6
Continuous
 62
               7
100
AcDbVertex
100
AcDb2dVertex
 10
1164.987816360147
 20
1014.4300363059997
 30
0.0
  0
VERTEX
  5
19E
100
AcDbEntity
  8
0
370
              15
  6
Continuous
 62
               7
100
AcDbVertex
100
AcDb2dVertex
 10
1165.319563816247
 20
1013.7251905737999
 30
0.0
  0
VERTEX
  5
19F
100
AcDbEntity
  8
0
370
              15
  6
Continuous
 62
               7
100
AcDbVertex
100
AcDb2dVertex
 10
1165.4307806183469
 20
1013.0080747917
 30
0.0
  0
SEQEND
  5
1A0
100
AcDbEntity
  8
0
370
              15
  6
Continuous
 62
               7
  0
POLYLINE
  5
1A1
100
AcDbEntity
  8
0
370
              15
  6
Continuous
 62
               7
100
AcDb2dPolyline
 66
               1
 10
0.0
 20
0.0
 30
0.0
 75
               5
  0
VERTEX
  5
1A2
100
AcDbEntity
  8
0
370
              15
  6
Continuous
 62
               7
100
AcDbVertex
100
AcDb2dVertex
 10
1152.4307806183469
 20
1038.8940374027002
 30
0.0
  0
VERTEX
  5
1A3
100
AcDbEntity
  8
0
370
              15
  6
Continuous
 62
               7
100
AcDbVertex
100
AcDb2dVertex
 10
1154.1276211172467
 20
1038.8470351511
 30
0.0
  0
VERTEX
  5
1A4
100
AcDbEntity
  8
0
370
              15
  6
Continuous
 62
               7
100
AcDbVertex
100
AcDb2dVertex
 10
1155.7954282047467
 20
1038.7068326178
 30
0.0
  0
VERTEX
  5
1A5
100
AcDbEntity
  8
0
370
              15
  6
Continuous
 62
               7
100
AcDbVertex
100
AcDb2dVertex
 10
1157.4056652391469
 20
1038.4758287072
 30
0.0
  0
VERTEX
  5
1A6
100
AcDbEntity
  8
0
370
              15
  6
Continuous
 62
               7
100
AcDbVertex
100
AcDb2dVertex
 10
1158.9307806183469
 20
1038.1579759601
 30
0.0
  0
VERTEX
  5
1A7
100
AcDbEntity
  8
0
370
              15
  6
Continuous
 62
               7
100
AcDbVertex
100
AcDb2dVertex
 10
1160.344679195447
 20
1037.7587129251001
 30
0.0
  0
VERTEX
  5
1A8
100
AcDbEntity
  8
0
370
              15
  6
Continuous
 62
               7
100
AcDbVertex
100
AcDb2dVertex
 10
1161.6231687737468
 20
1037.2848711034999
 30
0.0
  0
VERTEX
  5
1A9
100
AcDbEntity
  8
0
370
              15
  6
Continuous
 62
               7
100
AcDbVertex
100
AcDb2dVertex
 10
1162.7443740421468
 20
1036.7445580602998
 30
0.0
  0
VERTEX
  5
1AA
100
AcDbEntity
  8
0
370
              15
  6
Continuous
 62
               7
100
AcDbVertex
100
AcDb2dVertex
 10
1163.6891108675468
 20
1036.1470187013997
 30
0.0
  0
VERTEX
  5
1AB
100
AcDbEntity
  8
0
370
              15
  6
Continuous
 62
               7
100
AcDbVertex
100
AcDb2dVertex
 10
1164.441214541047
 20
1035.5024770907999
 30
0.0
  0
VERTEX
  5
1AC
100
AcDbEntity
  8
0
370
              15
  6
Continuous
 62
               7
100
AcDbVertex
100
AcDb2dVertex
 10
1164.987816360147
 20
1034.8219615142998
 30
0.0
  0
VERTEX
  5
1AD
100
AcDbEntity
  8
0
370
              15
  6
Continuous
 62
               7
100
AcDbVertex
100
AcDb2dVertex
 10
1165.319563816247
 20
1034.1171157821
 30
0.0
  0
VERTEX
  5
1AE
100
AcDbEntity
  8
0
370
              15
  6
Continuous
 62
               7
100
AcDbVertex
100
AcDb2dVertex
 10
1165.4307806183469
 20
1033.4000000000001
 30
0.0
  0
SEQEND
  5
1AF
100
AcDbEntity
  8
0
370
              15
  6
Continuous
 62
               7
  0
LINE
  5
1B0
100
AcDbEntity
  8
0
370
              15
  6
Continuous
 62
               7
100
AcDbLine
 10
1158.4721818549469
 20
1038.2647285233998
 30
0.0
 11
1155.5418842541467
 21
1038.7343906607998
 31
0.0
  0
LWPOLYLINE
  5
1B1
100
AcDbEntity
  8
0
370
              15
  6
Continuous
 62
               7
100
AcDbPolyline
 90
       74
 70
             128
 10
1152.430780617447
 20
1009.4277819193999
 10
1152.4368729609807
 20
1009.4277808137844
 42
0.0087096988964105
 10
1153.1402650306466
 20
1009.4399067223233
 10
1153.2253683897718
 20
1009.4428572830217
 42
0.008825291259338
 10
1153.7578504025887
 20
1009.4707350157557
 10
1153.7598424066928
 20
1009.4708745975394
 42
0.0044076933508725
 10
1154.2874811525021
 20
1009.5125239464387
 10
1154.2891811222182
 20
1009.5126732242005
 42
0.0092399365055207
 10
1154.8120239941979
 20
1009.5683383423886
 10
1154.9019187807135
 20
1009.5795926335022
 42
0.0047271548235802
 10
1155.2435079363497
 20
1009.6256416261429
 10
1155.2441719673589
 20
1009.6257375432622
 42
0.0048523364104148
 10
1155.583489349392
 20
1009.6781173051918
 10
1155.5838012480258
 20
1009.6781685561009
 42
0.0050288636568136
 10
1155.9213934154582
 20
1009.7371343537561
 10
1155.924703571729
 20
1009.7377468943608
 42
0.0051806161523788
 10
1156.2544134882555
 20
1009.8022993993675
 10
1156.2574017279628
 20
1009.8029166690277
 42
0.0052395095810127
 10
1156.5797315779178
 20
1009.8730287208441
 42
0.0055343544477758
 10
1156.900474613079
 20
1009.9500690400896
 10
1156.9023680639125
 20
1009.9505460611075
 42
0.0058257552117371
 10
1157.217501403707
 20
1010.0338547163592
 10
1157.221518057969
 20
1010.0349667863348
 42
0.0059863439127194
 10
1157.5265888525294
 20
1010.1233758539365
 10
1157.5287097815067
 20
1010.1240181186904
 42
0.0062524508687779
 10
1157.8272982871354
 20
1010.2185292709651
 42
0.0067049313348132
 10
1158.1233362658859
 20
1010.3207451011517
 10
1158.1271030701512
 20
1010.3221025002808
 42
0.0071466227453735
 10
1158.4127014369801
 20
1010.429656580297
 10
1158.4171208261926
 20
1010.4313934072032
 42
0.0073011010291333
 10
1158.6907051994431
 20
1010.5435513167415
 10
1158.6913886495847
 20
1010.5438432300897
 42
0.0079183881731045
 10
1158.9600705291691
 20
1010.6636677818426
 10
1158.9611548560215
 20
1010.6641720964756
 42
0.0086108391744651
 10
1159.2235728366413
 20
1010.7917629537787
 10
1159.2588182421655
 20
1010.80965657593
 42
0.0091788649901171
 10
1159.4467161618813
 20
1010.9094294720137
 10
1159.4504636011357
 20
1010.9115084115298
 42
0.0045848374726522
 10
1159.6281115362672
 20
1011.0122021065583
 42
0.0100195836685482
 10
1159.8027097726426
 20
1011.1180207095074
 10
1159.8314602897292
 20
1011.1362430909235
 42
0.005402035070368
 10
1159.9456305006483
 20
1011.2103463698616
 42
0.00557522520989
 10
1160.0581460154058
 20
1011.2869378254308
 10
1160.0884128311029
 20
1011.3080386902966
 42
0.0119243005650878
 10
1160.2463798226195
 20
1011.4238610295597
 10
1160.2483619084469
 20
1011.4253882928191
 42
0.0057360233243705
 10
1160.398245461286
 20
1011.5436434607645
 42
0.0133049203229327
 10
1160.5434763958481
 20
1011.6674834126521
 10
1160.5692132760144
 20
1011.6906400257254
 42
0.0138483399793001
 10
1160.7458344647403
 20
1011.8586339040635
 10
1160.7515316196977
 20
1011.8643615118962
 42
0.0151042084863283
 10
1160.9070850180606
 20
1012.0304930276084
 10
1160.9297900083109
 20
1012.0562595534636
 42
0.0142446876288679
 10
1161.0314317492669
 20
1012.1784544090417
 10
1161.0437033391975
 20
1012.1940928644623
 42
0.0074977980679911
 10
1161.1158968232676
 20
1012.2889897517828
 42
0.009682202922795
 10
1161.1847825954219
 20
1012.3863033414069
 10
1161.1996753826916
 20
1012.408230395723
 42
0.0164678228275219
 10
1161.2916676290531
 20
1012.5537627969981
 10
1161.3032005613522
 20
1012.5734120162933
 42
0.0164685127654907
 10
1161.3953380625981
 20
1012.7429427691054
 10
1161.4018956898135
 20
1012.7560172631493
 42
0.0163716641834546
 10
1161.4704635544661
 20
1012.9046803284211
 42
0.012837782394882
 10
1161.5302388031701
 20
1013.0571017998184
 42
0.0180882029698158
 10
1161.5804540967551
 20
1013.2128531387073
 10
1161.5839113725153
 20
1013.2250732156181
 42
0.0179713521256252
 10
1161.6259851934553
 20
1013.3971708118308
 10
1161.6261903720492
 20
1013.3981634260942
 42
0.0169009393395175
 10
1161.655829391987
 20
1013.5707906700593
 10
1161.6562074406575
 20
1013.5735484101884
 42
0.0163060092505665
 10
1161.6737509108107
 20
1013.7422345948385
 10
1161.6739484611621
 20
1013.7450115732083
 42
0.0148581909676548
 10
1161.6807224062095
 20
1013.9089174228407
 10
1161.6807806183469
 20
1013.9143825788001
  0
ARC
  5
1B2
100
AcDbEntity
  8
0
370
              15
  6
Continuous
 62
               7
100
AcDbCircle
 10
1161.2307806183467
 20
964.09999999999991
 30
0.0
 40
0.2000000000000455
100
AcDbArc
 50
0.0
 51
90.0
  0
ARC
  5
1B3
100
AcDbEntity
  8
0
370
              15
  6
Continuous
 62
               7
100
AcDbCircle
 10
1143.6307806183468
 20
964.09999999999991
 30
0.0
 40
0.1999999999998181
100
AcDbArc
 50
90.0
 51
180.0
  0
LINE
  5
1B4
100
AcDbEntity
  8
0
370
              15
  6
Continuous
 62
               7
100
AcDbLine
 10
1143.4307806183469
 20
964.09999999999991
 30
0.0
 11
1161.4307806183469
 21
964.09999999999991
 31
0.0
  0
LINE
  5
1B5
100
AcDbEntity
  8
0
370
              15
  6
Continuous
 62
               7
100
AcDbLine
 10
1161.2307806183467
 20
964.29999999999973
 30
0.0
 11
1143.6307806183468
 21
964.29999999999973
 31
0.0
  0
ARC
  5
1B6
100
AcDbEntity
  8
0
370
              15
  6
Continuous
 62
               7
100
AcDbCircle
 10
1152.4307806183469
 20
1106.4000000000001
 30
0.0
 40
13.0
100
AcDbArc
 50
0.0
 51
180.0
  0
ARC
  5
1B7
100
AcDbEntity
  8
0
370
              15
  6
Continuous
 62
               7
100
AcDbCircle
 10
1420.9206310634468
 20
1014.1867672703997
 30
0.0
 40
79.213232729700024
100
AcDbArc
 50
24.999999999993339
 51
180.0
  0
ARC
  5
1B8
100
AcDbEntity
  8
0
370
              15
  6
Continuous
 62
               7
100
AcDbCircle
 10
1406.007398333747
 20
964.09999999999991
 30
0.0
 40
0.2000000000000455
100
AcDbArc
 50
0.0
 51
90.0
  0
ARC
  5
1B9
100
AcDbEntity
  8
0
370
              15
  6
Continuous
 62
               7
100
AcDbCircle
 10
1388.4073983337471
 20
964.09999999999991
 30
0.0
 40
0.1999999999998181
100
AcDbArc
 50
90.0
 51
180.0
  0
LINE
  5
1BA
100
AcDbEntity
  8
0
370
              15
  6
Continuous
 62
               7
100
AcDbLine
 10
1388.2073983337468
 20
964.09999999999991
 30
0.0
 11
1406.2073983337468
 21
964.09999999999991
 31
0.0
  0
LINE
  5
1BB
100
AcDbEntity
  8
0
370
              15
  6
Continuous
 62
               7
100
AcDbLine
 10
1388.4073983337471
 20
964.29999999999973
 30
0.0
 11
1406.007398333747
 21
964.29999999999973
 31
0.0
  0
LINE
  5
1BC
100
AcDbEntity
  8
0
370
              15
  6
Continuous
 62
               7
100
AcDbLine
 10
1534.9983104544467
 20
1018.5021121943
 30
0.0
 11
1511.434307991447
 21
1007.5140373890999
 31
0.0
  0
LINE
  5
1BD
100
AcDbEntity
  8
0
370
              15
  6
Continuous
 62
               7
100
AcDbLine
 10
1516.2762031856469
 20
1058.6518007987002
 30
0.0
 11
1534.9983104544467
 21
1018.5021121943
 31
0.0
  0
LINE
  5
1BE
100
AcDbEntity
  8
0
370
              15
  6
Continuous
 62
               7
100
AcDbLine
 10
1525.4893995652469
 20
1038.8940374027002
 30
0.0
 11
1501.9253971022467
 21
1027.9059625974
 31
0.0
  0
LINE
  5
1BF
100
AcDbEntity
  8
0
370
              15
  6
Continuous
 62
               7
100
AcDbLine
 10
1492.7122007227467
 20
1047.6637259934
 30
0.0
 11
1511.434307991447
 21
1007.5140373890999
 31
0.0
  0
ARC
  5
1C0
100
AcDbEntity
  8
一般
370
              15
  6
Continuous
 62
               7
100
AcDbCircle
 10
1152.4307806183469
 20
1380.8394120770147
 30
0.0
 40
29.000000000000007
100
AcDbArc
 50
320.8832562204214
 51
219.11674377957863
  0
LINE
  5
1C1
100
AcDbEntity
  8
0
370
              15
100
AcDbLine
 10
1174.5307806183471
 20
1308.8394120770149
 30
0.0
 11
1165.4307806183469
 21
1308.8394120770149
 31
0.0
  0
LINE
  5
1C2
100
AcDbEntity
  8
0
370
              15
100
AcDbLine
 10
1139.4307806183469
 20
1308.8394120770149
 30
0.0
 11
1130.5307806183471
 21
1308.8394120770149
 31
0.0
  0
LINE
  5
1C3
100
AcDbEntity
  8
0
370
              15
100
AcDbLine
 10
1130.9307806183469
 20
1338.8394120770149
 30
0.0
 11
1139.4307806183469
 21
1338.8394120770149
 31
0.0
  0
LINE
  5
1C4
100
AcDbEntity
  8
0
370
              15
100
AcDbLine
 10
1165.4307806183469
 20
1338.8394120770149
 30
0.0
 11
1173.9307806183469
 21
1338.8394120770149
 31
0.0
  0
LINE
  5
1C5
100
AcDbEntity
  8
0
370
              15
100
AcDbLine
 10
1129.9307806183469
 20
1339.8394120770149
 30
0.0
 11
1139.4307806183469
 21
1339.8394120770149
 31
0.0
  0
LINE
  5
1C6
100
AcDbEntity
  8
0
370
              15
100
AcDbLine
 10
1165.4307806183469
 20
1339.8394120770149
 30
0.0
 11
1174.9307806183469
 21
1339.8394120770149
 31
0.0
  0
ARC
  5
1C7
100
AcDbEntity
  8
0
370
              15
100
AcDbCircle
 10
1150.9766648595471
 20
1343.0771484096149
 30
0.0
 40
19.999999999999964
100
AcDbArc
 50
192.23294747729989
 51
198.17297567124689
  0
LINE
  5
1C8
100
AcDbEntity
  8
0
370
              15
100
AcDbLine
 10
1129.9307806183469
 20
1380.8394120770147
 30
0.0
 11
1129.9307806183469
 21
1339.8394120770149
 31
0.0
  0
ARC
  5
1C9
100
AcDbEntity
  8
0
370
              15
100
AcDbCircle
 10
1130.9307806183469
 20
1339.8394120770149
 30
0.0
 40
1.0
100
AcDbArc
 50
180.0
 51
270.0
  0
ARC
  5
1CA
100
AcDbEntity
  8
0
370
              15
100
AcDbCircle
 10
1130.5307806183471
 20
1309.3394120770149
 30
0.0
 40
0.5
100
AcDbArc
 50
180.0
 51
270.0
  0
LINE
  5
1CB
100
AcDbEntity
  8
0
370
              15
100
AcDbLine
 10
1174.9307806183469
 20
1380.8394120770147
 30
0.0
 11
1174.9307806183469
 21
1339.8394120770149
 31
0.0
  0
ARC
  5
1CC
100
AcDbEntity
  8
0
370
              15
100
AcDbCircle
 10
1173.9307806183469
 20
1339.8394120770149
 30
0.0
 40
1.0
100
AcDbArc
 50
270.0
 51
0.0
  0
ARC
  5
1CD
100
AcDbEntity
  8
0
370
              15
100
AcDbCircle
 10
1153.8848963769469
 20
1343.0771484096149
 30
0.0
 40
19.999999999999993
100
AcDbArc
 50
341.81650838260015
 51
347.76705252270017
  0
POLYLINE
  5
1CE
100
AcDbEntity
  8
一般
370
              15
  6
Continuous
 62
               7
100
AcDb2dPolyline
 66
               1
 10
0.0
 20
0.0
 30
0.0
 75
               5
  0
VERTEX
  5
1CF
100
AcDbEntity
  8
一般
370
              15
  6
Continuous
 62
               7
100
AcDbVertex
100
AcDb2dVertex
 10
1139.4307806183469
 20
1339.8394120770149
 30
0.0
  0
VERTEX
  5
1D0
100
AcDbEntity
  8
一般
370
              15
  6
Continuous
 62
               7
100
AcDbVertex
100
AcDb2dVertex
 10
1129.9307806183469
 20
1339.8394120770149
 30
0.0
  0
VERTEX
  5
1D1
100
AcDbEntity
  8
一般
370
              15
  6
Continuous
 62
               7
100
AcDbVertex
100
AcDb2dVertex
 10
1129.9307806183469
 20
1380.8394120770147
 30
0.0
  0
SEQEND
  5
1D2
100
AcDbEntity
  8
一般
370
              15
  6
Continuous
 62
               7
  0
POLYLINE
  5
1D3
100
AcDbEntity
  8
一般
370
              15
  6
Continuous
 62
               7
100
AcDb2dPolyline
 66
               1
 10
0.0
 20
0.0
 30
0.0
 75
               5
  0
VERTEX
  5
1D4
100
AcDbEntity
  8
一般
370
              15
  6
Continuous
 62
               7
100
AcDbVertex
100
AcDb2dVertex
 10
1165.4307806183469
 20
1339.8394120770149
 30
0.0
  0
VERTEX
  5
1D5
100
AcDbEntity
  8
一般
370
              15
  6
Continuous
 62
               7
100
AcDbVertex
100
AcDb2dVertex
 10
1174.9307806183469
 20
1339.8394120770149
 30
0.0
  0
VERTEX
  5
1D6
100
AcDbEntity
  8
一般
370
              15
  6
Continuous
 62
               7
100
AcDbVertex
100
AcDb2dVertex
 10
1174.9307806183469
 20
1380.8394120770147
 30
0.0
  0
SEQEND
  5
1D7
100
AcDbEntity
  8
一般
370
              15
  6
Continuous
 62
               7
  0
ARC
  5
1D8
100
AcDbEntity
  8
一般
370
              15
  6
Continuous
 62
               7
100
AcDbCircle
 10
1152.4307806183469
 20
1380.8394120770147
 30
0.0
 40
22.500000000000018
100
AcDbArc
 50
305.29439467666015
 51
234.70560532333991
  0
POLYLINE
  5
1D9
100
AcDbEntity
  8
0
370
              15
100
AcDb2dPolyline
 66
               1
 10
0.0
 20
0.0
 30
0.0
 75
               5
  0
VERTEX
  5
1DA
100
AcDbEntity
  8
0
370
              15
100
AcDbVertex
100
AcDb2dVertex
 10
1139.4307806183469
 20
1309.3394120770149
 30
0.0
  0
VERTEX
  5
1DB
100
AcDbEntity
  8
0
370
              15
100
AcDbVertex
100
AcDb2dVertex
 10
1130.0307806183471
 20
1309.3394120770149
 30
0.0
  0
VERTEX
  5
1DC
100
AcDbEntity
  8
0
370
              15
100
AcDbVertex
100
AcDb2dVertex
 10
1130.0307806183471
 20
1336.8394120770149
 30
0.0
  0
VERTEX
  5
1DD
100
AcDbEntity
  8
0
370
              15
100
AcDbVertex
100
AcDb2dVertex
 10
1139.4307806183469
 20
1336.8394120770149
 30
0.0
  0
SEQEND
  5
1DE
100
AcDbEntity
  8
0
370
              15
  0
LINE
  5
1DF
100
AcDbEntity
  8
0
370
              15
100
AcDbLine
 10
1165.4307806183469
 20
1309.3394120770149
 30
0.0
 11
1175.0307806183471
 21
1309.3394120770149
 31
0.0
  0
POLYLINE
  5
1E0
100
AcDbEntity
  8
0
370
              15
100
AcDb2dPolyline
 66
               1
 10
0.0
 20
0.0
 30
0.0
 75
               5
  0
VERTEX
  5
1E1
100
AcDbEntity
  8
0
370
              15
100
AcDbVertex
100
AcDb2dVertex
 10
1165.4307806183469
 20
1336.8394120770149
 30
0.0
  0
VERTEX
  5
1E2
100
AcDbEntity
  8
0
370
              15
100
AcDbVertex
100
AcDb2dVertex
 10
1175.0307806183471
 20
1336.8394120770149
 30
0.0
  0
VERTEX
  5
1E3
100
AcDbEntity
  8
0
370
              15
100
AcDbVertex
100
AcDb2dVertex
 10
1175.0307806183471
 20
1309.2831285398297
 30
0.0
  0
SEQEND
  5
1E4
100
AcDbEntity
  8
0
370
              15
  0
SPLINE
  5
1E5
100
AcDbEntity
  8
一般
370
              15
  6
Continuous
 62
               7
100
AcDbSpline
210
0.0
220
0.0
230
1.0
 70
              13
 71
               2
 72
              19
 73
              16
 74
               0
 42
0.000001
 43
0.000001
 40
0.0
 40
0.0
 40
0.0
 40
1.0
 40
1.0
 40
2.0
 40
2.0
 40
3.0
 40
4.0
 40
5.0
 40
6.0
 40
7.0
 40
8.0
 40
8.0
 40
9.0
 40
9.0
 40
10.0
 40
10.0
 40
10.0
 10
1152.4307806183469
 20
1393.8394120770147
 30
0.0
 41
1.0
 10
1165.4307806183469
 20
1393.8394120770147
 30
0.0
 41
0.7071067811865476
 10
1165.4307806183469
 20
1380.8394120770147
 30
0.0
 41
1.0
 10
1165.4307806183469
 20
1283.5939560166148
 30
0.0
 41
1.0
 10
1165.4307806183469
 20
1186.3484999562147
 30
0.0
 41
1.0
 10
1165.4307806183469
 20
1183.1866994855275
 30
0.0
 41
1.0
 10
1161.9474411167425
 20
1177.710300426902
 30
0.0
 41
1.0
 10
1155.9141201199518
 20
1174.5484999562148
 30
0.0
 41
1.0
 10
1148.9474411167425
 20
1174.5484999562148
 30
0.0
 41
1.0
 10
1142.9141201199518
 20
1177.710300426902
 30
0.0
 41
1.0
 10
1139.4307806183469
 20
1183.1866994855275
 30
0.0
 41
1.0
 10
1139.4307806183469
 20
1186.3484999562147
 30
0.0
 41
1.0
 10
1139.4307806183469
 20
1283.5939560166148
 30
0.0
 41
1.0
 10
1139.4307806183469
 20
1380.8394120770147
 30
0.0
 41
1.0
 10
1139.4307806183469
 20
1393.8394120770147
 30
0.0
 41
0.7071067811865476
 10
1152.4307806183469
 20
1393.8394120770147
 30
0.0
 41
1.0
  0
SPLINE
  5
1E6
100
AcDbEntity
  8
一般
370
              15
  6
Continuous
 62
               7
100
AcDbSpline
210
0.0
220
0.0
230
1.0
 70
               8
 71
               2
 72
              12
 73
               9
 74
               0
 42
0.000001
 43
0.000001
 40
0.0
 40
0.0
 40
0.0
 40
1.0
 40
2.0
 40
3.0
 40
4.0
 40
5.0
 40
6.0
 40
7.0
 40
7.0
 40
7.0
 10
1165.4104212869424
 20
1196.5175522621507
 30
0.0
 10
1165.4307806183469
 20
1197.7237192269206
 30
0.0
 10
1165.4307806183469
 20
1192.6956103747275
 30
0.0
 10
1161.9474411167425
 20
1187.219211316102
 30
0.0
 10
1155.9141201199516
 20
1184.0574108454148
 30
0.0
 10
1148.9474411167425
 20
1184.0574108454148
 30
0.0
 10
1142.9141201199518
 20
1187.219211316102
 30
0.0
 10
1140.0702739471376
 20
1191.690218663075
 30
0.0
 10
1139.4511399497515
 20
1196.5175522621507
 30
0.0
  0
INSERT
  5
1E7
100
AcDbEntity
  8
一般
 62
               7
100
AcDbBlockReference
  2
グループ-2
 10
1450.0
 20
1020.0
 30
0.0
  0
INSERT
  5
1E8
100
AcDbEntity
  8
一般
 62
               7
100
AcDbBlockReference
  2
グループ-3
 10
1450.0
 20
1020.0
 30
0.0
  0
ENDSEC
  0
SECTION
  2
OBJECTS
  0
DICTIONARY
  5
19
100
AcDbDictionary
280
               0
281
               1
  3
ACAD_GROUP
350
1A
  3
ACAD_MLINESTYLE
350
1B
  3
ACAD_LAYOUT
350
1E
  3
ACAD_PLOTSETTINGS
350
22
  3
ACAD_PLOTSTYLENAME
350
1F
  3
ACAD_WIPEOUT_VARS
350
23
  0
DICTIONARY
  5
1A
102
{ACAD_REACTORS
330
19
102
}
100
AcDbDictionary
280
               0
281
               1
  0
DICTIONARY
  5
1B
102
{ACAD_REACTORS
330
19
102
}
100
AcDbDictionary
280
               0
281
               1
  3
Standard
350
1C
  0
MLINESTYLE
  5
1C
102
{ACAD_REACTORS
330
1B
102
}
100
AcDbMlineStyle
  2
Standard
 70
               0
  3

 62
               0
 51
90.0
 52
90.0
 71
               2
 49
0.5
 62
             256
  6
ByLayer
 49
-0.5
 62
             256
  6
ByLayer
  0
ACDBDICTIONARYWDFLT
  5
1F
102
{ACAD_REACTORS
330
19
102
}
100
AcDbDictionary
281
               1
  3
Normal
350
1D
100
AcDbDictionaryWithDefault
340
1D
  0
ACDBPLACEHOLDER
  5
1D
102
{ACAD_REACTORS
330
1F
102
}
  0
LAYOUT
  5
20
102
{ACAD_REACTORS
330
1E
102
}
100
AcDbPlotSettings
  1

  2

  4

  6

 40
0.0
 41
0.0
 42
0.0
 43
0.0
 44
0.0
 45
0.0
 46
0.0
 47
0.0
 48
0.0
 49
0.0
140
0.0
141
0.0
142
1.0
143
1.0
 70
            1024
 72
               0
 73
               0
 74
               0
  7

 75
               0
147
1.0
148
0.0
149
0.0
100
AcDbLayout
  1
Model
 70
               0
 71
               0
 10
0.0
 20
0.0
 11
0.0
 21
0.0
 12
0.0
 22
0.0
 32
0.0
 14
0.0
 24
0.0
 34
0.0
 15
0.0
 25
0.0
 35
0.0
146
0.0
 13
0.0
 23
0.0
 33
0.0
 16
0.0
 26
0.0
 36
0.0
 17
0.0
 27
0.0
 37
0.0
 76
               0
330
A
331
0
345
0
346
0
  0
LAYOUT
  5
21
102
{ACAD_REACTORS
330
1E
102
}
100
AcDbPlotSettings
  1

  2

  4

  6

 40
0.0
 41
0.0
 42
0.0
 43
0.0
 44
0.0
 45
0.0
 46
0.0
 47
0.0
 48
0.0
 49
0.0
140
0.0
141
0.0
142
1.0
143
1.0
 70
               0
 72
               0
 73
               0
 74
               0
  7

 75
               0
147
1.0
148
0.0
149
0.0
100
AcDbLayout
  1
Layout1
 70
               0
 71
               0
 10
0.0
 20
0.0
 11
0.0
 21
0.0
 12
0.0
 22
0.0
 32
0.0
 14
0.0
 24
0.0
 34
0.0
 15
0.0
 25
0.0
 35
0.0
146
0.0
 13
0.0
 23
0.0
 33
0.0
 16
0.0
 26
0.0
 36
0.0
 17
0.0
 27
0.0
 37
0.0
 76
               0
330
B
331
0
345
0
346
0
  0
DICTIONARY
  5
1E
102
{ACAD_REACTORS
330
19
102
}
100
AcDbDictionary
280
               0
281
               1
  3
Layout1
350
21
  3
Model
350
20
  0
DICTIONARY
  5
22
102
{ACAD_REACTORS
330
19
102
}
100
AcDbDictionary
280
               0
281
               1
  0
WIPEOUTVARIABLES
  5
23
100
AcDbWipeoutVariables
 70
               0
  0
ENDSEC
  0
EOF
