  0
SECTION
  2
HEADER
  9
$ACADVER
  1
AC1015
  9
$ACADMAINTVER
 70
               6
  9
$DWGCODEPAGE
  3
ANSI_932
  9
$INSBASE
 10
0.0
 20
0.0
 30
0.0
  9
$EXTMIN
 10
1130.5
 20
745.85786437626905
 30
-7.4083333333333323
  9
$EXTMAX
 10
1836.3324811575601
 20
1427.0829187065078
 30
7.4083333333333323
  9
$LIMMIN
 10
0.0
 20
0.0
  9
$LIMMAX
 10
0.0
 20
0.0
  9
$ORTHOMODE
 70
               0
  9
$REGENMODE
 70
               1
  9
$FILLMODE
 70
               1
  9
$QTEXTMODE
 70
               0
  9
$MIRRTEXT
 70
               1
  9
$LTSCALE
 40
25.399999999999999
  9
$ATTMODE
 70
               1
  9
$TEXTSIZE
 40
0.2
  9
$TRACEWID
 40
1.0
  9
$TEXTSTYLE
  7
Standard
  9
$CLAYER
  8
一般
  9
$CELTYPE
  6
Continuous
  9
$CECOLOR
 62
             256
  9
$CELTSCALE
 40
1.0
  9
$DISPSILH
 70
               0
  9
$DIMSCALE
 40
1.0
  9
$DIMASZ
 40
0.18
  9
$DIMEXO
 40
0.0625
  9
$DIMDLI
 40
0.38
  9
$DIMRND
 40
0.0
  9
$DIMDLE
 40
0.0
  9
$DIMEXE
 40
0.18
  9
$DIMTP
 40
0.0
  9
$DIMTM
 40
0.0
  9
$DIMTXT
 40
0.18
  9
$DIMCEN
 40
0.09
  9
$DIMTSZ
 40
0.0
  9
$DIMTOL
 70
               0
  9
$DIMLIM
 70
               0
  9
$DIMTIH
 70
               1
  9
$DIMTOH
 70
               1
  9
$DIMSE1
 70
               0
  9
$DIMSE2
 70
               0
  9
$DIMTAD
 70
               0
  9
$DIMZIN
 70
               0
  9
$DIMBLK
  1

  9
$DIMASO
 70
               1
  9
$DIMSHO
 70
               1
  9
$DIMPOST
  1

  9
$DIMAPOST
  1

  9
$DIMALT
 70
               0
  9
$DIMALTD
 70
               2
  9
$DIMALTF
 40
25.399999999999999
  9
$DIMLFAC
 40
1.0
  9
$DIMTOFL
 70
               0
  9
$DIMTVP
 40
0.0
  9
$DIMTIX
 70
               0
  9
$DIMSOXD
 70
               0
  9
$DIMSAH
 70
               0
  9
$DIMBLK1
  1

  9
$DIMBLK2
  1

  9
$DIMSTYLE
  2
Standard
  9
$DIMCLRD
 70
               0
  9
$DIMCLRE
 70
               0
  9
$DIMCLRT
 70
               0
  9
$DIMTFAC
 40
1.0
  9
$DIMGAP
 40
0.09
  9
$DIMJUST
 70
               0
  9
$DIMSD1
 70
               0
  9
$DIMSD2
 70
               0
  9
$DIMTOLJ
 70
               1
  9
$DIMTZIN
 70
               0
  9
$DIMALTZ
 70
               0
  9
$DIMALTTZ
 70
               0
  9
$DIMUPT
 70
               0
  9
$DIMDEC
 70
               4
  9
$DIMTDEC
 70
               4
  9
$DIMALTU
 70
               2
  9
$DIMALTTD
 70
               2
  9
$DIMTXSTY
  7
Standard
  9
$DIMAUNIT
 70
               0
  9
$DIMADEC
 70
               0
  9
$DIMALTRND
 40
0.0
  9
$DIMAZIN
 70
               0
  9
$DIMDSEP
 70
               0
  9
$DIMATFIT
 70
               3
  9
$DIMFRAC
 70
               0
  9
$DIMLDRBLK
  1

  9
$DIMLUNIT
 70
               2
  9
$DIMLWD
 70
               0
  9
$DIMLWE
 70
               0
  9
$DIMTMOVE
 70
               0
  9
$LUNITS
 70
               2
  9
$LUPREC
 70
               4
  9
$SKETCHINC
 40
0.1
  9
$FILLETRAD
 40
0.0
  9
$AUNITS
 70
               0
  9
$AUPREC
 70
               0
  9
$MENU
  1
acad
  9
$ELEVATION
 40
0.0
  9
$PELEVATION
 40
0.0
  9
$THICKNESS
 40
0.0
  9
$LIMCHECK
 70
               0
  9
$CHAMFERA
 40
0.0
  9
$CHAMFERB
 40
0.0
  9
$CHAMFERC
 40
0.0
  9
$CHAMFERD
 40
0.0
  9
$SKPOLY
 70
               0
  9
$TDCREATE
 40
2455119.811273148
  9
$TDUCREATE
 40
0.000000000
  9
$TDUPDATE
 40
2455119.811273148
  9
$TDUUPDATE
 40
0.000000000
  9
$TDINDWG
 40
0.0000000000
  9
$TDUSRTIMER
 40
0.0000000000
  9
$USRTIMER
 70
               1
  9
$ANGBASE
 50
0.0
  9
$ANGDIR
 70
               0
  9
$PDMODE
 70
               1
  9
$PDSIZE
 40
-2.0
  9
$PLINEWID
 40
0.0
  9
$SPLFRAME
 70
               0
  9
$SPLINETYPE
 70
               6
  9
$SPLINESEGS
 70
               8
  9
$HANDSEED
  5
1F1
  9
$SURFTAB1
 70
               6
  9
$SURFTAB2
 70
               6
  9
$SURFTYPE
 70
               6
  9
$SURFU
 70
               6
  9
$SURFV
 70
               6
  9
$UCSBASE
  2

  9
$UCSNAME
  2

  9
$UCSORG
 10
0.0
 20
0.0
 30
0.0
  9
$UCSXDIR
 10
1.0
 20
0.0
 30
0.0
  9
$UCSYDIR
 10
0.0
 20
1.0
 30
0.0
  9
$UCSORTHOREF
  2

  9
$UCSORTHOVIEW
 70
               0
  9
$UCSORGTOP
 10
0.0
 20
0.0
 30
0.0
  9
$UCSORGBOTTOM
 10
0.0
 20
0.0
 30
0.0
  9
$UCSORGLEFT
 10
0.0
 20
0.0
 30
0.0
  9
$UCSORGRIGHT
 10
0.0
 20
0.0
 30
0.0
  9
$UCSORGFRONT
 10
0.0
 20
0.0
 30
0.0
  9
$UCSORGBACK
 10
0.0
 20
0.0
 30
0.0
  9
$PUCSBASE
  2

  9
$PUCSNAME
  2

  9
$PUCSORG
 10
0.0
 20
0.0
 30
0.0
  9
$PUCSXDIR
 10
1.0
 20
0.0
 30
0.0
  9
$PUCSYDIR
 10
0.0
 20
1.0
 30
0.0
  9
$PUCSORTHOREF
  2

  9
$PUCSORTHOVIEW
 70
               0
  9
$PUCSORGTOP
 10
0.0
 20
0.0
 30
0.0
  9
$PUCSORGBOTTOM
 10
0.0
 20
0.0
 30
0.0
  9
$PUCSORGLEFT
 10
0.0
 20
0.0
 30
0.0
  9
$PUCSORGRIGHT
 10
0.0
 20
0.0
 30
0.0
  9
$PUCSORGFRONT
 10
0.0
 20
0.0
 30
0.0
  9
$PUCSORGBACK
 10
0.0
 20
0.0
 30
0.0
  9
$USERI1
 70
               0
  9
$USERI2
 70
               0
  9
$USERI3
 70
               0
  9
$USERI4
 70
               0
  9
$USERI5
 70
               0
  9
$USERR1
 40
0.0
  9
$USERR2
 40
0.0
  9
$USERR3
 40
0.0
  9
$USERR4
 40
0.0
  9
$USERR5
 40
0.0
  9
$WORLDVIEW
 70
               1
  9
$SHADEDGE
 70
               3
  9
$SHADEDIF
 70
              70
  9
$TILEMODE
 70
               1
  9
$MAXACTVP
 70
              64
  9
$PINSBASE
 10
0.0
 20
0.0
 30
0.0
  9
$PLIMCHECK
 70
               0
  9
$PEXTMIN
 10
1.0000000000000000E+20
 20
1.0000000000000000E+20
 30
1.0000000000000000E+20
  9
$PEXTMAX
 10
-1.0000000000000000E+20
 20
-1.0000000000000000E+20
 30
-1.0000000000000000E+20
  9
$PLIMMIN
 10
0.0
 20
0.0
  9
$PLIMMAX
 10
12.0
 20
9.0
  9
$UNITMODE
 70
               0
  9
$VISRETAIN
 70
               0
  9
$PLINEGEN
 70
               1
  9
$PSLTSCALE
 70
               0
  9
$TREEDEPTH
 70
            3020
  9
$CMLSTYLE
  2
Standard
  9
$CMLJUST
 70
               0
  9
$CMLSCALE
 40
1.0
  9
$PROXYGRAPHICS
 70
               0
  9
$MEASUREMENT
 70
               1
  9
$CELWEIGHT
370
               0
  9
$ENDCAPS
280
               0
  9
$JOINSTYLE
280
               0
  9
$LWDISPLAY
290
               1
  9
$INSUNITS
 70
               4
  9
$HYPERLINKBASE
  1

  9
$STYLESHEET
  1

  9
$XEDIT
290
               1
  9
$CEPSNTYPE
380
               0
  9
$PSTYLEMODE
290
               1
  9
$FINGERPRINTGUID
  2

  9
$VERSIONGUID
  2

  9
$EXTNAMES
290
               1
  9
$PSVPSCALE
 40
0.0
  0
ENDSEC
  0
SECTION
  2
CLASSES
  0
CLASS
  1
LWPOLYLINE
  2
AcDbPolyline
  3
AutoCAD 2000
 90
        0
280
               0
281
               1
  0
CLASS
  1
IMAGE
  2
AcDbRasterImage
  3
ISM
 90
    32895
280
               0
281
               1
  0
CLASS
  1
OLE2FRAME
  2
AcDbOle2Frame
  3
AutoCAD 2000
 90
    32768
280
               0
281
               1
  0
CLASS
  1
HATCH
  2
AcDbHatch
  3
AutoCAD 2000
 90
    32768
280
               0
281
               1
  0
CLASS
  1
DICTIONARYVAR
  2
AcDbDictionaryVar
  3
AutoCAD 2000
 90
    32768
280
               0
281
               0
  0
CLASS
  1
RASTERVARIABLES
  2
AcDbRasterVariables
  3
ISM
 90
    32768
280
               0
281
               0
  0
CLASS
  1
IMAGEDEF
  2
AcDbRasterImageDef
  3
ISM
 90
    32768
280
               0
281
               0
  0
CLASS
  1
IMAGEDEF_REACTOR
  2
AcDbRasterImageDefReactor
  3
ISM
 90
    32769
280
               0
281
               0
  0
CLASS
  1
IDBUFFER
  2
AcDbIdBuffer
  3
AutoCAD 2000
 90
    32768
280
               0
281
               0
  0
CLASS
  1
SPATIAL_FILTER
  2
AcDbSpatialFilter
  3
AutoCAD 2000
 90
    32768
280
               0
281
               0
  0
CLASS
  1
XRECORD
  2
AcDbXrecord
  3
AutoCAD 2000
 90
    32768
280
               0
281
               0
  0
CLASS
  1
SORTENTSTABLE
  2
AcDbSortentsTable
  3
AutoCAD 2000
 90
    32768
280
               0
281
               0
  0
CLASS
  1
LAYER_INDEX
  2
AcDbLayerIndex
  3
AutoCAD 2000
 90
    32768
280
               0
281
               0
  0
CLASS
  1
SPATIAL_INDEX
  2
AcDbSpatialIndex
  3
AutoCAD 2000
 90
    32768
280
               0
281
               0
  0
CLASS
  1
OBJECT_PTR
  2
CAseDLPNTableRecord
  3
"ASE-LPNTableRecord"
 90
    32769
280
               0
281
               0
  0
CLASS
  1
LAYOUT
  2
AcDbLayout
  3
AutoCAD 2000
 90
        0
280
               0
281
               0
  0
CLASS
  1
PLOTSETTINGS
  2
AcDbPlotSettings
  3
AutoCAD 2000
 90
    32768
280
               0
281
               0
  0
CLASS
  1
ACDBDICTIONARYWDFLT
  2
AcDbDictionaryWithDefault
  3
AutoCAD 2000
 90
        0
280
               0
281
               0
  0
CLASS
  1
ACDBPLACEHOLDER
  2
AcDbPlaceHolder
  3
AutoCAD 2000
 90
        0
280
               0
281
               0
  0
CLASS
  1
VBA_PROJECT
  2
AcDbVbaProject
  3
acadvba
 90
    32768
280
               0
281
               0
  0
CLASS
  1
WIPEOUT
  2
AcDbWipeout
  3
WipeOut|AutoCAD Express Tool|expresstools@autodesk.com
 90
    32895
280
               0
281
               1
  0
CLASS
  1
WIPEOUTVARIABLES
  2
AcDbWipeoutVariables
  3
WipeOut|AutoCAD Express Tool|expresstools@autodesk.com
 90
        0
280
               0
281
               0
  0
CLASS
  1
RTEXT
  2
RText
  3
RText|AutoCAD Express Tool|expresstools@autodesk.com
 90
    32768
280
               0
281
               1
  0
CLASS
  1
ARCALIGNEDTEXT
  2
AcDbArcAlignedText
  3
ATEXT|AutoCAD Express Tool|expresstools@autodesk.com
 90
    32768
280
               0
281
               1
  0
ENDSEC
  0
SECTION
  2
TABLES
  0
TABLE
  2
VPORT
  5
7
100
AcDbSymbolTable
 70
               1
  0
VPORT
  5
15
100
AcDbSymbolTableRecord
100
AcDbViewportTableRecord
  2
*ACTIVE
 70
               0
 10
0.0
 20
0.0
 11
1.0
 21
1.0
 12
1483.4162405787802
 22
1086.4703915413884
 13
0.0
 23
0.0
 14
1.0
 24
1.0
 15
0.0
 25
0.0
 16
0.0
 26
0.0
 36
1.0
 17
0.0
 27
0.0
 37
0.0
 40
681.22505433023878
 41
0.688564
 42
50.0
 43
0.0
 44
0.0
 50
0.0
 51
0.0
 71
               0
 72
            2000
 73
               1
 74
               1
 75
               0
 76
               0
 77
               0
 78
               0
281
               0
 65
               0
110
0.0
120
0.0
130
0.0
111
1.0
121
0.0
131
0.0
112
0.0
122
1.0
132
0.0
345
0
346
0
 79
               0
146
0.0
  0
ENDTAB
  0
TABLE
  2
LTYPE
  5
4
100
AcDbSymbolTable
 70
              14
  0
LTYPE
  5
11
100
AcDbSymbolTableRecord
100
AcDbLinetypeTableRecord
  2
ByBlock
 70
              64
  3

 72
              65
 73
               0
 40
0.0
  0
LTYPE
  5
12
100
AcDbSymbolTableRecord
100
AcDbLinetypeTableRecord
  2
ByLayer
 70
              64
  3

 72
              65
 73
               0
 40
0.0
  0
LTYPE
  5
13
100
AcDbSymbolTableRecord
100
AcDbLinetypeTableRecord
  2
Continuous
 70
              64
  3
Solid line
 72
              65
 73
               0
 40
0.0
  0
LTYPE
  5
29
100
AcDbSymbolTableRecord
100
AcDbLinetypeTableRecord
  2
STYLE_01
 70
               0
  3

 72
              65
 73
               2
 40
0.41664
 49
0.20828
 74
               0
 49
-0.20836
 74
               0
  0
LTYPE
  5
2A
100
AcDbSymbolTableRecord
100
AcDbLinetypeTableRecord
  2
STYLE_02
 70
               0
  3

 72
              65
 73
               2
 40
0.6944250000000001
 49
0.48607
 74
               0
 49
-0.2083550000000001
 74
               0
  0
LTYPE
  5
2B
100
AcDbSymbolTableRecord
100
AcDbLinetypeTableRecord
  2
STYLE_03
 70
               0
  3

 72
              65
 73
               2
 40
1.25
 49
1.0416400000000001
 74
               0
 49
-0.2083599999999999
 74
               0
  0
LTYPE
  5
2C
100
AcDbSymbolTableRecord
100
AcDbLinetypeTableRecord
  2
STYLE_04
 70
               0
  3

 72
              65
 73
               2
 40
1.5277099999999999
 49
1.3194249999999998
 74
               0
 49
-0.208285
 74
               0
  0
LTYPE
  5
2D
100
AcDbSymbolTableRecord
100
AcDbLinetypeTableRecord
  2
STYLE_05
 70
               0
  3

 72
              65
 73
               2
 40
0.20828
 49
0.069425
 74
               0
 49
-0.138855
 74
               0
  0
LTYPE
  5
2E
100
AcDbSymbolTableRecord
100
AcDbLinetypeTableRecord
  2
STYLE_06
 70
               0
  3

 72
              65
 73
               4
 40
1.0416400000000001
 49
0.625
 74
               0
 49
-0.20828
 74
               0
 49
0.06943
 74
               0
 49
-0.13893
 74
               0
  0
LTYPE
  5
2F
100
AcDbSymbolTableRecord
100
AcDbLinetypeTableRecord
  2
STYLE_07
 70
               0
  3

 72
              65
 73
               6
 40
1.875
 49
0.625
 74
               0
 49
-0.20828
 74
               0
 49
0.6250000000000001
 74
               0
 49
-0.2083599999999999
 74
               0
 49
0.06943
 74
               0
 49
-0.1389299999999999
 74
               0
  0
LTYPE
  5
30
100
AcDbSymbolTableRecord
100
AcDbLinetypeTableRecord
  2
STYLE_08
 70
               0
  3

 72
              65
 73
               6
 40
1.25
 49
0.625
 74
               0
 49
-0.20828
 74
               0
 49
0.06943
 74
               0
 49
-0.13893
 74
               0
 49
0.0694299999999999
 74
               0
 49
-0.13893
 74
               0
  0
LTYPE
  5
31
100
AcDbSymbolTableRecord
100
AcDbLinetypeTableRecord
  2
STYLE_09
 70
               0
  3

 72
              65
 73
               4
 40
5.0
 49
3.75
 74
               0
 49
-0.2777849999999998
 74
               0
 49
0.6944300000000003
 74
               0
 49
-0.2777849999999998
 74
               0
  0
LTYPE
  5
32
100
AcDbSymbolTableRecord
100
AcDbLinetypeTableRecord
  2
STYLE_10
 70
               0
  3

 72
              65
 73
               6
 40
5.9375
 49
3.75
 74
               0
 49
-0.2777849999999998
 74
               0
 49
0.6944300000000003
 74
               0
 49
-0.2777849999999998
 74
               0
 49
0.625
 74
               0
 49
-0.3125
 74
               0
  0
LTYPE
  5
33
100
AcDbSymbolTableRecord
100
AcDbLinetypeTableRecord
  2
STYLE_11
 70
               0
  3

 72
              65
 73
               2
 40
0.0643110236220472
 49
0.0321555118110236
 74
               0
 49
-0.0321555118110236
 74
               0
  0
ENDTAB
  0
TABLE
  2
LAYER
  5
2
100
AcDbSymbolTable
 70
               8
  0
LAYER
  5
14
100
AcDbSymbolTableRecord
100
AcDbLayerTableRecord
  2
0
 70
               0
 62
               7
  6
Continuous
290
               1
370
              15
390
1D
  0
LAYER
  5
34
100
AcDbSymbolTableRecord
100
AcDbLayerTableRecord
  2
一般
 70
               0
 62
               7
  6
Continuous
290
               1
370
               5
390
1D
  0
LAYER
  5
35
100
AcDbSymbolTableRecord
100
AcDbLayerTableRecord
  2
寸法
 70
               0
 62
               7
  6
Continuous
290
               1
370
               5
390
1D
  0
LAYER
  5
36
100
AcDbSymbolTableRecord
100
AcDbLayerTableRecord
  2
HATCH
 70
               0
 62
               7
  6
Continuous
290
               1
370
              15
390
1D
  0
LAYER
  5
37
100
AcDbSymbolTableRecord
100
AcDbLayerTableRecord
  2
dim
 70
               0
 62
               7
  6
Continuous
290
               1
370
              15
390
1D
  0
LAYER
  5
38
100
AcDbSymbolTableRecord
100
AcDbLayerTableRecord
  2
DEFAULT_2
 70
               0
 62
               7
  6
STYLE_11
290
               1
370
              15
390
1D
  0
LAYER
  5
39
100
AcDbSymbolTableRecord
100
AcDbLayerTableRecord
  2
1
 70
               0
 62
               7
  6
Continuous
290
               1
370
              15
390
1D
  0
LAYER
  5
3A
100
AcDbSymbolTableRecord
100
AcDbLayerTableRecord
  2
排水
 70
               0
 62
               7
  6
Continuous
290
               1
370
              15
390
1D
  0
ENDTAB
  0
TABLE
  2
STYLE
  5
3
100
AcDbSymbolTable
 70
               3
  0
STYLE
  5
17
100
AcDbSymbolTableRecord
100
AcDbTextStyleTableRecord
  2
Standard
 70
               0
 40
0.0
 41
1.0
 50
0.0
 71
               0
 42
0.0
  3
txt
  4
BIGFONT.SHX
  0
STYLE
  5
27
100
AcDbSymbolTableRecord
100
AcDbTextStyleTableRecord
  2
Arial
 70
               0
 40
0.0
 41
1.0
 50
0.0
 71
               0
 42
0.0
  3

  4
Arial
1001
ACAD
1000
Arial
1071
        0
  0
STYLE
  5
28
100
AcDbSymbolTableRecord
100
AcDbTextStyleTableRecord
  2
ＭＳ ゴシック
 70
               0
 40
0.0
 41
1.0
 50
0.0
 71
               0
 42
0.0
  3

  4
ＭＳ ゴシック
1001
ACAD
1000
ＭＳ ゴシック
1071
        0
  0
ENDTAB
  0
TABLE
  2
VIEW
  5
5
100
AcDbSymbolTable
 70
               0
  0
ENDTAB
  0
TABLE
  2
UCS
  5
6
100
AcDbSymbolTable
 70
               0
  0
ENDTAB
  0
TABLE
  2
APPID
  5
8
100
AcDbSymbolTable
 70
               1
  0
APPID
  5
16
100
AcDbSymbolTableRecord
100
AcDbRegAppTableRecord
  2
ACAD
 70
               0
  0
ENDTAB
  0
TABLE
  2
DIMSTYLE
  5
9
100
AcDbSymbolTable
 70
               1
100
AcDbDimStyleTable
 71
               0
  0
DIMSTYLE
105
18
100
AcDbSymbolTableRecord
100
AcDbDimStyleTableRecord
  2
Standard
 70
               0
  3

  4

 40
1.0
 41
0.18
 42
0.0625
 43
0.38
 44
0.18
 45
0.0
 46
0.0
 47
0.0
 48
0.0
 71
               0
 72
               0
 73
               1
 74
               1
 75
               0
 76
               0
 77
               0
 78
               0
 79
               0
140
0.18
141
0.09
142
0.0
143
25.399999999999999
144
1.0
145
0.0
146
1.0
147
0.09
148
0.0
170
               0
171
               2
172
               0
173
               0
174
               0
175
               0
176
               0
177
               0
178
               0
179
               0
271
               4
272
               4
273
               2
274
               2
275
               0
276
               0
277
               2
278
              46
279
               0
280
               0
281
               0
282
               0
283
               1
284
               0
285
               0
286
               0
288
               0
340
17
341
0
342
0
343
0
344
0
371
              -2
372
              -2
  0
ENDTAB
  0
TABLE
  2
BLOCK_RECORD
  5
1
100
AcDbSymbolTable
 70
               3
  0
BLOCK_RECORD
  5
A
100
AcDbSymbolTableRecord
100
AcDbBlockTableRecord
  2
*MODEL_SPACE
340
20
  0
BLOCK_RECORD
  5
B
100
AcDbSymbolTableRecord
100
AcDbBlockTableRecord
  2
*PAPER_SPACE
340
21
  0
BLOCK_RECORD
  5
24
100
AcDbSymbolTableRecord
100
AcDbBlockTableRecord
  2
グループ
340
0
102
{BLKREFS
331
1EE
102
}
  0
BLOCK_RECORD
  5
25
100
AcDbSymbolTableRecord
100
AcDbBlockTableRecord
  2
グループ-1
340
0
102
{BLKREFS
331
1EF
102
}
  0
BLOCK_RECORD
  5
26
100
AcDbSymbolTableRecord
100
AcDbBlockTableRecord
  2
グループ-2
340
0
102
{BLKREFS
331
1F0
102
}
  0
ENDTAB
  0
ENDSEC
  0
SECTION
  2
BLOCKS
  0
BLOCK
  5
D
100
AcDbEntity
  8
0
100
AcDbBlockBegin
  2
*MODEL_SPACE
 70
               0
 10
0.0
 20
0.0
 30
0.0
  3
*MODEL_SPACE
  1

  0
ENDBLK
  5
E
100
AcDbEntity
  8
0
100
AcDbBlockEnd
  0
BLOCK
  5
F
100
AcDbEntity
 67
               1
  8
0
100
AcDbBlockBegin
  2
*PAPER_SPACE
 70
               0
 10
0.0
 20
0.0
 30
0.0
  3
*PAPER_SPACE
  1

  0
ENDBLK
  5
10
100
AcDbEntity
 67
               1
  8
0
100
AcDbBlockEnd
  0
BLOCK
  5
3B
100
AcDbEntity
  8
一般
100
AcDbBlockBegin
  2
グループ
 70
               0
 10
0.0
 20
0.0
 30
0.0
  3
グループ
  1

  0
LINE
  5
3C
100
AcDbEntity
  8
一般
370
               5
  6
Continuous
 62
               7
100
AcDbLine
 10
-125.64029583208622
 20
-260.0
 30
0.0
 11
-139.78243145581717
 21
-274.14213562373095
 31
0.0
  0
LINE
  5
3D
100
AcDbEntity
  8
一般
370
               5
  6
Continuous
 62
               7
100
AcDbLine
 10
-125.64029583208622
 20
-274.14213562373095
 30
0.0
 11
-139.78243145581717
 21
-260.0
 31
0.0
  0
ENDBLK
  5
3E
100
AcDbEntity
  8
一般
100
AcDbBlockEnd
  0
BLOCK
  5
3F
100
AcDbEntity
  8
一般
100
AcDbBlockBegin
  2
グループ-1
 70
               0
 10
0.0
 20
0.0
 30
0.0
  3
グループ-1
  1

  0
LINE
  5
40
100
AcDbEntity
  8
一般
370
               5
  6
Continuous
 62
               7
100
AcDbLine
 10
-282.92893795073456
 20
-258.99999054519992
 30
0.0
 11
-297.07107357446552
 21
-273.14212616893087
 31
0.0
  0
LINE
  5
41
100
AcDbEntity
  8
一般
370
               5
  6
Continuous
 62
               7
100
AcDbLine
 10
-282.92893795073456
 20
-273.14212616893087
 30
0.0
 11
-297.07107357446552
 21
-258.99999054519992
 31
0.0
  0
ENDBLK
  5
42
100
AcDbEntity
  8
一般
100
AcDbBlockEnd
  0
BLOCK
  5
43
100
AcDbEntity
  8
一般
100
AcDbBlockBegin
  2
グループ-2
 70
               0
 10
0.0
 20
0.0
 30
0.0
  3
グループ-2
  1

  0
LINE
  5
44
100
AcDbEntity
  8
一般
370
               5
  6
Continuous
 62
               7
100
AcDbLine
 10
-282.92893218823457
 20
385.15398651837342
 30
0.0
 11
-297.07106781196552
 21
371.01185089464246
 31
0.0
  0
LINE
  5
45
100
AcDbEntity
  8
一般
370
               5
  6
Continuous
 62
               7
100
AcDbLine
 10
-282.92893218823457
 20
371.01185089464246
 30
0.0
 11
-297.07106781196552
 21
385.15398651837342
 31
0.0
  0
ENDBLK
  5
46
100
AcDbEntity
  8
一般
100
AcDbBlockEnd
  0
ENDSEC
  0
SECTION
  2
ENTITIES
  0
MTEXT
  5
47
100
AcDbEntity
  8
一般
 62
               7
100
AcDbMText
 10
1671.2324838490408
 20
1291.5910654350243
 30
0.0
 40
30.316840277777771
 41
0.0
 71
               1
 72
               1
  1
BX-7202
  7
Arial
 73
               1
 44
0.9673603504928806
  0
MTEXT
  5
48
100
AcDbEntity
  8
一般
 62
               8
100
AcDbMText
 10
1356.3193920339163
 20
1145.498398123417
 30
0.0
 40
8.1442057291666661
 41
7.3612159321675676
 71
               1
 72
               1
  1
0
  7
ＭＳ ゴシック
 73
               1
 44
0.7828267384257843
  0
MTEXT
  5
49
100
AcDbEntity
  8
一般
 62
               8
100
AcDbMText
 10
1405.0
 20
1145.498398123417
 30
0.0
 40
8.1442057291666661
 41
12.75
 71
               1
 72
               1
  1
50
  7
ＭＳ ゴシック
 73
               1
 44
0.7828267384257843
  0
MTEXT
  5
4A
100
AcDbEntity
  8
一般
 62
               8
100
AcDbMText
 10
1451.5
 20
1145.498398123417
 30
0.0
 40
8.1442057291666661
 41
27.999999999999972
 71
               1
 72
               1
  1
100mm
  7
ＭＳ ゴシック
 73
               1
 44
0.7828267384257843
  0
LINE
  5
4B
100
AcDbEntity
  8
寸法
370
              15
 62
               8
100
AcDbLine
 10
1410.0
 20
1135.8725257275837
 30
0.0
 11
1410.0
 21
1127.8725257275837
 31
0.0
  0
POLYLINE
  5
4C
100
AcDbEntity
  8
一般
370
              15
  6
Continuous
 62
               8
100
AcDb2dPolyline
 66
               1
 10
0.0
 20
0.0
 30
0.0
 75
               5
  0
VERTEX
  5
4D
100
AcDbEntity
  8
一般
370
              15
  6
Continuous
 62
               8
100
AcDbVertex
100
AcDb2dVertex
 10
1360.0
 20
1135.8725257275837
 30
0.0
  0
VERTEX
  5
4E
100
AcDbEntity
  8
一般
370
              15
  6
Continuous
 62
               8
100
AcDbVertex
100
AcDb2dVertex
 10
1360.0
 20
1127.8725257275837
 30
0.0
  0
VERTEX
  5
4F
100
AcDbEntity
  8
一般
370
              15
  6
Continuous
 62
               8
100
AcDbVertex
100
AcDb2dVertex
 10
1460.0
 20
1127.8725257275837
 30
0.0
  0
VERTEX
  5
50
100
AcDbEntity
  8
一般
370
              15
  6
Continuous
 62
               8
100
AcDbVertex
100
AcDb2dVertex
 10
1460.0
 20
1135.8725257275837
 30
0.0
  0
SEQEND
  5
51
100
AcDbEntity
  8
一般
370
              15
  6
Continuous
 62
               8
  0
ARC
  5
52
100
AcDbEntity
  8
0
100
AcDbCircle
 10
1409.5018690858483
 20
969.31569945833439
 30
0.0
 40
105.21323272960001
100
AcDbArc
 50
25.000000000000089
 51
180.0
  0
ARC
  5
53
100
AcDbEntity
  8
0
100
AcDbCircle
 10
1160.0
 20
1061.5289321881346
 30
0.0
 40
13.0
100
AcDbArc
 50
0.0
 51
180.0
  0
ARC
  5
54
100
AcDbEntity
  8
0
100
AcDbCircle
 10
1160.0
 20
813.92893218813447
 30
0.0
 40
22.499999999999932
100
AcDbArc
 50
155.83555552429988
 51
24.159843380899705
  0
CIRCLE
  5
55
100
AcDbEntity
  8
0
100
AcDbCircle
 10
1160.0
 20
814.0289321881346
 30
0.0
 40
21.999999608400003
  0
CIRCLE
  5
56
100
AcDbEntity
  8
0
100
AcDbCircle
 10
1160.0
 20
814.0289321881346
 30
0.0
 40
22.5
  0
POLYLINE
  5
57
100
AcDbEntity
  8
0
100
AcDb2dPolyline
 66
               1
 10
0.0
 20
0.0
 30
0.0
 75
               5
  0
VERTEX
  5
58
100
AcDbEntity
  8
0
100
AcDbVertex
100
AcDb2dVertex
 10
1159.9999942374
 20
994.02298678193438
 30
0.0
  0
VERTEX
  5
59
100
AcDbEntity
  8
0
100
AcDbVertex
100
AcDb2dVertex
 10
1161.6968258347999
 20
993.97595553193446
 30
0.0
  0
VERTEX
  5
5A
100
AcDbEntity
  8
0
100
AcDbVertex
100
AcDb2dVertex
 10
1163.3646426749999
 20
993.83577324013459
 30
0.0
  0
VERTEX
  5
5B
100
AcDbEntity
  8
0
100
AcDbVertex
100
AcDb2dVertex
 10
1164.9748857305999
 20
993.60474893473452
 30
0.0
  0
VERTEX
  5
5C
100
AcDbEntity
  8
0
100
AcDbVertex
100
AcDb2dVertex
 10
1166.4999985777999
 20
993.28689303193437
 30
0.0
  0
VERTEX
  5
5D
100
AcDbEntity
  8
0
100
AcDbVertex
100
AcDb2dVertex
 10
1167.9139135083999
 20
992.88767428193455
 30
0.0
  0
VERTEX
  5
5E
100
AcDbEntity
  8
0
100
AcDbVertex
100
AcDb2dVertex
 10
1169.1923857305999
 20
992.41377671233454
 30
0.0
  0
VERTEX
  5
5F
100
AcDbEntity
  8
0
100
AcDbVertex
100
AcDb2dVertex
 10
1170.3136010083999
 20
991.87346421233451
 30
0.0
  0
VERTEX
  5
60
100
AcDbEntity
  8
0
100
AcDbVertex
100
AcDb2dVertex
 10
1171.2583275708
 20
991.27597289293453
 30
0.0
  0
VERTEX
  5
61
100
AcDbEntity
  8
0
100
AcDbVertex
100
AcDb2dVertex
 10
1172.0104326056
 20
990.63138955973454
 30
0.0
  0
VERTEX
  5
62
100
AcDbEntity
  8
0
100
AcDbVertex
100
AcDb2dVertex
 10
1172.557034168
 20
989.95089476793464
 30
0.0
  0
VERTEX
  5
63
100
AcDbEntity
  8
0
100
AcDbVertex
100
AcDb2dVertex
 10
1172.8887746194
 20
989.24603365693451
 30
0.0
  0
VERTEX
  5
64
100
AcDbEntity
  8
0
100
AcDbVertex
100
AcDb2dVertex
 10
1173.0000029180001
 20
988.52895900413455
 30
0.0
  0
SEQEND
  5
65
100
AcDbEntity
  8
0
  0
LINE
  5
66
100
AcDbEntity
  8
0
100
AcDbLine
 10
1168.6205975360001
 20
992.6412767123345
 30
0.0
 11
1166.1755497930001
 21
993.35452324013454
 31
0.0
  0
POLYLINE
  5
67
100
AcDbEntity
  8
0
100
AcDb2dPolyline
 66
               1
 10
0.0
 20
0.0
 30
0.0
 75
               5
  0
VERTEX
  5
68
100
AcDbEntity
  8
0
100
AcDbVertex
100
AcDb2dVertex
 10
1159.9999942374
 20
972.78582532353448
 30
0.0
  0
VERTEX
  5
69
100
AcDbEntity
  8
0
100
AcDbVertex
100
AcDb2dVertex
 10
1161.720766807
 20
972.72858574013458
 30
0.0
  0
VERTEX
  5
6A
100
AcDbEntity
  8
0
100
AcDbVertex
100
AcDb2dVertex
 10
1163.3991869458
 20
972.55826455973443
 30
0.0
  0
VERTEX
  5
6B
100
AcDbEntity
  8
0
100
AcDbVertex
100
AcDb2dVertex
 10
1164.9939048278
 20
972.27911525413447
 30
0.0
  0
VERTEX
  5
6C
100
AcDbEntity
  8
0
100
AcDbVertex
100
AcDb2dVertex
 10
1166.4656365986
 20
971.8979433791344
 30
0.0
  0
VERTEX
  5
6D
100
AcDbEntity
  8
0
100
AcDbVertex
100
AcDb2dVertex
 10
1167.7781669806
 20
971.42422810133439
 30
0.0
  0
VERTEX
  5
6E
100
AcDbEntity
  8
0
100
AcDbVertex
100
AcDb2dVertex
 10
1168.8991999666
 20
970.8695145597344
 30
0.0
  0
VERTEX
  5
6F
100
AcDbEntity
  8
0
100
AcDbVertex
100
AcDb2dVertex
 10
1169.7310576056
 20
970.30459268473442
 30
0.0
  0
SEQEND
  5
70
100
AcDbEntity
  8
0
  0
POLYLINE
  5
71
100
AcDbEntity
  8
0
100
AcDb2dPolyline
 66
               1
 10
0.0
 20
0.0
 30
0.0
 75
               5
  0
VERTEX
  5
72
100
AcDbEntity
  8
0
100
AcDbVertex
100
AcDb2dVertex
 10
1159.9999942374
 20
973.63105101793462
 30
0.0
  0
VERTEX
  5
73
100
AcDbEntity
  8
0
100
AcDbVertex
100
AcDb2dVertex
 10
1161.6968258347999
 20
973.58401976793448
 30
0.0
  0
VERTEX
  5
74
100
AcDbEntity
  8
0
100
AcDbVertex
100
AcDb2dVertex
 10
1163.3646426749999
 20
973.44383747633447
 30
0.0
  0
VERTEX
  5
75
100
AcDbEntity
  8
0
100
AcDbVertex
100
AcDb2dVertex
 10
1164.9748857305999
 20
973.21281317073453
 30
0.0
  0
VERTEX
  5
76
100
AcDbEntity
  8
0
100
AcDbVertex
100
AcDb2dVertex
 10
1166.4999985777999
 20
972.89495726793461
 30
0.0
  0
VERTEX
  5
77
100
AcDbEntity
  8
0
100
AcDbVertex
100
AcDb2dVertex
 10
1167.9139135083999
 20
972.49573851793457
 30
0.0
  0
VERTEX
  5
78
100
AcDbEntity
  8
0
100
AcDbVertex
100
AcDb2dVertex
 10
1169.1923857305999
 20
972.02190171233451
 30
0.0
  0
VERTEX
  5
79
100
AcDbEntity
  8
0
100
AcDbVertex
100
AcDb2dVertex
 10
1170.3136010083999
 20
971.48158921233448
 30
0.0
  0
VERTEX
  5
7A
100
AcDbEntity
  8
0
100
AcDbVertex
100
AcDb2dVertex
 10
1171.2583275708
 20
970.88403712913441
 30
0.0
  0
VERTEX
  5
7B
100
AcDbEntity
  8
0
100
AcDbVertex
100
AcDb2dVertex
 10
1172.0104326056
 20
970.23945379573456
 30
0.0
  0
VERTEX
  5
7C
100
AcDbEntity
  8
0
100
AcDbVertex
100
AcDb2dVertex
 10
1172.557034168
 20
969.55895900413452
 30
0.0
  0
VERTEX
  5
7D
100
AcDbEntity
  8
0
100
AcDbVertex
100
AcDb2dVertex
 10
1172.8887746194
 20
968.85409789293453
 30
0.0
  0
VERTEX
  5
7E
100
AcDbEntity
  8
0
100
AcDbVertex
100
AcDb2dVertex
 10
1173.0000029180001
 20
968.13702324013457
 30
0.0
  0
SEQEND
  5
7F
100
AcDbEntity
  8
0
  0
POLYLINE
  5
80
100
AcDbEntity
  8
0
100
AcDb2dPolyline
 66
               1
 10
0.0
 20
0.0
 30
0.0
 75
               5
  0
VERTEX
  5
81
100
AcDbEntity
  8
0
100
AcDbVertex
100
AcDb2dVertex
 10
1159.9999942374
 20
968.15434094853458
 30
0.0
  0
VERTEX
  5
82
100
AcDbEntity
  8
0
100
AcDbVertex
100
AcDb2dVertex
 10
1161.2960879873999
 20
968.1954781013344
 30
0.0
  0
VERTEX
  5
83
100
AcDbEntity
  8
0
100
AcDbVertex
100
AcDb2dVertex
 10
1162.5689091679999
 20
968.31864650413445
 30
0.0
  0
VERTEX
  5
84
100
AcDbEntity
  8
0
100
AcDbVertex
100
AcDb2dVertex
 10
1163.7963397235999
 20
968.52323851793449
 30
0.0
  0
VERTEX
  5
85
100
AcDbEntity
  8
0
100
AcDbVertex
100
AcDb2dVertex
 10
1164.9571730569999
 20
968.80876803193451
 30
0.0
  0
VERTEX
  5
86
100
AcDbEntity
  8
0
100
AcDbVertex
100
AcDb2dVertex
 10
1166.031144411
 20
969.17572115693451
 30
0.0
  0
VERTEX
  5
87
100
AcDbEntity
  8
0
100
AcDbVertex
100
AcDb2dVertex
 10
1166.9972598623999
 20
969.6258600457345
 30
0.0
  0
VERTEX
  5
88
100
AcDbEntity
  8
0
100
AcDbVertex
100
AcDb2dVertex
 10
1167.8266565638
 20
970.15900240693441
 30
0.0
  0
VERTEX
  5
89
100
AcDbEntity
  8
0
100
AcDbVertex
100
AcDb2dVertex
 10
1168.4771036124
 20
970.75795205973441
 30
0.0
  0
VERTEX
  5
8A
100
AcDbEntity
  8
0
100
AcDbVertex
100
AcDb2dVertex
 10
1168.6449638556001
 20
970.99529580973444
 30
0.0
  0
SEQEND
  5
8B
100
AcDbEntity
  8
0
  0
POLYLINE
  5
8C
100
AcDbEntity
  8
0
100
AcDb2dPolyline
 66
               1
 10
0.0
 20
0.0
 30
0.0
 75
               5
  0
VERTEX
  5
8D
100
AcDbEntity
  8
0
100
AcDbVertex
100
AcDb2dVertex
 10
1169.7310576056
 20
970.30459268473442
 30
0.0
  0
VERTEX
  5
8E
100
AcDbEntity
  8
0
100
AcDbVertex
100
AcDb2dVertex
 10
1170.4616218415999
 20
969.57354233733463
 30
0.0
  0
VERTEX
  5
8F
100
AcDbEntity
  8
0
100
AcDbVertex
100
AcDb2dVertex
 10
1170.8645775708001
 20
968.86424546233457
 30
0.0
  0
VERTEX
  5
90
100
AcDbEntity
  8
0
100
AcDbVertex
100
AcDb2dVertex
 10
1170.9999898972001
 20
968.13702324013457
 30
0.0
  0
VERTEX
  5
91
100
AcDbEntity
  8
0
100
AcDbVertex
100
AcDb2dVertex
 10
1170.8645775708001
 20
967.40980101793457
 30
0.0
  0
VERTEX
  5
92
100
AcDbEntity
  8
0
100
AcDbVertex
100
AcDb2dVertex
 10
1170.4616218415999
 20
966.70044337913441
 30
0.0
  0
VERTEX
  5
93
100
AcDbEntity
  8
0
100
AcDbVertex
100
AcDb2dVertex
 10
1169.8010576055999
 20
966.02651108733448
 30
0.0
  0
VERTEX
  5
94
100
AcDbEntity
  8
0
100
AcDbVertex
100
AcDb2dVertex
 10
1168.8991999666
 20
965.4045319207346
 30
0.0
  0
VERTEX
  5
95
100
AcDbEntity
  8
0
100
AcDbVertex
100
AcDb2dVertex
 10
1167.7781669806
 20
964.84981837913438
 30
0.0
  0
VERTEX
  5
96
100
AcDbEntity
  8
0
100
AcDbVertex
100
AcDb2dVertex
 10
1166.4656365986
 20
964.37604233733464
 30
0.0
  0
VERTEX
  5
97
100
AcDbEntity
  8
0
100
AcDbVertex
100
AcDb2dVertex
 10
1164.9939048278
 20
963.99487046233457
 30
0.0
  0
VERTEX
  5
98
100
AcDbEntity
  8
0
100
AcDbVertex
100
AcDb2dVertex
 10
1163.3991869458
 20
963.71572115693448
 30
0.0
  0
VERTEX
  5
99
100
AcDbEntity
  8
0
100
AcDbVertex
100
AcDb2dVertex
 10
1161.720766807
 20
963.54546074013456
 30
0.0
  0
VERTEX
  5
9A
100
AcDbEntity
  8
0
100
AcDbVertex
100
AcDb2dVertex
 10
1159.9999942374
 20
963.48822115693451
 30
0.0
  0
SEQEND
  5
9B
100
AcDbEntity
  8
0
  0
LINE
  5
9C
100
AcDbEntity
  8
0
100
AcDbLine
 10
1168.8000001906
 20
919.42893218813447
 30
0.0
 11
1151.1999998092001
 21
919.42893218813447
 31
0.0
  0
LINE
  5
9D
100
AcDbEntity
  8
0
100
AcDbLine
 10
1151.0000115985999
 20
919.22895900413459
 30
0.0
 11
1169.0000072584
 21
919.22895900413459
 31
0.0
  0
POLYLINE
  5
9E
100
AcDbEntity
  8
0
100
AcDb2dPolyline
 66
               1
 10
0.0
 20
0.0
 30
0.0
 75
               5
  0
VERTEX
  5
9F
100
AcDbEntity
  8
0
100
AcDbVertex
100
AcDb2dVertex
 10
1173.0000029180001
 20
1008.2867020597344
 30
0.0
  0
VERTEX
  5
A0
100
AcDbEntity
  8
0
100
AcDbVertex
100
AcDb2dVertex
 10
1172.9052112514
 20
1008.9489069207345
 30
0.0
  0
VERTEX
  5
A1
100
AcDbEntity
  8
0
100
AcDbVertex
100
AcDb2dVertex
 10
1172.1552025707999
 20
1010.2349138651346
 30
0.0
  0
VERTEX
  5
A2
100
AcDbEntity
  8
0
100
AcDbVertex
100
AcDb2dVertex
 10
1170.6987833000001
 20
1011.4076569207346
 30
0.0
  0
VERTEX
  5
A3
100
AcDbEntity
  8
0
100
AcDbVertex
100
AcDb2dVertex
 10
1168.6205975359999
 20
1012.3990197679345
 30
0.0
  0
VERTEX
  5
A4
100
AcDbEntity
  8
0
100
AcDbVertex
100
AcDb2dVertex
 10
1166.0414135084
 20
1013.1513982401345
 30
0.0
  0
VERTEX
  5
A5
100
AcDbEntity
  8
0
100
AcDbVertex
100
AcDb2dVertex
 10
1163.1111053485999
 20
1013.6211031013345
 30
0.0
  0
VERTEX
  5
A6
100
AcDbEntity
  8
0
100
AcDbVertex
100
AcDb2dVertex
 10
1159.9999942374
 20
1013.7807298373345
 30
0.0
  0
SEQEND
  5
A7
100
AcDbEntity
  8
0
  0
POLYLINE
  5
A8
100
AcDbEntity
  8
0
100
AcDb2dPolyline
 66
               1
 10
0.0
 20
0.0
 30
0.0
 75
               5
  0
VERTEX
  5
A9
100
AcDbEntity
  8
0
100
AcDbVertex
100
AcDb2dVertex
 10
1173.0000029180001
 20
968.13702324013457
 30
0.0
  0
VERTEX
  5
AA
100
AcDbEntity
  8
0
100
AcDbVertex
100
AcDb2dVertex
 10
1172.8887746194
 20
967.41988782353451
 30
0.0
  0
VERTEX
  5
AB
100
AcDbEntity
  8
0
100
AcDbVertex
100
AcDb2dVertex
 10
1172.557034168
 20
966.71502671233452
 30
0.0
  0
VERTEX
  5
AC
100
AcDbEntity
  8
0
100
AcDbVertex
100
AcDb2dVertex
 10
1172.0104326056
 20
966.03453192073448
 30
0.0
  0
VERTEX
  5
AD
100
AcDbEntity
  8
0
100
AcDbVertex
100
AcDb2dVertex
 10
1171.2583275708
 20
965.39000935133458
 30
0.0
  0
VERTEX
  5
AE
100
AcDbEntity
  8
0
100
AcDbVertex
100
AcDb2dVertex
 10
1170.3136010083999
 20
964.79245726793442
 30
0.0
  0
VERTEX
  5
AF
100
AcDbEntity
  8
0
100
AcDbVertex
100
AcDb2dVertex
 10
1169.1923857305999
 20
964.25214476793462
 30
0.0
  0
VERTEX
  5
B0
100
AcDbEntity
  8
0
100
AcDbVertex
100
AcDb2dVertex
 10
1167.9139135083999
 20
963.77830796233457
 30
0.0
  0
VERTEX
  5
B1
100
AcDbEntity
  8
0
100
AcDbVertex
100
AcDb2dVertex
 10
1166.4999985777999
 20
963.37902844853443
 30
0.0
  0
VERTEX
  5
B2
100
AcDbEntity
  8
0
100
AcDbVertex
100
AcDb2dVertex
 10
1164.9748857305999
 20
963.06117254573451
 30
0.0
  0
VERTEX
  5
B3
100
AcDbEntity
  8
0
100
AcDbVertex
100
AcDb2dVertex
 10
1163.3646426749999
 20
962.83014824013458
 30
0.0
  0
VERTEX
  5
B4
100
AcDbEntity
  8
0
100
AcDbVertex
100
AcDb2dVertex
 10
1161.6968258347999
 20
962.68996594853456
 30
0.0
  0
VERTEX
  5
B5
100
AcDbEntity
  8
0
100
AcDbVertex
100
AcDb2dVertex
 10
1159.9999942374
 20
962.64299546233451
 30
0.0
  0
SEQEND
  5
B6
100
AcDbEntity
  8
0
  0
POLYLINE
  5
B7
100
AcDbEntity
  8
0
100
AcDb2dPolyline
 66
               1
 10
0.0
 20
0.0
 30
0.0
 75
               5
  0
VERTEX
  5
B8
100
AcDbEntity
  8
0
100
AcDbVertex
100
AcDb2dVertex
 10
1169.9999985777999
 20
969.04331664293454
 30
0.0
  0
VERTEX
  5
B9
100
AcDbEntity
  8
0
100
AcDbVertex
100
AcDb2dVertex
 10
1169.9658492721999
 20
968.69434962913442
 30
0.0
  0
VERTEX
  5
BA
100
AcDbEntity
  8
0
100
AcDbVertex
100
AcDb2dVertex
 10
1169.6939916333999
 20
968.00583400413439
 30
0.0
  0
VERTEX
  5
BB
100
AcDbEntity
  8
0
100
AcDbVertex
100
AcDb2dVertex
 10
1169.157719932
 20
967.3456951151345
 30
0.0
  0
VERTEX
  5
BC
100
AcDbEntity
  8
0
100
AcDbVertex
100
AcDb2dVertex
 10
1168.3716782652
 20
966.73179754573448
 30
0.0
  0
VERTEX
  5
BD
100
AcDbEntity
  8
0
100
AcDbVertex
100
AcDb2dVertex
 10
1167.3572251401999
 20
966.18097289293451
 30
0.0
  0
VERTEX
  5
BE
100
AcDbEntity
  8
0
100
AcDbVertex
100
AcDb2dVertex
 10
1166.1421296542001
 20
965.70829060133451
 30
0.0
  0
VERTEX
  5
BF
100
AcDbEntity
  8
0
100
AcDbVertex
100
AcDb2dVertex
 10
1164.7594777443999
 20
965.32651108733467
 30
0.0
  0
VERTEX
  5
C0
100
AcDbEntity
  8
0
100
AcDbVertex
100
AcDb2dVertex
 10
1163.2470037860001
 20
965.04614650413441
 30
0.0
  0
VERTEX
  5
C1
100
AcDbEntity
  8
0
100
AcDbVertex
100
AcDb2dVertex
 10
1161.6459360777999
 20
964.87479233733461
 30
0.0
  0
VERTEX
  5
C2
100
AcDbEntity
  8
0
100
AcDbVertex
100
AcDb2dVertex
 10
1159.9999942374
 20
964.81712740693456
 30
0.0
  0
SEQEND
  5
C3
100
AcDbEntity
  8
0
  0
POLYLINE
  5
C4
100
AcDbEntity
  8
0
100
AcDb2dPolyline
 66
               1
 10
0.0
 20
0.0
 30
0.0
 75
               5
  0
VERTEX
  5
C5
100
AcDbEntity
  8
0
100
AcDbVertex
100
AcDb2dVertex
 10
1168.1635923278
 20
971.23349025413449
 30
0.0
  0
VERTEX
  5
C6
100
AcDbEntity
  8
0
100
AcDbVertex
100
AcDb2dVertex
 10
1167.915128786
 20
970.75132879573448
 30
0.0
  0
VERTEX
  5
C7
100
AcDbEntity
  8
0
100
AcDbVertex
100
AcDb2dVertex
 10
1167.5029065638
 20
970.28478365693445
 30
0.0
  0
VERTEX
  5
C8
100
AcDbEntity
  8
0
100
AcDbVertex
100
AcDb2dVertex
 10
1166.9376201056
 20
969.84783053193451
 30
0.0
  0
VERTEX
  5
C9
100
AcDbEntity
  8
0
100
AcDbVertex
100
AcDb2dVertex
 10
1166.2308449319999
 20
969.44940171233452
 30
0.0
  0
VERTEX
  5
CA
100
AcDbEntity
  8
0
100
AcDbVertex
100
AcDb2dVertex
 10
1165.3970428486
 20
969.09757879573453
 30
0.0
  0
VERTEX
  5
CB
100
AcDbEntity
  8
0
100
AcDbVertex
100
AcDb2dVertex
 10
1164.452954307
 20
968.79953192073458
 30
0.0
  0
VERTEX
  5
CC
100
AcDbEntity
  8
0
100
AcDbVertex
100
AcDb2dVertex
 10
1163.4175984041999
 20
968.56127671233457
 30
0.0
  0
VERTEX
  5
CD
100
AcDbEntity
  8
0
100
AcDbVertex
100
AcDb2dVertex
 10
1162.3134881609999
 20
968.38791733733456
 30
0.0
  0
VERTEX
  5
CE
100
AcDbEntity
  8
0
100
AcDbVertex
100
AcDb2dVertex
 10
1161.1657494458
 20
968.28297810133449
 30
0.0
  0
VERTEX
  5
CF
100
AcDbEntity
  8
0
100
AcDbVertex
100
AcDb2dVertex
 10
1159.9999942374
 20
968.2480388651345
 30
0.0
  0
SEQEND
  5
D0
100
AcDbEntity
  8
0
  0
LINE
  5
D1
100
AcDbEntity
  8
0
100
AcDbLine
 10
1151.0000115985999
 20
849.62890692073461
 30
0.0
 11
1169.0000072584
 21
849.62890692073461
 31
0.0
  0
LINE
  5
D2
100
AcDbEntity
  8
0
100
AcDbLine
 10
1168.8000001906
 20
849.42893218813447
 30
0.0
 11
1151.1999998092001
 21
849.42893218813447
 31
0.0
  0
LINE
  5
D3
100
AcDbEntity
  8
0
100
AcDbLine
 10
1189.0
 20
761.42893218813447
 30
0.0
 11
1131.0
 21
761.42893218813447
 31
0.0
  0
LINE
  5
D4
100
AcDbEntity
  8
0
100
AcDbLine
 10
1130.5000072584
 20
760.92894164293466
 30
0.0
 11
1189.5000115985999
 21
760.92894164293466
 31
0.0
  0
LINE
  5
D5
100
AcDbEntity
  8
0
100
AcDbLine
 10
1130.5000376401999
 20
753.92894164293466
 30
0.0
 11
1189.4999508346
 21
753.92894164293466
 31
0.0
  0
LINE
  5
D6
100
AcDbEntity
  8
0
100
AcDbLine
 10
1182.75
 20
752.92893218813447
 30
0.0
 11
1137.25
 21
752.92893218813447
 31
0.0
  0
LINE
  5
D7
100
AcDbEntity
  8
0
100
AcDbLine
 10
1147.0
 20
856.42893218813447
 30
0.0
 11
1147.0
 21
1061.5279556255346
 31
0.0
  0
LINE
  5
D8
100
AcDbEntity
  8
0
100
AcDbLine
 10
1137.5000072584
 20
856.42893296233456
 30
0.0
 11
1137.5000072584
 21
761.42893730273454
 31
0.0
  0
LINE
  5
D9
100
AcDbEntity
  8
0
100
AcDbLine
 10
1130.5000072584
 20
760.92894164293466
 30
0.0
 11
1130.5000072584
 21
753.92894164293466
 31
0.0
  0
ARC
  5
DA
100
AcDbEntity
  8
0
100
AcDbCircle
 10
1131.0
 20
760.92893218813447
 30
0.0
 40
0.5
100
AcDbArc
 50
90.0
 51
180.0
  0
ARC
  5
DB
100
AcDbEntity
  8
0
100
AcDbCircle
 10
1137.25
 20
754.67893218813447
 30
0.0
 40
1.7500000000000686
100
AcDbArc
 50
205.55757388929783
 51
270.0
  0
LINE
  5
DC
100
AcDbEntity
  8
0
100
AcDbLine
 10
1151.0000115985999
 20
919.22895900413459
 30
0.0
 11
1151.0000115985999
 21
849.62890692073461
 31
0.0
  0
LINE
  5
DD
100
AcDbEntity
  8
0
100
AcDbLine
 10
1151.0000115985999
 20
856.42893296233456
 30
0.0
 11
1137.5000072584
 21
856.42893296233456
 31
0.0
  0
LINE
  5
DE
100
AcDbEntity
  8
0
100
AcDbLine
 10
1164.9499998092001
 20
835.97737693593444
 30
0.0
 11
1164.9499998092001
 21
849.42893218813447
 31
0.0
  0
LINE
  5
DF
100
AcDbEntity
  8
0
100
AcDbLine
 10
1155.0500001906
 20
835.97739791673462
 30
0.0
 11
1155.0500001906
 21
849.42893218813447
 31
0.0
  0
ARC
  5
E0
100
AcDbEntity
  8
0
100
AcDbCircle
 10
1151.2
 20
849.62893218813451
 30
0.0
 40
0.2000000000000455
100
AcDbArc
 50
180.0
 51
270.0
  0
LINE
  5
E1
100
AcDbEntity
  8
0
100
AcDbLine
 10
1146.9999855569999
 20
856.52895032353445
 30
0.0
 11
1151.0000115985999
 21
856.52895032353445
 31
0.0
  0
ARC
  5
E2
100
AcDbEntity
  8
0
100
AcDbCircle
 10
1151.2
 20
919.22893218813442
 30
0.0
 40
0.2000000000000455
100
AcDbArc
 50
90.0
 51
180.0
  0
POLYLINE
  5
E3
100
AcDbEntity
  8
0
100
AcDb2dPolyline
 66
               1
 10
0.0
 20
0.0
 30
0.0
 75
               5
  0
VERTEX
  5
E4
100
AcDbEntity
  8
0
100
AcDbVertex
100
AcDb2dVertex
 10
1159.9999942374
 20
968.2480388651345
 30
0.0
  0
VERTEX
  5
E5
100
AcDbEntity
  8
0
100
AcDbVertex
100
AcDb2dVertex
 10
1158.8342390292
 20
968.28297810133449
 30
0.0
  0
VERTEX
  5
E6
100
AcDbEntity
  8
0
100
AcDbVertex
100
AcDb2dVertex
 10
1157.6865003138
 20
968.38791733733456
 30
0.0
  0
VERTEX
  5
E7
100
AcDbEntity
  8
0
100
AcDbVertex
100
AcDb2dVertex
 10
1156.5824204527999
 20
968.56127671233457
 30
0.0
  0
VERTEX
  5
E8
100
AcDbEntity
  8
0
100
AcDbVertex
100
AcDb2dVertex
 10
1155.547034168
 20
968.79953192073458
 30
0.0
  0
VERTEX
  5
E9
100
AcDbEntity
  8
0
100
AcDbVertex
100
AcDb2dVertex
 10
1154.6029456264
 20
969.09757879573453
 30
0.0
  0
VERTEX
  5
EA
100
AcDbEntity
  8
0
100
AcDbVertex
100
AcDb2dVertex
 10
1153.7691435429999
 20
969.44940171233452
 30
0.0
  0
VERTEX
  5
EB
100
AcDbEntity
  8
0
100
AcDbVertex
100
AcDb2dVertex
 10
1153.0623683694
 20
969.84783053193451
 30
0.0
  0
VERTEX
  5
EC
100
AcDbEntity
  8
0
100
AcDbVertex
100
AcDb2dVertex
 10
1152.4970819109999
 20
970.28478365693445
 30
0.0
  0
VERTEX
  5
ED
100
AcDbEntity
  8
0
100
AcDbVertex
100
AcDb2dVertex
 10
1152.0848900707999
 20
970.75132879573448
 30
0.0
  0
VERTEX
  5
EE
100
AcDbEntity
  8
0
100
AcDbVertex
100
AcDb2dVertex
 10
1151.8364265292
 20
971.23349025413449
 30
0.0
  0
SEQEND
  5
EF
100
AcDbEntity
  8
0
  0
POLYLINE
  5
F0
100
AcDbEntity
  8
0
100
AcDb2dPolyline
 66
               1
 10
0.0
 20
0.0
 30
0.0
 75
               5
  0
VERTEX
  5
F1
100
AcDbEntity
  8
0
100
AcDbVertex
100
AcDb2dVertex
 10
1159.9999942374
 20
973.63105101793462
 30
0.0
  0
VERTEX
  5
F2
100
AcDbEntity
  8
0
100
AcDbVertex
100
AcDb2dVertex
 10
1158.3031626401998
 20
973.58401976793448
 30
0.0
  0
VERTEX
  5
F3
100
AcDbEntity
  8
0
100
AcDbVertex
100
AcDb2dVertex
 10
1156.6353457999999
 20
973.44383747633447
 30
0.0
  0
VERTEX
  5
F4
100
AcDbEntity
  8
0
100
AcDbVertex
100
AcDb2dVertex
 10
1155.0251027443999
 20
973.21281317073453
 30
0.0
  0
VERTEX
  5
F5
100
AcDbEntity
  8
0
100
AcDbVertex
100
AcDb2dVertex
 10
1153.4999898972001
 20
972.89495726793461
 30
0.0
  0
VERTEX
  5
F6
100
AcDbEntity
  8
0
100
AcDbVertex
100
AcDb2dVertex
 10
1152.0861053485999
 20
972.49573851793457
 30
0.0
  0
VERTEX
  5
F7
100
AcDbEntity
  8
0
100
AcDbVertex
100
AcDb2dVertex
 10
1150.8076027443999
 20
972.02190171233451
 30
0.0
  0
VERTEX
  5
F8
100
AcDbEntity
  8
0
100
AcDbVertex
100
AcDb2dVertex
 10
1149.6864178486001
 20
971.48158921233448
 30
0.0
  0
VERTEX
  5
F9
100
AcDbEntity
  8
0
100
AcDbVertex
100
AcDb2dVertex
 10
1148.7416609042
 20
970.88403712913441
 30
0.0
  0
VERTEX
  5
FA
100
AcDbEntity
  8
0
100
AcDbVertex
100
AcDb2dVertex
 10
1147.9895558694
 20
970.23945379573456
 30
0.0
  0
VERTEX
  5
FB
100
AcDbEntity
  8
0
100
AcDbVertex
100
AcDb2dVertex
 10
1147.442954307
 20
969.55895900413452
 30
0.0
  0
VERTEX
  5
FC
100
AcDbEntity
  8
0
100
AcDbVertex
100
AcDb2dVertex
 10
1147.1112138556
 20
968.85409789293453
 30
0.0
  0
VERTEX
  5
FD
100
AcDbEntity
  8
0
100
AcDbVertex
100
AcDb2dVertex
 10
1146.9999855569999
 20
968.13702324013457
 30
0.0
  0
SEQEND
  5
FE
100
AcDbEntity
  8
0
  0
POLYLINE
  5
FF
100
AcDbEntity
  8
0
100
AcDb2dPolyline
 66
               1
 10
0.0
 20
0.0
 30
0.0
 75
               5
  0
VERTEX
  5
100
100
AcDbEntity
  8
0
100
AcDbVertex
100
AcDb2dVertex
 10
1151.3554499666
 20
970.99553886513445
 30
0.0
  0
VERTEX
  5
101
100
AcDbEntity
  8
0
100
AcDbVertex
100
AcDb2dVertex
 10
1151.5286878137999
 20
970.75145032353453
 30
0.0
  0
VERTEX
  5
102
100
AcDbEntity
  8
0
100
AcDbVertex
100
AcDb2dVertex
 10
1152.1847251402
 20
970.15031317073453
 30
0.0
  0
VERTEX
  5
103
100
AcDbEntity
  8
0
100
AcDbVertex
100
AcDb2dVertex
 10
1153.018284168
 20
969.61741386513449
 30
0.0
  0
VERTEX
  5
104
100
AcDbEntity
  8
0
100
AcDbVertex
100
AcDb2dVertex
 10
1153.9863440638001
 20
969.16873330973453
 30
0.0
  0
VERTEX
  5
105
100
AcDbEntity
  8
0
100
AcDbVertex
100
AcDb2dVertex
 10
1155.0600419805999
 20
968.80378539293451
 30
0.0
  0
VERTEX
  5
106
100
AcDbEntity
  8
0
100
AcDbVertex
100
AcDb2dVertex
 10
1156.2187485777999
 20
968.52013955973439
 30
0.0
  0
VERTEX
  5
107
100
AcDbEntity
  8
0
100
AcDbVertex
100
AcDb2dVertex
 10
1157.4424117721999
 20
968.31718817073443
 30
0.0
  0
VERTEX
  5
108
100
AcDbEntity
  8
0
100
AcDbVertex
100
AcDb2dVertex
 10
1158.7100984041999
 20
968.19511351793449
 30
0.0
  0
VERTEX
  5
109
100
AcDbEntity
  8
0
100
AcDbVertex
100
AcDb2dVertex
 10
1159.9999942374
 20
968.15434094853458
 30
0.0
  0
SEQEND
  5
10A
100
AcDbEntity
  8
0
  0
POLYLINE
  5
10B
100
AcDbEntity
  8
0
100
AcDb2dPolyline
 66
               1
 10
0.0
 20
0.0
 30
0.0
 75
               5
  0
VERTEX
  5
10C
100
AcDbEntity
  8
0
100
AcDbVertex
100
AcDb2dVertex
 10
1150.2689308694
 20
970.30459268473442
 30
0.0
  0
VERTEX
  5
10D
100
AcDbEntity
  8
0
100
AcDbVertex
100
AcDb2dVertex
 10
1149.5383666334001
 20
969.57354233733463
 30
0.0
  0
VERTEX
  5
10E
100
AcDbEntity
  8
0
100
AcDbVertex
100
AcDb2dVertex
 10
1149.1354412860001
 20
968.86424546233457
 30
0.0
  0
VERTEX
  5
10F
100
AcDbEntity
  8
0
100
AcDbVertex
100
AcDb2dVertex
 10
1148.9999985777999
 20
968.13702324013457
 30
0.0
  0
VERTEX
  5
110
100
AcDbEntity
  8
0
100
AcDbVertex
100
AcDb2dVertex
 10
1149.1354412860001
 20
967.40980101793457
 30
0.0
  0
VERTEX
  5
111
100
AcDbEntity
  8
0
100
AcDbVertex
100
AcDb2dVertex
 10
1149.5383666334001
 20
966.70044337913441
 30
0.0
  0
VERTEX
  5
112
100
AcDbEntity
  8
0
100
AcDbVertex
100
AcDb2dVertex
 10
1150.1989308693999
 20
966.02651108733448
 30
0.0
  0
VERTEX
  5
113
100
AcDbEntity
  8
0
100
AcDbVertex
100
AcDb2dVertex
 10
1151.1008188901999
 20
965.4045319207346
 30
0.0
  0
VERTEX
  5
114
100
AcDbEntity
  8
0
100
AcDbVertex
100
AcDb2dVertex
 10
1152.2218214944
 20
964.84981837913438
 30
0.0
  0
VERTEX
  5
115
100
AcDbEntity
  8
0
100
AcDbVertex
100
AcDb2dVertex
 10
1153.5343518764
 20
964.37604233733464
 30
0.0
  0
VERTEX
  5
116
100
AcDbEntity
  8
0
100
AcDbVertex
100
AcDb2dVertex
 10
1155.0061140292
 20
963.99487046233457
 30
0.0
  0
VERTEX
  5
117
100
AcDbEntity
  8
0
100
AcDbVertex
100
AcDb2dVertex
 10
1156.6008015292
 20
963.71572115693448
 30
0.0
  0
VERTEX
  5
118
100
AcDbEntity
  8
0
100
AcDbVertex
100
AcDb2dVertex
 10
1158.279221668
 20
963.54546074013456
 30
0.0
  0
VERTEX
  5
119
100
AcDbEntity
  8
0
100
AcDbVertex
100
AcDb2dVertex
 10
1159.9999942374
 20
963.48822115693451
 30
0.0
  0
SEQEND
  5
11A
100
AcDbEntity
  8
0
  0
POLYLINE
  5
11B
100
AcDbEntity
  8
0
100
AcDb2dPolyline
 66
               1
 10
0.0
 20
0.0
 30
0.0
 75
               5
  0
VERTEX
  5
11C
100
AcDbEntity
  8
0
100
AcDbVertex
100
AcDb2dVertex
 10
1150.7570775708
 20
970.63605969853461
 30
0.0
  0
VERTEX
  5
11D
100
AcDbEntity
  8
0
100
AcDbVertex
100
AcDb2dVertex
 10
1150.3059968416001
 20
970.08079928193456
 30
0.0
  0
VERTEX
  5
11E
100
AcDbEntity
  8
0
100
AcDbVertex
100
AcDb2dVertex
 10
1150.0341695847999
 20
969.39228365693452
 30
0.0
  0
VERTEX
  5
11F
100
AcDbEntity
  8
0
100
AcDbVertex
100
AcDb2dVertex
 10
1149.9999898972001
 20
969.04331664293454
 30
0.0
  0
SEQEND
  5
120
100
AcDbEntity
  8
0
  0
POLYLINE
  5
121
100
AcDbEntity
  8
0
100
AcDb2dPolyline
 66
               1
 10
0.0
 20
0.0
 30
0.0
 75
               5
  0
VERTEX
  5
122
100
AcDbEntity
  8
0
100
AcDbVertex
100
AcDb2dVertex
 10
1146.9999855569999
 20
968.13702324013457
 30
0.0
  0
VERTEX
  5
123
100
AcDbEntity
  8
0
100
AcDbVertex
100
AcDb2dVertex
 10
1147.1112138556
 20
967.41988782353451
 30
0.0
  0
VERTEX
  5
124
100
AcDbEntity
  8
0
100
AcDbVertex
100
AcDb2dVertex
 10
1147.442954307
 20
966.71502671233452
 30
0.0
  0
VERTEX
  5
125
100
AcDbEntity
  8
0
100
AcDbVertex
100
AcDb2dVertex
 10
1147.9895558694
 20
966.03453192073448
 30
0.0
  0
VERTEX
  5
126
100
AcDbEntity
  8
0
100
AcDbVertex
100
AcDb2dVertex
 10
1148.7416609042
 20
965.39000935133458
 30
0.0
  0
VERTEX
  5
127
100
AcDbEntity
  8
0
100
AcDbVertex
100
AcDb2dVertex
 10
1149.6864178486001
 20
964.79245726793442
 30
0.0
  0
VERTEX
  5
128
100
AcDbEntity
  8
0
100
AcDbVertex
100
AcDb2dVertex
 10
1150.8076027443999
 20
964.25214476793462
 30
0.0
  0
VERTEX
  5
129
100
AcDbEntity
  8
0
100
AcDbVertex
100
AcDb2dVertex
 10
1152.0861053485999
 20
963.77830796233457
 30
0.0
  0
VERTEX
  5
12A
100
AcDbEntity
  8
0
100
AcDbVertex
100
AcDb2dVertex
 10
1153.4999898972001
 20
963.37902844853443
 30
0.0
  0
VERTEX
  5
12B
100
AcDbEntity
  8
0
100
AcDbVertex
100
AcDb2dVertex
 10
1155.0251027443999
 20
963.06117254573451
 30
0.0
  0
VERTEX
  5
12C
100
AcDbEntity
  8
0
100
AcDbVertex
100
AcDb2dVertex
 10
1156.6353457999999
 20
962.83014824013458
 30
0.0
  0
VERTEX
  5
12D
100
AcDbEntity
  8
0
100
AcDbVertex
100
AcDb2dVertex
 10
1158.3031626401998
 20
962.68996594853456
 30
0.0
  0
VERTEX
  5
12E
100
AcDbEntity
  8
0
100
AcDbVertex
100
AcDb2dVertex
 10
1159.9999942374
 20
962.64299546233451
 30
0.0
  0
SEQEND
  5
12F
100
AcDbEntity
  8
0
  0
POLYLINE
  5
130
100
AcDbEntity
  8
0
100
AcDb2dPolyline
 66
               1
 10
0.0
 20
0.0
 30
0.0
 75
               5
  0
VERTEX
  5
131
100
AcDbEntity
  8
0
100
AcDbVertex
100
AcDb2dVertex
 10
1149.9999898972001
 20
969.04331664293454
 30
0.0
  0
VERTEX
  5
132
100
AcDbEntity
  8
0
100
AcDbVertex
100
AcDb2dVertex
 10
1150.0341695847999
 20
968.69434962913442
 30
0.0
  0
VERTEX
  5
133
100
AcDbEntity
  8
0
100
AcDbVertex
100
AcDb2dVertex
 10
1150.3059968416001
 20
968.00583400413439
 30
0.0
  0
VERTEX
  5
134
100
AcDbEntity
  8
0
100
AcDbVertex
100
AcDb2dVertex
 10
1150.842268543
 20
967.3456951151345
 30
0.0
  0
VERTEX
  5
135
100
AcDbEntity
  8
0
100
AcDbVertex
100
AcDb2dVertex
 10
1151.6283405915999
 20
966.73179754573448
 30
0.0
  0
VERTEX
  5
136
100
AcDbEntity
  8
0
100
AcDbVertex
100
AcDb2dVertex
 10
1152.6427633348001
 20
966.18097289293451
 30
0.0
  0
VERTEX
  5
137
100
AcDbEntity
  8
0
100
AcDbVertex
100
AcDb2dVertex
 10
1153.8578588207999
 20
965.70829060133451
 30
0.0
  0
VERTEX
  5
138
100
AcDbEntity
  8
0
100
AcDbVertex
100
AcDb2dVertex
 10
1155.2405411124
 20
965.32651108733467
 30
0.0
  0
VERTEX
  5
139
100
AcDbEntity
  8
0
100
AcDbVertex
100
AcDb2dVertex
 10
1156.7530150708001
 20
965.04614650413441
 30
0.0
  0
VERTEX
  5
13A
100
AcDbEntity
  8
0
100
AcDbVertex
100
AcDb2dVertex
 10
1158.3540523971999
 20
964.87479233733461
 30
0.0
  0
VERTEX
  5
13B
100
AcDbEntity
  8
0
100
AcDbVertex
100
AcDb2dVertex
 10
1159.9999942374
 20
964.81712740693456
 30
0.0
  0
SEQEND
  5
13C
100
AcDbEntity
  8
0
  0
POLYLINE
  5
13D
100
AcDbEntity
  8
0
100
AcDb2dPolyline
 66
               1
 10
0.0
 20
0.0
 30
0.0
 75
               5
  0
VERTEX
  5
13E
100
AcDbEntity
  8
0
100
AcDbVertex
100
AcDb2dVertex
 10
1159.9999942374
 20
994.02298678193438
 30
0.0
  0
VERTEX
  5
13F
100
AcDbEntity
  8
0
100
AcDbVertex
100
AcDb2dVertex
 10
1158.3031626401998
 20
993.97595553193446
 30
0.0
  0
VERTEX
  5
140
100
AcDbEntity
  8
0
100
AcDbVertex
100
AcDb2dVertex
 10
1156.6353457999999
 20
993.83577324013459
 30
0.0
  0
VERTEX
  5
141
100
AcDbEntity
  8
0
100
AcDbVertex
100
AcDb2dVertex
 10
1155.0251027443999
 20
993.60474893473452
 30
0.0
  0
VERTEX
  5
142
100
AcDbEntity
  8
0
100
AcDbVertex
100
AcDb2dVertex
 10
1153.4999898972001
 20
993.28689303193437
 30
0.0
  0
VERTEX
  5
143
100
AcDbEntity
  8
0
100
AcDbVertex
100
AcDb2dVertex
 10
1152.0861053485999
 20
992.88767428193455
 30
0.0
  0
VERTEX
  5
144
100
AcDbEntity
  8
0
100
AcDbVertex
100
AcDb2dVertex
 10
1150.8076027443999
 20
992.41377671233454
 30
0.0
  0
VERTEX
  5
145
100
AcDbEntity
  8
0
100
AcDbVertex
100
AcDb2dVertex
 10
1149.6864178486001
 20
991.87346421233451
 30
0.0
  0
VERTEX
  5
146
100
AcDbEntity
  8
0
100
AcDbVertex
100
AcDb2dVertex
 10
1148.7416609042
 20
991.27597289293453
 30
0.0
  0
VERTEX
  5
147
100
AcDbEntity
  8
0
100
AcDbVertex
100
AcDb2dVertex
 10
1147.9895558694
 20
990.63138955973454
 30
0.0
  0
VERTEX
  5
148
100
AcDbEntity
  8
0
100
AcDbVertex
100
AcDb2dVertex
 10
1147.442954307
 20
989.95089476793464
 30
0.0
  0
VERTEX
  5
149
100
AcDbEntity
  8
0
100
AcDbVertex
100
AcDb2dVertex
 10
1147.1112138556
 20
989.24603365693451
 30
0.0
  0
VERTEX
  5
14A
100
AcDbEntity
  8
0
100
AcDbVertex
100
AcDb2dVertex
 10
1146.9999855569999
 20
988.52895900413455
 30
0.0
  0
SEQEND
  5
14B
100
AcDbEntity
  8
0
  0
POLYLINE
  5
14C
100
AcDbEntity
  8
0
100
AcDb2dPolyline
 66
               1
 10
0.0
 20
0.0
 30
0.0
 75
               5
  0
VERTEX
  5
14D
100
AcDbEntity
  8
0
100
AcDbVertex
100
AcDb2dVertex
 10
1159.9999942374
 20
994.02298678193438
 30
0.0
  0
VERTEX
  5
14E
100
AcDbEntity
  8
0
100
AcDbVertex
100
AcDb2dVertex
 10
1156.8888831264001
 20
993.86329928193436
 30
0.0
  0
VERTEX
  5
14F
100
AcDbEntity
  8
0
100
AcDbVertex
100
AcDb2dVertex
 10
1153.9586053486
 20
993.39365518473437
 30
0.0
  0
VERTEX
  5
150
100
AcDbEntity
  8
0
100
AcDbVertex
100
AcDb2dVertex
 10
1151.3793909388
 20
992.6412767123345
 30
0.0
  0
VERTEX
  5
151
100
AcDbEntity
  8
0
100
AcDbVertex
100
AcDb2dVertex
 10
1149.301205175
 20
991.64991386513452
 30
0.0
  0
VERTEX
  5
152
100
AcDbEntity
  8
0
100
AcDbVertex
100
AcDb2dVertex
 10
1147.8447859042001
 20
990.47717080973439
 30
0.0
  0
VERTEX
  5
153
100
AcDbEntity
  8
0
100
AcDbVertex
100
AcDb2dVertex
 10
1147.0947772236
 20
989.19116386513451
 30
0.0
  0
VERTEX
  5
154
100
AcDbEntity
  8
0
100
AcDbVertex
100
AcDb2dVertex
 10
1147.0118648972
 20
988.60539997633441
 30
0.0
  0
SEQEND
  5
155
100
AcDbEntity
  8
0
  0
POLYLINE
  5
156
100
AcDbEntity
  8
0
100
AcDb2dPolyline
 66
               1
 10
0.0
 20
0.0
 30
0.0
 75
               5
  0
VERTEX
  5
157
100
AcDbEntity
  8
0
100
AcDbVertex
100
AcDb2dVertex
 10
1159.9999942374
 20
972.78582532353448
 30
0.0
  0
VERTEX
  5
158
100
AcDbEntity
  8
0
100
AcDbVertex
100
AcDb2dVertex
 10
1158.279221668
 20
972.72858574013458
 30
0.0
  0
VERTEX
  5
159
100
AcDbEntity
  8
0
100
AcDbVertex
100
AcDb2dVertex
 10
1156.6008015292
 20
972.55826455973443
 30
0.0
  0
VERTEX
  5
15A
100
AcDbEntity
  8
0
100
AcDbVertex
100
AcDb2dVertex
 10
1155.0061140292
 20
972.27911525413447
 30
0.0
  0
VERTEX
  5
15B
100
AcDbEntity
  8
0
100
AcDbVertex
100
AcDb2dVertex
 10
1153.5343518764
 20
971.8979433791344
 30
0.0
  0
VERTEX
  5
15C
100
AcDbEntity
  8
0
100
AcDbVertex
100
AcDb2dVertex
 10
1152.2218214944
 20
971.42422810133439
 30
0.0
  0
VERTEX
  5
15D
100
AcDbEntity
  8
0
100
AcDbVertex
100
AcDb2dVertex
 10
1151.1008188901999
 20
970.8695145597344
 30
0.0
  0
VERTEX
  5
15E
100
AcDbEntity
  8
0
100
AcDbVertex
100
AcDb2dVertex
 10
1150.2689308694
 20
970.30459268473442
 30
0.0
  0
SEQEND
  5
15F
100
AcDbEntity
  8
0
  0
LINE
  5
160
100
AcDbEntity
  8
0
100
AcDbLine
 10
1163.1111053485999
 20
993.86329928193436
 30
0.0
 11
1159.9999942374
 21
994.02298678193438
 31
0.0
  0
LINE
  5
161
100
AcDbEntity
  8
0
100
AcDbLine
 10
1166.0414135084
 20
993.39365518473437
 30
0.0
 11
1163.1111053485999
 21
993.86329928193436
 31
0.0
  0
LINE
  5
162
100
AcDbEntity
  8
0
100
AcDbLine
 10
1166.1755497930001
 20
993.35452324013454
 30
0.0
 11
1166.0414135084
 21
993.39365518473437
 31
0.0
  0
POLYLINE
  5
163
100
AcDbEntity
  8
0
100
AcDb2dPolyline
 66
               1
 10
0.0
 20
0.0
 30
0.0
 75
               5
  0
VERTEX
  5
164
100
AcDbEntity
  8
0
100
AcDbVertex
100
AcDb2dVertex
 10
1159.9999942374
 20
1013.7807298373345
 30
0.0
  0
VERTEX
  5
165
100
AcDbEntity
  8
0
100
AcDbVertex
100
AcDb2dVertex
 10
1156.8888831264001
 20
1013.6211031013345
 30
0.0
  0
VERTEX
  5
166
100
AcDbEntity
  8
0
100
AcDbVertex
100
AcDb2dVertex
 10
1153.9586053486
 20
1013.1513982401345
 30
0.0
  0
VERTEX
  5
167
100
AcDbEntity
  8
0
100
AcDbVertex
100
AcDb2dVertex
 10
1151.3793909388
 20
1012.3990197679345
 30
0.0
  0
VERTEX
  5
168
100
AcDbEntity
  8
0
100
AcDbVertex
100
AcDb2dVertex
 10
1149.301205175
 20
1011.4076569207346
 30
0.0
  0
VERTEX
  5
169
100
AcDbEntity
  8
0
100
AcDbVertex
100
AcDb2dVertex
 10
1147.8447859042001
 20
1010.2349138651346
 30
0.0
  0
VERTEX
  5
16A
100
AcDbEntity
  8
0
100
AcDbVertex
100
AcDb2dVertex
 10
1147.0947772236
 20
1008.9489069207345
 30
0.0
  0
VERTEX
  5
16B
100
AcDbEntity
  8
0
100
AcDbVertex
100
AcDb2dVertex
 10
1146.9999855569999
 20
1008.2867020597344
 30
0.0
  0
SEQEND
  5
16C
100
AcDbEntity
  8
0
  0
LINE
  5
16D
100
AcDbEntity
  8
0
100
AcDbLine
 10
1173.0
 20
1061.5279556255346
 30
0.0
 11
1173.0
 21
856.42893218813447
 31
0.0
  0
LINE
  5
16E
100
AcDbEntity
  8
0
100
AcDbLine
 10
1182.5
 20
813.92869186213443
 30
0.0
 11
1182.5
 21
795.42873000913437
 31
0.0
  0
LINE
  5
16F
100
AcDbEntity
  8
0
100
AcDbLine
 10
1189.5000115985999
 20
760.92894164293466
 30
0.0
 11
1189.5000115985999
 21
753.92894164293466
 31
0.0
  0
ARC
  5
170
100
AcDbEntity
  8
0
100
AcDbCircle
 10
1182.75
 20
754.67893218813447
 30
0.0
 40
1.75
100
AcDbArc
 50
270.0
 51
334.44242611070217
  0
LINE
  5
171
100
AcDbEntity
  8
0
100
AcDbLine
 10
1182.5
 20
797.08340829349584
 30
0.0
 11
1182.5
 21
761.42893218813447
 31
0.0
  0
ARC
  5
172
100
AcDbEntity
  8
0
100
AcDbCircle
 10
1189.0
 20
760.92893218813447
 30
0.0
 40
0.5
100
AcDbArc
 50
0.0
 51
90.0
  0
LINE
  5
173
100
AcDbEntity
  8
0
100
AcDbLine
 10
1169.0000072584
 20
919.22895900413459
 30
0.0
 11
1169.0000072584
 21
849.62890692073461
 31
0.0
  0
LINE
  5
174
100
AcDbEntity
  8
0
100
AcDbLine
 10
1182.5000115985999
 20
856.42893296233456
 30
0.0
 11
1182.5000115985999
 21
813.92914997633443
 31
0.0
  0
LINE
  5
175
100
AcDbEntity
  8
0
100
AcDbLine
 10
1169.0000072584
 20
856.42893296233456
 30
0.0
 11
1182.5000115985999
 21
856.42893296233456
 31
0.0
  0
ARC
  5
176
100
AcDbEntity
  8
0
100
AcDbCircle
 10
1168.8
 20
849.62893218813451
 30
0.0
 40
0.1999999999999886
100
AcDbArc
 50
270.0
 51
0.0
  0
LINE
  5
177
100
AcDbEntity
  8
0
100
AcDbLine
 10
1169.0000072584
 20
856.52895032353445
 30
0.0
 11
1173.0000029180001
 21
856.52895032353445
 31
0.0
  0
ARC
  5
178
100
AcDbEntity
  8
0
100
AcDbCircle
 10
1168.8
 20
919.22893218813442
 30
0.0
 40
0.2000000000000455
100
AcDbArc
 50
0.0
 51
90.0
  0
POLYLINE
  5
179
100
AcDbEntity
  8
0
100
AcDb2dPolyline
 66
               1
 10
0.0
 20
0.0
 30
0.0
 75
               5
  0
VERTEX
  5
17A
100
AcDbEntity
  8
0
100
AcDbVertex
100
AcDb2dVertex
 10
1169.2429109042
 20
970.63605969853461
 30
0.0
  0
VERTEX
  5
17B
100
AcDbEntity
  8
0
100
AcDbVertex
100
AcDb2dVertex
 10
1169.6939916333999
 20
970.08079928193456
 30
0.0
  0
VERTEX
  5
17C
100
AcDbEntity
  8
0
100
AcDbVertex
100
AcDb2dVertex
 10
1169.9658492721999
 20
969.39228365693452
 30
0.0
  0
VERTEX
  5
17D
100
AcDbEntity
  8
0
100
AcDbVertex
100
AcDb2dVertex
 10
1169.9999985777999
 20
969.04331664293454
 30
0.0
  0
SEQEND
  5
17E
100
AcDbEntity
  8
0
  0
LINE
  5
17F
100
AcDbEntity
  8
0
100
AcDbLine
 10
1172.9052112514
 20
989.19116386513451
 30
0.0
 11
1172.2105280916001
 21
990.38225761513445
 31
0.0
  0
LINE
  5
180
100
AcDbEntity
  8
0
100
AcDbLine
 10
1170.6987833000001
 20
991.64991386513452
 30
0.0
 11
1168.7667650707999
 21
992.57158053193439
 31
0.0
  0
LINE
  5
181
100
AcDbEntity
  8
0
100
AcDbLine
 10
1168.7667650707999
 20
992.57158053193439
 30
0.0
 11
1168.6205975360001
 21
992.6412767123345
 31
0.0
  0
LINE
  5
182
100
AcDbEntity
  8
0
100
AcDbLine
 10
1170.8148423278001
 20
991.55645900413447
 30
0.0
 11
1170.6987833000001
 21
991.64991386513452
 31
0.0
  0
POLYLINE
  5
183
100
AcDbEntity
  8
0
100
AcDb2dPolyline
 66
               1
 10
0.0
 20
0.0
 30
0.0
 75
               5
  0
VERTEX
  5
184
100
AcDbEntity
  8
0
100
AcDbVertex
100
AcDb2dVertex
 10
1172.2105280916001
 20
990.38225761513445
 30
0.0
  0
VERTEX
  5
185
100
AcDbEntity
  8
0
100
AcDbVertex
100
AcDb2dVertex
 10
1172.1552025707999
 20
990.47717080973439
 30
0.0
  0
VERTEX
  5
186
100
AcDbEntity
  8
0
100
AcDbVertex
100
AcDb2dVertex
 10
1170.8148423277999
 20
991.55645900413447
 30
0.0
  0
SEQEND
  5
187
100
AcDbEntity
  8
0
  0
LINE
  5
188
100
AcDbEntity
  8
0
100
AcDbLine
 10
1172.9881539598
 20
988.60539997633441
 30
0.0
 11
1172.9052112514
 21
989.19116386513451
 31
0.0
  0
LWPOLYLINE
  5
189
100
AcDbEntity
  8
0
100
AcDbPolyline
 90
       17
 70
             128
 10
1321.6173843431523
 20
822.05104785668027
 42
-0.0041681692092158
 10
1322.0044634357344
 20
822.62993861385303
 10
1322.0415702097157
 20
822.68444424437575
 42
-0.0063486899375762
 10
1322.7190463573079
 20
823.65291347719256
 10
1322.8222186313728
 20
823.79648467556683
 42
-0.009628072572467
 10
1323.6748831986936
 20
824.93606525147948
 10
1323.7893075136867
 20
825.08300701759072
 42
-0.0058021168022412
 10
1324.4446046093587
 20
825.90467902985461
 10
1324.4592126504276
 20
825.92256614538962
 42
-0.005603505204478
 10
1325.103470551994
 20
826.69363901828115
 42
-0.0052767907362527
 10
1325.7643581375648
 20
827.45051653425298
 10
1325.9242187100888
 20
827.62974247956652
 42
-0.0101952732877105
 10
1326.8799061170225
 20
828.65819842078486
 10
1326.8962607071217
 20
828.67509399788833
 42
-0.0046805307196953
 10
1327.8492572587072
 20
829.64134851585334
 42
-0.0093092844875584
 10
1328.8287852832423
 20
830.58044278837531
 10
1329.0030324938482
 20
830.74137978933459
  0
SPLINE
  5
18A
100
AcDbEntity
  8
0
100
AcDbSpline
210
0.0
220
0.0
230
1.0
 70
               8
 71
               2
 72
               6
 73
               3
 74
               0
 42
0.000001
 43
0.000001
 40
0.0
 40
0.0
 40
0.0
 40
1.0
 40
1.0
 40
1.0
 10
1317.2886368570316
 20
813.92920169070635
 30
0.0
 10
1317.2885792702286
 20
813.92906617488029
 30
0.0
 10
1317.2885216834482
 20
813.92893065693443
 30
0.0
  0
SPLINE
  5
18B
100
AcDbEntity
  8
0
100
AcDbSpline
210
0.0
220
0.0
230
1.0
 70
               8
 71
               2
 72
               6
 73
               3
 74
               0
 42
0.000001
 43
0.000001
 40
0.0
 40
0.0
 40
0.0
 40
1.0
 40
1.0
 40
1.0
 10
1317.2885216834482
 20
813.92893065693443
 30
0.0
 10
1317.2966170042707
 20
813.90988008790509
 30
0.0
 10
1317.4289835380689
 20
813.59920267588336
 30
0.0
  0
LWPOLYLINE
  5
18C
100
AcDbEntity
  8
0
100
AcDbPolyline
 90
       18
 70
             128
 10
1322.0397254606933
 20
805.17612706199736
 42
0.0008086240545241
 10
1322.1253872317739
 20
805.05072016241274
 10
1322.1253872317893
 20
805.05072016239012
 10
1322.1377790236309
 20
805.03264170227283
 42
0.0063593472887517
 10
1322.7930969696088
 20
804.10219500134724
 10
1322.809542346065
 20
804.07946485768707
 42
0.0059293467091895
 10
1323.4541097385174
 20
803.21045756580293
 10
1323.4578289099825
 20
803.20556568971767
 42
0.0057974358553363
 10
1324.1150495369443
 20
802.36160679082593
 42
0.00581802866167
 10
1324.7916964745305
 20
801.53314230600142
 10
1324.9503169812024
 20
801.34348046827949
 42
0.0105837063587486
 10
1325.9163453052781
 20
800.23686658170902
 10
1325.9450968204151
 20
800.20530492739567
 42
0.0052146214803835
 10
1326.8876161911703
 20
799.19209499126146
 42
0.0093525704491232
 10
1327.8591328902351
 20
798.20688903236055
 10
1328.005401776868
 20
798.06400589341524
 42
0.0069893500442108
 10
1328.9980807774002
 20
797.12105858917459
 10
1329.0030311184482
 20
797.11648694133441
  0
ARC
  5
18D
100
AcDbEntity
  8
0
100
AcDbCircle
 10
1409.5018690858483
 20
969.31569945833439
 30
0.0
 40
79.213232729600037
100
AcDbArc
 50
25.000000000000114
 51
180.0
  0
LINE
  5
18E
100
AcDbEntity
  8
0
100
AcDbLine
 10
1304.2886363560483
 20
856.5289321881346
 30
0.0
 11
1330.2886363560483
 21
856.5289321881346
 31
0.0
  0
LINE
  5
18F
100
AcDbEntity
  8
0
100
AcDbLine
 10
1339.7886363560483
 20
856.42893218813447
 30
0.0
 11
1294.7886363560483
 21
856.42893218813447
 31
0.0
  0
LINE
  5
190
100
AcDbEntity
  8
0
100
AcDbLine
 10
1288.2886363560483
 20
761.42893218813447
 30
0.0
 11
1346.2886363560483
 21
761.42893218813447
 31
0.0
  0
LINE
  5
191
100
AcDbEntity
  8
0
100
AcDbLine
 10
1287.7886363560483
 20
760.92893218813447
 30
0.0
 11
1346.7886363560483
 21
760.92893218813447
 31
0.0
  0
LINE
  5
192
100
AcDbEntity
  8
0
100
AcDbLine
 10
1346.7886363560483
 20
753.92893218813447
 30
0.0
 11
1287.7886363560483
 21
753.92893218813447
 31
0.0
  0
LINE
  5
193
100
AcDbEntity
  8
0
100
AcDbLine
 10
1340.0386363560483
 20
752.92893218813447
 30
0.0
 11
1294.5386363560483
 21
752.92893218813447
 31
0.0
  0
LINE
  5
194
100
AcDbEntity
  8
0
100
AcDbLine
 10
1304.2886363560483
 20
856.42893218813447
 30
0.0
 11
1304.2886363560483
 21
969.31569945833439
 31
0.0
  0
LINE
  5
195
100
AcDbEntity
  8
0
100
AcDbLine
 10
1294.7886363560483
 20
856.42893218813447
 30
0.0
 11
1294.7886363560483
 21
761.42893218813447
 31
0.0
  0
LINE
  5
196
100
AcDbEntity
  8
0
100
AcDbLine
 10
1287.7886363560483
 20
760.92893218813447
 30
0.0
 11
1287.7886363560483
 21
753.92893218813447
 31
0.0
  0
ARC
  5
197
100
AcDbEntity
  8
0
100
AcDbCircle
 10
1288.2886363560483
 20
760.92893218813447
 30
0.0
 40
0.5
100
AcDbArc
 50
90.0
 51
180.0
  0
ARC
  5
198
100
AcDbEntity
  8
0
100
AcDbCircle
 10
1294.5386363560483
 20
754.67893218813447
 30
0.0
 40
1.7500000000000686
100
AcDbArc
 50
205.55757388929783
 51
270.0
  0
LINE
  5
199
100
AcDbEntity
  8
0
100
AcDbLine
 10
1504.8574412080482
 20
1013.7807329867346
 30
0.0
 11
1523.5795484768482
 21
973.63104438233449
 31
0.0
  0
LINE
  5
19A
100
AcDbEntity
  8
0
100
AcDbLine
 10
1523.5795484768482
 20
973.63104438233449
 30
0.0
 11
1500.0155460138481
 21
962.64296957713441
 31
0.0
  0
LINE
  5
19B
100
AcDbEntity
  8
0
100
AcDbLine
 10
1514.070637587648
 20
994.02296959073442
 30
0.0
 11
1490.5066351246483
 21
983.03489478553456
 31
0.0
  0
LINE
  5
19C
100
AcDbEntity
  8
0
100
AcDbLine
 10
1330.2886363560483
 20
856.42893218813447
 30
0.0
 11
1330.2886363560483
 21
969.31569945833439
 31
0.0
  0
LINE
  5
19D
100
AcDbEntity
  8
0
100
AcDbLine
 10
1378.7886363560483
 20
791.5289321881346
 30
0.0
 11
1370.7886363560483
 21
814.0289321881346
 31
0.0
  0
LINE
  5
19E
100
AcDbEntity
  8
0
100
AcDbLine
 10
1398.7886363560483
 20
836.0289321881346
 30
0.0
 11
1398.7886363560483
 21
792.0289321881346
 31
0.0
  0
LINE
  5
19F
100
AcDbEntity
  8
0
100
AcDbLine
 10
1398.2886363560483
 20
836.5289321881346
 30
0.0
 11
1398.2886363560483
 21
791.5289321881346
 31
0.0
  0
LINE
  5
1A0
100
AcDbEntity
  8
0
100
AcDbLine
 10
1368.7886363560483
 20
792.42893218813447
 30
0.0
 11
1368.7886363560483
 21
835.42893218813447
 31
0.0
  0
LINE
  5
1A1
100
AcDbEntity
  8
0
100
AcDbLine
 10
1367.7886363560483
 20
791.42893218813447
 30
0.0
 11
1367.7886363560483
 21
836.42893218813447
 31
0.0
  0
ARC
  5
1A2
100
AcDbEntity
  8
0
100
AcDbCircle
 10
1364.5509000234483
 20
812.47481642933462
 30
0.0
 40
20.000000000000021
100
AcDbArc
 50
282.23294747729994
 51
308.2382400460005
  0
LINE
  5
1A3
100
AcDbEntity
  8
0
100
AcDbLine
 10
1341.7886363560483
 20
791.42893218813447
 30
0.0
 11
1367.7886363560483
 21
791.42893218813447
 31
0.0
  0
LINE
  5
1A4
100
AcDbEntity
  8
0
100
AcDbLine
 10
1339.7886363560483
 20
789.42893218813447
 30
0.0
 11
1339.7886363560483
 21
761.42893218813447
 31
0.0
  0
LINE
  5
1A5
100
AcDbEntity
  8
0
100
AcDbLine
 10
1346.7886363560483
 20
760.92893218813447
 30
0.0
 11
1346.7886363560483
 21
753.92893218813447
 31
0.0
  0
ARC
  5
1A6
100
AcDbEntity
  8
0
100
AcDbCircle
 10
1340.0386363560483
 20
754.67893218813447
 30
0.0
 40
1.75
100
AcDbArc
 50
270.0
 51
334.442426110599
  0
ARC
  5
1A7
100
AcDbEntity
  8
0
100
AcDbCircle
 10
1346.2886363560483
 20
760.92893218813447
 30
0.0
 40
0.5
100
AcDbArc
 50
0.0
 51
90.0
  0
LWPOLYLINE
  5
1A8
100
AcDbEntity
  8
0
100
AcDbPolyline
 90
       27
 70
             128
 10
1329.0030311184482
 20
797.11648694133441
 10
1329.0386490760443
 20
797.08363879572312
 42
0.0062177587087383
 10
1329.9426638422976
 20
796.27049250370453
 42
0.0056368540683577
 10
1330.8657142889692
 20
795.47899506968156
 10
1330.8687903059142
 20
795.4764170479134
 42
0.0061354491887882
 10
1331.816421800333
 20
794.70179882985985
 10
1331.8533288380618
 20
794.67237809012329
 42
0.005441619356197
 10
1332.7676014602525
 20
793.95969211770159
 10
1332.7962850396709
 20
793.93783058891779
 42
0.005146616571723
 10
1333.6676382866201
 20
793.28778749560195
 10
1333.7032411907976
 20
793.2617932659756
 42
0.0046670913512964
 10
1334.5155078284238
 20
792.68028992195832
 10
1334.5426457593351
 20
792.6612424227709
 42
0.0043311942724782
 10
1335.3106485040421
 20
792.13206895045698
 10
1335.3476483850436
 20
792.10704496358005
 42
0.004143318903017
 10
1336.0501023987551
 20
791.64039340992076
 42
0.0036577583300524
 10
1336.7597567299226
 20
791.1847544957219
 10
1336.8252081834924
 20
791.14340393949442
 42
0.0052141953371256
 10
1337.5382583313988
 20
790.70325320446466
 10
1337.6568421472155
 20
790.63175089064032
 42
0.0033139969836971
 10
1338.1392138777278
 20
790.34523814297711
 42
0.0028185895984766
 10
1338.6250663075482
 20
790.06466144631258
 10
1338.6634874521646
 20
790.04276136245448
 42
0.0050543885069694
 10
1339.230957303623
 20
789.72685992978575
 10
1339.2965064657355
 20
789.69123288609433
 42
0.0040721601549207
 10
1339.787619600424
 20
789.42946345936548
 10
1339.7886363560483
 20
789.42893218813447
  0
ARC
  5
1A9
100
AcDbEntity
  8
0
100
AcDbCircle
 10
1341.7886354214481
 20
789.4289331229345
 30
0.0
 40
2.0000021624000239
100
AcDbArc
 50
89.999974351898004
 51
180.00002573319952
  0
ARC
  5
1AA
100
AcDbEntity
  8
0
100
AcDbCircle
 10
1367.7886363560483
 20
792.42893218813447
 30
0.0
 40
1.0
100
AcDbArc
 50
270.0
 51
0.0
  0
LINE
  5
1AB
100
AcDbEntity
  8
0
100
AcDbLine
 10
1398.2886363560483
 20
791.5289321881346
 30
0.0
 11
1378.7886363560483
 21
791.5289321881346
 31
0.0
  0
ARC
  5
1AC
100
AcDbEntity
  8
0
100
AcDbCircle
 10
1398.2886363560483
 20
792.0289321881346
 30
0.0
 40
0.5
100
AcDbArc
 50
270.0
 51
0.0
  0
LINE
  5
1AD
100
AcDbEntity
  8
0
100
AcDbLine
 10
1380.6886363560479
 20
836.5289321881346
 30
0.0
 11
1370.7886363560483
 21
836.5289321881346
 31
0.0
  0
LINE
  5
1AE
100
AcDbEntity
  8
0
100
AcDbLine
 10
1341.7886363560483
 20
836.42893218813447
 30
0.0
 11
1367.7886363560483
 21
836.42893218813447
 31
0.0
  0
LWPOLYLINE
  5
1AF
100
AcDbEntity
  8
0
100
AcDbPolyline
 90
       30
 70
             128
 10
1339.7886363560483
 20
838.42893218813447
 42
0.0031265804923647
 10
1339.4172377531102
 20
838.23189567210011
 10
1339.359067836351
 20
838.20056735341871
 42
0.0044853844823471
 10
1338.8749510023397
 20
837.93420877441918
 10
1338.8279743611024
 20
837.90781074964536
 42
0.0029461926658601
 10
1338.3701152126418
 20
837.6469600296432
 42
0.0030377470425773
 10
1337.9154110975537
 20
837.38064882603896
 10
1337.8860754074917
 20
837.36322727070387
 42
0.0032853111610033
 10
1337.3763368514785
 20
837.05596104309052
 10
1337.3374841362067
 20
837.03219150977452
 42
0.0035899007893233
 10
1336.754660659155
 20
836.66985226899499
 10
1336.7239626357696
 20
836.65046045116264
 42
0.0036715818400228
 10
1336.0853553846118
 20
836.24046350308049
 10
1336.049976215777
 20
836.21738084034564
 42
0.0041441916567236
 10
1335.3474893842651
 20
835.75070652587374
 10
1335.3104858905635
 20
835.72567995039833
 42
0.00433003023006
 10
1334.5424431163085
 20
835.19647848327475
 10
1334.5153129984342
 20
835.17743654737467
 42
0.0046667787918425
 10
1333.7030207456935
 20
834.59591804524371
 10
1333.6674188403501
 20
834.56992472026081
 42
0.0051453027566961
 10
1332.7960401594337
 20
833.91987057486881
 10
1332.7029150997246
 20
833.84889545758938
 42
0.0069520656620238
 10
1331.6633142804189
 20
833.0334683810147
 10
1331.5515515878558
 20
832.94326776767741
 42
0.0062074562046169
 10
1330.6324408968321
 20
832.18244399359435
 10
1330.5792890465975
 20
832.13732219173676
 42
0.0053437129109992
 10
1329.7833078429978
 20
831.44682366995039
 10
1329.7696389829659
 20
831.43470777396442
 42
0.0049229127705419
 10
1329.0150923791325
 20
830.75250449688065
 10
1329.0030324938482
 20
830.74137978933459
  0
ARC
  5
1B0
100
AcDbEntity
  8
0
100
AcDbCircle
 10
1341.7886353820481
 20
838.42893121393445
 30
0.0
 40
2.0000023145998882
100
AcDbArc
 50
179.99997320919934
 51
270.00002671000061
  0
LINE
  5
1B1
100
AcDbEntity
  8
0
100
AcDbLine
 10
1339.7886363560483
 20
856.42893218813447
 30
0.0
 11
1339.7886363560483
 21
838.42893218813447
 31
0.0
  0
LINE
  5
1B2
100
AcDbEntity
  8
0
100
AcDbLine
 10
1370.7886363560483
 20
836.5289321881346
 30
0.0
 11
1370.7886363560483
 21
814.0289321881346
 31
0.0
  0
ARC
  5
1B3
100
AcDbEntity
  8
0
100
AcDbCircle
 10
1367.7886363560483
 20
835.42893218813447
 30
0.0
 40
1.0
100
AcDbArc
 50
0.0
 51
90.0
  0
ARC
  5
1B4
100
AcDbEntity
  8
0
100
AcDbCircle
 10
1364.5509000234483
 20
815.38304794673445
 30
0.0
 40
19.999999999999993
100
AcDbArc
 50
71.816508382600176
 51
77.767052522700126
  0
LINE
  5
1B5
100
AcDbEntity
  8
0
100
AcDbLine
 10
1394.7886363560483
 20
919.22893218813442
 30
0.0
 11
1394.7886363560483
 21
849.62893218813451
 31
0.0
  0
LINE
  5
1B6
100
AcDbEntity
  8
0
100
AcDbLine
 10
1376.7886363560483
 20
919.22893218813442
 30
0.0
 11
1376.7886363560483
 21
849.62893218813451
 31
0.0
  0
LINE
  5
1B7
100
AcDbEntity
  8
0
100
AcDbLine
 10
1398.2886363560483
 20
836.5289321881346
 30
0.0
 11
1390.8886363560482
 21
836.5289321881346
 31
0.0
  0
LINE
  5
1B8
100
AcDbEntity
  8
0
100
AcDbLine
 10
1390.7386363560481
 20
836.49566933513461
 30
0.0
 11
1390.7386363560481
 21
849.42893218813447
 31
0.0
  0
LINE
  5
1B9
100
AcDbEntity
  8
0
100
AcDbLine
 10
1380.838636356048
 20
836.49567042193439
 30
0.0
 11
1380.838636356048
 21
849.42893218813447
 31
0.0
  0
LWPOLYLINE
  5
1BA
100
AcDbEntity
  8
0
100
AcDbPolyline
 90
       32
 70
             128
 10
1390.7386914350482
 20
836.49541935153457
 42
-0.0041905088189862
 10
1390.3235463756776
 20
836.4076060040519
 10
1390.2824915456251
 20
836.3992807485015
 42
-0.0060916654275081
 10
1389.7833445709298
 20
836.30437778749467
 10
1389.6562565623981
 20
836.28181518620056
 42
-0.0081591484992518
 10
1389.0617954687827
 20
836.18625548802311
 10
1389.0495980276783
 20
836.1844984119092
 42
-0.0046671910718747
 10
1388.4772535618852
 20
836.10749670280518
 42
-0.007962044746002
 10
1387.9031947249823
 20
836.04497953587725
 10
1387.8208517248006
 20
836.03733664890331
 42
-0.0063035717147934
 10
1387.2793484451581
 20
835.99395341434297
 10
1387.2744038221258
 20
835.99361994636047
 42
-0.0059186146354665
 10
1386.7418926050682
 20
835.96403440673657
 42
-0.0061782294538694
 10
1386.2088248686846
 20
835.94733962630812
 10
1386.2038339616038
 20
835.94724502843621
 42
-0.0062015225858068
 10
1385.6605289778042
 20
835.94368705800707
 10
1385.6585443281494
 20
835.94369867672788
 42
-0.0061900875308098
 10
1385.1192812597342
 20
835.95353282060114
 10
1385.1137507438773
 20
835.95370218616722
 42
-0.0060780313969216
 10
1384.5859450529631
 20
835.97629030207599
 10
1384.5768605663054
 20
835.97678977976295
 42
-0.0058648598009705
 10
1384.0678969798721
 20
836.0107654219637
 42
-0.005572823897181
 10
1383.5598402855785
 20
836.05637406651567
 10
1383.4614422345458
 20
836.06631402593007
 42
-0.0100051748245668
 10
1382.7588031009441
 20
836.15152684849363
 10
1382.6128343527942
 20
836.17220061623641
 42
-0.0082195282462813
 10
1381.9299145917607
 20
836.28040280081734
 10
1381.8521880596252
 20
836.29403117176776
 42
-0.0061994237785107
 10
1381.3277237376083
 20
836.39270693261074
 10
1381.2925043682503
 20
836.39978652134016
 42
-0.00461635817752
 10
1380.8405811985754
 20
836.49497867519131
 10
1380.8385810486482
 20
836.49541940173458
  0
LWPOLYLINE
  5
1BB
100
AcDbEntity
  8
0
100
AcDbPolyline
 90
        4
 70
             128
 10
1380.8385810486482
 20
836.49541940173458
 10
1380.8384716918397
 20
836.49544349722669
 42
-0.0015061789266556
 10
1380.6888393218242
 20
836.5288861822338
 10
1380.6886363560479
 20
836.5289321881346
  0
LWPOLYLINE
  5
1BC
100
AcDbEntity
  8
0
100
AcDbPolyline
 90
        4
 70
             128
 10
1390.8886363560482
 20
836.5289321881346
 10
1390.8884307059243
 20
836.52888557466588
 42
-0.0015062210157834
 10
1390.7387981807981
 20
836.49544287144863
 10
1390.7386914350482
 20
836.49541935153457
  0
LINE
  5
1BD
100
AcDbEntity
  8
0
100
AcDbLine
 10
1376.7886363560483
 20
849.62893218813451
 30
0.0
 11
1394.7886363560483
 21
849.62893218813451
 31
0.0
  0
LINE
  5
1BE
100
AcDbEntity
  8
0
100
AcDbLine
 10
1376.9886363560481
 20
849.42893218813447
 30
0.0
 11
1394.588636356048
 21
849.42893218813447
 31
0.0
  0
ARC
  5
1BF
100
AcDbEntity
  8
0
100
AcDbCircle
 10
1376.9886363560481
 20
849.62893218813451
 30
0.0
 40
0.2000000000000455
100
AcDbArc
 50
180.0
 51
270.0
  0
ARC
  5
1C0
100
AcDbEntity
  8
0
100
AcDbCircle
 10
1394.588636356048
 20
849.62893218813451
 30
0.0
 40
0.1999999999999886
100
AcDbArc
 50
270.0
 51
0.0
  0
ARC
  5
1C1
100
AcDbEntity
  8
0
100
AcDbCircle
 10
1398.2886363560483
 20
836.0289321881346
 30
0.0
 40
0.5
100
AcDbArc
 50
0.0
 51
90.0
  0
LINE
  5
1C2
100
AcDbEntity
  8
0
100
AcDbLine
 10
1376.9886363560481
 20
919.42893218813447
 30
0.0
 11
1394.588636356048
 21
919.42893218813447
 31
0.0
  0
LINE
  5
1C3
100
AcDbEntity
  8
0
100
AcDbLine
 10
1376.7886363560483
 20
919.22893218813442
 30
0.0
 11
1394.7886363560483
 21
919.22893218813442
 31
0.0
  0
ARC
  5
1C4
100
AcDbEntity
  8
0
100
AcDbCircle
 10
1376.9886363560481
 20
919.22893218813442
 30
0.0
 40
0.2000000000000455
100
AcDbArc
 50
90.0
 51
180.0
  0
ARC
  5
1C5
100
AcDbEntity
  8
0
100
AcDbCircle
 10
1394.588636356048
 20
919.22893218813442
 30
0.0
 40
0.1999999999999318
100
AcDbArc
 50
0.0
 51
90.0
  0
LINE
  5
1C6
100
AcDbEntity
  8
0
100
AcDbLine
 10
1481.2934387450482
 20
1002.7926581815345
 30
0.0
 11
1500.0155460138481
 21
962.64296957713441
 31
0.0
  0
ARC
  5
1C7
100
AcDbEntity
  8
一般
370
               5
  6
Continuous
 62
               7
100
AcDbCircle
 10
1159.9999999999
 20
1398.0829187065078
 30
0.0
 40
29.000000000000007
100
AcDbArc
 50
320.8832562204214
 51
219.11674377957863
  0
LINE
  5
1C8
100
AcDbEntity
  8
0
100
AcDbLine
 10
1182.0999999999001
 20
1326.0829187065081
 30
0.0
 11
1172.9999999999
 21
1326.0829187065081
 31
0.0
  0
LINE
  5
1C9
100
AcDbEntity
  8
0
100
AcDbLine
 10
1146.9999999999
 20
1326.0829187065081
 30
0.0
 11
1138.0999999999001
 21
1326.0829187065081
 31
0.0
  0
LINE
  5
1CA
100
AcDbEntity
  8
0
100
AcDbLine
 10
1138.4999999999
 20
1356.0829187065083
 30
0.0
 11
1146.9999999999
 21
1356.0829187065083
 31
0.0
  0
LINE
  5
1CB
100
AcDbEntity
  8
0
100
AcDbLine
 10
1172.9999999999
 20
1356.0829187065083
 30
0.0
 11
1181.4999999999
 21
1356.0829187065083
 31
0.0
  0
LINE
  5
1CC
100
AcDbEntity
  8
0
100
AcDbLine
 10
1137.4999999999
 20
1357.0829187065083
 30
0.0
 11
1146.9999999999
 21
1357.0829187065083
 31
0.0
  0
LINE
  5
1CD
100
AcDbEntity
  8
0
100
AcDbLine
 10
1172.9999999999
 20
1357.0829187065083
 30
0.0
 11
1182.4999999999
 21
1357.0829187065083
 31
0.0
  0
ARC
  5
1CE
100
AcDbEntity
  8
0
100
AcDbCircle
 10
1158.5458842411001
 20
1360.3206550391083
 30
0.0
 40
20.000000000000075
100
AcDbArc
 50
192.23294747729983
 51
198.17297567124811
  0
LINE
  5
1CF
100
AcDbEntity
  8
0
100
AcDbLine
 10
1137.4999999999
 20
1398.0829187065078
 30
0.0
 11
1137.4999999999
 21
1357.0829187065083
 31
0.0
  0
ARC
  5
1D0
100
AcDbEntity
  8
0
100
AcDbCircle
 10
1138.4999999999
 20
1357.0829187065083
 30
0.0
 40
1.0
100
AcDbArc
 50
180.0
 51
270.0
  0
ARC
  5
1D1
100
AcDbEntity
  8
0
100
AcDbCircle
 10
1138.0999999999001
 20
1326.5829187065083
 30
0.0
 40
0.5
100
AcDbArc
 50
180.0
 51
270.0
  0
LINE
  5
1D2
100
AcDbEntity
  8
0
100
AcDbLine
 10
1182.4999999999
 20
1398.0829187065078
 30
0.0
 11
1182.4999999999
 21
1357.0829187065083
 31
0.0
  0
ARC
  5
1D3
100
AcDbEntity
  8
0
100
AcDbCircle
 10
1181.4999999999
 20
1357.0829187065083
 30
0.0
 40
1.0
100
AcDbArc
 50
270.0
 51
0.0
  0
ARC
  5
1D4
100
AcDbEntity
  8
0
100
AcDbCircle
 10
1161.4541157584999
 20
1360.3206550391083
 30
0.0
 40
20.000000000000028
100
AcDbArc
 50
341.81650838259986
 51
347.76705252270023
  0
POLYLINE
  5
1D5
100
AcDbEntity
  8
一般
370
               5
  6
Continuous
 62
               7
100
AcDb2dPolyline
 66
               1
 10
0.0
 20
0.0
 30
0.0
 75
               5
  0
VERTEX
  5
1D6
100
AcDbEntity
  8
一般
370
               5
  6
Continuous
 62
               7
100
AcDbVertex
100
AcDb2dVertex
 10
1146.9999999999
 20
1357.0829187065083
 30
0.0
  0
VERTEX
  5
1D7
100
AcDbEntity
  8
一般
370
               5
  6
Continuous
 62
               7
100
AcDbVertex
100
AcDb2dVertex
 10
1137.4999999999
 20
1357.0829187065083
 30
0.0
  0
VERTEX
  5
1D8
100
AcDbEntity
  8
一般
370
               5
  6
Continuous
 62
               7
100
AcDbVertex
100
AcDb2dVertex
 10
1137.4999999999
 20
1398.0829187065078
 30
0.0
  0
SEQEND
  5
1D9
100
AcDbEntity
  8
一般
370
               5
  6
Continuous
 62
               7
  0
POLYLINE
  5
1DA
100
AcDbEntity
  8
一般
370
               5
  6
Continuous
 62
               7
100
AcDb2dPolyline
 66
               1
 10
0.0
 20
0.0
 30
0.0
 75
               5
  0
VERTEX
  5
1DB
100
AcDbEntity
  8
一般
370
               5
  6
Continuous
 62
               7
100
AcDbVertex
100
AcDb2dVertex
 10
1172.9999999999
 20
1357.0829187065083
 30
0.0
  0
VERTEX
  5
1DC
100
AcDbEntity
  8
一般
370
               5
  6
Continuous
 62
               7
100
AcDbVertex
100
AcDb2dVertex
 10
1182.4999999999
 20
1357.0829187065083
 30
0.0
  0
VERTEX
  5
1DD
100
AcDbEntity
  8
一般
370
               5
  6
Continuous
 62
               7
100
AcDbVertex
100
AcDb2dVertex
 10
1182.4999999999
 20
1398.0829187065078
 30
0.0
  0
SEQEND
  5
1DE
100
AcDbEntity
  8
一般
370
               5
  6
Continuous
 62
               7
  0
ARC
  5
1DF
100
AcDbEntity
  8
一般
370
               5
  6
Continuous
 62
               7
100
AcDbCircle
 10
1159.9999999999
 20
1398.0829187065078
 30
0.0
 40
22.500000000000018
100
AcDbArc
 50
305.29439467666015
 51
234.70560532333991
  0
POLYLINE
  5
1E0
100
AcDbEntity
  8
0
100
AcDb2dPolyline
 66
               1
 10
0.0
 20
0.0
 30
0.0
 75
               5
  0
VERTEX
  5
1E1
100
AcDbEntity
  8
0
100
AcDbVertex
100
AcDb2dVertex
 10
1146.9999999999
 20
1326.5829187065083
 30
0.0
  0
VERTEX
  5
1E2
100
AcDbEntity
  8
0
100
AcDbVertex
100
AcDb2dVertex
 10
1137.5999999999001
 20
1326.5829187065083
 30
0.0
  0
VERTEX
  5
1E3
100
AcDbEntity
  8
0
100
AcDbVertex
100
AcDb2dVertex
 10
1137.5999999999001
 20
1354.0829187065083
 30
0.0
  0
VERTEX
  5
1E4
100
AcDbEntity
  8
0
100
AcDbVertex
100
AcDb2dVertex
 10
1146.9999999999
 20
1354.0829187065083
 30
0.0
  0
SEQEND
  5
1E5
100
AcDbEntity
  8
0
  0
LINE
  5
1E6
100
AcDbEntity
  8
0
100
AcDbLine
 10
1172.9999999999
 20
1326.5829187065083
 30
0.0
 11
1182.5999999999001
 21
1326.5829187065083
 31
0.0
  0
POLYLINE
  5
1E7
100
AcDbEntity
  8
0
100
AcDb2dPolyline
 66
               1
 10
0.0
 20
0.0
 30
0.0
 75
               5
  0
VERTEX
  5
1E8
100
AcDbEntity
  8
0
100
AcDbVertex
100
AcDb2dVertex
 10
1172.9999999999
 20
1354.0829187065083
 30
0.0
  0
VERTEX
  5
1E9
100
AcDbEntity
  8
0
100
AcDbVertex
100
AcDb2dVertex
 10
1182.5999999999001
 20
1354.0829187065083
 30
0.0
  0
VERTEX
  5
1EA
100
AcDbEntity
  8
0
100
AcDbVertex
100
AcDb2dVertex
 10
1182.5999999999001
 20
1326.5266351693231
 30
0.0
  0
SEQEND
  5
1EB
100
AcDbEntity
  8
0
  0
SPLINE
  5
1EC
100
AcDbEntity
  8
一般
370
               5
  6
Continuous
 62
               7
100
AcDbSpline
210
0.0
220
0.0
230
1.0
 70
              13
 71
               2
 72
              19
 73
              16
 74
               0
 42
0.000001
 43
0.000001
 40
0.0
 40
0.0
 40
0.0
 40
1.0
 40
1.0
 40
2.0
 40
2.0
 40
3.0
 40
4.0
 40
5.0
 40
6.0
 40
7.0
 40
8.0
 40
8.0
 40
9.0
 40
9.0
 40
10.0
 40
10.0
 40
10.0
 10
1159.9999999999
 20
1411.0829187065078
 30
0.0
 41
1.0
 10
1172.9999999999
 20
1411.0829187065078
 30
0.0
 41
0.7071067811865476
 10
1172.9999999999
 20
1398.0829187065078
 30
0.0
 41
1.0
 10
1172.9999999999
 20
1300.8374626461082
 30
0.0
 41
1.0
 10
1172.9999999999
 20
1203.5920065857081
 30
0.0
 41
1.0
 10
1172.9999999999
 20
1200.4302061150208
 30
0.0
 41
1.0
 10
1169.5166604982953
 20
1194.9538070563954
 30
0.0
 41
1.0
 10
1163.4833395015046
 20
1191.7920065857081
 30
0.0
 41
1.0
 10
1156.5166604982953
 20
1191.7920065857081
 30
0.0
 41
1.0
 10
1150.4833395015046
 20
1194.9538070563954
 30
0.0
 41
1.0
 10
1146.9999999999
 20
1200.4302061150208
 30
0.0
 41
1.0
 10
1146.9999999999
 20
1203.5920065857081
 30
0.0
 41
1.0
 10
1146.9999999999
 20
1300.8374626461082
 30
0.0
 41
1.0
 10
1146.9999999999
 20
1398.0829187065078
 30
0.0
 41
1.0
 10
1146.9999999999
 20
1411.0829187065078
 30
0.0
 41
0.7071067811865476
 10
1159.9999999999
 20
1411.0829187065078
 30
0.0
 41
1.0
  0
SPLINE
  5
1ED
100
AcDbEntity
  8
一般
370
               5
  6
Continuous
 62
               7
100
AcDbSpline
210
0.0
220
0.0
230
1.0
 70
               8
 71
               2
 72
              12
 73
               9
 74
               0
 42
0.000001
 43
0.000001
 40
0.0
 40
0.0
 40
0.0
 40
1.0
 40
2.0
 40
3.0
 40
4.0
 40
5.0
 40
6.0
 40
7.0
 40
7.0
 40
7.0
 10
1172.9796406684954
 20
1213.7610588916441
 30
0.0
 10
1172.9999999999
 20
1214.967225856414
 30
0.0
 10
1172.9999999999
 20
1209.9391170042209
 30
0.0
 10
1169.5166604982956
 20
1204.4627179455954
 30
0.0
 10
1163.4833395015046
 20
1201.3009174749081
 30
0.0
 10
1156.5166604982953
 20
1201.3009174749081
 30
0.0
 10
1150.4833395015046
 20
1204.4627179455954
 30
0.0
 10
1147.6394933286904
 20
1208.9337252925684
 30
0.0
 10
1147.0203593313045
 20
1213.7610588916441
 30
0.0
  0
INSERT
  5
1EE
100
AcDbEntity
  8
一般
 62
               7
100
AcDbBlockReference
  2
グループ
 10
1450.0
 20
1020.0
 30
0.0
  0
INSERT
  5
1EF
100
AcDbEntity
  8
一般
 62
               7
100
AcDbBlockReference
  2
グループ-1
 10
1450.0
 20
1020.0
 30
0.0
  0
INSERT
  5
1F0
100
AcDbEntity
  8
一般
 62
               7
100
AcDbBlockReference
  2
グループ-2
 10
1450.0
 20
1020.0
 30
0.0
  0
ENDSEC
  0
SECTION
  2
OBJECTS
  0
DICTIONARY
  5
19
100
AcDbDictionary
280
               0
281
               1
  3
ACAD_GROUP
350
1A
  3
ACAD_MLINESTYLE
350
1B
  3
ACAD_LAYOUT
350
1E
  3
ACAD_PLOTSETTINGS
350
22
  3
ACAD_PLOTSTYLENAME
350
1F
  3
ACAD_WIPEOUT_VARS
350
23
  0
DICTIONARY
  5
1A
102
{ACAD_REACTORS
330
19
102
}
100
AcDbDictionary
280
               0
281
               1
  0
DICTIONARY
  5
1B
102
{ACAD_REACTORS
330
19
102
}
100
AcDbDictionary
280
               0
281
               1
  3
Standard
350
1C
  0
MLINESTYLE
  5
1C
102
{ACAD_REACTORS
330
1B
102
}
100
AcDbMlineStyle
  2
Standard
 70
               0
  3

 62
               0
 51
90.0
 52
90.0
 71
               2
 49
0.5
 62
             256
  6
ByLayer
 49
-0.5
 62
             256
  6
ByLayer
  0
ACDBDICTIONARYWDFLT
  5
1F
102
{ACAD_REACTORS
330
19
102
}
100
AcDbDictionary
281
               1
  3
Normal
350
1D
100
AcDbDictionaryWithDefault
340
1D
  0
ACDBPLACEHOLDER
  5
1D
102
{ACAD_REACTORS
330
1F
102
}
  0
LAYOUT
  5
20
102
{ACAD_REACTORS
330
1E
102
}
100
AcDbPlotSettings
  1

  2

  4

  6

 40
0.0
 41
0.0
 42
0.0
 43
0.0
 44
0.0
 45
0.0
 46
0.0
 47
0.0
 48
0.0
 49
0.0
140
0.0
141
0.0
142
1.0
143
1.0
 70
            1024
 72
               0
 73
               0
 74
               0
  7

 75
               0
147
1.0
148
0.0
149
0.0
100
AcDbLayout
  1
Model
 70
               0
 71
               0
 10
0.0
 20
0.0
 11
0.0
 21
0.0
 12
0.0
 22
0.0
 32
0.0
 14
0.0
 24
0.0
 34
0.0
 15
0.0
 25
0.0
 35
0.0
146
0.0
 13
0.0
 23
0.0
 33
0.0
 16
0.0
 26
0.0
 36
0.0
 17
0.0
 27
0.0
 37
0.0
 76
               0
330
A
331
0
345
0
346
0
  0
LAYOUT
  5
21
102
{ACAD_REACTORS
330
1E
102
}
100
AcDbPlotSettings
  1

  2

  4

  6

 40
0.0
 41
0.0
 42
0.0
 43
0.0
 44
0.0
 45
0.0
 46
0.0
 47
0.0
 48
0.0
 49
0.0
140
0.0
141
0.0
142
1.0
143
1.0
 70
               0
 72
               0
 73
               0
 74
               0
  7

 75
               0
147
1.0
148
0.0
149
0.0
100
AcDbLayout
  1
Layout1
 70
               0
 71
               0
 10
0.0
 20
0.0
 11
0.0
 21
0.0
 12
0.0
 22
0.0
 32
0.0
 14
0.0
 24
0.0
 34
0.0
 15
0.0
 25
0.0
 35
0.0
146
0.0
 13
0.0
 23
0.0
 33
0.0
 16
0.0
 26
0.0
 36
0.0
 17
0.0
 27
0.0
 37
0.0
 76
               0
330
B
331
0
345
0
346
0
  0
DICTIONARY
  5
1E
102
{ACAD_REACTORS
330
19
102
}
100
AcDbDictionary
280
               0
281
               1
  3
Layout1
350
21
  3
Model
350
20
  0
DICTIONARY
  5
22
102
{ACAD_REACTORS
330
19
102
}
100
AcDbDictionary
280
               0
281
               1
  0
WIPEOUTVARIABLES
  5
23
100
AcDbWipeoutVariables
 70
               0
  0
ENDSEC
  0
EOF
