  0
SECTION
  2
HEADER
  9
$ACADVER
  1
AC1015
  9
$ACADMAINTVER
 70
               6
  9
$DWGCODEPAGE
  3
ANSI_932
  9
$INSBASE
 10
0.0
 20
0.0
 30
0.0
  9
$EXTMIN
 10
938.07062345145164
 20
795.02399858563433
 30
-7.4083333333333323
  9
$EXTMAX
 10
1546.3324811575601
 20
1299.3742251572467
 30
7.4083333333333323
  9
$LIMMIN
 10
0.0
 20
0.0
  9
$LIMMAX
 10
0.0
 20
0.0
  9
$ORTHOMODE
 70
               0
  9
$REGENMODE
 70
               1
  9
$FILLMODE
 70
               1
  9
$QTEXTMODE
 70
               0
  9
$MIRRTEXT
 70
               1
  9
$LTSCALE
 40
25.399999999999999
  9
$ATTMODE
 70
               1
  9
$TEXTSIZE
 40
0.2
  9
$TRACEWID
 40
1.0
  9
$TEXTSTYLE
  7
Standard
  9
$CLAYER
  8
一般
  9
$CELTYPE
  6
Continuous
  9
$CECOLOR
 62
             256
  9
$CELTSCALE
 40
1.0
  9
$DISPSILH
 70
               0
  9
$DIMSCALE
 40
1.0
  9
$DIMASZ
 40
0.18
  9
$DIMEXO
 40
0.0625
  9
$DIMDLI
 40
0.38
  9
$DIMRND
 40
0.0
  9
$DIMDLE
 40
0.0
  9
$DIMEXE
 40
0.18
  9
$DIMTP
 40
0.0
  9
$DIMTM
 40
0.0
  9
$DIMTXT
 40
0.18
  9
$DIMCEN
 40
0.09
  9
$DIMTSZ
 40
0.0
  9
$DIMTOL
 70
               0
  9
$DIMLIM
 70
               0
  9
$DIMTIH
 70
               1
  9
$DIMTOH
 70
               1
  9
$DIMSE1
 70
               0
  9
$DIMSE2
 70
               0
  9
$DIMTAD
 70
               0
  9
$DIMZIN
 70
               0
  9
$DIMBLK
  1

  9
$DIMASO
 70
               1
  9
$DIMSHO
 70
               1
  9
$DIMPOST
  1

  9
$DIMAPOST
  1

  9
$DIMALT
 70
               0
  9
$DIMALTD
 70
               2
  9
$DIMALTF
 40
25.399999999999999
  9
$DIMLFAC
 40
1.0
  9
$DIMTOFL
 70
               0
  9
$DIMTVP
 40
0.0
  9
$DIMTIX
 70
               0
  9
$DIMSOXD
 70
               0
  9
$DIMSAH
 70
               0
  9
$DIMBLK1
  1

  9
$DIMBLK2
  1

  9
$DIMSTYLE
  2
Standard
  9
$DIMCLRD
 70
               0
  9
$DIMCLRE
 70
               0
  9
$DIMCLRT
 70
               0
  9
$DIMTFAC
 40
1.0
  9
$DIMGAP
 40
0.09
  9
$DIMJUST
 70
               0
  9
$DIMSD1
 70
               0
  9
$DIMSD2
 70
               0
  9
$DIMTOLJ
 70
               1
  9
$DIMTZIN
 70
               0
  9
$DIMALTZ
 70
               0
  9
$DIMALTTZ
 70
               0
  9
$DIMUPT
 70
               0
  9
$DIMDEC
 70
               4
  9
$DIMTDEC
 70
               4
  9
$DIMALTU
 70
               2
  9
$DIMALTTD
 70
               2
  9
$DIMTXSTY
  7
Standard
  9
$DIMAUNIT
 70
               0
  9
$DIMADEC
 70
               0
  9
$DIMALTRND
 40
0.0
  9
$DIMAZIN
 70
               0
  9
$DIMDSEP
 70
               0
  9
$DIMATFIT
 70
               3
  9
$DIMFRAC
 70
               0
  9
$DIMLDRBLK
  1

  9
$DIMLUNIT
 70
               2
  9
$DIMLWD
 70
               0
  9
$DIMLWE
 70
               0
  9
$DIMTMOVE
 70
               0
  9
$LUNITS
 70
               2
  9
$LUPREC
 70
               4
  9
$SKETCHINC
 40
0.1
  9
$FILLETRAD
 40
0.0
  9
$AUNITS
 70
               0
  9
$AUPREC
 70
               0
  9
$MENU
  1
acad
  9
$ELEVATION
 40
0.0
  9
$PELEVATION
 40
0.0
  9
$THICKNESS
 40
0.0
  9
$LIMCHECK
 70
               0
  9
$CHAMFERA
 40
0.0
  9
$CHAMFERB
 40
0.0
  9
$CHAMFERC
 40
0.0
  9
$CHAMFERD
 40
0.0
  9
$SKPOLY
 70
               0
  9
$TDCREATE
 40
2455119.810949074
  9
$TDUCREATE
 40
0.000000000
  9
$TDUPDATE
 40
2455119.810949074
  9
$TDUUPDATE
 40
0.000000000
  9
$TDINDWG
 40
0.0000000000
  9
$TDUSRTIMER
 40
0.0000000000
  9
$USRTIMER
 70
               1
  9
$ANGBASE
 50
0.0
  9
$ANGDIR
 70
               0
  9
$PDMODE
 70
               1
  9
$PDSIZE
 40
-2.0
  9
$PLINEWID
 40
0.0
  9
$SPLFRAME
 70
               0
  9
$SPLINETYPE
 70
               6
  9
$SPLINESEGS
 70
               8
  9
$HANDSEED
  5
105
  9
$SURFTAB1
 70
               6
  9
$SURFTAB2
 70
               6
  9
$SURFTYPE
 70
               6
  9
$SURFU
 70
               6
  9
$SURFV
 70
               6
  9
$UCSBASE
  2

  9
$UCSNAME
  2

  9
$UCSORG
 10
0.0
 20
0.0
 30
0.0
  9
$UCSXDIR
 10
1.0
 20
0.0
 30
0.0
  9
$UCSYDIR
 10
0.0
 20
1.0
 30
0.0
  9
$UCSORTHOREF
  2

  9
$UCSORTHOVIEW
 70
               0
  9
$UCSORGTOP
 10
0.0
 20
0.0
 30
0.0
  9
$UCSORGBOTTOM
 10
0.0
 20
0.0
 30
0.0
  9
$UCSORGLEFT
 10
0.0
 20
0.0
 30
0.0
  9
$UCSORGRIGHT
 10
0.0
 20
0.0
 30
0.0
  9
$UCSORGFRONT
 10
0.0
 20
0.0
 30
0.0
  9
$UCSORGBACK
 10
0.0
 20
0.0
 30
0.0
  9
$PUCSBASE
  2

  9
$PUCSNAME
  2

  9
$PUCSORG
 10
0.0
 20
0.0
 30
0.0
  9
$PUCSXDIR
 10
1.0
 20
0.0
 30
0.0
  9
$PUCSYDIR
 10
0.0
 20
1.0
 30
0.0
  9
$PUCSORTHOREF
  2

  9
$PUCSORTHOVIEW
 70
               0
  9
$PUCSORGTOP
 10
0.0
 20
0.0
 30
0.0
  9
$PUCSORGBOTTOM
 10
0.0
 20
0.0
 30
0.0
  9
$PUCSORGLEFT
 10
0.0
 20
0.0
 30
0.0
  9
$PUCSORGRIGHT
 10
0.0
 20
0.0
 30
0.0
  9
$PUCSORGFRONT
 10
0.0
 20
0.0
 30
0.0
  9
$PUCSORGBACK
 10
0.0
 20
0.0
 30
0.0
  9
$USERI1
 70
               0
  9
$USERI2
 70
               0
  9
$USERI3
 70
               0
  9
$USERI4
 70
               0
  9
$USERI5
 70
               0
  9
$USERR1
 40
0.0
  9
$USERR2
 40
0.0
  9
$USERR3
 40
0.0
  9
$USERR4
 40
0.0
  9
$USERR5
 40
0.0
  9
$WORLDVIEW
 70
               1
  9
$SHADEDGE
 70
               3
  9
$SHADEDIF
 70
              70
  9
$TILEMODE
 70
               1
  9
$MAXACTVP
 70
              64
  9
$PINSBASE
 10
0.0
 20
0.0
 30
0.0
  9
$PLIMCHECK
 70
               0
  9
$PEXTMIN
 10
1.0000000000000000E+20
 20
1.0000000000000000E+20
 30
1.0000000000000000E+20
  9
$PEXTMAX
 10
-1.0000000000000000E+20
 20
-1.0000000000000000E+20
 30
-1.0000000000000000E+20
  9
$PLIMMIN
 10
0.0
 20
0.0
  9
$PLIMMAX
 10
12.0
 20
9.0
  9
$UNITMODE
 70
               0
  9
$VISRETAIN
 70
               0
  9
$PLINEGEN
 70
               1
  9
$PSLTSCALE
 70
               0
  9
$TREEDEPTH
 70
            3020
  9
$CMLSTYLE
  2
Standard
  9
$CMLJUST
 70
               0
  9
$CMLSCALE
 40
1.0
  9
$PROXYGRAPHICS
 70
               0
  9
$MEASUREMENT
 70
               1
  9
$CELWEIGHT
370
               0
  9
$ENDCAPS
280
               0
  9
$JOINSTYLE
280
               0
  9
$LWDISPLAY
290
               1
  9
$INSUNITS
 70
               4
  9
$HYPERLINKBASE
  1

  9
$STYLESHEET
  1

  9
$XEDIT
290
               1
  9
$CEPSNTYPE
380
               0
  9
$PSTYLEMODE
290
               1
  9
$FINGERPRINTGUID
  2

  9
$VERSIONGUID
  2

  9
$EXTNAMES
290
               1
  9
$PSVPSCALE
 40
0.0
  0
ENDSEC
  0
SECTION
  2
CLASSES
  0
CLASS
  1
LWPOLYLINE
  2
AcDbPolyline
  3
AutoCAD 2000
 90
        0
280
               0
281
               1
  0
CLASS
  1
IMAGE
  2
AcDbRasterImage
  3
ISM
 90
    32895
280
               0
281
               1
  0
CLASS
  1
OLE2FRAME
  2
AcDbOle2Frame
  3
AutoCAD 2000
 90
    32768
280
               0
281
               1
  0
CLASS
  1
HATCH
  2
AcDbHatch
  3
AutoCAD 2000
 90
    32768
280
               0
281
               1
  0
CLASS
  1
DICTIONARYVAR
  2
AcDbDictionaryVar
  3
AutoCAD 2000
 90
    32768
280
               0
281
               0
  0
CLASS
  1
RASTERVARIABLES
  2
AcDbRasterVariables
  3
ISM
 90
    32768
280
               0
281
               0
  0
CLASS
  1
IMAGEDEF
  2
AcDbRasterImageDef
  3
ISM
 90
    32768
280
               0
281
               0
  0
CLASS
  1
IMAGEDEF_REACTOR
  2
AcDbRasterImageDefReactor
  3
ISM
 90
    32769
280
               0
281
               0
  0
CLASS
  1
IDBUFFER
  2
AcDbIdBuffer
  3
AutoCAD 2000
 90
    32768
280
               0
281
               0
  0
CLASS
  1
SPATIAL_FILTER
  2
AcDbSpatialFilter
  3
AutoCAD 2000
 90
    32768
280
               0
281
               0
  0
CLASS
  1
XRECORD
  2
AcDbXrecord
  3
AutoCAD 2000
 90
    32768
280
               0
281
               0
  0
CLASS
  1
SORTENTSTABLE
  2
AcDbSortentsTable
  3
AutoCAD 2000
 90
    32768
280
               0
281
               0
  0
CLASS
  1
LAYER_INDEX
  2
AcDbLayerIndex
  3
AutoCAD 2000
 90
    32768
280
               0
281
               0
  0
CLASS
  1
SPATIAL_INDEX
  2
AcDbSpatialIndex
  3
AutoCAD 2000
 90
    32768
280
               0
281
               0
  0
CLASS
  1
OBJECT_PTR
  2
CAseDLPNTableRecord
  3
"ASE-LPNTableRecord"
 90
    32769
280
               0
281
               0
  0
CLASS
  1
LAYOUT
  2
AcDbLayout
  3
AutoCAD 2000
 90
        0
280
               0
281
               0
  0
CLASS
  1
PLOTSETTINGS
  2
AcDbPlotSettings
  3
AutoCAD 2000
 90
    32768
280
               0
281
               0
  0
CLASS
  1
ACDBDICTIONARYWDFLT
  2
AcDbDictionaryWithDefault
  3
AutoCAD 2000
 90
        0
280
               0
281
               0
  0
CLASS
  1
ACDBPLACEHOLDER
  2
AcDbPlaceHolder
  3
AutoCAD 2000
 90
        0
280
               0
281
               0
  0
CLASS
  1
VBA_PROJECT
  2
AcDbVbaProject
  3
acadvba
 90
    32768
280
               0
281
               0
  0
CLASS
  1
WIPEOUT
  2
AcDbWipeout
  3
WipeOut|AutoCAD Express Tool|expresstools@autodesk.com
 90
    32895
280
               0
281
               1
  0
CLASS
  1
WIPEOUTVARIABLES
  2
AcDbWipeoutVariables
  3
WipeOut|AutoCAD Express Tool|expresstools@autodesk.com
 90
        0
280
               0
281
               0
  0
CLASS
  1
RTEXT
  2
RText
  3
RText|AutoCAD Express Tool|expresstools@autodesk.com
 90
    32768
280
               0
281
               1
  0
CLASS
  1
ARCALIGNEDTEXT
  2
AcDbArcAlignedText
  3
ATEXT|AutoCAD Express Tool|expresstools@autodesk.com
 90
    32768
280
               0
281
               1
  0
ENDSEC
  0
SECTION
  2
TABLES
  0
TABLE
  2
VPORT
  5
7
100
AcDbSymbolTable
 70
               1
  0
VPORT
  5
15
100
AcDbSymbolTableRecord
100
AcDbViewportTableRecord
  2
*ACTIVE
 70
               0
 10
0.0
 20
0.0
 11
1.0
 21
1.0
 12
1242.2015523045059
 22
1047.1991118714404
 13
0.0
 23
0.0
 14
1.0
 24
1.0
 15
0.0
 25
0.0
 16
0.0
 26
0.0
 36
1.0
 17
0.0
 27
0.0
 37
0.0
 40
504.35022657161232
 41
0.688564
 42
50.0
 43
0.0
 44
0.0
 50
0.0
 51
0.0
 71
               0
 72
            2000
 73
               1
 74
               1
 75
               0
 76
               0
 77
               0
 78
               0
281
               0
 65
               0
110
0.0
120
0.0
130
0.0
111
1.0
121
0.0
131
0.0
112
0.0
122
1.0
132
0.0
345
0
346
0
 79
               0
146
0.0
  0
ENDTAB
  0
TABLE
  2
LTYPE
  5
4
100
AcDbSymbolTable
 70
              16
  0
LTYPE
  5
11
100
AcDbSymbolTableRecord
100
AcDbLinetypeTableRecord
  2
ByBlock
 70
              64
  3

 72
              65
 73
               0
 40
0.0
  0
LTYPE
  5
12
100
AcDbSymbolTableRecord
100
AcDbLinetypeTableRecord
  2
ByLayer
 70
              64
  3

 72
              65
 73
               0
 40
0.0
  0
LTYPE
  5
13
100
AcDbSymbolTableRecord
100
AcDbLinetypeTableRecord
  2
Continuous
 70
              64
  3
Solid line
 72
              65
 73
               0
 40
0.0
  0
LTYPE
  5
2B
100
AcDbSymbolTableRecord
100
AcDbLinetypeTableRecord
  2
STYLE_01
 70
               0
  3

 72
              65
 73
               2
 40
0.41664
 49
0.20828
 74
               0
 49
-0.20836
 74
               0
  0
LTYPE
  5
2C
100
AcDbSymbolTableRecord
100
AcDbLinetypeTableRecord
  2
STYLE_02
 70
               0
  3

 72
              65
 73
               2
 40
0.6944250000000001
 49
0.48607
 74
               0
 49
-0.2083550000000001
 74
               0
  0
LTYPE
  5
2D
100
AcDbSymbolTableRecord
100
AcDbLinetypeTableRecord
  2
STYLE_03
 70
               0
  3

 72
              65
 73
               2
 40
1.25
 49
1.0416400000000001
 74
               0
 49
-0.2083599999999999
 74
               0
  0
LTYPE
  5
2E
100
AcDbSymbolTableRecord
100
AcDbLinetypeTableRecord
  2
STYLE_04
 70
               0
  3

 72
              65
 73
               2
 40
1.5277099999999999
 49
1.3194249999999998
 74
               0
 49
-0.208285
 74
               0
  0
LTYPE
  5
2F
100
AcDbSymbolTableRecord
100
AcDbLinetypeTableRecord
  2
STYLE_05
 70
               0
  3

 72
              65
 73
               2
 40
0.20828
 49
0.069425
 74
               0
 49
-0.138855
 74
               0
  0
LTYPE
  5
30
100
AcDbSymbolTableRecord
100
AcDbLinetypeTableRecord
  2
STYLE_06
 70
               0
  3

 72
              65
 73
               4
 40
1.0416400000000001
 49
0.625
 74
               0
 49
-0.20828
 74
               0
 49
0.06943
 74
               0
 49
-0.13893
 74
               0
  0
LTYPE
  5
31
100
AcDbSymbolTableRecord
100
AcDbLinetypeTableRecord
  2
STYLE_07
 70
               0
  3

 72
              65
 73
               6
 40
1.875
 49
0.625
 74
               0
 49
-0.20828
 74
               0
 49
0.6250000000000001
 74
               0
 49
-0.2083599999999999
 74
               0
 49
0.06943
 74
               0
 49
-0.1389299999999999
 74
               0
  0
LTYPE
  5
32
100
AcDbSymbolTableRecord
100
AcDbLinetypeTableRecord
  2
STYLE_08
 70
               0
  3

 72
              65
 73
               6
 40
1.25
 49
0.625
 74
               0
 49
-0.20828
 74
               0
 49
0.06943
 74
               0
 49
-0.13893
 74
               0
 49
0.0694299999999999
 74
               0
 49
-0.13893
 74
               0
  0
LTYPE
  5
33
100
AcDbSymbolTableRecord
100
AcDbLinetypeTableRecord
  2
STYLE_09
 70
               0
  3

 72
              65
 73
               4
 40
5.0
 49
3.75
 74
               0
 49
-0.2777849999999998
 74
               0
 49
0.6944300000000003
 74
               0
 49
-0.2777849999999998
 74
               0
  0
LTYPE
  5
34
100
AcDbSymbolTableRecord
100
AcDbLinetypeTableRecord
  2
STYLE_10
 70
               0
  3

 72
              65
 73
               6
 40
5.9375
 49
3.75
 74
               0
 49
-0.2777849999999998
 74
               0
 49
0.6944300000000003
 74
               0
 49
-0.2777849999999998
 74
               0
 49
0.625
 74
               0
 49
-0.3125
 74
               0
  0
LTYPE
  5
35
100
AcDbSymbolTableRecord
100
AcDbLinetypeTableRecord
  2
STYLE_11
 70
               0
  3

 72
              65
 73
               4
 40
0.9646653543307084
 49
0.6029158464566929
 74
               0
 49
-0.1205831692913385
 74
               0
 49
0.1205831692913385
 74
               0
 49
-0.1205831692913385
 74
               0
  0
LTYPE
  5
36
100
AcDbSymbolTableRecord
100
AcDbLinetypeTableRecord
  2
STYLE_12
 70
               0
  3

 72
              65
 73
               4
 40
3.6300000000000003
 49
2.2687500000000007
 74
               0
 49
-0.45375
 74
               0
 49
0.45375
 74
               0
 49
-0.45375
 74
               0
  0
LTYPE
  5
37
100
AcDbSymbolTableRecord
100
AcDbLinetypeTableRecord
  2
STYLE_13
 70
               0
  3

 72
              65
 73
               4
 40
0.2362204724409449
 49
0.1476377952755905
 74
               0
 49
-0.0295275590551181
 74
               0
 49
0.0295275590551181
 74
               0
 49
-0.0295275590551181
 74
               0
  0
ENDTAB
  0
TABLE
  2
LAYER
  5
2
100
AcDbSymbolTable
 70
              10
  0
LAYER
  5
14
100
AcDbSymbolTableRecord
100
AcDbLayerTableRecord
  2
0
 70
               0
 62
               7
  6
Continuous
290
               1
370
              15
390
1D
  0
LAYER
  5
38
100
AcDbSymbolTableRecord
100
AcDbLayerTableRecord
  2
一般
 70
               0
 62
               7
  6
Continuous
290
               1
370
               5
390
1D
  0
LAYER
  5
39
100
AcDbSymbolTableRecord
100
AcDbLayerTableRecord
  2
寸法
 70
               0
 62
               7
  6
Continuous
290
               1
370
               5
390
1D
  0
LAYER
  5
3A
100
AcDbSymbolTableRecord
100
AcDbLayerTableRecord
  2
dim
 70
               0
 62
               7
  6
Continuous
290
               1
370
              15
390
1D
  0
LAYER
  5
3B
100
AcDbSymbolTableRecord
100
AcDbLayerTableRecord
  2
HATCH
 70
               0
 62
               7
  6
Continuous
290
               1
370
              15
390
1D
  0
LAYER
  5
3C
100
AcDbSymbolTableRecord
100
AcDbLayerTableRecord
  2
DEFAULT_1
 70
               0
 62
               7
  6
STYLE_11
290
               1
370
              15
390
1D
  0
LAYER
  5
3D
100
AcDbSymbolTableRecord
100
AcDbLayerTableRecord
  2
LAYER1
 70
               0
 62
               7
  6
Continuous
290
               1
370
              15
390
1D
  0
LAYER
  5
3E
100
AcDbSymbolTableRecord
100
AcDbLayerTableRecord
  2
DEFAULT
 70
               0
 62
               7
  6
Continuous
290
               1
370
              15
390
1D
  0
LAYER
  5
3F
100
AcDbSymbolTableRecord
100
AcDbLayerTableRecord
  2
center
 70
               0
 62
               1
  6
STYLE_13
290
               1
370
              15
390
1D
  0
LAYER
  5
40
100
AcDbSymbolTableRecord
100
AcDbLayerTableRecord
  2
排水
 70
               0
 62
               7
  6
Continuous
290
               1
370
              15
390
1D
  0
ENDTAB
  0
TABLE
  2
STYLE
  5
3
100
AcDbSymbolTable
 70
               3
  0
STYLE
  5
17
100
AcDbSymbolTableRecord
100
AcDbTextStyleTableRecord
  2
Standard
 70
               0
 40
0.0
 41
1.0
 50
0.0
 71
               0
 42
0.0
  3
txt
  4
BIGFONT.SHX
  0
STYLE
  5
29
100
AcDbSymbolTableRecord
100
AcDbTextStyleTableRecord
  2
Arial
 70
               0
 40
0.0
 41
1.0
 50
0.0
 71
               0
 42
0.0
  3

  4
Arial
1001
ACAD
1000
Arial
1071
        0
  0
STYLE
  5
2A
100
AcDbSymbolTableRecord
100
AcDbTextStyleTableRecord
  2
ＭＳ ゴシック
 70
               0
 40
0.0
 41
1.0
 50
0.0
 71
               0
 42
0.0
  3

  4
ＭＳ ゴシック
1001
ACAD
1000
ＭＳ ゴシック
1071
        0
  0
ENDTAB
  0
TABLE
  2
VIEW
  5
5
100
AcDbSymbolTable
 70
               0
  0
ENDTAB
  0
TABLE
  2
UCS
  5
6
100
AcDbSymbolTable
 70
               0
  0
ENDTAB
  0
TABLE
  2
APPID
  5
8
100
AcDbSymbolTable
 70
               1
  0
APPID
  5
16
100
AcDbSymbolTableRecord
100
AcDbRegAppTableRecord
  2
ACAD
 70
               0
  0
ENDTAB
  0
TABLE
  2
DIMSTYLE
  5
9
100
AcDbSymbolTable
 70
               1
100
AcDbDimStyleTable
 71
               0
  0
DIMSTYLE
105
18
100
AcDbSymbolTableRecord
100
AcDbDimStyleTableRecord
  2
Standard
 70
               0
  3

  4

 40
1.0
 41
0.18
 42
0.0625
 43
0.38
 44
0.18
 45
0.0
 46
0.0
 47
0.0
 48
0.0
 71
               0
 72
               0
 73
               1
 74
               1
 75
               0
 76
               0
 77
               0
 78
               0
 79
               0
140
0.18
141
0.09
142
0.0
143
25.399999999999999
144
1.0
145
0.0
146
1.0
147
0.09
148
0.0
170
               0
171
               2
172
               0
173
               0
174
               0
175
               0
176
               0
177
               0
178
               0
179
               0
271
               4
272
               4
273
               2
274
               2
275
               0
276
               0
277
               2
278
              46
279
               0
280
               0
281
               0
282
               0
283
               1
284
               0
285
               0
286
               0
288
               0
340
17
341
0
342
0
343
0
344
0
371
              -2
372
              -2
  0
ENDTAB
  0
TABLE
  2
BLOCK_RECORD
  5
1
100
AcDbSymbolTable
 70
               5
  0
BLOCK_RECORD
  5
A
100
AcDbSymbolTableRecord
100
AcDbBlockTableRecord
  2
*MODEL_SPACE
340
20
  0
BLOCK_RECORD
  5
B
100
AcDbSymbolTableRecord
100
AcDbBlockTableRecord
  2
*PAPER_SPACE
340
21
  0
BLOCK_RECORD
  5
24
100
AcDbSymbolTableRecord
100
AcDbBlockTableRecord
  2
グループ
340
0
102
{BLKREFS
331
4E
102
}
  0
BLOCK_RECORD
  5
25
100
AcDbSymbolTableRecord
100
AcDbBlockTableRecord
  2
スケール1：5
340
0
102
{BLKREFS
331
5D
102
}
  0
BLOCK_RECORD
  5
26
100
AcDbSymbolTableRecord
100
AcDbBlockTableRecord
  2
グループ-1
340
0
102
{BLKREFS
331
C4
102
}
  0
BLOCK_RECORD
  5
27
100
AcDbSymbolTableRecord
100
AcDbBlockTableRecord
  2
グループ-2
340
0
102
{BLKREFS
331
C5
102
}
  0
BLOCK_RECORD
  5
28
100
AcDbSymbolTableRecord
100
AcDbBlockTableRecord
  2
グループ-3
340
0
102
{BLKREFS
331
C6
102
}
  0
ENDTAB
  0
ENDSEC
  0
SECTION
  2
BLOCKS
  0
BLOCK
  5
D
100
AcDbEntity
  8
0
100
AcDbBlockBegin
  2
*MODEL_SPACE
 70
               0
 10
0.0
 20
0.0
 30
0.0
  3
*MODEL_SPACE
  1

  0
ENDBLK
  5
E
100
AcDbEntity
  8
0
100
AcDbBlockEnd
  0
BLOCK
  5
F
100
AcDbEntity
 67
               1
  8
0
100
AcDbBlockBegin
  2
*PAPER_SPACE
 70
               0
 10
0.0
 20
0.0
 30
0.0
  3
*PAPER_SPACE
  1

  0
ENDBLK
  5
10
100
AcDbEntity
 67
               1
  8
0
100
AcDbBlockEnd
  0
BLOCK
  5
41
100
AcDbEntity
  8
一般
100
AcDbBlockBegin
  2
グループ
 70
               0
 10
0.0
 20
0.0
 30
0.0
  3
グループ
  1

  0
MTEXT
  5
42
100
AcDbEntity
  8
一般
 62
               8
100
AcDbMText
 10
-61.590303983041849
 20
8.3342057291666851
 30
0.0
 40
8.1442057291666661
 41
7.3612159321675676
 71
               1
 72
               1
  1
0
  7
ＭＳ ゴシック
 73
               1
 44
0.7828267384257843
  0
MTEXT
  5
43
100
AcDbEntity
  8
一般
 62
               8
100
AcDbMText
 10
-12.909696016958151
 20
8.3342057291666851
 30
0.0
 40
8.1442057291666661
 41
12.75
 71
               1
 72
               1
  1
50
  7
ＭＳ ゴシック
 73
               1
 44
0.7828267384257843
  0
MTEXT
  5
44
100
AcDbEntity
  8
一般
 62
               8
100
AcDbMText
 10
33.590303983041849
 20
8.3342057291666851
 30
0.0
 40
8.1442057291666661
 41
27.999999999999972
 71
               1
 72
               1
  1
100mm
  7
ＭＳ ゴシック
 73
               1
 44
0.7828267384257843
  0
LINE
  5
45
100
AcDbEntity
  8
寸法
370
              15
 62
               8
100
AcDbLine
 10
-7.9096960169581507
 20
-1.2916666666666288
 30
0.0
 11
-7.9096960169581507
 21
-9.2916666666666288
 31
0.0
  0
POLYLINE
  5
46
100
AcDbEntity
  8
一般
370
              15
  6
Continuous
 62
               8
100
AcDb2dPolyline
 66
               1
 10
0.0
 20
0.0
 30
0.0
 75
               5
  0
VERTEX
  5
47
100
AcDbEntity
  8
一般
370
              15
  6
Continuous
 62
               8
100
AcDbVertex
100
AcDb2dVertex
 10
-57.909696016958151
 20
-1.2916666666666288
 30
0.0
  0
VERTEX
  5
48
100
AcDbEntity
  8
一般
370
              15
  6
Continuous
 62
               8
100
AcDbVertex
100
AcDb2dVertex
 10
-57.909696016958151
 20
-9.2916666666666288
 30
0.0
  0
VERTEX
  5
49
100
AcDbEntity
  8
一般
370
              15
  6
Continuous
 62
               8
100
AcDbVertex
100
AcDb2dVertex
 10
42.090303983041849
 20
-9.2916666666666288
 30
0.0
  0
VERTEX
  5
4A
100
AcDbEntity
  8
一般
370
              15
  6
Continuous
 62
               8
100
AcDbVertex
100
AcDb2dVertex
 10
42.090303983041849
 20
-1.2916666666666288
 30
0.0
  0
SEQEND
  5
4B
100
AcDbEntity
  8
一般
370
              15
  6
Continuous
 62
               8
  0
ENDBLK
  5
4C
100
AcDbEntity
  8
一般
100
AcDbBlockEnd
  0
BLOCK
  5
4D
100
AcDbEntity
  8
一般
100
AcDbBlockBegin
  2
スケール1：5
 70
               0
 10
0.0
 20
0.0
 30
0.0
  3
スケール1：5
  1

  0
INSERT
  5
4E
100
AcDbEntity
  8
一般
 62
               7
100
AcDbBlockReference
  2
グループ
 10
0.0
 20
0.0
 30
0.0
  0
ENDBLK
  5
4F
100
AcDbEntity
  8
一般
100
AcDbBlockEnd
  0
BLOCK
  5
50
100
AcDbEntity
  8
一般
100
AcDbBlockBegin
  2
グループ-1
 70
               0
 10
0.0
 20
0.0
 30
0.0
  3
グループ-1
  1

  0
LINE
  5
51
100
AcDbEntity
  8
一般
370
               5
  6
Continuous
 62
               7
100
AcDbLine
 10
-472.85830873668289
 20
244.18265370383568
 30
0.0
 11
-487.00044436041389
 21
230.04051808010473
 31
0.0
  0
LINE
  5
52
100
AcDbEntity
  8
一般
370
               5
  6
Continuous
 62
               7
100
AcDbLine
 10
-472.85830873668289
 20
230.04051808010473
 30
0.0
 11
-487.00044436041389
 21
244.18265370383568
 31
0.0
  0
ENDBLK
  5
53
100
AcDbEntity
  8
一般
100
AcDbBlockEnd
  0
BLOCK
  5
54
100
AcDbEntity
  8
一般
100
AcDbBlockBegin
  2
グループ-2
 70
               0
 10
0.0
 20
0.0
 30
0.0
  3
グループ-2
  1

  0
LINE
  5
55
100
AcDbEntity
  8
一般
370
               5
  6
Continuous
 62
               7
100
AcDbLine
 10
-469.35167044772362
 20
-171.93232296717127
 30
0.0
 11
-483.49380607145463
 21
-186.07445859090222
 31
0.0
  0
LINE
  5
56
100
AcDbEntity
  8
一般
370
               5
  6
Continuous
 62
               7
100
AcDbLine
 10
-469.35167044772362
 20
-186.07445859090222
 30
0.0
 11
-483.49380607145463
 21
-171.93232296717127
 31
0.0
  0
ENDBLK
  5
57
100
AcDbEntity
  8
一般
100
AcDbBlockEnd
  0
BLOCK
  5
58
100
AcDbEntity
  8
一般
100
AcDbBlockBegin
  2
グループ-3
 70
               0
 10
0.0
 20
0.0
 30
0.0
  3
グループ-3
  1

  0
LINE
  5
59
100
AcDbEntity
  8
一般
370
               5
  6
Continuous
 62
               7
100
AcDbLine
 10
-77.371204899461475
 20
-171.93232296717127
 30
0.0
 11
-91.513340523192483
 21
-186.07445859090222
 31
0.0
  0
LINE
  5
5A
100
AcDbEntity
  8
一般
370
               5
  6
Continuous
 62
               7
100
AcDbLine
 10
-77.371204899461475
 20
-186.07445859090222
 30
0.0
 11
-91.513340523192483
 21
-171.93232296717127
 31
0.0
  0
ENDBLK
  5
5B
100
AcDbEntity
  8
一般
100
AcDbBlockEnd
  0
ENDSEC
  0
SECTION
  2
ENTITIES
  0
MTEXT
  5
5C
100
AcDbEntity
  8
一般
 62
               7
100
AcDbMText
 10
1381.2324838490408
 20
1291.5910654350243
 30
0.0
 40
30.316840277777771
 41
0.0
 71
               1
 72
               1
  1
BX-7109
  7
Arial
 73
               1
 44
0.9673603504928806
  0
INSERT
  5
5D
100
AcDbEntity
  8
一般
 62
               7
100
AcDbBlockReference
  2
スケール1：5
 10
1421.5903039830418
 20
1040.7083333333333
 30
0.0
  0
POLYLINE
  5
5E
100
AcDbEntity
  8
一般
370
              15
  6
Continuous
 62
               7
100
AcDb2dPolyline
 66
               1
 10
0.0
 20
0.0
 30
0.0
 75
               5
  0
VERTEX
  5
5F
100
AcDbEntity
  8
一般
370
              15
  6
Continuous
 62
               7
100
AcDbVertex
100
AcDb2dVertex
 10
1234.843594224461
 20
1179.1173820169106
 30
0.0
  0
VERTEX
  5
60
100
AcDbEntity
  8
一般
370
              15
  6
Continuous
 62
               7
100
AcDbVertex
100
AcDb2dVertex
 10
1234.843594224461
 20
1179.1115858919702
 30
0.0
  0
VERTEX
  5
61
100
AcDbEntity
  8
一般
370
              15
  6
Continuous
 62
               7
100
AcDbVertex
100
AcDb2dVertex
 10
1214.843594224461
 20
1179.1115858919702
 30
0.0
  0
VERTEX
  5
62
100
AcDbEntity
  8
一般
370
              15
  6
Continuous
 62
               7
100
AcDbVertex
100
AcDb2dVertex
 10
1205.343594224461
 20
1179.1115858919702
 30
0.0
  0
VERTEX
  5
63
100
AcDbEntity
  8
一般
370
              15
  6
Continuous
 62
               7
100
AcDbVertex
100
AcDb2dVertex
 10
1185.343594224461
 20
1179.1115858919702
 30
0.0
  0
VERTEX
  5
64
100
AcDbEntity
  8
一般
370
              15
  6
Continuous
 62
               7
100
AcDbVertex
100
AcDb2dVertex
 10
1185.343594224461
 20
1179.116588373724
 30
0.0
  0
SEQEND
  5
65
100
AcDbEntity
  8
一般
370
              15
  6
Continuous
 62
               7
  0
SPLINE
  5
66
100
AcDbEntity
  8
一般
370
              15
  6
Continuous
 62
               7
100
AcDbSpline
210
0.0
220
0.0
230
1.0
 70
               8
 71
               2
 72
              10
 73
               7
 74
               0
 42
0.000001
 43
0.000001
 40
0.0
 40
0.0
 40
0.0
 40
1.0
 40
1.0
 40
2.0
 40
2.0
 40
3.0
 40
3.0
 40
3.0
 10
1234.843594224461
 20
1192.6041984231606
 30
0.0
 10
1234.843594224461
 20
1192.6078921575654
 30
0.0
 10
1234.843594224461
 20
1192.6115858919702
 30
0.0
 10
1224.843594224461
 20
1192.6115858919702
 30
0.0
 10
1214.843594224461
 20
1192.6115858919702
 30
0.0
 10
1214.4517109515682
 20
1192.6115858919702
 30
0.0
 10
1214.0759932049464
 20
1192.5258529832809
 30
0.0
  0
POLYLINE
  5
67
100
AcDbEntity
  8
一般
370
              15
  6
Continuous
 62
               7
100
AcDb2dPolyline
 66
               1
 10
0.0
 20
0.0
 30
0.0
 75
               5
  0
VERTEX
  5
68
100
AcDbEntity
  8
一般
370
              15
  6
Continuous
 62
               7
100
AcDbVertex
100
AcDb2dVertex
 10
1185.343594224461
 20
1192.603404779974
 30
0.0
  0
VERTEX
  5
69
100
AcDbEntity
  8
一般
370
              15
  6
Continuous
 62
               7
100
AcDbVertex
100
AcDb2dVertex
 10
1185.343594224461
 20
1192.6115858919702
 30
0.0
  0
VERTEX
  5
6A
100
AcDbEntity
  8
一般
370
              15
  6
Continuous
 62
               7
100
AcDbVertex
100
AcDb2dVertex
 10
1205.343594224461
 20
1192.6115858919702
 30
0.0
  0
SEQEND
  5
6B
100
AcDbEntity
  8
一般
370
              15
  6
Continuous
 62
               7
  0
SPLINE
  5
6C
100
AcDbEntity
  8
一般
370
              15
  6
Continuous
 62
               7
100
AcDbSpline
210
0.0
220
0.0
230
1.0
 70
               9
 71
               2
 72
              17
 73
              14
 74
               0
 42
0.000001
 43
0.000001
 40
0.0
 40
0.0
 40
0.0
 40
1.0
 40
2.0
 40
3.0
 40
4.0
 40
5.0
 40
6.0
 40
7.0
 40
8.0
 40
9.0
 40
10.0
 40
11.0
 40
12.0
 40
12.0
 40
12.0
 10
1182.968594224461
 20
1191.707257367515
 30
0.0
 10
1184.0708355604131
 20
1192.6115858919702
 30
0.0
 10
1186.6163528885088
 20
1192.6115858919702
 30
0.0
 10
1188.8208355604131
 20
1190.80292884306
 30
0.0
 10
1190.093594224461
 20
1187.6702429408801
 30
0.0
 10
1190.093594224461
 20
1184.05292884306
 30
0.0
 10
1188.8208355604131
 20
1180.9202429408801
 30
0.0
 10
1186.6163528885088
 20
1179.1115858919702
 30
0.0
 10
1184.0708355604131
 20
1179.1115858919702
 30
0.0
 10
1181.8663528885088
 20
1180.9202429408801
 30
0.0
 10
1180.593594224461
 20
1184.05292884306
 30
0.0
 10
1180.593594224461
 20
1187.6702429408801
 30
0.0
 10
1181.8663528885088
 20
1190.80292884306
 30
0.0
 10
1182.968594224461
 20
1191.707257367515
 30
0.0
  0
SPLINE
  5
6D
100
AcDbEntity
  8
一般
370
              15
  6
Continuous
 62
               7
100
AcDbSpline
210
0.0
220
0.0
230
1.0
 70
               9
 71
               2
 72
              17
 73
              14
 74
               0
 42
0.000001
 43
0.000001
 40
0.0
 40
0.0
 40
0.0
 40
1.0
 40
2.0
 40
3.0
 40
4.0
 40
5.0
 40
6.0
 40
7.0
 40
8.0
 40
9.0
 40
10.0
 40
11.0
 40
12.0
 40
12.0
 40
12.0
 10
1232.468594224461
 20
1191.707257367515
 30
0.0
 10
1233.5708355604131
 20
1192.6115858919702
 30
0.0
 10
1236.1163528885088
 20
1192.6115858919702
 30
0.0
 10
1238.3208355604131
 20
1190.80292884306
 30
0.0
 10
1239.593594224461
 20
1187.6702429408801
 30
0.0
 10
1239.593594224461
 20
1184.05292884306
 30
0.0
 10
1238.3208355604131
 20
1180.9202429408801
 30
0.0
 10
1236.1163528885088
 20
1179.1115858919702
 30
0.0
 10
1233.5708355604131
 20
1179.1115858919702
 30
0.0
 10
1231.3663528885088
 20
1180.9202429408801
 30
0.0
 10
1230.093594224461
 20
1184.05292884306
 30
0.0
 10
1230.093594224461
 20
1187.6702429408801
 30
0.0
 10
1231.3663528885088
 20
1190.80292884306
 30
0.0
 10
1232.468594224461
 20
1191.707257367515
 30
0.0
  0
POLYLINE
  5
6E
100
AcDbEntity
  8
一般
370
              15
  6
Continuous
 62
               7
100
AcDb2dPolyline
 66
               1
 10
0.0
 20
0.0
 30
0.0
 75
               5
  0
VERTEX
  5
6F
100
AcDbEntity
  8
一般
370
              15
  6
Continuous
 62
               7
100
AcDbVertex
100
AcDb2dVertex
 10
1202.5706234514516
 20
1192.6115858919702
 30
0.0
  0
VERTEX
  5
70
100
AcDbEntity
  8
一般
370
              15
  6
Continuous
 62
               7
100
AcDbVertex
100
AcDb2dVertex
 10
1202.5706234514516
 20
1204.6115858919702
 30
0.0
  0
VERTEX
  5
71
100
AcDbEntity
  8
一般
370
              15
  6
Continuous
 62
               7
100
AcDbVertex
100
AcDb2dVertex
 10
1217.5706234514516
 20
1204.6115858919702
 30
0.0
  0
VERTEX
  5
72
100
AcDbEntity
  8
一般
370
              15
  6
Continuous
 62
               7
100
AcDbVertex
100
AcDb2dVertex
 10
1217.5706234514516
 20
1192.6115858919702
 30
0.0
  0
SEQEND
  5
73
100
AcDbEntity
  8
一般
370
              15
  6
Continuous
 62
               7
  0
LINE
  5
74
100
AcDbEntity
  8
一般
370
              15
  6
Continuous
 62
               7
100
AcDbLine
 10
1210.093438858413
 20
1185.9115858919699
 30
0.0
 11
1210.093594224461
 21
1179.1115858919702
 31
0.0
  0
SPLINE
  5
75
100
AcDbEntity
  8
一般
370
              15
  6
Continuous
 62
               7
100
AcDbSpline
210
0.0
220
0.0
230
1.0
 70
               8
 71
               2
 72
               9
 73
               6
 74
               0
 42
0.000001
 43
0.000001
 40
0.0
 40
0.0
 40
0.0
 40
1.0
 40
1.0
 40
2.0
 40
3.0
 40
3.0
 40
3.0
 10
1205.5316326045768
 20
1192.6066016687751
 30
0.0
 10
1206.6981828449373
 20
1192.5444489035997
 30
0.0
 10
1207.718594224461
 20
1191.707257367515
 30
0.0
 10
1208.8208355604131
 20
1190.80292884306
 30
0.0
 10
1210.0602286492917
 20
1187.7523668107879
 30
0.0
 10
1210.0924212401228
 20
1186.0115858919701
 30
0.0
  0
SPLINE
  5
76
100
AcDbEntity
  8
一般
370
              15
  6
Continuous
 62
               7
100
AcDbSpline
210
0.0
220
0.0
230
1.0
 70
               8
 71
               2
 72
               9
 73
               6
 74
               0
 42
0.000001
 43
0.000001
 40
0.0
 40
0.0
 40
0.0
 40
1.0
 40
1.0
 40
2.0
 40
3.0
 40
3.0
 40
3.0
 10
1214.6532098756691
 20
1192.6066016687751
 30
0.0
 10
1213.4866596353086
 20
1192.5444489035997
 30
0.0
 10
1212.4662482557849
 20
1191.707257367515
 30
0.0
 10
1211.3640069198327
 20
1190.80292884306
 30
0.0
 10
1210.1246138309539
 20
1187.7523668107879
 30
0.0
 10
1210.0924212401228
 20
1186.0115858919701
 30
0.0
  0
POLYLINE
  5
77
100
AcDbEntity
  8
一般
370
              15
  6
Continuous
 62
               7
100
AcDb2dPolyline
 66
               1
 10
0.0
 20
0.0
 30
0.0
 75
               5
  0
VERTEX
  5
78
100
AcDbEntity
  8
一般
370
              15
  6
Continuous
 62
               7
100
AcDbVertex
100
AcDb2dVertex
 10
1225.0706234514516
 20
1244.1586562044699
 30
0.0
  0
VERTEX
  5
79
100
AcDbEntity
  8
一般
370
              15
  6
Continuous
 62
               7
100
AcDbVertex
100
AcDb2dVertex
 10
1225.0706234514516
 20
1204.6115858919702
 30
0.0
  0
VERTEX
  5
7A
100
AcDbEntity
  8
一般
370
              15
  6
Continuous
 62
               7
100
AcDbVertex
100
AcDb2dVertex
 10
1195.0706234514516
 20
1204.6115858919702
 30
0.0
  0
VERTEX
  5
7B
100
AcDbEntity
  8
一般
370
              15
  6
Continuous
 62
               7
100
AcDbVertex
100
AcDb2dVertex
 10
1195.0706234514516
 20
1244.1586562044699
 30
0.0
  0
SEQEND
  5
7C
100
AcDbEntity
  8
一般
370
              15
  6
Continuous
 62
               7
  0
POLYLINE
  5
7D
100
AcDbEntity
  8
一般
370
              15
  6
Continuous
 62
               7
100
AcDb2dPolyline
 66
               1
 10
0.0
 20
0.0
 30
0.0
 70
               1
 75
               5
  0
VERTEX
  5
7E
100
AcDbEntity
  8
一般
370
              15
  6
Continuous
 62
               7
100
AcDbVertex
100
AcDb2dVertex
 10
1181.0706234514516
 20
1258.1586562044699
 30
0.0
  0
VERTEX
  5
7F
100
AcDbEntity
  8
一般
370
              15
  6
Continuous
 62
               7
100
AcDbVertex
100
AcDb2dVertex
 10
1239.0706234514516
 20
1258.1586562044699
 30
0.0
  0
VERTEX
  5
80
100
AcDbEntity
  8
一般
370
              15
  6
Continuous
 62
               7
100
AcDbVertex
100
AcDb2dVertex
 10
1239.0706234514516
 20
1244.1586562044699
 30
0.0
  0
VERTEX
  5
81
100
AcDbEntity
  8
一般
370
              15
  6
Continuous
 62
               7
100
AcDbVertex
100
AcDb2dVertex
 10
1181.0706234514516
 20
1244.1586562044699
 30
0.0
  0
SEQEND
  5
82
100
AcDbEntity
  8
一般
370
              15
  6
Continuous
 62
               7
  0
ARC
  5
83
100
AcDbEntity
  8
一般
370
              15
  6
Continuous
 62
               7
100
AcDbCircle
 10
1210.0706234514516
 20
840.99660922096348
 30
0.0
 40
14.000000000000004
100
AcDbArc
 50
343.825449160429
 51
16.174550839562585
  0
ARC
  5
84
100
AcDbEntity
  8
一般
370
              15
  6
Continuous
 62
               7
100
AcDbCircle
 10
1210.0706234514516
 20
840.99660922096348
 30
0.0
 40
13.999999999999973
100
AcDbArc
 50
73.82544916042022
 51
106.17455083957979
  0
ARC
  5
85
100
AcDbEntity
  8
一般
370
              15
  6
Continuous
 62
               7
100
AcDbCircle
 10
1210.0706234514516
 20
840.99660922096348
 30
0.0
 40
13.999999999999966
100
AcDbArc
 50
163.82544916040447
 51
196.17455083959683
  0
ARC
  5
86
100
AcDbEntity
  8
一般
370
              15
  6
Continuous
 62
               7
100
AcDbCircle
 10
1210.0706234514516
 20
840.99660922096348
 30
0.0
 40
14.000000000000011
100
AcDbArc
 50
253.82544916042224
 51
286.17455083958748
  0
ARC
  5
87
100
AcDbEntity
  8
一般
370
              15
  6
Continuous
 62
               7
100
AcDbCircle
 10
1210.0706234514516
 20
840.99660922096325
 30
0.0
 40
29.00000000000016
100
AcDbArc
 50
148.45953787522745
 51
211.54046212477152
  0
ARC
  5
88
100
AcDbEntity
  8
一般
370
              15
  6
Continuous
 62
               7
100
AcDbCircle
 10
1210.0706234514516
 20
840.99660922096325
 30
0.0
 40
29.000000000000181
100
AcDbArc
 50
58.459537875226957
 51
121.54046212477279
  0
ARC
  5
89
100
AcDbEntity
  8
一般
370
              15
  6
Continuous
 62
               7
100
AcDbCircle
 10
1210.0706234514516
 20
840.99660922096325
 30
0.0
 40
29.000000000000206
100
AcDbArc
 50
328.45953787522819
 51
31.540462124772606
  0
ARC
  5
8A
100
AcDbEntity
  8
一般
370
              15
  6
Continuous
 62
               7
100
AcDbCircle
 10
1210.0706234514516
 20
840.99660922096325
 30
0.0
 40
29.000000000000071
100
AcDbArc
 50
238.45953787522947
 51
301.54046212477294
  0
LWPOLYLINE
  5
8B
100
AcDbEntity
  8
一般
370
              15
  6
Continuous
 62
               7
100
AcDbPolyline
 90
        4
 70
             128
 10
1239.5923315659904
 20
821.02084265244366
 10
1219.6165649974703
 20
840.99660922096325
 10
1239.5923315659902
 20
821.02084265244343
 10
1230.0463900199718
 20
811.47490110642502
  0
LINE
  5
8C
100
AcDbEntity
  8
一般
370
              15
  6
Continuous
 62
               7
100
AcDbLine
 10
1219.6165649974703
 20
840.99660922096336
 30
0.0
 11
1239.5923315659904
 21
821.02084265244366
 31
0.0
  0
LWPOLYLINE
  5
8D
100
AcDbEntity
  8
一般
370
              15
  6
Continuous
 62
               7
100
AcDbPolyline
 90
        4
 70
             128
 10
1210.0706234514519
 20
850.54255076698166
 10
1230.0463900199716
 20
870.51831733550171
 10
1239.59233156599
 20
860.97237578948341
 10
1219.6165649974703
 20
840.99660922096336
  0
LWPOLYLINE
  5
8E
100
AcDbEntity
  8
一般
370
              15
  6
Continuous
 62
               7
100
AcDbPolyline
 90
        4
 70
             128
 10
1200.5246819054335
 20
840.99660922096325
 10
1180.5489153369133
 20
860.97237578948318
 10
1190.0948568829317
 20
870.51831733550148
 10
1210.0706234514519
 20
850.54255076698178
  0
LWPOLYLINE
  5
8F
100
AcDbEntity
  8
一般
370
              15
  6
Continuous
 62
               7
100
AcDbPolyline
 90
        6
 70
             128
 10
1210.0706234514519
 20
831.45066767494473
 10
1230.0463900199718
 20
811.47490110642502
 10
1210.0706234514519
 20
831.45066767494484
 10
1190.0948568829319
 20
811.4749011064248
 10
1180.5489153369135
 20
821.02084265244321
 10
1200.5246819054335
 20
840.99660922096314
  0
LINE
  5
90
100
AcDbEntity
  8
一般
370
              15
  6
Continuous
 62
               7
100
AcDbLine
 10
1230.0463900199718
 20
811.47490110642502
 30
0.0
 11
1210.0706234514519
 21
831.45066767494473
 31
0.0
  0
LINE
  5
91
100
AcDbEntity
  8
一般
370
               5
  6
Continuous
 62
               7
100
AcDbLine
 10
1219.6165649974703
 20
840.99660922096325
 30
0.0
 11
1200.5246819054335
 21
840.99660922096325
 31
0.0
  0
LINE
  5
92
100
AcDbEntity
  8
一般
370
               5
  6
Continuous
 62
               7
100
AcDbLine
 10
1210.0706234514519
 20
850.54255076698166
 30
0.0
 11
1210.0706234514519
 21
831.45066767494484
 31
0.0
  0
ARC
  5
93
100
AcDbEntity
  8
一般
370
              15
  6
Continuous
 62
               7
100
AcDbCircle
 10
1090.0706234514516
 20
840.99660922096348
 30
0.0
 40
14.000000000000052
100
AcDbArc
 50
343.82544916038159
 51
16.17455083960192
  0
ARC
  5
94
100
AcDbEntity
  8
一般
370
              15
  6
Continuous
 62
               7
100
AcDbCircle
 10
1090.0706234514516
 20
840.99660922096348
 30
0.0
 40
14.000000000000091
100
AcDbArc
 50
73.825449160428605
 51
106.17455083957142
  0
ARC
  5
95
100
AcDbEntity
  8
一般
370
              15
  6
Continuous
 62
               7
100
AcDbCircle
 10
1090.0706234514516
 20
840.99660922096348
 30
0.0
 40
14.000000000000096
100
AcDbArc
 50
253.82544916043102
 51
286.17455083958743
  0
ARC
  5
96
100
AcDbEntity
  8
一般
370
              15
  6
Continuous
 62
               7
100
AcDbCircle
 10
1090.0706234514516
 20
840.99660922096348
 30
0.0
 40
14.000000000000036
100
AcDbArc
 50
163.8254491603968
 51
196.17455083957194
  0
ARC
  5
97
100
AcDbEntity
  8
一般
370
              15
  6
Continuous
 62
               7
100
AcDbCircle
 10
1090.0706234514516
 20
840.99660922096325
 30
0.0
 40
29.000000000000078
100
AcDbArc
 50
148.45953787522643
 51
211.54046212477226
  0
ARC
  5
98
100
AcDbEntity
  8
一般
370
              15
  6
Continuous
 62
               7
100
AcDbCircle
 10
1090.0706234514516
 20
840.99660922096325
 30
0.0
 40
29.000000000000142
100
AcDbArc
 50
238.45953787523135
 51
301.54046212477107
  0
ARC
  5
99
100
AcDbEntity
  8
一般
370
              15
  6
Continuous
 62
               7
100
AcDbCircle
 10
1090.0706234514516
 20
840.99660922096325
 30
0.0
 40
29.000000000000092
100
AcDbArc
 50
328.45953787522728
 51
31.540462124774422
  0
ARC
  5
9A
100
AcDbEntity
  8
一般
370
              15
  6
Continuous
 62
               7
100
AcDbCircle
 10
1090.0706234514516
 20
840.99660922096325
 30
0.0
 40
29.000000000000117
100
AcDbArc
 50
58.459537875228463
 51
121.54046212477078
  0
LWPOLYLINE
  5
9B
100
AcDbEntity
  8
一般
370
              15
  6
Continuous
 62
               7
100
AcDbPolyline
 90
        4
 70
             128
 10
1090.0706234514519
 20
831.45066767494484
 10
1070.0948568829319
 20
811.4749011064248
 10
1060.5489153369135
 20
821.02084265244321
 10
1080.5246819054337
 20
840.99660922096314
  0
LWPOLYLINE
  5
9C
100
AcDbEntity
  8
一般
370
              15
  6
Continuous
 62
               7
100
AcDbPolyline
 90
       10
 70
             128
 10
1080.5246819054335
 20
840.99660922096325
 10
1060.5489153369133
 20
860.97237578948318
 10
1070.0948568829317
 20
870.51831733550148
 10
1090.0706234514519
 20
850.54255076698166
 10
1110.0463900199716
 20
870.51831733550171
 10
1119.59233156599
 20
860.97237578948341
 10
1099.6165649974703
 20
840.99660922096325
 10
1119.5923315659902
 20
821.02084265244343
 10
1110.0463900199718
 20
811.47490110642502
 10
1090.0706234514519
 20
831.45066767494495
  0
LINE
  5
9D
100
AcDbEntity
  8
一般
370
               5
  6
Continuous
 62
               7
100
AcDbLine
 10
1099.6165649974703
 20
840.99660922096325
 30
0.0
 11
1080.5246819054335
 21
840.99660922096325
 31
0.0
  0
LINE
  5
9E
100
AcDbEntity
  8
一般
370
               5
  6
Continuous
 62
               7
100
AcDbLine
 10
1090.0706234514519
 20
850.54255076698166
 30
0.0
 11
1090.0706234514519
 21
831.45066767494484
 31
0.0
  0
POLYLINE
  5
9F
100
AcDbEntity
  8
一般
370
              15
  6
Continuous
 62
               7
100
AcDb2dPolyline
 66
               1
 10
0.0
 20
0.0
 30
0.0
 75
               5
  0
VERTEX
  5
A0
100
AcDbEntity
  8
一般
370
              15
  6
Continuous
 62
               7
100
AcDbVertex
100
AcDb2dVertex
 10
1114.843594224461
 20
1179.1173820169106
 30
0.0
  0
VERTEX
  5
A1
100
AcDbEntity
  8
一般
370
              15
  6
Continuous
 62
               7
100
AcDbVertex
100
AcDb2dVertex
 10
1114.843594224461
 20
1179.1115858919702
 30
0.0
  0
VERTEX
  5
A2
100
AcDbEntity
  8
一般
370
              15
  6
Continuous
 62
               7
100
AcDbVertex
100
AcDb2dVertex
 10
1094.843594224461
 20
1179.1115858919702
 30
0.0
  0
VERTEX
  5
A3
100
AcDbEntity
  8
一般
370
              15
  6
Continuous
 62
               7
100
AcDbVertex
100
AcDb2dVertex
 10
1085.343594224461
 20
1179.1115858919702
 30
0.0
  0
VERTEX
  5
A4
100
AcDbEntity
  8
一般
370
              15
  6
Continuous
 62
               7
100
AcDbVertex
100
AcDb2dVertex
 10
1065.343594224461
 20
1179.1115858919702
 30
0.0
  0
VERTEX
  5
A5
100
AcDbEntity
  8
一般
370
              15
  6
Continuous
 62
               7
100
AcDbVertex
100
AcDb2dVertex
 10
1065.343594224461
 20
1179.116588373724
 30
0.0
  0
SEQEND
  5
A6
100
AcDbEntity
  8
一般
370
              15
  6
Continuous
 62
               7
  0
SPLINE
  5
A7
100
AcDbEntity
  8
一般
370
              15
  6
Continuous
 62
               7
100
AcDbSpline
210
0.0
220
0.0
230
1.0
 70
               8
 71
               2
 72
              10
 73
               7
 74
               0
 42
0.000001
 43
0.000001
 40
0.0
 40
0.0
 40
0.0
 40
1.0
 40
1.0
 40
2.0
 40
2.0
 40
3.0
 40
3.0
 40
3.0
 10
1114.843594224461
 20
1192.6041984231606
 30
0.0
 10
1114.843594224461
 20
1192.6078921575654
 30
0.0
 10
1114.843594224461
 20
1192.6115858919702
 30
0.0
 10
1104.843594224461
 20
1192.6115858919702
 30
0.0
 10
1094.843594224461
 20
1192.6115858919702
 30
0.0
 10
1094.4517109515682
 20
1192.6115858919702
 30
0.0
 10
1094.0759932049464
 20
1192.5258529832809
 30
0.0
  0
POLYLINE
  5
A8
100
AcDbEntity
  8
一般
370
              15
  6
Continuous
 62
               7
100
AcDb2dPolyline
 66
               1
 10
0.0
 20
0.0
 30
0.0
 75
               5
  0
VERTEX
  5
A9
100
AcDbEntity
  8
一般
370
              15
  6
Continuous
 62
               7
100
AcDbVertex
100
AcDb2dVertex
 10
1065.343594224461
 20
1192.603404779974
 30
0.0
  0
VERTEX
  5
AA
100
AcDbEntity
  8
一般
370
              15
  6
Continuous
 62
               7
100
AcDbVertex
100
AcDb2dVertex
 10
1065.343594224461
 20
1192.6115858919702
 30
0.0
  0
VERTEX
  5
AB
100
AcDbEntity
  8
一般
370
              15
  6
Continuous
 62
               7
100
AcDbVertex
100
AcDb2dVertex
 10
1085.343594224461
 20
1192.6115858919702
 30
0.0
  0
SEQEND
  5
AC
100
AcDbEntity
  8
一般
370
              15
  6
Continuous
 62
               7
  0
SPLINE
  5
AD
100
AcDbEntity
  8
一般
370
              15
  6
Continuous
 62
               7
100
AcDbSpline
210
0.0
220
0.0
230
1.0
 70
               9
 71
               2
 72
              17
 73
              14
 74
               0
 42
0.000001
 43
0.000001
 40
0.0
 40
0.0
 40
0.0
 40
1.0
 40
2.0
 40
3.0
 40
4.0
 40
5.0
 40
6.0
 40
7.0
 40
8.0
 40
9.0
 40
10.0
 40
11.0
 40
12.0
 40
12.0
 40
12.0
 10
1062.968594224461
 20
1191.707257367515
 30
0.0
 10
1064.0708355604131
 20
1192.6115858919702
 30
0.0
 10
1066.6163528885088
 20
1192.6115858919702
 30
0.0
 10
1068.8208355604131
 20
1190.80292884306
 30
0.0
 10
1070.093594224461
 20
1187.6702429408801
 30
0.0
 10
1070.093594224461
 20
1184.05292884306
 30
0.0
 10
1068.8208355604131
 20
1180.9202429408801
 30
0.0
 10
1066.6163528885088
 20
1179.1115858919702
 30
0.0
 10
1064.0708355604131
 20
1179.1115858919702
 30
0.0
 10
1061.8663528885088
 20
1180.9202429408801
 30
0.0
 10
1060.593594224461
 20
1184.05292884306
 30
0.0
 10
1060.593594224461
 20
1187.6702429408801
 30
0.0
 10
1061.8663528885088
 20
1190.80292884306
 30
0.0
 10
1062.968594224461
 20
1191.707257367515
 30
0.0
  0
SPLINE
  5
AE
100
AcDbEntity
  8
一般
370
              15
  6
Continuous
 62
               7
100
AcDbSpline
210
0.0
220
0.0
230
1.0
 70
               9
 71
               2
 72
              17
 73
              14
 74
               0
 42
0.000001
 43
0.000001
 40
0.0
 40
0.0
 40
0.0
 40
1.0
 40
2.0
 40
3.0
 40
4.0
 40
5.0
 40
6.0
 40
7.0
 40
8.0
 40
9.0
 40
10.0
 40
11.0
 40
12.0
 40
12.0
 40
12.0
 10
1112.468594224461
 20
1191.707257367515
 30
0.0
 10
1113.5708355604131
 20
1192.6115858919702
 30
0.0
 10
1116.1163528885088
 20
1192.6115858919702
 30
0.0
 10
1118.3208355604131
 20
1190.80292884306
 30
0.0
 10
1119.593594224461
 20
1187.6702429408801
 30
0.0
 10
1119.593594224461
 20
1184.05292884306
 30
0.0
 10
1118.3208355604131
 20
1180.9202429408801
 30
0.0
 10
1116.1163528885088
 20
1179.1115858919702
 30
0.0
 10
1113.5708355604131
 20
1179.1115858919702
 30
0.0
 10
1111.3663528885088
 20
1180.9202429408801
 30
0.0
 10
1110.093594224461
 20
1184.05292884306
 30
0.0
 10
1110.093594224461
 20
1187.6702429408801
 30
0.0
 10
1111.3663528885088
 20
1190.80292884306
 30
0.0
 10
1112.468594224461
 20
1191.707257367515
 30
0.0
  0
POLYLINE
  5
AF
100
AcDbEntity
  8
一般
370
              15
  6
Continuous
 62
               7
100
AcDb2dPolyline
 66
               1
 10
0.0
 20
0.0
 30
0.0
 75
               5
  0
VERTEX
  5
B0
100
AcDbEntity
  8
一般
370
              15
  6
Continuous
 62
               7
100
AcDbVertex
100
AcDb2dVertex
 10
1082.5706234514516
 20
1192.6115858919702
 30
0.0
  0
VERTEX
  5
B1
100
AcDbEntity
  8
一般
370
              15
  6
Continuous
 62
               7
100
AcDbVertex
100
AcDb2dVertex
 10
1082.5706234514516
 20
1204.6115858919702
 30
0.0
  0
VERTEX
  5
B2
100
AcDbEntity
  8
一般
370
              15
  6
Continuous
 62
               7
100
AcDbVertex
100
AcDb2dVertex
 10
1097.5706234514516
 20
1204.6115858919702
 30
0.0
  0
VERTEX
  5
B3
100
AcDbEntity
  8
一般
370
              15
  6
Continuous
 62
               7
100
AcDbVertex
100
AcDb2dVertex
 10
1097.5706234514516
 20
1192.6115858919702
 30
0.0
  0
SEQEND
  5
B4
100
AcDbEntity
  8
一般
370
              15
  6
Continuous
 62
               7
  0
LINE
  5
B5
100
AcDbEntity
  8
一般
370
              15
  6
Continuous
 62
               7
100
AcDbLine
 10
1090.093438858413
 20
1185.9115858919699
 30
0.0
 11
1090.093594224461
 21
1179.1115858919702
 31
0.0
  0
SPLINE
  5
B6
100
AcDbEntity
  8
一般
370
              15
  6
Continuous
 62
               7
100
AcDbSpline
210
0.0
220
0.0
230
1.0
 70
               8
 71
               2
 72
               9
 73
               6
 74
               0
 42
0.000001
 43
0.000001
 40
0.0
 40
0.0
 40
0.0
 40
1.0
 40
1.0
 40
2.0
 40
3.0
 40
3.0
 40
3.0
 10
1085.5316326045768
 20
1192.6066016687751
 30
0.0
 10
1086.6981828449373
 20
1192.5444489035997
 30
0.0
 10
1087.718594224461
 20
1191.707257367515
 30
0.0
 10
1088.8208355604131
 20
1190.80292884306
 30
0.0
 10
1090.0602286492917
 20
1187.7523668107879
 30
0.0
 10
1090.0924212401228
 20
1186.0115858919701
 30
0.0
  0
SPLINE
  5
B7
100
AcDbEntity
  8
一般
370
              15
  6
Continuous
 62
               7
100
AcDbSpline
210
0.0
220
0.0
230
1.0
 70
               8
 71
               2
 72
               9
 73
               6
 74
               0
 42
0.000001
 43
0.000001
 40
0.0
 40
0.0
 40
0.0
 40
1.0
 40
1.0
 40
2.0
 40
3.0
 40
3.0
 40
3.0
 10
1094.6532098756691
 20
1192.6066016687751
 30
0.0
 10
1093.4866596353086
 20
1192.5444489035997
 30
0.0
 10
1092.4662482557849
 20
1191.707257367515
 30
0.0
 10
1091.3640069198327
 20
1190.80292884306
 30
0.0
 10
1090.1246138309539
 20
1187.7523668107879
 30
0.0
 10
1090.0924212401228
 20
1186.0115858919701
 30
0.0
  0
POLYLINE
  5
B8
100
AcDbEntity
  8
一般
370
              15
  6
Continuous
 62
               7
100
AcDb2dPolyline
 66
               1
 10
0.0
 20
0.0
 30
0.0
 75
               5
  0
VERTEX
  5
B9
100
AcDbEntity
  8
一般
370
              15
  6
Continuous
 62
               7
100
AcDbVertex
100
AcDb2dVertex
 10
1105.0706234514516
 20
1244.1586562044699
 30
0.0
  0
VERTEX
  5
BA
100
AcDbEntity
  8
一般
370
              15
  6
Continuous
 62
               7
100
AcDbVertex
100
AcDb2dVertex
 10
1105.0706234514516
 20
1204.6115858919702
 30
0.0
  0
VERTEX
  5
BB
100
AcDbEntity
  8
一般
370
              15
  6
Continuous
 62
               7
100
AcDbVertex
100
AcDb2dVertex
 10
1075.0706234514516
 20
1204.6115858919702
 30
0.0
  0
VERTEX
  5
BC
100
AcDbEntity
  8
一般
370
              15
  6
Continuous
 62
               7
100
AcDbVertex
100
AcDb2dVertex
 10
1075.0706234514516
 20
1244.1586562044699
 30
0.0
  0
SEQEND
  5
BD
100
AcDbEntity
  8
一般
370
              15
  6
Continuous
 62
               7
  0
POLYLINE
  5
BE
100
AcDbEntity
  8
一般
370
              15
  6
Continuous
 62
               7
100
AcDb2dPolyline
 66
               1
 10
0.0
 20
0.0
 30
0.0
 70
               1
 75
               5
  0
VERTEX
  5
BF
100
AcDbEntity
  8
一般
370
              15
  6
Continuous
 62
               7
100
AcDbVertex
100
AcDb2dVertex
 10
1061.0706234514516
 20
1258.1586562044699
 30
0.0
  0
VERTEX
  5
C0
100
AcDbEntity
  8
一般
370
              15
  6
Continuous
 62
               7
100
AcDbVertex
100
AcDb2dVertex
 10
1119.0706234514516
 20
1258.1586562044699
 30
0.0
  0
VERTEX
  5
C1
100
AcDbEntity
  8
一般
370
              15
  6
Continuous
 62
               7
100
AcDbVertex
100
AcDb2dVertex
 10
1119.0706234514516
 20
1244.1586562044699
 30
0.0
  0
VERTEX
  5
C2
100
AcDbEntity
  8
一般
370
              15
  6
Continuous
 62
               7
100
AcDbVertex
100
AcDb2dVertex
 10
1061.0706234514516
 20
1244.1586562044699
 30
0.0
  0
SEQEND
  5
C3
100
AcDbEntity
  8
一般
370
              15
  6
Continuous
 62
               7
  0
INSERT
  5
C4
100
AcDbEntity
  8
一般
 62
               7
100
AcDbBlockReference
  2
グループ-1
 10
1450.0
 20
1020.0
 30
0.0
  0
INSERT
  5
C5
100
AcDbEntity
  8
一般
 62
               7
100
AcDbBlockReference
  2
グループ-2
 10
1450.0
 20
1020.0
 30
0.0
  0
INSERT
  5
C6
100
AcDbEntity
  8
一般
 62
               7
100
AcDbBlockReference
  2
グループ-3
 10
1450.0
 20
1020.0
 30
0.0
  0
POLYLINE
  5
C7
100
AcDbEntity
  8
一般
370
              15
  6
Continuous
 62
               7
100
AcDb2dPolyline
 66
               1
 10
0.0
 20
0.0
 30
0.0
 75
               5
  0
VERTEX
  5
C8
100
AcDbEntity
  8
一般
370
              15
  6
Continuous
 62
               7
100
AcDbVertex
100
AcDb2dVertex
 10
1445.5324218543974
 20
816.26957999397246
 30
0.0
  0
VERTEX
  5
C9
100
AcDbEntity
  8
一般
370
              15
  6
Continuous
 62
               7
100
AcDbVertex
100
AcDb2dVertex
 10
1445.557727288673
 20
816.26957999397246
 30
0.0
  0
VERTEX
  5
CA
100
AcDbEntity
  8
一般
370
              15
  6
Continuous
 62
               7
100
AcDbVertex
100
AcDb2dVertex
 10
1445.557727288673
 20
823.49660922096325
 30
0.0
  0
SEQEND
  5
CB
100
AcDbEntity
  8
一般
370
              15
  6
Continuous
 62
               7
  0
POLYLINE
  5
CC
100
AcDbEntity
  8
一般
370
              15
  6
Continuous
 62
               7
100
AcDb2dPolyline
 66
               1
 10
0.0
 20
0.0
 30
0.0
 75
               5
  0
VERTEX
  5
CD
100
AcDbEntity
  8
一般
370
              15
  6
Continuous
 62
               7
100
AcDbVertex
100
AcDb2dVertex
 10
1432.0851562293974
 20
816.26957999397246
 30
0.0
  0
VERTEX
  5
CE
100
AcDbEntity
  8
一般
370
              15
  6
Continuous
 62
               7
100
AcDbVertex
100
AcDb2dVertex
 10
1432.057727288673
 20
816.26957999397246
 30
0.0
  0
VERTEX
  5
CF
100
AcDbEntity
  8
一般
370
              15
  6
Continuous
 62
               7
100
AcDbVertex
100
AcDb2dVertex
 10
1432.057727288673
 20
823.49660922096325
 30
0.0
  0
SEQEND
  5
D0
100
AcDbEntity
  8
一般
370
              15
  6
Continuous
 62
               7
  0
POLYLINE
  5
D1
100
AcDbEntity
  8
一般
370
              15
  6
Continuous
 62
               7
100
AcDb2dPolyline
 66
               1
 10
0.0
 20
0.0
 30
0.0
 75
               5
  0
VERTEX
  5
D2
100
AcDbEntity
  8
一般
370
              15
  6
Continuous
 62
               7
100
AcDbVertex
100
AcDb2dVertex
 10
1432.0670408665756
 20
865.76957999397246
 30
0.0
  0
VERTEX
  5
D3
100
AcDbEntity
  8
一般
370
              15
  6
Continuous
 62
               7
100
AcDbVertex
100
AcDb2dVertex
 10
1432.057727288673
 20
865.76957999397246
 30
0.0
  0
VERTEX
  5
D4
100
AcDbEntity
  8
一般
370
              15
  6
Continuous
 62
               7
100
AcDbVertex
100
AcDb2dVertex
 10
1432.057727288673
 20
858.49660922096325
 30
0.0
  0
SEQEND
  5
D5
100
AcDbEntity
  8
一般
370
              15
  6
Continuous
 62
               7
  0
POLYLINE
  5
D6
100
AcDbEntity
  8
一般
370
              15
  6
Continuous
 62
               7
100
AcDb2dPolyline
 66
               1
 10
0.0
 20
0.0
 30
0.0
 75
               5
  0
VERTEX
  5
D7
100
AcDbEntity
  8
一般
370
              15
  6
Continuous
 62
               7
100
AcDbVertex
100
AcDb2dVertex
 10
1445.5143064915756
 20
865.76957999397246
 30
0.0
  0
VERTEX
  5
D8
100
AcDbEntity
  8
一般
370
              15
  6
Continuous
 62
               7
100
AcDbVertex
100
AcDb2dVertex
 10
1445.557727288673
 20
865.76957999397246
 30
0.0
  0
VERTEX
  5
D9
100
AcDbEntity
  8
一般
370
              15
  6
Continuous
 62
               7
100
AcDbVertex
100
AcDb2dVertex
 10
1445.557727288673
 20
858.49660922096325
 30
0.0
  0
SEQEND
  5
DA
100
AcDbEntity
  8
一般
370
              15
  6
Continuous
 62
               7
  0
SPLINE
  5
DB
100
AcDbEntity
  8
一般
370
              15
  6
Continuous
 62
               7
100
AcDbSpline
210
0.0
220
0.0
230
1.0
 70
               9
 71
               2
 72
              17
 73
              14
 74
               0
 42
0.000001
 43
0.000001
 40
0.0
 40
0.0
 40
0.0
 40
1.0
 40
2.0
 40
3.0
 40
4.0
 40
5.0
 40
6.0
 40
7.0
 40
8.0
 40
9.0
 40
10.0
 40
11.0
 40
12.0
 40
12.0
 40
12.0
 10
1435.432727288673
 20
820.38320066194854
 30
0.0
 10
1436.9990702397631
 20
821.01957999397246
 30
0.0
 10
1440.6163843375832
 20
821.01957999397246
 30
0.0
 10
1443.7490702397631
 20
819.74682132992461
 30
0.0
 10
1445.557727288673
 20
817.5423386580203
 30
0.0
 10
1445.557727288673
 20
814.99682132992461
 30
0.0
 10
1443.7490702397631
 20
812.7923386580203
 30
0.0
 10
1440.6163843375832
 20
811.51957999397246
 30
0.0
 10
1436.9990702397631
 20
811.51957999397246
 30
0.0
 10
1433.8663843375832
 20
812.7923386580203
 30
0.0
 10
1432.057727288673
 20
814.99682132992461
 30
0.0
 10
1432.057727288673
 20
817.5423386580203
 30
0.0
 10
1433.8663843375832
 20
819.74682132992461
 30
0.0
 10
1435.432727288673
 20
820.38320066194854
 30
0.0
  0
SPLINE
  5
DC
100
AcDbEntity
  8
一般
370
              15
  6
Continuous
 62
               7
100
AcDbSpline
210
0.0
220
0.0
230
1.0
 70
               9
 71
               2
 72
              17
 73
              14
 74
               0
 42
0.000001
 43
0.000001
 40
0.0
 40
0.0
 40
0.0
 40
1.0
 40
2.0
 40
3.0
 40
4.0
 40
5.0
 40
6.0
 40
7.0
 40
8.0
 40
9.0
 40
10.0
 40
11.0
 40
12.0
 40
12.0
 40
12.0
 10
1435.432727288673
 20
869.88320066194854
 30
0.0
 10
1436.9990702397631
 20
870.51957999397246
 30
0.0
 10
1440.6163843375832
 20
870.51957999397246
 30
0.0
 10
1443.7490702397631
 20
869.24682132992461
 30
0.0
 10
1445.557727288673
 20
867.0423386580203
 30
0.0
 10
1445.557727288673
 20
864.49682132992461
 30
0.0
 10
1443.7490702397631
 20
862.2923386580203
 30
0.0
 10
1440.6163843375832
 20
861.01957999397246
 30
0.0
 10
1436.9990702397631
 20
861.01957999397246
 30
0.0
 10
1433.8663843375832
 20
862.2923386580203
 30
0.0
 10
1432.057727288673
 20
864.49682132992461
 30
0.0
 10
1432.057727288673
 20
867.0423386580203
 30
0.0
 10
1433.8663843375832
 20
869.24682132992461
 30
0.0
 10
1435.432727288673
 20
869.88320066194854
 30
0.0
  0
POLYLINE
  5
DD
100
AcDbEntity
  8
一般
370
              15
  6
Continuous
 62
               7
100
AcDb2dPolyline
 66
               1
 10
0.0
 20
0.0
 30
0.0
 75
               5
  0
VERTEX
  5
DE
100
AcDbEntity
  8
一般
370
              15
  6
Continuous
 62
               7
100
AcDbVertex
100
AcDb2dVertex
 10
1376.557727288673
 20
811.99660922096325
 30
0.0
  0
VERTEX
  5
DF
100
AcDbEntity
  8
一般
370
              15
  6
Continuous
 62
               7
100
AcDbVertex
100
AcDb2dVertex
 10
1379.6483778900772
 20
811.99660922096325
 30
0.0
  0
VERTEX
  5
E0
100
AcDbEntity
  8
一般
370
              15
  6
Continuous
 62
               7
100
AcDbVertex
100
AcDb2dVertex
 10
1379.6483778900772
 20
813.49660922096325
 30
0.0
  0
SEQEND
  5
E1
100
AcDbEntity
  8
一般
370
              15
  6
Continuous
 62
               7
  0
POLYLINE
  5
E2
100
AcDbEntity
  8
一般
370
              15
  6
Continuous
 62
               7
100
AcDb2dPolyline
 66
               1
 10
0.0
 20
0.0
 30
0.0
 75
               5
  0
VERTEX
  5
E3
100
AcDbEntity
  8
一般
370
              15
  6
Continuous
 62
               7
100
AcDbVertex
100
AcDb2dVertex
 10
1376.557727288673
 20
869.99660922096325
 30
0.0
  0
VERTEX
  5
E4
100
AcDbEntity
  8
一般
370
              15
  6
Continuous
 62
               7
100
AcDbVertex
100
AcDb2dVertex
 10
1379.6483778900772
 20
869.99660922096325
 30
0.0
  0
VERTEX
  5
E5
100
AcDbEntity
  8
一般
370
              15
  6
Continuous
 62
               7
100
AcDbVertex
100
AcDb2dVertex
 10
1379.6483778900772
 20
868.49660922096325
 30
0.0
  0
SEQEND
  5
E6
100
AcDbEntity
  8
一般
370
              15
  6
Continuous
 62
               7
  0
LINE
  5
E7
100
AcDbEntity
  8
一般
370
              15
  6
Continuous
 62
               7
100
AcDbLine
 10
1365.557727288673
 20
850.49660922096325
 30
0.0
 11
1365.557727288673
 21
831.49660922096325
 31
0.0
  0
ARC
  5
E8
100
AcDbEntity
  8
一般
370
              15
  6
Continuous
 62
               7
100
AcDbCircle
 10
1464.2727802641832
 20
793.99660922096325
 30
0.0
 40
29.99999999999995
100
AcDbArc
 50
40.000000000000121
 51
90.0
  0
ARC
  5
E9
100
AcDbEntity
  8
一般
370
              15
  6
Continuous
 62
               7
100
AcDbCircle
 10
1475.4762629290919
 20
817.9821903501412
 30
0.0
 40
39.999999999999986
100
AcDbArc
 50
39.99999999999978
 51
89.992484245569941
  0
LINE
  5
EA
100
AcDbEntity
  8
一般
370
              15
  6
Continuous
 62
               7
100
AcDbLine
 10
1475.4815099155001
 20
857.98219000600523
 30
0.0
 11
1376.557727288673
 21
857.99516629968866
 31
0.0
  0
LINE
  5
EB
100
AcDbEntity
  8
一般
370
              15
  6
Continuous
 62
               7
100
AcDbLine
 10
1376.557727288673
 20
823.99516629968866
 30
0.0
 11
1463.3953610930541
 21
823.98377540248373
 31
0.0
  0
LINE
  5
EC
100
AcDbEntity
  8
一般
370
              15
  6
Continuous
 62
               7
100
AcDbLine
 10
1463.3953610930541
 20
823.98377540248373
 30
0.0
 11
1464.2727802641832
 21
823.99660922096325
 31
0.0
  0
POLYLINE
  5
ED
100
AcDbEntity
  8
一般
370
              15
  6
Continuous
 62
               7
100
AcDb2dPolyline
 66
               1
 10
0.0
 20
0.0
 30
0.0
 75
               5
  0
VERTEX
  5
EE
100
AcDbEntity
  8
一般
370
              15
  6
Continuous
 62
               7
100
AcDbVertex
100
AcDb2dVertex
 10
1487.2541135577526
 20
813.28023751155945
 30
0.0
  0
VERTEX
  5
EF
100
AcDbEntity
  8
一般
370
              15
  6
Continuous
 62
               7
100
AcDbVertex
100
AcDb2dVertex
 10
1502.5349717556503
 20
795.06921985629208
 30
0.0
  0
VERTEX
  5
F0
100
AcDbEntity
  8
一般
370
              15
  6
Continuous
 62
               7
100
AcDbVertex
100
AcDb2dVertex
 10
1528.5804828216956
 20
816.92399858563442
 30
0.0
  0
VERTEX
  5
F1
100
AcDbEntity
  8
一般
370
              15
  6
Continuous
 62
               7
100
AcDbVertex
100
AcDb2dVertex
 10
1506.9785394656096
 20
842.66819218726653
 30
0.0
  0
SEQEND
  5
F2
100
AcDbEntity
  8
一般
370
              15
  6
Continuous
 62
               7
  0
LINE
  5
F3
100
AcDbEntity
  8
一般
370
              15
  6
Continuous
 62
               7
100
AcDbLine
 10
1506.1180406538513
 20
843.69369473760264
 30
0.0
 11
1506.9785394656096
 21
842.66819218726653
 31
0.0
  0
POLYLINE
  5
F4
100
AcDbEntity
  8
一般
370
              15
  6
Continuous
 62
               7
100
AcDb2dPolyline
 66
               1
 10
0.0
 20
0.0
 30
0.0
 70
               1
 75
               5
  0
VERTEX
  5
F5
100
AcDbEntity
  8
一般
370
              15
  6
Continuous
 62
               7
100
AcDbVertex
100
AcDb2dVertex
 10
1365.557727288673
 20
872.99660922096325
 30
0.0
  0
VERTEX
  5
F6
100
AcDbEntity
  8
一般
370
              15
  6
Continuous
 62
               7
100
AcDbVertex
100
AcDb2dVertex
 10
1376.557727288673
 20
872.99660922096325
 30
0.0
  0
VERTEX
  5
F7
100
AcDbEntity
  8
一般
370
              15
  6
Continuous
 62
               7
100
AcDbVertex
100
AcDb2dVertex
 10
1376.557727288673
 20
808.99660922096325
 30
0.0
  0
VERTEX
  5
F8
100
AcDbEntity
  8
一般
370
              15
  6
Continuous
 62
               7
100
AcDbVertex
100
AcDb2dVertex
 10
1365.557727288673
 20
808.99660922096325
 30
0.0
  0
SEQEND
  5
F9
100
AcDbEntity
  8
一般
370
              15
  6
Continuous
 62
               7
  0
LINE
  5
FA
100
AcDbEntity
  8
一般
370
              15
  6
Continuous
 62
               7
100
AcDbLine
 10
1365.557727288673
 20
850.49660922096325
 30
0.0
 11
1365.557727288673
 21
831.49660922096325
 31
0.0
  0
SPLINE
  5
FB
100
AcDbEntity
  8
一般
370
              15
  6
Continuous
 62
               7
100
AcDbSpline
210
0.0
220
0.0
230
1.0
 70
               8
 71
               2
 72
              15
 73
              12
 74
               0
 42
0.000001
 43
0.000001
 40
0.0
 40
0.0
 40
0.0
 40
1.0
 40
1.0
 40
2.0
 40
3.0
 40
4.0
 40
5.0
 40
6.0
 40
7.0
 40
7.0
 40
8.0
 40
8.0
 40
8.0
 10
987.07062345145164
 20
1246.1115858919702
 30
0.0
 10
987.07062345145164
 20
1176.6115858919702
 30
0.0
 10
987.07062345145164
 20
1107.1115858919702
 30
0.0
 10
987.07062345145164
 20
1103.6282463903658
 30
0.0
 10
982.51548718012259
 20
1097.5949253935748
 30
0.0
 10
974.62575972278069
 20
1094.1115858919702
 30
0.0
 10
965.51548718012259
 20
1094.1115858919702
 30
0.0
 10
957.62575972278069
 20
1097.5949253935748
 30
0.0
 10
953.07062345145164
 20
1103.6282463903658
 30
0.0
 10
953.07062345145164
 20
1107.1115858919702
 30
0.0
 10
953.07062345145164
 20
1176.6115858919702
 30
0.0
 10
953.07062345145164
 20
1246.1115858919702
 30
0.0
  0
LWPOLYLINE
  5
FC
100
AcDbEntity
  8
一般
370
              15
  6
Continuous
 62
               7
100
AcDbPolyline
 90
        6
 70
             128
 10
938.07062345145164
 20
1257.1115858919702
 10
1002.0706234514516
 20
1257.1115858919702
 10
938.07062345145164
 20
1257.1115858919702
 10
938.07062345145164
 20
1246.1115858919702
 10
1002.0706234514516
 20
1246.1115858919702
 10
1002.0706234514516
 20
1257.1115858919702
  0
ARC
  5
FD
100
AcDbEntity
  8
一般
370
              15
  6
Continuous
 62
               7
100
AcDbCircle
 10
973.5772617404109
 20
840.99660922096325
 30
0.0
 40
31.999999999999943
100
AcDbArc
 50
295.89839024714047
 51
295.89844783135811
  0
ARC
  5
FE
100
AcDbEntity
  8
一般
370
              15
  6
Continuous
 62
               7
100
AcDbCircle
 10
973.5772617404109
 20
840.99660922096325
 30
0.0
 40
31.999999999999932
100
AcDbArc
 50
302.08995125628036
 51
237.91004874371959
  0
ARC
  5
FF
100
AcDbEntity
  8
一般
370
              15
  6
Continuous
 62
               7
100
AcDbCircle
 10
973.5772617404109
 20
840.99660922096325
 30
0.0
 40
31.999999999999982
100
AcDbArc
 50
244.10153158079345
 51
244.10156432794557
  0
LWPOLYLINE
  5
100
100
AcDbEntity
  8
一般
370
              15
  6
Continuous
 62
               7
100
AcDbPolyline
 90
        7
 70
             128
 10
990.57531973623463
 20
805.99660922096325
 10
990.5772617404109
 20
805.99660922096325
 10
990.5772617404109
 20
840.99660922096325
 42
0.414213562373095
 10
973.5772617404109
 20
857.99660922096325
 42
0.414213562373095
 10
956.5772617404109
 20
840.99660922096325
 10
956.5772617404109
 20
805.99660922096325
 10
956.58181264537779
 20
805.99660922096325
  0
SPLINE
  5
101
100
AcDbEntity
  8
一般
370
              15
  6
Continuous
 62
               7
100
AcDbSpline
210
0.0
220
0.0
230
1.0
 70
               9
 71
               2
 72
              17
 73
              14
 74
               0
 42
0.000001
 43
0.000001
 40
0.0
 40
0.0
 40
0.0
 40
1.0
 40
2.0
 40
3.0
 40
4.0
 40
5.0
 40
6.0
 40
7.0
 40
8.0
 40
9.0
 40
10.0
 40
11.0
 40
12.0
 40
12.0
 40
12.0
 10
965.0772617404109
 20
815.45697675707402
 30
0.0
 10
969.02212546908186
 20
816.92399858563442
 30
0.0
 10
978.13239801173995
 20
816.92399858563442
 30
0.0
 10
986.02212546908186
 20
813.98995492851361
 30
0.0
 10
990.5772617404109
 20
808.90804224275519
 30
0.0
 10
990.5772617404109
 20
803.03995492851357
 30
0.0
 10
986.02212546908186
 20
797.95804224275514
 30
0.0
 10
978.13239801173995
 20
795.02399858563433
 30
0.0
 10
969.02212546908186
 20
795.02399858563433
 30
0.0
 10
961.13239801173995
 20
797.95804224275514
 30
0.0
 10
956.5772617404109
 20
803.03995492851357
 30
0.0
 10
956.5772617404109
 20
808.90804224275519
 30
0.0
 10
961.13239801173995
 20
813.98995492851361
 30
0.0
 10
965.0772617404109
 20
815.45697675707402
 30
0.0
  0
SPLINE
  5
102
100
AcDbEntity
  8
一般
370
              15
  6
Continuous
 62
               7
100
AcDbSpline
210
0.0
220
0.0
230
1.0
 70
               9
 71
               2
 72
              17
 73
              14
 74
               0
 42
0.000001
 43
0.000001
 40
0.0
 40
0.0
 40
0.0
 40
1.0
 40
2.0
 40
3.0
 40
4.0
 40
5.0
 40
6.0
 40
7.0
 40
8.0
 40
9.0
 40
10.0
 40
11.0
 40
12.0
 40
12.0
 40
12.0
 10
967.0772617404109
 20
815.13679352443569
 30
0.0
 10
970.09392223880627
 20
816.2554814028357
 30
0.0
 10
977.06060124201554
 20
816.2554814028357
 30
0.0
 10
983.09392223880627
 20
814.01810564603579
 30
0.0
 10
986.5772617404109
 20
810.14285715963558
 30
0.0
 10
986.5772617404109
 20
805.66810564603577
 30
0.0
 10
983.09392223880627
 20
801.79285715963556
 30
0.0
 10
977.06060124201554
 20
799.55548140283565
 30
0.0
 10
970.09392223880627
 20
799.55548140283565
 30
0.0
 10
964.06060124201554
 20
801.79285715963556
 30
0.0
 10
960.5772617404109
 20
805.66810564603577
 30
0.0
 10
960.5772617404109
 20
810.14285715963558
 30
0.0
 10
964.06060124201554
 20
814.01810564603579
 30
0.0
 10
967.0772617404109
 20
815.13679352443569
 30
0.0
  0
LINE
  5
103
100
AcDbEntity
  8
一般
370
              15
  6
Continuous
 62
               7
100
AcDbLine
 10
1379.6483778900772
 20
868.49660922096325
 30
0.0
 11
1379.6483778900772
 21
857.99476088464269
 31
0.0
  0
LINE
  5
104
100
AcDbEntity
  8
一般
370
              15
  6
Continuous
 62
               7
100
AcDbLine
 10
1379.6483778900772
 20
813.49660922096325
 30
0.0
 11
1379.6497549815426
 21
823.99476070400317
 31
0.0
  0
ENDSEC
  0
SECTION
  2
OBJECTS
  0
DICTIONARY
  5
19
100
AcDbDictionary
280
               0
281
               1
  3
ACAD_GROUP
350
1A
  3
ACAD_MLINESTYLE
350
1B
  3
ACAD_LAYOUT
350
1E
  3
ACAD_PLOTSETTINGS
350
22
  3
ACAD_PLOTSTYLENAME
350
1F
  3
ACAD_WIPEOUT_VARS
350
23
  0
DICTIONARY
  5
1A
102
{ACAD_REACTORS
330
19
102
}
100
AcDbDictionary
280
               0
281
               1
  0
DICTIONARY
  5
1B
102
{ACAD_REACTORS
330
19
102
}
100
AcDbDictionary
280
               0
281
               1
  3
Standard
350
1C
  0
MLINESTYLE
  5
1C
102
{ACAD_REACTORS
330
1B
102
}
100
AcDbMlineStyle
  2
Standard
 70
               0
  3

 62
               0
 51
90.0
 52
90.0
 71
               2
 49
0.5
 62
             256
  6
ByLayer
 49
-0.5
 62
             256
  6
ByLayer
  0
ACDBDICTIONARYWDFLT
  5
1F
102
{ACAD_REACTORS
330
19
102
}
100
AcDbDictionary
281
               1
  3
Normal
350
1D
100
AcDbDictionaryWithDefault
340
1D
  0
ACDBPLACEHOLDER
  5
1D
102
{ACAD_REACTORS
330
1F
102
}
  0
LAYOUT
  5
20
102
{ACAD_REACTORS
330
1E
102
}
100
AcDbPlotSettings
  1

  2

  4

  6

 40
0.0
 41
0.0
 42
0.0
 43
0.0
 44
0.0
 45
0.0
 46
0.0
 47
0.0
 48
0.0
 49
0.0
140
0.0
141
0.0
142
1.0
143
1.0
 70
            1024
 72
               0
 73
               0
 74
               0
  7

 75
               0
147
1.0
148
0.0
149
0.0
100
AcDbLayout
  1
Model
 70
               0
 71
               0
 10
0.0
 20
0.0
 11
0.0
 21
0.0
 12
0.0
 22
0.0
 32
0.0
 14
0.0
 24
0.0
 34
0.0
 15
0.0
 25
0.0
 35
0.0
146
0.0
 13
0.0
 23
0.0
 33
0.0
 16
0.0
 26
0.0
 36
0.0
 17
0.0
 27
0.0
 37
0.0
 76
               0
330
A
331
0
345
0
346
0
  0
LAYOUT
  5
21
102
{ACAD_REACTORS
330
1E
102
}
100
AcDbPlotSettings
  1

  2

  4

  6

 40
0.0
 41
0.0
 42
0.0
 43
0.0
 44
0.0
 45
0.0
 46
0.0
 47
0.0
 48
0.0
 49
0.0
140
0.0
141
0.0
142
1.0
143
1.0
 70
               0
 72
               0
 73
               0
 74
               0
  7

 75
               0
147
1.0
148
0.0
149
0.0
100
AcDbLayout
  1
Layout1
 70
               0
 71
               0
 10
0.0
 20
0.0
 11
0.0
 21
0.0
 12
0.0
 22
0.0
 32
0.0
 14
0.0
 24
0.0
 34
0.0
 15
0.0
 25
0.0
 35
0.0
146
0.0
 13
0.0
 23
0.0
 33
0.0
 16
0.0
 26
0.0
 36
0.0
 17
0.0
 27
0.0
 37
0.0
 76
               0
330
B
331
0
345
0
346
0
  0
DICTIONARY
  5
1E
102
{ACAD_REACTORS
330
19
102
}
100
AcDbDictionary
280
               0
281
               1
  3
Layout1
350
21
  3
Model
350
20
  0
DICTIONARY
  5
22
102
{ACAD_REACTORS
330
19
102
}
100
AcDbDictionary
280
               0
281
               1
  0
WIPEOUTVARIABLES
  5
23
100
AcDbWipeoutVariables
 70
               0
  0
ENDSEC
  0
EOF
