  0
SECTION
  2
HEADER
  9
$ACADVER
  1
AC1009
  9
$INSBASE
 10
0
 20
0
 30
0
  9
$EXTMIN
 10
0
 20
0
  9
$EXTMAX
 10
2970
 20
2100
  9
$LIMMIN
 10
0
 20
0
  9
$LIMMAX
 10
2970
 20
2100
  9
$LTSCALE
 40
10
  0
ENDSEC
  0
SECTION
  2
TABLES
  0
TABLE
  2
LTYPE
 70
     9
  0
LTYPE
  2
CONTINUOUS
 70
    64
  3
実線
 72
    65
 73
     0
 40
0.0
  0
LTYPE
  2
DASHED1
 70
    64
  3
--  --  --  --  --  --  --  --  
 72
    65
 73
     2
 40
2.5
 49
1.25
 49
-1.25
  0
LTYPE
  2
DASHED2
 70
    64
  3
----    ----    ----    ----    
 72
    65
 73
     2
 40
5.0
 49
2.5
 49
-2.5
  0
LTYPE
  2
DASHED3
 70
    64
  3
------  ------  ------  ------  
 72
    65
 73
     2
 40
5.0
 49
3.75
 49
-1.25
  0
LTYPE
  2
CENTER1
 70
    64
  3
----- - ----- - ----- - ----- - 
 72
    65
 73
     4
 40
10.0
 49
6.25
 49
-1.25
 49
1.25
 49
-1.25
  0
LTYPE
  2
CENTER2
 70
    64
  3
----------  --  ----------  --  
 72
    65
 73
     4
 40
20.0
 49
12.5
 49
-2.5
 49
2.5
 49
-2.5
  0
LTYPE
  2
PHANTOM1
 70
    64
  3
--- - - --- - - --- - - --- - - 
 72
    65
 73
     6
 40
10.0
 49
3.25
 49
-1.25
 49
1.25
 49
-1.25
 49
1.25
 49
-1.25
  0
LTYPE
  2
PHANTOM2
 70
    64
  3
--------  -  -  --------  -  -  
 72
    65
 73
     6
 40
20.0
 49
10.0
 49
-2.5
 49
1.25
 49
-2.5
 49
1.25
 49
-2.5
  0
LTYPE
  2
DOT
 70
    64
  3
-   -   -   -   -   -   -   -   
 72
    65
 73
     2
 40
2.5
 49
0.625
 49
-1.875
  0
LTYPE
  2
DUMMY
 70
    64
  3
ダミー
 72
    65
 73
     0
 40
0.0
  0
LTYPE
  2
RAND1
 70
    64
  3
ランダム線1
 72
    65
 73
     4
 40
10.0
 49
1.0
 49
-2.0
 49
3.0
 49
-4.0
  0
LTYPE
  2
RAND2
 70
    64
  3
ランダム線2
 72
    65
 73
     4
 40
14.0
 49
2.0
 49
-3.0
 49
4.0
 49
-5.0
  0
LTYPE
  2
RAND3
 70
    64
  3
ランダム線3
 72
    65
 73
     4
 40
18.0
 49
3.0
 49
-4.0
 49
5.0
 49
-6.0
  0
LTYPE
  2
RAND4
 70
    64
  3
ランダム線4
 72
    65
 73
     4
 40
22.0
 49
4.0
 49
-5.0
 49
6.0
 49
-7.0
  0
LTYPE
  2
RAND5
 70
    64
  3
ランダム線5
 72
    65
 73
     4
 40
26.0
 49
5.0
 49
-6.0
 49
7.0
 49
-8.0
  0
LTYPE
  2
LONG1
 70
    64
  3
----------  --  ----------  --  
 72
    65
 73
     4
 40
40.0
 49
32.5
 49
-2.5
 49
2.5
 49
-2.5
  0
LTYPE
  2
LONG2
 70
    64
  3
--------  -  -  --------  -  -  
 72
    65
 73
     6
 40
40.0
 49
30.0
 49
-2.5
 49
1.25
 49
-2.5
 49
1.25
 49
-2.5
  0
LTYPE
  2
LONG3
 70
    64
  3
+++++++++++++++..+++++++++++++++
 72
    65
 73
     2
 40
40.0
 49
37.5
 49
-2.5
  0
LTYPE
  2
LONG4
 70
    64
  3
+++++++++++++++..+++++++++++++++
 72
    65
 73
     2
 40
80.0
 49
75.0
 49
-5.0
  0
LTYPE
  2
LONG5
 70
    64
  3
----------  --  ----------  --  
 72
    65
 73
     4
 40
60.0
 49
37.5
 49
-7.5
 49
7.5
 49
-7.5
  0
LTYPE
  2
dashed
 70
   64
  3
-------   -------------   ------
 72
   65
 73
    2
 40
7.5
 49
6
 49
-1.5
  0
LTYPE
  2
dashed_spaced
 70
   64
  3
----        --------        ----
 72
   65
 73
    2
 40
12
 49
6
 49
-6
  0
LTYPE
  2
long_dashed_dotted
 70
   64
  3
------------- --- --------------
 72
   65
 73
    4
 40
15.25
 49
12
 49
-1.5
 49
0.25
 49
-1.5
  0
LTYPE
  2
long_dashed_double-dotted
 70
   64
  3
----------- --- --- ------------
 72
   65
 73
    6
 40
17
 49
12
 49
-1.5
 49
0.25
 49
-1.5
 49
0.25
 49
-1.5
  0
LTYPE
  2
long_dashed_triplicate-dotted
 70
   64
  3
--------- --- --- --- ----------
 72
   65
 73
    8
 40
18.75
 49
12
 49
-1.5
 49
0.25
 49
-1.5
 49
0.25
 49
-1.5
 49
0.25
 49
-1.5
  0
LTYPE
  2
dotted
 70
   64
  3
   -       -       -       -    
 72
   65
 73
    2
 40
1.75
 49
0.25
 49
-1.5
  0
LTYPE
  2
chain
 70
   64
  3
-------------- -- --------------
 72
   65
 73
    4
 40
18.5
 49
12
 49
-1.5
 49
3.5
 49
-1.5
  0
LTYPE
  2
chain_double_dash
 70
   64
  3
------------ -- -- -------------
 72
   65
 73
    6
 40
23.5
 49
12
 49
-1.5
 49
3.5
 49
-1.5
 49
3.5
 49
-1.5
  0
LTYPE
  2
dashed_dotted
 70
   64
  3
-----------     -     ----------
 72
   65
 73
    4
 40
9.25
 49
6
 49
-1.5
 49
0.25
 49
-1.5
  0
LTYPE
  2
double-dashed_dotted
 70
   64
  3
------   -----------   -   -----
 72
   65
 73
    6
 40
16.75
 49
6
 49
-1.5
 49
6
 49
-1.5
 49
0.25
 49
-1.5
  0
LTYPE
  2
dashed_double-dotted
 70
   64
  3
---------    -    -    ---------
 72
   65
 73
    6
 40
11
 49
6
 49
-1.5
 49
0.25
 49
-1.5
 49
0.25
 49
-1.5
  0
LTYPE
  2
double-dashed_double-dotted
 70
   64
  3
-----   ---------   -   -   ----
 72
   65
 73
    8
 40
18.5
 49
6
 49
-1.5
 49
6
 49
-1.5
 49
0.25
 49
-1.5
 49
0.25
 49
-1.5
  0
LTYPE
  2
dashed_triplicate-dotted
 70
   64
  3
-------    -    -    -    ------
 72
   65
 73
    8
 40
12.75
 49
6
 49
-1.5
 49
0.25
 49
-1.5
 49
0.25
 49
-1.5
 49
0.25
 49
-1.5
  0
LTYPE
  2
double-dashed_triplicate-dotted
 70
   64
  3
-----  ---------  -  -  -  -----
 72
   65
 73
   10
 40
20.25
 49
6
 49
-1.5
 49
6
 49
-1.5
 49
0.25
 49
-1.5
 49
0.25
 49
-1.5
 49
0.25
 49
-1.5
  0
LTYPE
  2
undefined
 70
   64
  3
--------------------------------
 72
   65
 73
    0
 40
0
  0
LTYPE
  2
_
 70
   64
  3
                                
 72
   65
 73
    0
 40
0
  0
LTYPE
  2
__18
 70
   64
  3
                                
 72
   65
 73
    0
 40
0
  0
LTYPE
  2
__19
 70
   64
  3
                                
 72
   65
 73
    0
 40
0
  0
LTYPE
  2
__20
 70
   64
  3
                                
 72
   65
 73
    0
 40
0
  0
LTYPE
  2
__21
 70
   64
  3
                                
 72
   65
 73
    0
 40
0
  0
LTYPE
  2
__22
 70
   64
  3
                                
 72
   65
 73
    0
 40
0
  0
LTYPE
  2
__23
 70
   64
  3
                                
 72
   65
 73
    0
 40
0
  0
LTYPE
  2
__24
 70
   64
  3
                                
 72
   65
 73
    0
 40
0
  0
LTYPE
  2
__25
 70
   64
  3
                                
 72
   65
 73
    0
 40
0
  0
LTYPE
  2
__26
 70
   64
  3
                                
 72
   65
 73
    0
 40
0
  0
LTYPE
  2
__27
 70
   64
  3
                                
 72
   65
 73
    0
 40
0
  0
LTYPE
  2
__28
 70
   64
  3
                                
 72
   65
 73
    0
 40
0
  0
LTYPE
  2
__29
 70
   64
  3
                                
 72
   65
 73
    0
 40
0
  0
LTYPE
  2
__30
 70
   64
  3
                                
 72
   65
 73
    0
 40
0
  0
LTYPE
  2
__31
 70
   64
  3
                                
 72
   65
 73
    0
 40
0
  0
LTYPE
  2
__32
 70
   64
  3
                                
 72
   65
 73
    0
 40
0
  0
ENDTAB
  0
TABLE
  2
STYLE
  5
3
100
AcDbSymbolTable
 70
     1
  0
STYLE
  5
10
100
AcDbSymbolTableRecord
100
AcDbTextStyleTableRecord
  2
STANDARD
 70
     0
 40
0.0
 41
1.0
 50
0.0
 71
     0
 42
0.2
  3
txt
  4
bigfont.shx
  0
STYLE
  5
26
100
AcDbSymbolTableRecord
100
AcDbTextStyleTableRecord
  2
TATEGAKI
 70
    68
 40
0.0
 41
1.0
 50
0.0
 71
     0
 42
1.0
  3
txt
  4
bigfont.shx
  0
ENDTAB
  0
TABLE
  2
LAYER
 70
    4
  0
LAYER
  2
_0-0_
 70
   64
 62
    7
  6
CONTINUOUS
  0
LAYER
  2
_1-0_
 70
   64
 62
    7
  6
CONTINUOUS
  0
LAYER
  2
_1-1_
 70
   64
 62
    7
  6
CONTINUOUS
  0
LAYER
  2
ADD_LINE
 70
   64
 62
    7
  6
CONTINUOUS
  0
ENDTAB
  0
ENDSEC
  0
SECTION
  2
BLOCKS
  0
ENDSEC
  0
SECTION
  2
ENTITIES
  0
LINE
  8
_1-0_
  6
CONTINUOUS
 62
    7
 10
1144.7222034351244
 20
1653.2499523972911
 11
1144.7222034351244
 21
473.24992824245146
  0
LINE
  8
_1-0_
  6
CONTINUOUS
 62
    7
 10
85.000000349803315
 20
1088.2015935242405
 11
1625.0000147285607
 21
1088.2015935242405
  0
LINE
  8
_1-0_
  6
CONTINUOUS
 62
    7
 10
636.11917134877785
 20
1806.9188628325592
 11
636.17883792715179
 21
1806.9188628325592
  0
LINE
  8
_1-0_
  6
CONTINUOUS
 62
    7
 10
654.29683066703183
 20
1806.9188628325592
 11
674.99999602328853
 21
1806.9188628325592
  0
LINE
  8
_1-0_
  6
CONTINUOUS
 62
    7
 10
674.99999602328853
 20
1806.9188628325592
 11
674.99999602328853
 21
1906.9188233600157
  0
LINE
  8
_1-0_
  6
CONTINUOUS
 62
    7
 10
674.99999602328853
 20
1906.9188233600157
 11
635.21503021358058
 21
1906.9188233600157
  0
LINE
  8
_1-0_
  6
CONTINUOUS
 62
    7
 10
612.17883165278499
 20
1806.9188628325592
 11
612.11916507441106
 21
1806.9188628325592
  0
LINE
  8
_1-0_
  6
CONTINUOUS
 62
    7
 10
594.29683685302734
 20
1806.9188628325592
 11
574.99999175200583
 21
1806.9188628325592
  0
LINE
  8
_1-0_
  6
CONTINUOUS
 62
    7
 10
574.99999175200583
 20
1806.9188628325592
 11
574.99999175200583
 21
1906.9188233600157
  0
LINE
  8
_1-0_
  6
CONTINUOUS
 62
    7
 10
574.99999175200583
 20
1906.9188233600157
 11
613.21503539803405
 21
1906.9188233600157
  0
LINE
  8
_1-0_
  6
CONTINUOUS
 62
    7
 10
612.12992605555473
 20
1894.431710850778
 11
636.12993232992153
 21
1894.431710850778
  0
LINE
  8
_1-0_
  6
CONTINUOUS
 62
    7
 10
636.12993232992153
 20
1894.431710850778
 11
636.12993232992153
 21
1816.4315701635646
  0
LINE
  8
_1-0_
  6
CONTINUOUS
 62
    7
 10
636.12993232992153
 20
1816.4315701635646
 11
612.12992605555473
 21
1816.4315701635646
  0
LINE
  8
_1-0_
  6
CONTINUOUS
 62
    7
 10
612.12992605555473
 20
1816.4315701635646
 11
612.12992605555473
 21
1894.431710850778
  0
LINE
  8
_1-0_
  6
CONTINUOUS
 62
    7
 10
612.11916507441106
 20
1816.577499566391
 11
636.11917134877785
 21
1816.577499566391
  0
LINE
  8
_1-0_
  6
CONTINUOUS
 62
    7
 10
636.11917134877785
 20
1816.577499566391
 11
636.11917134877785
 21
1786.5776338908663
  0
LINE
  8
_1-0_
  6
CONTINUOUS
 62
    7
 10
636.11917134877785
 20
1786.5776338908663
 11
612.11916507441106
 21
1786.5776338908663
  0
LINE
  8
_1-0_
  6
CONTINUOUS
 62
    7
 10
612.11916507441106
 20
1786.5776338908663
 11
612.11916507441106
 21
1816.577499566391
  0
LINE
  8
_1-0_
  6
CONTINUOUS
 62
    7
 10
609.11059596823907
 20
1786.6271519016573
 11
639.11063661906712
 21
1786.6271519016573
  0
LINE
  8
_1-0_
  6
CONTINUOUS
 62
    7
 10
639.11063661906712
 20
1786.6271519016573
 11
639.11063661906712
 21
1686.6270163988975
  0
LINE
  8
_1-0_
  6
CONTINUOUS
 62
    7
 10
639.11063661906712
 20
1686.6270163988975
 11
609.11059596823907
 21
1686.6270163988975
  0
LINE
  8
_1-0_
  6
CONTINUOUS
 62
    7
 10
609.11059596823907
 20
1686.6270163988975
 11
609.11059596823907
 21
1786.6271519016573
  0
LINE
  8
_1-0_
  6
CONTINUOUS
 62
    7
 10
619.08418824773946
 20
1898.4312963301611
 11
629.08420179801556
 21
1898.4312963301611
  0
LINE
  8
_1-0_
  6
CONTINUOUS
 62
    7
 10
629.08420179801556
 20
1898.4312963301611
 11
629.08420179801556
 21
1894.4311859248685
  0
LINE
  8
_1-0_
  6
CONTINUOUS
 62
    7
 10
629.08420179801556
 20
1894.4311859248685
 11
619.08418824773946
 21
1894.4311859248685
  0
LINE
  8
_1-0_
  6
CONTINUOUS
 62
    7
 10
619.08418824773946
 20
1894.4311859248685
 11
619.08418824773946
 21
1898.4312963301611
  0
LINE
  8
_1-0_
  6
CONTINUOUS
 62
    7
 10
613.21503539803405
 20
1924.4314015509997
 11
635.21503021358058
 21
1924.4314015509997
  0
LINE
  8
_1-0_
  6
CONTINUOUS
 62
    7
 10
635.21503021358058
 20
1924.4314015509997
 11
635.21503021358058
 21
1898.4314713054641
  0
LINE
  8
_1-0_
  6
CONTINUOUS
 62
    7
 10
635.21503021358058
 20
1898.4314713054641
 11
613.21503539803405
 21
1898.4314713054641
  0
LINE
  8
_1-0_
  6
CONTINUOUS
 62
    7
 10
613.21503539803405
 20
1898.4314713054641
 11
613.21503539803405
 21
1924.4314015509997
  0
LINE
  8
_1-0_
  6
CONTINUOUS
 62
    7
 10
636.62170041942227
 20
1894.431710850778
 11
636.62170041942227
 21
1816.4315701635646
  0
LINE
  8
_1-0_
  6
CONTINUOUS
 62
    7
 10
611.76243417511569
 20
1894.431710850778
 11
611.76243417511569
 21
1816.4315701635646
  0
LINE
  8
_1-0_
  6
CONTINUOUS
 62
    7
 10
585.17883006210025
 20
1894.431710850778
 11
663.17883951783642
 21
1894.431710850778
  0
LINE
  8
_1-0_
  6
CONTINUOUS
 62
    7
 10
663.17883951783642
 20
1894.431710850778
 11
663.17883951783642
 21
1816.4315701635646
  0
LINE
  8
_1-0_
  6
CONTINUOUS
 62
    7
 10
663.17883951783642
 20
1816.4315701635646
 11
585.17883006210025
 21
1816.4315701635646
  0
LINE
  8
_1-0_
  6
CONTINUOUS
 62
    7
 10
585.17883006210025
 20
1816.4315701635646
 11
585.17883006210025
 21
1894.431710850778
  0
LINE
  8
_1-0_
  6
CONTINUOUS
 62
    7
 10
594.29683685302734
 20
1816.4214215959819
 11
654.29683066703183
 21
1816.4214215959819
  0
LINE
  8
_1-0_
  6
CONTINUOUS
 62
    7
 10
654.29683066703183
 20
1816.4214215959819
 11
654.29683066703183
 21
1600.4214088705055
  0
LINE
  8
_1-0_
  6
CONTINUOUS
 62
    7
 10
654.29683066703183
 20
1600.4214088705055
 11
594.29683685302734
 21
1600.4214088705055
  0
LINE
  8
_1-0_
  6
CONTINUOUS
 62
    7
 10
594.29683685302734
 20
1600.4214088705055
 11
594.29683685302734
 21
1816.4214215959819
  0
LINE
  8
_1-0_
  6
CONTINUOUS
 62
    7
 10
609.01917137234364
 20
1786.375712391032
 11
639.01916827934588
 21
1786.375712391032
  0
LINE
  8
_1-0_
  6
CONTINUOUS
 62
    7
 10
639.01916827934588
 20
1786.375712391032
 11
639.01916827934588
 21
1686.3757518635753
  0
LINE
  8
_1-0_
  6
CONTINUOUS
 62
    7
 10
639.01916827934588
 20
1686.3757518635753
 11
609.01917137234364
 21
1686.3757518635753
  0
LINE
  8
_1-0_
  6
CONTINUOUS
 62
    7
 10
609.01917137234364
 20
1686.3757518635753
 11
609.01917137234364
 21
1786.375712391032
  0
LINE
  8
_1-0_
  6
CONTINUOUS
 62
    7
 10
612.17883165278499
 20
1816.3407579812304
 11
636.17883792715179
 21
1816.3407579812304
  0
LINE
  8
_1-0_
  6
CONTINUOUS
 62
    7
 10
636.17883792715179
 20
1816.3407579812304
 11
636.17883792715179
 21
1786.3407173304022
  0
LINE
  8
_1-0_
  6
CONTINUOUS
 62
    7
 10
636.17883792715179
 20
1786.3407173304022
 11
612.17883165278499
 21
1786.3407173304022
  0
LINE
  8
_1-0_
  6
CONTINUOUS
 62
    7
 10
612.17883165278499
 20
1786.3407173304022
 11
612.17883165278499
 21
1816.3407579812304
  0
LINE
  8
_1-0_
  6
CONTINUOUS
 62
    7
 10
612.2571331009442
 20
1894.3246259652508
 11
636.257139375311
 21
1894.3246259652508
  0
LINE
  8
_1-0_
  6
CONTINUOUS
 62
    7
 10
636.257139375311
 20
1894.3246259652508
 11
636.257139375311
 21
1816.3246602533404
  0
LINE
  8
_1-0_
  6
CONTINUOUS
 62
    7
 10
636.257139375311
 20
1816.3246602533404
 11
612.2571331009442
 21
1816.3246602533404
  0
LINE
  8
_1-0_
  6
CONTINUOUS
 62
    7
 10
612.2571331009442
 20
1816.3246602533404
 11
612.2571331009442
 21
1894.3246259652508
  0
LINE
  8
_1-0_
  6
CONTINUOUS
 62
    7
 10
636.78407750074462
 20
1894.431710850778
 11
636.78407750074462
 21
1816.2866906125573
  0
LINE
  8
_1-0_
  6
CONTINUOUS
 62
    7
 10
611.84699099036254
 20
1894.5527937605573
 11
611.84699099036254
 21
1816.4077735223364
  0
LINE
  8
_1-0_
  6
CONTINUOUS
 62
    7
 10
620.35787722318787
 20
995.46958216368921
 11
620.35787722318787
 21
995.22767880708545
  0
LINE
  8
_1-0_
  6
CONTINUOUS
 62
    7
 10
620.35787722318787
 20
995.22767880708545
 11
598.35783866381553
 21
995.22767880708545
  0
LINE
  8
_1-0_
  6
CONTINUOUS
 62
    7
 10
598.35783866381553
 20
995.22767880708545
 11
598.35783866381553
 21
995.46958216368921
  0
LINE
  8
_1-0_
  6
CONTINUOUS
 62
    7
 10
609.35787981541466
 20
995.27002283044749
 11
609.35787981541466
 21
974.51847680287005
  0
LINE
  8
_1-0_
  6
CONTINUOUS
 62
    7
 10
586.59997947427757
 20
1088.6826006325975
 11
662.60002121501896
 21
1088.6826006325975
  0
LINE
  8
_1-0_
  6
CONTINUOUS
 62
    7
 10
662.60002121501896
 20
1088.6826006325975
 11
662.60002121501896
 21
1058.6825599817694
  0
LINE
  8
_1-0_
  6
CONTINUOUS
 62
    7
 10
662.60002121501896
 20
1058.6825599817694
 11
586.59997947427757
 21
1058.6825599817694
  0
LINE
  8
_1-0_
  6
CONTINUOUS
 62
    7
 10
586.59997947427757
 20
1058.6825599817694
 11
586.59997947427757
 21
1088.6826006325975
  0
LINE
  8
_1-0_
  6
CONTINUOUS
 62
    7
 10
596.16049880686876
 20
1186.0396466936384
 11
596.16049880686876
 21
1190.27308666568
  0
LINE
  8
_1-0_
  6
CONTINUOUS
 62
    7
 10
652.16046970323248
 20
1190.27308666568
 11
652.16046970323248
 21
1186.0396466936384
  0
LINE
  8
_1-0_
  6
CONTINUOUS
 62
    7
 10
573.43715608810362
 20
1021.578871973693
 11
573.43715608810362
 21
1024.2396339210304
  0
LINE
  8
_1-0_
  6
CONTINUOUS
 62
    7
 10
573.43715608810362
 20
1024.2396339210304
 11
588.43713266969189
 21
1024.2396339210304
  0
LINE
  8
_1-0_
  6
CONTINUOUS
 62
    7
 10
588.43713266969189
 20
1024.2396339210304
 11
588.43713266969189
 21
1021.578871973693
  0
LINE
  8
_1-0_
  6
CONTINUOUS
 62
    7
 10
576.85801075232064
 20
1052.3217702740408
 11
576.85801075232064
 21
1051.859223060166
  0
LINE
  8
_1-0_
  6
CONTINUOUS
 62
    7
 10
576.85801075232064
 20
1051.4592295171672
 11
576.85801075232064
 21
1050.996769790944
  0
LINE
  8
_1-0_
  6
CONTINUOUS
 62
    7
 10
576.85801075232064
 20
1050.5967762479449
 11
576.85801075232064
 21
1050.1343165217218
  0
LINE
  8
_1-0_
  6
CONTINUOUS
 62
    7
 10
576.85801075232064
 20
1049.734322978723
 11
576.85801075232064
 21
1049.2718632524998
  0
LINE
  8
_1-0_
  6
CONTINUOUS
 62
    7
 10
576.85801075232064
 20
1048.8718697095007
 11
576.85801075232064
 21
1048.4094099832778
  0
LINE
  8
_1-0_
  6
CONTINUOUS
 62
    7
 10
576.85801075232064
 20
1048.009416440279
 11
576.85801075232064
 21
1047.5469567140558
  0
LINE
  8
_1-0_
  6
CONTINUOUS
 62
    7
 10
584.85801284377635
 20
1053.1842235432628
 11
584.85801284377635
 21
1052.7217638170396
  0
LINE
  8
_1-0_
  6
CONTINUOUS
 62
    7
 10
584.85801284377635
 20
1052.3217702740408
 11
584.85801284377635
 21
1051.859223060166
  0
LINE
  8
_1-0_
  6
CONTINUOUS
 62
    7
 10
584.85801284377635
 20
1051.4592295171672
 11
584.85801284377635
 21
1050.996769790944
  0
LINE
  8
_1-0_
  6
CONTINUOUS
 62
    7
 10
584.85801284377635
 20
1050.5967762479449
 11
584.85801284377635
 21
1050.1343165217218
  0
LINE
  8
_1-0_
  6
CONTINUOUS
 62
    7
 10
584.85801284377635
 20
1049.734322978723
 11
584.85801284377635
 21
1049.2718632524998
  0
LINE
  8
_1-0_
  6
CONTINUOUS
 62
    7
 10
584.85801284377635
 20
1048.8718697095007
 11
584.85801284377635
 21
1048.4094099832778
  0
LINE
  8
_1-0_
  6
CONTINUOUS
 62
    7
 10
584.85801284377635
 20
1048.009416440279
 11
584.85801284377635
 21
1047.5469567140558
  0
LINE
  8
_1-0_
  6
CONTINUOUS
 62
    7
 10
584.85801284377635
 20
1047.1468756834051
 11
584.85801284377635
 21
1046.8657778588961
  0
LINE
  8
_1-0_
  6
CONTINUOUS
 62
    7
 10
584.85801284377635
 20
1034.3912635714851
 11
584.85801284377635
 21
1033.9287163576105
  0
LINE
  8
_1-0_
  6
CONTINUOUS
 62
    7
 10
584.85801284377635
 20
1033.5287228146115
 11
584.85801284377635
 21
1033.0662630883883
  0
LINE
  8
_1-0_
  6
CONTINUOUS
 62
    7
 10
584.85801284377635
 20
1032.6662695453892
 11
584.85801284377635
 21
1032.2038098191663
  0
LINE
  8
_1-0_
  6
CONTINUOUS
 62
    7
 10
584.85801284377635
 20
1031.8038162761673
 11
584.85801284377635
 21
1031.3413565499441
  0
LINE
  8
_1-0_
  6
CONTINUOUS
 62
    7
 10
584.85801284377635
 20
1030.9413630069453
 11
584.85801284377635
 21
1030.4789032807221
  0
LINE
  8
_1-0_
  6
CONTINUOUS
 62
    7
 10
584.85801284377635
 20
1030.0789097377233
 11
584.85801284377635
 21
1029.6164500115001
  0
LINE
  8
_1-0_
  6
CONTINUOUS
 62
    7
 10
584.85801284377635
 20
1029.2163689808494
 11
584.85801284377635
 21
1028.7539092546265
  0
LINE
  8
_1-0_
  6
CONTINUOUS
 62
    7
 10
584.85801284377635
 20
1028.3539157116275
 11
584.85801284377635
 21
1027.8914559854043
  0
LINE
  8
_1-0_
  6
CONTINUOUS
 62
    7
 10
584.85801284377635
 20
1027.4914624424055
 11
584.85801284377635
 21
1027.0290027161823
  0
LINE
  8
_1-0_
  6
CONTINUOUS
 62
    7
 10
584.85801284377635
 20
1026.6290091731832
 11
584.85801284377635
 21
1026.1665494469601
  0
LINE
  8
_1-0_
  6
CONTINUOUS
 62
    7
 10
584.85801284377635
 20
1025.7665559039613
 11
584.85801284377635
 21
1025.3040961777381
  0
LINE
  8
_1-0_
  6
CONTINUOUS
 62
    7
 10
576.85801075232064
 20
1034.3912635714851
 11
576.85801075232064
 21
1033.9287163576105
  0
LINE
  8
_1-0_
  6
CONTINUOUS
 62
    7
 10
576.85801075232064
 20
1033.5287228146115
 11
576.85801075232064
 21
1033.0662630883883
  0
LINE
  8
_1-0_
  6
CONTINUOUS
 62
    7
 10
576.85801075232064
 20
1032.6662695453892
 11
576.85801075232064
 21
1032.2038098191663
  0
LINE
  8
_1-0_
  6
CONTINUOUS
 62
    7
 10
576.85801075232064
 20
1031.8038162761673
 11
576.85801075232064
 21
1031.3413565499441
  0
LINE
  8
_1-0_
  6
CONTINUOUS
 62
    7
 10
576.85801075232064
 20
1030.9413630069453
 11
576.85801075232064
 21
1030.4789032807221
  0
LINE
  8
_1-0_
  6
CONTINUOUS
 62
    7
 10
576.85801075232064
 20
1030.0789097377233
 11
576.85801075232064
 21
1029.6164500115001
  0
LINE
  8
_1-0_
  6
CONTINUOUS
 62
    7
 10
576.85801075232064
 20
1029.2163689808494
 11
576.85801075232064
 21
1028.7539092546265
  0
LINE
  8
_1-0_
  6
CONTINUOUS
 62
    7
 10
576.85801075232064
 20
1028.3539157116275
 11
576.85801075232064
 21
1027.8914559854043
  0
LINE
  8
_1-0_
  6
CONTINUOUS
 62
    7
 10
576.85801075232064
 20
1027.4914624424055
 11
576.85801075232064
 21
1027.0290027161823
  0
LINE
  8
_1-0_
  6
CONTINUOUS
 62
    7
 10
576.85801075232064
 20
1026.6290091731832
 11
576.85801075232064
 21
1026.1665494469601
  0
LINE
  8
_1-0_
  6
CONTINUOUS
 62
    7
 10
576.85801075232064
 20
1025.7665559039613
 11
576.85801075232064
 21
1025.3040961777381
  0
LINE
  8
_1-0_
  6
CONTINUOUS
 62
    7
 10
576.85801075232064
 20
1024.9040151470876
 11
576.85801075232064
 21
1024.2415586493648
  0
LINE
  8
_1-0_
  6
CONTINUOUS
 62
    7
 10
576.85801075232064
 20
1024.2415586493648
 11
584.85801284377635
 21
1024.2415586493648
  0
LINE
  8
_1-0_
  6
CONTINUOUS
 62
    7
 10
584.85801284377635
 20
1024.2415586493648
 11
584.85801284377635
 21
1024.9040151470876
  0
LINE
  8
_1-0_
  6
CONTINUOUS
 62
    7
 10
576.85801075232064
 20
1034.5625643932681
 11
576.85801075232064
 21
1034.5644891216027
  0
LINE
  8
_1-0_
  6
CONTINUOUS
 62
    7
 10
576.85801075232064
 20
1046.5625456585385
 11
576.85801075232064
 21
1046.5644703868734
  0
LINE
  8
_1-0_
  6
CONTINUOUS
 62
    7
 10
576.85801075232064
 20
1046.8657778588961
 11
576.85801075232064
 21
1047.1468756834051
  0
LINE
  8
_1-0_
  6
CONTINUOUS
 62
    7
 10
584.85801284377635
 20
1053.5842170862616
 11
584.85801284377635
 21
1054.241599300193
  0
LINE
  8
_1-0_
  6
CONTINUOUS
 62
    7
 10
584.85801284377635
 20
1054.241599300193
 11
576.85801075232064
 21
1054.241599300193
  0
LINE
  8
_1-0_
  6
CONTINUOUS
 62
    7
 10
576.85801075232064
 20
1054.241599300193
 11
576.85801075232064
 21
1053.5842170862616
  0
LINE
  8
_1-0_
  6
CONTINUOUS
 62
    7
 10
576.85801075232064
 20
1052.7217638170396
 11
576.85801075232064
 21
1053.1842235432628
  0
LINE
  8
_1-0_
  6
CONTINUOUS
 62
    7
 10
575.8580268948233
 20
1053.5842170862616
 11
585.85799670127358
 21
1053.5842170862616
  0
LINE
  8
_1-0_
  6
CONTINUOUS
 62
    7
 10
585.85799670127358
 20
1053.5842170862616
 11
585.85799670127358
 21
1053.1842235432628
  0
LINE
  8
_1-0_
  6
CONTINUOUS
 62
    7
 10
585.85799670127358
 20
1053.1842235432628
 11
575.8580268948233
 21
1053.1842235432628
  0
LINE
  8
_1-0_
  6
CONTINUOUS
 62
    7
 10
575.8580268948233
 20
1053.1842235432628
 11
575.8580268948233
 21
1053.5842170862616
  0
LINE
  8
_1-0_
  6
CONTINUOUS
 62
    7
 10
575.8580268948233
 20
1052.7217638170396
 11
585.85799670127358
 21
1052.7217638170396
  0
LINE
  8
_1-0_
  6
CONTINUOUS
 62
    7
 10
585.85799670127358
 20
1052.7217638170396
 11
585.85799670127358
 21
1052.3217702740408
  0
LINE
  8
_1-0_
  6
CONTINUOUS
 62
    7
 10
585.85799670127358
 20
1052.3217702740408
 11
575.8580268948233
 21
1052.3217702740408
  0
LINE
  8
_1-0_
  6
CONTINUOUS
 62
    7
 10
575.8580268948233
 20
1052.3217702740408
 11
575.8580268948233
 21
1052.7217638170396
  0
LINE
  8
_1-0_
  6
CONTINUOUS
 62
    7
 10
575.8580268948233
 20
1051.859223060166
 11
585.85799670127358
 21
1051.859223060166
  0
LINE
  8
_1-0_
  6
CONTINUOUS
 62
    7
 10
585.85799670127358
 20
1051.859223060166
 11
585.85799670127358
 21
1051.4592295171672
  0
LINE
  8
_1-0_
  6
CONTINUOUS
 62
    7
 10
585.85799670127358
 20
1051.4592295171672
 11
575.8580268948233
 21
1051.4592295171672
  0
LINE
  8
_1-0_
  6
CONTINUOUS
 62
    7
 10
575.8580268948233
 20
1051.4592295171672
 11
575.8580268948233
 21
1051.859223060166
  0
LINE
  8
_1-0_
  6
CONTINUOUS
 62
    7
 10
575.8580268948233
 20
1050.996769790944
 11
585.85799670127358
 21
1050.996769790944
  0
LINE
  8
_1-0_
  6
CONTINUOUS
 62
    7
 10
585.85799670127358
 20
1050.996769790944
 11
585.85799670127358
 21
1050.5967762479449
  0
LINE
  8
_1-0_
  6
CONTINUOUS
 62
    7
 10
585.85799670127358
 20
1050.5967762479449
 11
575.8580268948233
 21
1050.5967762479449
  0
LINE
  8
_1-0_
  6
CONTINUOUS
 62
    7
 10
575.8580268948233
 20
1050.5967762479449
 11
575.8580268948233
 21
1050.996769790944
  0
LINE
  8
_1-0_
  6
CONTINUOUS
 62
    7
 10
575.8580268948233
 20
1050.1343165217218
 11
585.85799670127358
 21
1050.1343165217218
  0
LINE
  8
_1-0_
  6
CONTINUOUS
 62
    7
 10
585.85799670127358
 20
1050.1343165217218
 11
585.85799670127358
 21
1049.734322978723
  0
LINE
  8
_1-0_
  6
CONTINUOUS
 62
    7
 10
585.85799670127358
 20
1049.734322978723
 11
575.8580268948233
 21
1049.734322978723
  0
LINE
  8
_1-0_
  6
CONTINUOUS
 62
    7
 10
575.8580268948233
 20
1049.734322978723
 11
575.8580268948233
 21
1050.1343165217218
  0
LINE
  8
_1-0_
  6
CONTINUOUS
 62
    7
 10
575.8580268948233
 20
1049.2718632524998
 11
585.85799670127358
 21
1049.2718632524998
  0
LINE
  8
_1-0_
  6
CONTINUOUS
 62
    7
 10
585.85799670127358
 20
1049.2718632524998
 11
585.85799670127358
 21
1048.8718697095007
  0
LINE
  8
_1-0_
  6
CONTINUOUS
 62
    7
 10
585.85799670127358
 20
1048.8718697095007
 11
575.8580268948233
 21
1048.8718697095007
  0
LINE
  8
_1-0_
  6
CONTINUOUS
 62
    7
 10
575.8580268948233
 20
1048.8718697095007
 11
575.8580268948233
 21
1049.2718632524998
  0
LINE
  8
_1-0_
  6
CONTINUOUS
 62
    7
 10
575.8580268948233
 20
1048.4094099832778
 11
585.85799670127358
 21
1048.4094099832778
  0
LINE
  8
_1-0_
  6
CONTINUOUS
 62
    7
 10
585.85799670127358
 20
1048.4094099832778
 11
585.85799670127358
 21
1048.009416440279
  0
LINE
  8
_1-0_
  6
CONTINUOUS
 62
    7
 10
585.85799670127358
 20
1048.009416440279
 11
575.8580268948233
 21
1048.009416440279
  0
LINE
  8
_1-0_
  6
CONTINUOUS
 62
    7
 10
575.8580268948233
 20
1048.009416440279
 11
575.8580268948233
 21
1048.4094099832778
  0
LINE
  8
_1-0_
  6
CONTINUOUS
 62
    7
 10
575.8580268948233
 20
1047.5469567140558
 11
585.85799670127358
 21
1047.5469567140558
  0
LINE
  8
_1-0_
  6
CONTINUOUS
 62
    7
 10
585.85799670127358
 20
1047.5469567140558
 11
585.85799670127358
 21
1047.1468756834051
  0
LINE
  8
_1-0_
  6
CONTINUOUS
 62
    7
 10
585.85799670127358
 20
1047.1468756834051
 11
575.8580268948233
 21
1047.1468756834051
  0
LINE
  8
_1-0_
  6
CONTINUOUS
 62
    7
 10
575.8580268948233
 20
1047.1468756834051
 11
575.8580268948233
 21
1047.5469567140558
  0
LINE
  8
_1-0_
  6
CONTINUOUS
 62
    7
 10
585.85799670127358
 20
1046.5625456585385
 11
585.85799670127358
 21
1046.8657778588961
  0
LINE
  8
_1-0_
  6
CONTINUOUS
 62
    7
 10
585.85799670127358
 20
1046.8657778588961
 11
575.8580268948233
 21
1046.8657778588961
  0
LINE
  8
_1-0_
  6
CONTINUOUS
 62
    7
 10
575.8580268948233
 20
1046.8657778588961
 11
575.8580268948233
 21
1046.5625456585385
  0
LINE
  8
_1-0_
  6
CONTINUOUS
 62
    7
 10
585.85799670127358
 20
1034.5625643932681
 11
585.85799670127358
 21
1034.3912635714851
  0
LINE
  8
_1-0_
  6
CONTINUOUS
 62
    7
 10
585.85799670127358
 20
1034.3912635714851
 11
575.8580268948233
 21
1034.3912635714851
  0
LINE
  8
_1-0_
  6
CONTINUOUS
 62
    7
 10
575.8580268948233
 20
1034.3912635714851
 11
575.8580268948233
 21
1034.5644891216027
  0
LINE
  8
_1-0_
  6
CONTINUOUS
 62
    7
 10
575.8580268948233
 20
1033.9287163576105
 11
585.85799670127358
 21
1033.9287163576105
  0
LINE
  8
_1-0_
  6
CONTINUOUS
 62
    7
 10
585.85799670127358
 20
1033.9287163576105
 11
585.85799670127358
 21
1033.5287228146115
  0
LINE
  8
_1-0_
  6
CONTINUOUS
 62
    7
 10
585.85799670127358
 20
1033.5287228146115
 11
575.8580268948233
 21
1033.5287228146115
  0
LINE
  8
_1-0_
  6
CONTINUOUS
 62
    7
 10
575.8580268948233
 20
1033.5287228146115
 11
575.8580268948233
 21
1033.9287163576105
  0
LINE
  8
_1-0_
  6
CONTINUOUS
 62
    7
 10
575.8580268948233
 20
1033.0662630883883
 11
585.85799670127358
 21
1033.0662630883883
  0
LINE
  8
_1-0_
  6
CONTINUOUS
 62
    7
 10
585.85799670127358
 20
1033.0662630883883
 11
585.85799670127358
 21
1032.6662695453892
  0
LINE
  8
_1-0_
  6
CONTINUOUS
 62
    7
 10
585.85799670127358
 20
1032.6662695453892
 11
575.8580268948233
 21
1032.6662695453892
  0
LINE
  8
_1-0_
  6
CONTINUOUS
 62
    7
 10
575.8580268948233
 20
1032.6662695453892
 11
575.8580268948233
 21
1033.0662630883883
  0
LINE
  8
_1-0_
  6
CONTINUOUS
 62
    7
 10
575.8580268948233
 20
1032.2038098191663
 11
585.85799670127358
 21
1032.2038098191663
  0
LINE
  8
_1-0_
  6
CONTINUOUS
 62
    7
 10
585.85799670127358
 20
1032.2038098191663
 11
585.85799670127358
 21
1031.8038162761673
  0
LINE
  8
_1-0_
  6
CONTINUOUS
 62
    7
 10
585.85799670127358
 20
1031.8038162761673
 11
575.8580268948233
 21
1031.8038162761673
  0
LINE
  8
_1-0_
  6
CONTINUOUS
 62
    7
 10
575.8580268948233
 20
1031.8038162761673
 11
575.8580268948233
 21
1032.2038098191663
  0
LINE
  8
_1-0_
  6
CONTINUOUS
 62
    7
 10
575.8580268948233
 20
1031.3413565499441
 11
585.85799670127358
 21
1031.3413565499441
  0
LINE
  8
_1-0_
  6
CONTINUOUS
 62
    7
 10
585.85799670127358
 20
1031.3413565499441
 11
585.85799670127358
 21
1030.9413630069453
  0
LINE
  8
_1-0_
  6
CONTINUOUS
 62
    7
 10
585.85799670127358
 20
1030.9413630069453
 11
575.8580268948233
 21
1030.9413630069453
  0
LINE
  8
_1-0_
  6
CONTINUOUS
 62
    7
 10
575.8580268948233
 20
1030.9413630069453
 11
575.8580268948233
 21
1031.3413565499441
  0
LINE
  8
_1-0_
  6
CONTINUOUS
 62
    7
 10
575.8580268948233
 20
1030.4789032807221
 11
585.85799670127358
 21
1030.4789032807221
  0
LINE
  8
_1-0_
  6
CONTINUOUS
 62
    7
 10
585.85799670127358
 20
1030.4789032807221
 11
585.85799670127358
 21
1030.0789097377233
  0
LINE
  8
_1-0_
  6
CONTINUOUS
 62
    7
 10
585.85799670127358
 20
1030.0789097377233
 11
575.8580268948233
 21
1030.0789097377233
  0
LINE
  8
_1-0_
  6
CONTINUOUS
 62
    7
 10
575.8580268948233
 20
1030.0789097377233
 11
575.8580268948233
 21
1030.4789032807221
  0
LINE
  8
_1-0_
  6
CONTINUOUS
 62
    7
 10
575.8580268948233
 20
1029.6164500115001
 11
585.85799670127358
 21
1029.6164500115001
  0
LINE
  8
_1-0_
  6
CONTINUOUS
 62
    7
 10
585.85799670127358
 20
1029.6164500115001
 11
585.85799670127358
 21
1029.2163689808494
  0
LINE
  8
_1-0_
  6
CONTINUOUS
 62
    7
 10
585.85799670127358
 20
1029.2163689808494
 11
575.8580268948233
 21
1029.2163689808494
  0
LINE
  8
_1-0_
  6
CONTINUOUS
 62
    7
 10
575.8580268948233
 20
1029.2163689808494
 11
575.8580268948233
 21
1029.6164500115001
  0
LINE
  8
_1-0_
  6
CONTINUOUS
 62
    7
 10
575.8580268948233
 20
1028.7539092546265
 11
585.85799670127358
 21
1028.7539092546265
  0
LINE
  8
_1-0_
  6
CONTINUOUS
 62
    7
 10
585.85799670127358
 20
1028.7539092546265
 11
585.85799670127358
 21
1028.3539157116275
  0
LINE
  8
_1-0_
  6
CONTINUOUS
 62
    7
 10
585.85799670127358
 20
1028.3539157116275
 11
575.8580268948233
 21
1028.3539157116275
  0
LINE
  8
_1-0_
  6
CONTINUOUS
 62
    7
 10
575.8580268948233
 20
1028.3539157116275
 11
575.8580268948233
 21
1028.7539092546265
  0
LINE
  8
_1-0_
  6
CONTINUOUS
 62
    7
 10
575.8580268948233
 20
1027.8914559854043
 11
585.85799670127358
 21
1027.8914559854043
  0
LINE
  8
_1-0_
  6
CONTINUOUS
 62
    7
 10
585.85799670127358
 20
1027.8914559854043
 11
585.85799670127358
 21
1027.4914624424055
  0
LINE
  8
_1-0_
  6
CONTINUOUS
 62
    7
 10
585.85799670127358
 20
1027.4914624424055
 11
575.8580268948233
 21
1027.4914624424055
  0
LINE
  8
_1-0_
  6
CONTINUOUS
 62
    7
 10
575.8580268948233
 20
1027.4914624424055
 11
575.8580268948233
 21
1027.8914559854043
  0
LINE
  8
_1-0_
  6
CONTINUOUS
 62
    7
 10
575.8580268948233
 20
1027.0290027161823
 11
585.85799670127358
 21
1027.0290027161823
  0
LINE
  8
_1-0_
  6
CONTINUOUS
 62
    7
 10
585.85799670127358
 20
1027.0290027161823
 11
585.85799670127358
 21
1026.6290091731832
  0
LINE
  8
_1-0_
  6
CONTINUOUS
 62
    7
 10
585.85799670127358
 20
1026.6290091731832
 11
575.8580268948233
 21
1026.6290091731832
  0
LINE
  8
_1-0_
  6
CONTINUOUS
 62
    7
 10
575.8580268948233
 20
1026.6290091731832
 11
575.8580268948233
 21
1027.0290027161823
  0
LINE
  8
_1-0_
  6
CONTINUOUS
 62
    7
 10
575.8580268948233
 20
1026.1665494469601
 11
585.85799670127358
 21
1026.1665494469601
  0
LINE
  8
_1-0_
  6
CONTINUOUS
 62
    7
 10
585.85799670127358
 20
1026.1665494469601
 11
585.85799670127358
 21
1025.7665559039613
  0
LINE
  8
_1-0_
  6
CONTINUOUS
 62
    7
 10
585.85799670127358
 20
1025.7665559039613
 11
575.8580268948233
 21
1025.7665559039613
  0
LINE
  8
_1-0_
  6
CONTINUOUS
 62
    7
 10
575.8580268948233
 20
1025.7665559039613
 11
575.8580268948233
 21
1026.1665494469601
  0
LINE
  8
_1-0_
  6
CONTINUOUS
 62
    7
 10
575.8580268948233
 20
1025.3040961777381
 11
585.85799670127358
 21
1025.3040961777381
  0
LINE
  8
_1-0_
  6
CONTINUOUS
 62
    7
 10
585.85799670127358
 20
1025.3040961777381
 11
585.85799670127358
 21
1024.9040151470876
  0
LINE
  8
_1-0_
  6
CONTINUOUS
 62
    7
 10
585.85799670127358
 20
1024.9040151470876
 11
575.8580268948233
 21
1024.9040151470876
  0
LINE
  8
_1-0_
  6
CONTINUOUS
 62
    7
 10
575.8580268948233
 20
1024.9040151470876
 11
575.8580268948233
 21
1025.3040961777381
  0
LINE
  8
_1-0_
  6
CONTINUOUS
 62
    7
 10
573.43715608810362
 20
1021.5789594613445
 11
588.43713266969189
 21
1021.5789594613445
  0
LINE
  8
_1-0_
  6
CONTINUOUS
 62
    7
 10
576.85801075232064
 20
1024.2415586493648
 11
576.85801075232064
 21
1024.2396339210304
  0
LINE
  8
_1-0_
  6
CONTINUOUS
 62
    7
 10
576.85801075232064
 20
1021.5789594613445
 11
576.85801075232064
 21
1019.241551874227
  0
LINE
  8
_1-0_
  6
CONTINUOUS
 62
    7
 10
584.85801284377635
 20
1024.2415586493648
 11
584.85801284377635
 21
1024.2396339210304
  0
LINE
  8
_1-0_
  6
CONTINUOUS
 62
    7
 10
584.85801284377635
 20
1021.5789594613445
 11
584.85801284377635
 21
1019.241551874227
  0
LINE
  8
_1-0_
  6
CONTINUOUS
 62
    7
 10
576.85801075232064
 20
1019.241551874227
 11
576.85801075232064
 21
1019.1453154574949
  0
LINE
  8
_1-0_
  6
CONTINUOUS
 62
    7
 10
584.85801284377635
 20
1019.241551874227
 11
584.85801284377635
 21
1019.1444405809793
  0
LINE
  8
_1-0_
  6
CONTINUOUS
 62
    7
 10
573.43715608810362
 20
1021.5789594613445
 11
574.30140285418304
 21
1020.7966448809648
  0
LINE
  8
_1-0_
  6
CONTINUOUS
 62
    7
 10
574.30140285418304
 20
1020.7966448809648
 11
575.1837595641382
 21
1020.1191405071713
  0
LINE
  8
_1-0_
  6
CONTINUOUS
 62
    7
 10
575.1837595641382
 20
1020.1191405071713
 11
576.08422621796944
 21
1019.5467088029191
  0
LINE
  8
_1-0_
  6
CONTINUOUS
 62
    7
 10
576.08422621796944
 20
1019.5467088029191
 11
577.00280281567666
 21
1019.0791747929046
  0
LINE
  8
_1-0_
  6
CONTINUOUS
 62
    7
 10
577.00280281567666
 20
1019.0791747929046
 11
577.93944561343392
 21
1018.7165384771281
  0
LINE
  8
_1-0_
  6
CONTINUOUS
 62
    7
 10
577.93944561343392
 20
1018.7165384771281
 11
578.89419835506715
 21
1018.4587998555894
  0
LINE
  8
_1-0_
  6
CONTINUOUS
 62
    7
 10
578.89419835506715
 20
1018.4587998555894
 11
579.86706104057635
 21
1018.3061339035918
  0
LINE
  8
_1-0_
  6
CONTINUOUS
 62
    7
 10
579.86706104057635
 20
1018.3061339035918
 11
580.85803366996151
 21
1018.2582781581805
  0
LINE
  8
_1-0_
  6
CONTINUOUS
 62
    7
 10
580.85803366996151
 20
1018.2582781581805
 11
581.85145595359063
 21
1018.3142702551881
  0
LINE
  8
_1-0_
  6
CONTINUOUS
 62
    7
 10
581.85145595359063
 20
1018.3142702551881
 11
582.83171134565782
 21
1018.4727978798412
  0
LINE
  8
_1-0_
  6
CONTINUOUS
 62
    7
 10
582.83171134565782
 20
1018.4727978798412
 11
583.79884358998879
 21
1018.7340360074429
  0
LINE
  8
_1-0_
  6
CONTINUOUS
 62
    7
 10
583.79884358998879
 20
1018.7340360074429
 11
584.75280894275784
 21
1019.09780966269
  0
LINE
  8
_1-0_
  6
CONTINUOUS
 62
    7
 10
584.75280894275784
 20
1019.09780966269
 11
585.69360740396507
 21
1019.5642063332341
  0
LINE
  8
_1-0_
  6
CONTINUOUS
 62
    7
 10
585.69360740396507
 20
1019.5642063332341
 11
586.62128271743597
 21
1020.1331385314234
  0
LINE
  8
_1-0_
  6
CONTINUOUS
 62
    7
 10
586.62128271743597
 20
1020.1331385314234
 11
587.53579113934484
 21
1020.8047812325613
  0
LINE
  8
_1-0_
  6
CONTINUOUS
 62
    7
 10
587.53579113934484
 20
1020.8047812325613
 11
588.43713266969189
 21
1021.5789594613445
  0
LINE
  8
_1-0_
  6
CONTINUOUS
 62
    7
 10
580.32746480698745
 20
1018.2054356166294
 11
580.32746480698745
 21
1019.9197561492331
  0
LINE
  8
_1-0_
  6
CONTINUOUS
 62
    7
 10
580.32746480698745
 20
1019.9197561492331
 11
581.32744866448479
 21
1019.9197561492331
  0
LINE
  8
_1-0_
  6
CONTINUOUS
 62
    7
 10
581.32744866448479
 20
1019.9197561492331
 11
581.32744866448479
 21
1018.2618651518951
  0
LINE
  8
_1-0_
  6
CONTINUOUS
 62
    7
 10
660.48111403770895
 20
1021.5543754312522
 11
660.48111403770895
 21
1024.2151373785894
  0
LINE
  8
_1-0_
  6
CONTINUOUS
 62
    7
 10
660.48111403770895
 20
1024.2151373785894
 11
675.48113436312281
 21
1024.2151373785894
  0
LINE
  8
_1-0_
  6
CONTINUOUS
 62
    7
 10
675.48113436312281
 20
1024.2151373785894
 11
675.48113436312281
 21
1021.5543754312522
  0
LINE
  8
_1-0_
  6
CONTINUOUS
 62
    7
 10
671.90201453720738
 20
1053.7409949578832
 11
671.90201453720738
 21
1054.2170152701005
  0
LINE
  8
_1-0_
  6
CONTINUOUS
 62
    7
 10
671.90201453720738
 20
1054.2170152701005
 11
663.90201244575167
 21
1054.2170152701005
  0
LINE
  8
_1-0_
  6
CONTINUOUS
 62
    7
 10
663.90201244575167
 20
1054.2170152701005
 11
663.90201244575167
 21
1053.7409949578832
  0
LINE
  8
_1-0_
  6
CONTINUOUS
 62
    7
 10
671.90201453720738
 20
1053.3410014148844
 11
671.90201453720738
 21
1052.8785416886612
  0
LINE
  8
_1-0_
  6
CONTINUOUS
 62
    7
 10
671.90201453720738
 20
1052.4785481456624
 11
671.90201453720738
 21
1052.0160884194393
  0
LINE
  8
_1-0_
  6
CONTINUOUS
 62
    7
 10
671.90201453720738
 20
1051.6160948764402
 11
671.90201453720738
 21
1051.153635150217
  0
LINE
  8
_1-0_
  6
CONTINUOUS
 62
    7
 10
671.90201453720738
 20
1050.7536416072182
 11
671.90201453720738
 21
1050.2911818809951
  0
LINE
  8
_1-0_
  6
CONTINUOUS
 62
    7
 10
671.90201453720738
 20
1049.8911008503446
 11
671.90201453720738
 21
1049.4286411241214
  0
LINE
  8
_1-0_
  6
CONTINUOUS
 62
    7
 10
671.90201453720738
 20
1049.0286475811224
 11
671.90201453720738
 21
1048.5661878548992
  0
LINE
  8
_1-0_
  6
CONTINUOUS
 62
    7
 10
671.90201453720738
 20
1048.1661943119004
 11
671.90201453720738
 21
1047.7037345856772
  0
LINE
  8
_1-0_
  6
CONTINUOUS
 62
    7
 10
671.90201453720738
 20
1047.3037410426784
 11
671.90201453720738
 21
1046.8412813164553
  0
LINE
  8
_1-0_
  6
CONTINUOUS
 62
    7
 10
663.90201244575167
 20
1053.3410014148844
 11
663.90201244575167
 21
1052.8785416886612
  0
LINE
  8
_1-0_
  6
CONTINUOUS
 62
    7
 10
663.90201244575167
 20
1052.4785481456624
 11
663.90201244575167
 21
1052.0160884194393
  0
LINE
  8
_1-0_
  6
CONTINUOUS
 62
    7
 10
663.90201244575167
 20
1051.6160948764402
 11
663.90201244575167
 21
1051.153635150217
  0
LINE
  8
_1-0_
  6
CONTINUOUS
 62
    7
 10
663.90201244575167
 20
1050.7536416072182
 11
663.90201244575167
 21
1050.2911818809951
  0
LINE
  8
_1-0_
  6
CONTINUOUS
 62
    7
 10
663.90201244575167
 20
1049.8911008503446
 11
663.90201244575167
 21
1049.4286411241214
  0
LINE
  8
_1-0_
  6
CONTINUOUS
 62
    7
 10
663.90201244575167
 20
1049.0286475811224
 11
663.90201244575167
 21
1048.5661878548992
  0
LINE
  8
_1-0_
  6
CONTINUOUS
 62
    7
 10
663.90201244575167
 20
1048.1661943119004
 11
663.90201244575167
 21
1047.7037345856772
  0
LINE
  8
_1-0_
  6
CONTINUOUS
 62
    7
 10
663.90201244575167
 20
1047.3037410426784
 11
663.90201244575167
 21
1046.8412813164553
  0
LINE
  8
_1-0_
  6
CONTINUOUS
 62
    7
 10
663.90201244575167
 20
1033.5042262721706
 11
663.90201244575167
 21
1033.0417665459474
  0
LINE
  8
_1-0_
  6
CONTINUOUS
 62
    7
 10
663.90201244575167
 20
1032.6417730029484
 11
663.90201244575167
 21
1032.1793132767252
  0
LINE
  8
_1-0_
  6
CONTINUOUS
 62
    7
 10
663.90201244575167
 20
1031.7792322460748
 11
663.90201244575167
 21
1031.3167725198516
  0
LINE
  8
_1-0_
  6
CONTINUOUS
 62
    7
 10
663.90201244575167
 20
1030.9167789768528
 11
663.90201244575167
 21
1030.4543192506296
  0
LINE
  8
_1-0_
  6
CONTINUOUS
 62
    7
 10
663.90201244575167
 20
1030.0543257076308
 11
663.90201244575167
 21
1029.5918659814076
  0
LINE
  8
_1-0_
  6
CONTINUOUS
 62
    7
 10
663.90201244575167
 20
1029.1918724384086
 11
663.90201244575167
 21
1028.7294127121854
  0
LINE
  8
_1-0_
  6
CONTINUOUS
 62
    7
 10
663.90201244575167
 20
1028.3294191691866
 11
663.90201244575167
 21
1027.8669594429634
  0
LINE
  8
_1-0_
  6
CONTINUOUS
 62
    7
 10
663.90201244575167
 20
1027.4669658999644
 11
663.90201244575167
 21
1027.0044186860898
  0
LINE
  8
_1-0_
  6
CONTINUOUS
 62
    7
 10
663.90201244575167
 20
1026.6044251430908
 11
663.90201244575167
 21
1026.1419654168676
  0
LINE
  8
_1-0_
  6
CONTINUOUS
 62
    7
 10
663.90201244575167
 20
1025.7419718738688
 11
663.90201244575167
 21
1025.2795121476456
  0
LINE
  8
_1-0_
  6
CONTINUOUS
 62
    7
 10
671.90201453720738
 20
1034.3666795413926
 11
671.90201453720738
 21
1033.9042198151694
  0
LINE
  8
_1-0_
  6
CONTINUOUS
 62
    7
 10
671.90201453720738
 20
1033.5042262721706
 11
671.90201453720738
 21
1033.0417665459474
  0
LINE
  8
_1-0_
  6
CONTINUOUS
 62
    7
 10
671.90201453720738
 20
1032.6417730029484
 11
671.90201453720738
 21
1032.1793132767252
  0
LINE
  8
_1-0_
  6
CONTINUOUS
 62
    7
 10
671.90201453720738
 20
1031.7792322460748
 11
671.90201453720738
 21
1031.3167725198516
  0
LINE
  8
_1-0_
  6
CONTINUOUS
 62
    7
 10
671.90201453720738
 20
1030.9167789768528
 11
671.90201453720738
 21
1030.4543192506296
  0
LINE
  8
_1-0_
  6
CONTINUOUS
 62
    7
 10
671.90201453720738
 20
1030.0543257076308
 11
671.90201453720738
 21
1029.5918659814076
  0
LINE
  8
_1-0_
  6
CONTINUOUS
 62
    7
 10
671.90201453720738
 20
1029.1918724384086
 11
671.90201453720738
 21
1028.7294127121854
  0
LINE
  8
_1-0_
  6
CONTINUOUS
 62
    7
 10
671.90201453720738
 20
1028.3294191691866
 11
671.90201453720738
 21
1027.8669594429634
  0
LINE
  8
_1-0_
  6
CONTINUOUS
 62
    7
 10
671.90201453720738
 20
1027.4669658999644
 11
671.90201453720738
 21
1027.0044186860898
  0
LINE
  8
_1-0_
  6
CONTINUOUS
 62
    7
 10
671.90201453720738
 20
1026.6044251430908
 11
671.90201453720738
 21
1026.1419654168676
  0
LINE
  8
_1-0_
  6
CONTINUOUS
 62
    7
 10
671.90201453720738
 20
1025.7419718738688
 11
671.90201453720738
 21
1025.2795121476456
  0
LINE
  8
_1-0_
  6
CONTINUOUS
 62
    7
 10
671.90201453720738
 20
1024.8795186046468
 11
671.90201453720738
 21
1024.217062106924
  0
LINE
  8
_1-0_
  6
CONTINUOUS
 62
    7
 10
671.90201453720738
 20
1024.217062106924
 11
663.90201244575167
 21
1024.217062106924
  0
LINE
  8
_1-0_
  6
CONTINUOUS
 62
    7
 10
663.90201244575167
 20
1024.217062106924
 11
663.90201244575167
 21
1024.8795186046468
  0
LINE
  8
_1-0_
  6
CONTINUOUS
 62
    7
 10
663.90201244575167
 20
1033.9042198151694
 11
663.90201244575167
 21
1034.3666795413926
  0
LINE
  8
_1-0_
  6
CONTINUOUS
 62
    7
 10
662.90198484442863
 20
1053.7409949578832
 11
672.90199839470461
 21
1053.7409949578832
  0
LINE
  8
_1-0_
  6
CONTINUOUS
 62
    7
 10
672.90199839470461
 20
1053.7409949578832
 11
672.90199839470461
 21
1053.3410014148844
  0
LINE
  8
_1-0_
  6
CONTINUOUS
 62
    7
 10
672.90199839470461
 20
1053.3410014148844
 11
662.90198484442863
 21
1053.3410014148844
  0
LINE
  8
_1-0_
  6
CONTINUOUS
 62
    7
 10
662.90198484442863
 20
1053.3410014148844
 11
662.90198484442863
 21
1053.7409949578832
  0
LINE
  8
_1-0_
  6
CONTINUOUS
 62
    7
 10
662.90198484442863
 20
1052.8785416886612
 11
672.90199839470461
 21
1052.8785416886612
  0
LINE
  8
_1-0_
  6
CONTINUOUS
 62
    7
 10
672.90199839470461
 20
1052.8785416886612
 11
672.90199839470461
 21
1052.4785481456624
  0
LINE
  8
_1-0_
  6
CONTINUOUS
 62
    7
 10
672.90199839470461
 20
1052.4785481456624
 11
662.90198484442863
 21
1052.4785481456624
  0
LINE
  8
_1-0_
  6
CONTINUOUS
 62
    7
 10
662.90198484442863
 20
1052.4785481456624
 11
662.90198484442863
 21
1052.8785416886612
  0
LINE
  8
_1-0_
  6
CONTINUOUS
 62
    7
 10
662.90198484442863
 20
1052.0160884194393
 11
672.90199839470461
 21
1052.0160884194393
  0
LINE
  8
_1-0_
  6
CONTINUOUS
 62
    7
 10
672.90199839470461
 20
1052.0160884194393
 11
672.90199839470461
 21
1051.6160948764402
  0
LINE
  8
_1-0_
  6
CONTINUOUS
 62
    7
 10
672.90199839470461
 20
1051.6160948764402
 11
662.90198484442863
 21
1051.6160948764402
  0
LINE
  8
_1-0_
  6
CONTINUOUS
 62
    7
 10
662.90198484442863
 20
1051.6160948764402
 11
662.90198484442863
 21
1052.0160884194393
  0
LINE
  8
_1-0_
  6
CONTINUOUS
 62
    7
 10
662.90198484442863
 20
1051.153635150217
 11
672.90199839470461
 21
1051.153635150217
  0
LINE
  8
_1-0_
  6
CONTINUOUS
 62
    7
 10
672.90199839470461
 20
1051.153635150217
 11
672.90199839470461
 21
1050.7536416072182
  0
LINE
  8
_1-0_
  6
CONTINUOUS
 62
    7
 10
672.90199839470461
 20
1050.7536416072182
 11
662.90198484442863
 21
1050.7536416072182
  0
LINE
  8
_1-0_
  6
CONTINUOUS
 62
    7
 10
662.90198484442863
 20
1050.7536416072182
 11
662.90198484442863
 21
1051.153635150217
  0
LINE
  8
_1-0_
  6
CONTINUOUS
 62
    7
 10
662.90198484442863
 20
1050.2911818809951
 11
672.90199839470461
 21
1050.2911818809951
  0
LINE
  8
_1-0_
  6
CONTINUOUS
 62
    7
 10
672.90199839470461
 20
1050.2911818809951
 11
672.90199839470461
 21
1049.8911008503446
  0
LINE
  8
_1-0_
  6
CONTINUOUS
 62
    7
 10
672.90199839470461
 20
1049.8911008503446
 11
662.90198484442863
 21
1049.8911008503446
  0
LINE
  8
_1-0_
  6
CONTINUOUS
 62
    7
 10
662.90198484442863
 20
1049.8911008503446
 11
662.90198484442863
 21
1050.2911818809951
  0
LINE
  8
_1-0_
  6
CONTINUOUS
 62
    7
 10
662.90198484442863
 20
1049.4286411241214
 11
672.90199839470461
 21
1049.4286411241214
  0
LINE
  8
_1-0_
  6
CONTINUOUS
 62
    7
 10
672.90199839470461
 20
1049.4286411241214
 11
672.90199839470461
 21
1049.0286475811224
  0
LINE
  8
_1-0_
  6
CONTINUOUS
 62
    7
 10
672.90199839470461
 20
1049.0286475811224
 11
662.90198484442863
 21
1049.0286475811224
  0
LINE
  8
_1-0_
  6
CONTINUOUS
 62
    7
 10
662.90198484442863
 20
1049.0286475811224
 11
662.90198484442863
 21
1049.4286411241214
  0
LINE
  8
_1-0_
  6
CONTINUOUS
 62
    7
 10
662.90198484442863
 20
1048.5661878548992
 11
672.90199839470461
 21
1048.5661878548992
  0
LINE
  8
_1-0_
  6
CONTINUOUS
 62
    7
 10
672.90199839470461
 20
1048.5661878548992
 11
672.90199839470461
 21
1048.1661943119004
  0
LINE
  8
_1-0_
  6
CONTINUOUS
 62
    7
 10
672.90199839470461
 20
1048.1661943119004
 11
662.90198484442863
 21
1048.1661943119004
  0
LINE
  8
_1-0_
  6
CONTINUOUS
 62
    7
 10
662.90198484442863
 20
1048.1661943119004
 11
662.90198484442863
 21
1048.5661878548992
  0
LINE
  8
_1-0_
  6
CONTINUOUS
 62
    7
 10
662.90198484442863
 20
1047.7037345856772
 11
672.90199839470461
 21
1047.7037345856772
  0
LINE
  8
_1-0_
  6
CONTINUOUS
 62
    7
 10
672.90199839470461
 20
1047.7037345856772
 11
672.90199839470461
 21
1047.3037410426784
  0
LINE
  8
_1-0_
  6
CONTINUOUS
 62
    7
 10
672.90199839470461
 20
1047.3037410426784
 11
662.90198484442863
 21
1047.3037410426784
  0
LINE
  8
_1-0_
  6
CONTINUOUS
 62
    7
 10
662.90198484442863
 20
1047.3037410426784
 11
662.90198484442863
 21
1047.7037345856772
  0
LINE
  8
_1-0_
  6
CONTINUOUS
 62
    7
 10
672.90199839470461
 20
1046.5625456585385
 11
672.90199839470461
 21
1046.8412813164553
  0
LINE
  8
_1-0_
  6
CONTINUOUS
 62
    7
 10
672.90199839470461
 20
1046.8412813164553
 11
662.90198484442863
 21
1046.8412813164553
  0
LINE
  8
_1-0_
  6
CONTINUOUS
 62
    7
 10
662.90198484442863
 20
1046.8412813164553
 11
662.90198484442863
 21
1046.5625456585385
  0
LINE
  8
_1-0_
  6
CONTINUOUS
 62
    7
 10
672.90199839470461
 20
1034.5625643932681
 11
672.90199839470461
 21
1034.3666795413926
  0
LINE
  8
_1-0_
  6
CONTINUOUS
 62
    7
 10
672.90199839470461
 20
1034.3666795413926
 11
662.90198484442863
 21
1034.3666795413926
  0
LINE
  8
_1-0_
  6
CONTINUOUS
 62
    7
 10
662.90198484442863
 20
1034.3666795413926
 11
662.90198484442863
 21
1034.5625643932681
  0
LINE
  8
_1-0_
  6
CONTINUOUS
 62
    7
 10
662.90198484442863
 20
1033.9042198151694
 11
672.90199839470461
 21
1033.9042198151694
  0
LINE
  8
_1-0_
  6
CONTINUOUS
 62
    7
 10
672.90199839470461
 20
1033.9042198151694
 11
672.90199839470461
 21
1033.5042262721706
  0
LINE
  8
_1-0_
  6
CONTINUOUS
 62
    7
 10
672.90199839470461
 20
1033.5042262721706
 11
662.90198484442863
 21
1033.5042262721706
  0
LINE
  8
_1-0_
  6
CONTINUOUS
 62
    7
 10
662.90198484442863
 20
1033.5042262721706
 11
662.90198484442863
 21
1033.9042198151694
  0
LINE
  8
_1-0_
  6
CONTINUOUS
 62
    7
 10
662.90198484442863
 20
1033.0417665459474
 11
672.90199839470461
 21
1033.0417665459474
  0
LINE
  8
_1-0_
  6
CONTINUOUS
 62
    7
 10
672.90199839470461
 20
1033.0417665459474
 11
672.90199839470461
 21
1032.6417730029484
  0
LINE
  8
_1-0_
  6
CONTINUOUS
 62
    7
 10
672.90199839470461
 20
1032.6417730029484
 11
662.90198484442863
 21
1032.6417730029484
  0
LINE
  8
_1-0_
  6
CONTINUOUS
 62
    7
 10
662.90198484442863
 20
1032.6417730029484
 11
662.90198484442863
 21
1033.0417665459474
  0
LINE
  8
_1-0_
  6
CONTINUOUS
 62
    7
 10
662.90198484442863
 20
1032.1793132767252
 11
672.90199839470461
 21
1032.1793132767252
  0
LINE
  8
_1-0_
  6
CONTINUOUS
 62
    7
 10
672.90199839470461
 20
1032.1793132767252
 11
672.90199839470461
 21
1031.7792322460748
  0
LINE
  8
_1-0_
  6
CONTINUOUS
 62
    7
 10
672.90199839470461
 20
1031.7792322460748
 11
662.90198484442863
 21
1031.7792322460748
  0
LINE
  8
_1-0_
  6
CONTINUOUS
 62
    7
 10
662.90198484442863
 20
1031.7792322460748
 11
662.90198484442863
 21
1032.1793132767252
  0
LINE
  8
_1-0_
  6
CONTINUOUS
 62
    7
 10
662.90198484442863
 20
1031.3167725198516
 11
672.90199839470461
 21
1031.3167725198516
  0
LINE
  8
_1-0_
  6
CONTINUOUS
 62
    7
 10
672.90199839470461
 20
1031.3167725198516
 11
672.90199839470461
 21
1030.9167789768528
  0
LINE
  8
_1-0_
  6
CONTINUOUS
 62
    7
 10
672.90199839470461
 20
1030.9167789768528
 11
662.90198484442863
 21
1030.9167789768528
  0
LINE
  8
_1-0_
  6
CONTINUOUS
 62
    7
 10
662.90198484442863
 20
1030.9167789768528
 11
662.90198484442863
 21
1031.3167725198516
  0
LINE
  8
_1-0_
  6
CONTINUOUS
 62
    7
 10
662.90198484442863
 20
1030.4543192506296
 11
672.90199839470461
 21
1030.4543192506296
  0
LINE
  8
_1-0_
  6
CONTINUOUS
 62
    7
 10
672.90199839470461
 20
1030.4543192506296
 11
672.90199839470461
 21
1030.0543257076308
  0
LINE
  8
_1-0_
  6
CONTINUOUS
 62
    7
 10
672.90199839470461
 20
1030.0543257076308
 11
662.90198484442863
 21
1030.0543257076308
  0
LINE
  8
_1-0_
  6
CONTINUOUS
 62
    7
 10
662.90198484442863
 20
1030.0543257076308
 11
662.90198484442863
 21
1030.4543192506296
  0
LINE
  8
_1-0_
  6
CONTINUOUS
 62
    7
 10
662.90198484442863
 20
1029.5918659814076
 11
672.90199839470461
 21
1029.5918659814076
  0
LINE
  8
_1-0_
  6
CONTINUOUS
 62
    7
 10
672.90199839470461
 20
1029.5918659814076
 11
672.90199839470461
 21
1029.1918724384086
  0
LINE
  8
_1-0_
  6
CONTINUOUS
 62
    7
 10
672.90199839470461
 20
1029.1918724384086
 11
662.90198484442863
 21
1029.1918724384086
  0
LINE
  8
_1-0_
  6
CONTINUOUS
 62
    7
 10
662.90198484442863
 20
1029.1918724384086
 11
662.90198484442863
 21
1029.5918659814076
  0
LINE
  8
_1-0_
  6
CONTINUOUS
 62
    7
 10
662.90198484442863
 20
1028.7294127121854
 11
672.90199839470461
 21
1028.7294127121854
  0
LINE
  8
_1-0_
  6
CONTINUOUS
 62
    7
 10
672.90199839470461
 20
1028.7294127121854
 11
672.90199839470461
 21
1028.3294191691866
  0
LINE
  8
_1-0_
  6
CONTINUOUS
 62
    7
 10
672.90199839470461
 20
1028.3294191691866
 11
662.90198484442863
 21
1028.3294191691866
  0
LINE
  8
_1-0_
  6
CONTINUOUS
 62
    7
 10
662.90198484442863
 20
1028.3294191691866
 11
662.90198484442863
 21
1028.7294127121854
  0
LINE
  8
_1-0_
  6
CONTINUOUS
 62
    7
 10
662.90198484442863
 20
1027.8669594429634
 11
672.90199839470461
 21
1027.8669594429634
  0
LINE
  8
_1-0_
  6
CONTINUOUS
 62
    7
 10
672.90199839470461
 20
1027.8669594429634
 11
672.90199839470461
 21
1027.4669658999644
  0
LINE
  8
_1-0_
  6
CONTINUOUS
 62
    7
 10
672.90199839470461
 20
1027.4669658999644
 11
662.90198484442863
 21
1027.4669658999644
  0
LINE
  8
_1-0_
  6
CONTINUOUS
 62
    7
 10
662.90198484442863
 20
1027.4669658999644
 11
662.90198484442863
 21
1027.8669594429634
  0
LINE
  8
_1-0_
  6
CONTINUOUS
 62
    7
 10
662.90198484442863
 20
1027.0044186860898
 11
672.90199839470461
 21
1027.0044186860898
  0
LINE
  8
_1-0_
  6
CONTINUOUS
 62
    7
 10
672.90199839470461
 20
1027.0044186860898
 11
672.90199839470461
 21
1026.6044251430908
  0
LINE
  8
_1-0_
  6
CONTINUOUS
 62
    7
 10
672.90199839470461
 20
1026.6044251430908
 11
662.90198484442863
 21
1026.6044251430908
  0
LINE
  8
_1-0_
  6
CONTINUOUS
 62
    7
 10
662.90198484442863
 20
1026.6044251430908
 11
662.90198484442863
 21
1027.0044186860898
  0
LINE
  8
_1-0_
  6
CONTINUOUS
 62
    7
 10
662.90198484442863
 20
1026.1419654168676
 11
672.90199839470461
 21
1026.1419654168676
  0
LINE
  8
_1-0_
  6
CONTINUOUS
 62
    7
 10
672.90199839470461
 20
1026.1419654168676
 11
672.90199839470461
 21
1025.7419718738688
  0
LINE
  8
_1-0_
  6
CONTINUOUS
 62
    7
 10
672.90199839470461
 20
1025.7419718738688
 11
662.90198484442863
 21
1025.7419718738688
  0
LINE
  8
_1-0_
  6
CONTINUOUS
 62
    7
 10
662.90198484442863
 20
1025.7419718738688
 11
662.90198484442863
 21
1026.1419654168676
  0
LINE
  8
_1-0_
  6
CONTINUOUS
 62
    7
 10
662.90198484442863
 20
1025.2795121476456
 11
672.90199839470461
 21
1025.2795121476456
  0
LINE
  8
_1-0_
  6
CONTINUOUS
 62
    7
 10
672.90199839470461
 20
1025.2795121476456
 11
672.90199839470461
 21
1024.8795186046468
  0
LINE
  8
_1-0_
  6
CONTINUOUS
 62
    7
 10
672.90199839470461
 20
1024.8795186046468
 11
662.90198484442863
 21
1024.8795186046468
  0
LINE
  8
_1-0_
  6
CONTINUOUS
 62
    7
 10
662.90198484442863
 20
1024.8795186046468
 11
662.90198484442863
 21
1025.2795121476456
  0
LINE
  8
_1-0_
  6
CONTINUOUS
 62
    7
 10
660.48111403770895
 20
1021.5544629189037
 11
675.48113436312281
 21
1021.5544629189037
  0
LINE
  8
_1-0_
  6
CONTINUOUS
 62
    7
 10
663.90201244575167
 20
1024.217062106924
 11
663.90201244575167
 21
1024.2151373785894
  0
LINE
  8
_1-0_
  6
CONTINUOUS
 62
    7
 10
663.90201244575167
 20
1021.5544629189037
 11
663.90201244575167
 21
1019.2170553317861
  0
LINE
  8
_1-0_
  6
CONTINUOUS
 62
    7
 10
671.90201453720738
 20
1024.217062106924
 11
671.90201453720738
 21
1024.2151373785894
  0
LINE
  8
_1-0_
  6
CONTINUOUS
 62
    7
 10
671.90201453720738
 20
1021.5544629189037
 11
671.90201453720738
 21
1019.2170553317861
  0
LINE
  8
_1-0_
  6
CONTINUOUS
 62
    7
 10
663.90201244575167
 20
1019.2170553317861
 11
663.90201244575167
 21
1019.1207314274026
  0
LINE
  8
_1-0_
  6
CONTINUOUS
 62
    7
 10
671.90201453720738
 20
1019.2170553317861
 11
671.90201453720738
 21
1019.1198565508867
  0
LINE
  8
_1-0_
  6
CONTINUOUS
 62
    7
 10
660.48111403770895
 20
1021.5544629189037
 11
661.34540454761395
 21
1020.7720608508724
  0
LINE
  8
_1-0_
  6
CONTINUOUS
 62
    7
 10
661.34540454761395
 20
1020.7720608508724
 11
662.22776125756923
 21
1020.0946439647306
  0
LINE
  8
_1-0_
  6
CONTINUOUS
 62
    7
 10
662.22776125756923
 20
1020.0946439647306
 11
663.12822791140047
 21
1019.5221247728266
  0
LINE
  8
_1-0_
  6
CONTINUOUS
 62
    7
 10
663.12822791140047
 20
1019.5221247728266
 11
664.04676076528187
 21
1019.0545907628122
  0
LINE
  8
_1-0_
  6
CONTINUOUS
 62
    7
 10
664.04676076528187
 20
1019.0545907628122
 11
664.98344730686495
 21
1018.6919544470355
  0
LINE
  8
_1-0_
  6
CONTINUOUS
 62
    7
 10
664.98344730686495
 20
1018.6919544470355
 11
665.93820004849817
 21
1018.4343033131485
  0
LINE
  8
_1-0_
  6
CONTINUOUS
 62
    7
 10
665.93820004849817
 20
1018.4343033131485
 11
666.91106273400737
 21
1018.2815498734993
  0
LINE
  8
_1-0_
  6
CONTINUOUS
 62
    7
 10
666.91106273400737
 20
1018.2815498734993
 11
667.90199161956662
 21
1018.2337816157395
  0
LINE
  8
_1-0_
  6
CONTINUOUS
 62
    7
 10
667.90199161956662
 20
1018.2337816157395
 11
668.89541390319573
 21
1018.2896862250958
  0
LINE
  8
_1-0_
  6
CONTINUOUS
 62
    7
 10
668.89541390319573
 20
1018.2896862250958
 11
669.87571303908885
 21
1018.4483013374005
  0
LINE
  8
_1-0_
  6
CONTINUOUS
 62
    7
 10
669.87571303908885
 20
1018.4483013374005
 11
670.84280153959412
 21
1018.7094519773506
  0
LINE
  8
_1-0_
  6
CONTINUOUS
 62
    7
 10
670.84280153959412
 20
1018.7094519773506
 11
671.79676689236317
 21
1019.0732256325975
  0
LINE
  8
_1-0_
  6
CONTINUOUS
 62
    7
 10
671.79676689236317
 20
1019.0732256325975
 11
672.7376090973961
 21
1019.5396223031414
  0
LINE
  8
_1-0_
  6
CONTINUOUS
 62
    7
 10
672.7376090973961
 20
1019.5396223031414
 11
673.66524066704119
 21
1020.1086419889825
  0
LINE
  8
_1-0_
  6
CONTINUOUS
 62
    7
 10
673.66524066704119
 20
1020.1086419889825
 11
674.57974908895017
 21
1020.7801972024688
  0
LINE
  8
_1-0_
  6
CONTINUOUS
 62
    7
 10
674.57974908895017
 20
1020.7801972024688
 11
675.48113436312281
 21
1021.5544629189037
  0
LINE
  8
_1-0_
  6
CONTINUOUS
 62
    7
 10
667.37142275659266
 20
1018.1808515865371
 11
667.37142275659266
 21
1019.8951721191406
  0
LINE
  8
_1-0_
  6
CONTINUOUS
 62
    7
 10
667.37142275659266
 20
1019.8951721191406
 11
668.37145035791582
 21
1019.8951721191406
  0
LINE
  8
_1-0_
  6
CONTINUOUS
 62
    7
 10
668.37145035791582
 20
1019.8951721191406
 11
668.37145035791582
 21
1018.2373686094542
  0
LINE
  8
_1-0_
  6
CONTINUOUS
 62
    7
 10
585.03115090624249
 20
1380.4494567635436
 11
663.03111661815262
 21
1380.4494567635436
  0
LINE
  8
_1-0_
  6
CONTINUOUS
 62
    7
 10
663.03111661815262
 20
1380.4494567635436
 11
663.03111661815262
 21
1324.4494858671801
  0
LINE
  8
_1-0_
  6
CONTINUOUS
 62
    7
 10
663.03111661815262
 20
1324.4494858671801
 11
585.03115090624249
 21
1324.4494858671801
  0
LINE
  8
_1-0_
  6
CONTINUOUS
 62
    7
 10
585.03115090624249
 20
1324.4494858671801
 11
585.03115090624249
 21
1380.4494567635436
  0
LINE
  8
_1-0_
  6
CONTINUOUS
 62
    7
 10
575.39998529500485
 20
1100.682581897868
 11
675.39998956628756
 21
1100.682581897868
  0
LINE
  8
_1-0_
  6
CONTINUOUS
 62
    7
 10
675.39998956628756
 20
1100.682581897868
 11
675.39998956628756
 21
1088.6826006325975
  0
LINE
  8
_1-0_
  6
CONTINUOUS
 62
    7
 10
675.39998956628756
 20
1088.6826006325975
 11
575.39998529500485
 21
1088.6826006325975
  0
LINE
  8
_1-0_
  6
CONTINUOUS
 62
    7
 10
575.39998529500485
 20
1088.6826006325975
 11
575.39998529500485
 21
1100.682581897868
  0
LINE
  8
_1-0_
  6
CONTINUOUS
 62
    7
 10
584.78417326584747
 20
1324.4391623242941
 11
662.78418272158342
 21
1324.4391623242941
  0
LINE
  8
_1-0_
  6
CONTINUOUS
 62
    7
 10
662.78418272158342
 20
1324.4391623242941
 11
662.78418272158342
 21
1100.4391912511876
  0
LINE
  8
_1-0_
  6
CONTINUOUS
 62
    7
 10
662.78418272158342
 20
1100.4391912511876
 11
584.78417326584747
 21
1100.4391912511876
  0
LINE
  8
_1-0_
  6
CONTINUOUS
 62
    7
 10
584.78417326584747
 20
1100.4391912511876
 11
584.78417326584747
 21
1324.4391623242941
  0
LINE
  8
_1-0_
  6
CONTINUOUS
 62
    7
 10
612.27169979493124
 20
1351.7457206460961
 11
612.27169979493124
 21
1340.4585012782034
  0
LINE
  8
_1-0_
  6
CONTINUOUS
 62
    7
 10
612.27169979493124
 20
1340.4585012782034
 11
636.27166232547233
 21
1340.4585012782034
  0
LINE
  8
_1-0_
  6
CONTINUOUS
 62
    7
 10
636.27166232547233
 20
1340.4585012782034
 11
636.27166232547233
 21
1351.7457206460961
  0
LINE
  8
_1-0_
  6
CONTINUOUS
 62
    7
 10
612.27169979493124
 20
1367.745724829007
 11
612.27169979493124
 21
1380.4584679916559
  0
LINE
  8
_1-0_
  6
CONTINUOUS
 62
    7
 10
612.27169979493124
 20
1380.4584679916559
 11
636.27166232547233
 21
1380.4584679916559
  0
LINE
  8
_1-0_
  6
CONTINUOUS
 62
    7
 10
636.27166232547233
 20
1380.4584679916559
 11
636.27166232547233
 21
1367.745724829007
  0
LINE
  8
_1-0_
  6
CONTINUOUS
 62
    7
 10
592.16795608343762
 20
1082.1862050649281
 11
592.16795608343762
 21
1079.9494957647728
  0
LINE
  8
_1-0_
  6
CONTINUOUS
 62
    7
 10
592.16795608343762
 20
1077.9495280497783
 11
592.16795608343762
 21
1075.7127312619714
  0
LINE
  8
_1-0_
  6
CONTINUOUS
 62
    7
 10
592.16795608343762
 20
1073.7127635469767
 11
592.16795608343762
 21
1071.4759667591698
  0
LINE
  8
_1-0_
  6
CONTINUOUS
 62
    7
 10
592.16795608343762
 20
1069.4759990441753
 11
592.16795608343762
 21
1067.23928974402
  0
LINE
  8
_1-0_
  6
CONTINUOUS
 62
    7
 10
592.16795608343762
 20
1065.2392345413737
 11
592.16795608343762
 21
1063.0025252412183
  0
LINE
  8
_1-0_
  6
CONTINUOUS
 62
    7
 10
656.16797281508275
 20
1086.4229695677298
 11
656.16797281508275
 21
1084.1862602675742
  0
LINE
  8
_1-0_
  6
CONTINUOUS
 62
    7
 10
656.16797281508275
 20
1082.1862050649281
 11
656.16797281508275
 21
1079.9494957647728
  0
LINE
  8
_1-0_
  6
CONTINUOUS
 62
    7
 10
656.16797281508275
 20
1077.9495280497783
 11
656.16797281508275
 21
1075.7127312619714
  0
LINE
  8
_1-0_
  6
CONTINUOUS
 62
    7
 10
656.16797281508275
 20
1073.7127635469767
 11
656.16797281508275
 21
1071.4759667591698
  0
LINE
  8
_1-0_
  6
CONTINUOUS
 62
    7
 10
656.16797281508275
 20
1069.4759990441753
 11
656.16797281508275
 21
1067.23928974402
  0
LINE
  8
_1-0_
  6
CONTINUOUS
 62
    7
 10
656.16797281508275
 20
1065.2392345413737
 11
656.16797281508275
 21
1063.0025252412183
  0
LINE
  8
_1-0_
  6
CONTINUOUS
 62
    7
 10
592.16795608343762
 20
1052.5290285206208
 11
592.16795608343762
 21
1050.2923192204655
  0
LINE
  8
_1-0_
  6
CONTINUOUS
 62
    7
 10
592.16795608343762
 20
1048.2922640178194
 11
592.16795608343762
 21
1046.0555547176641
  0
LINE
  8
_1-0_
  6
CONTINUOUS
 62
    7
 10
592.16795608343762
 20
1044.0554995150178
 11
592.16795608343762
 21
1041.8187902148625
  0
LINE
  8
_1-0_
  6
CONTINUOUS
 62
    7
 10
592.16795608343762
 20
1039.818822499868
 11
592.16795608343762
 21
1037.5820257120611
  0
LINE
  8
_1-0_
  6
CONTINUOUS
 62
    7
 10
592.16795608343762
 20
1035.5820579970664
 11
592.16795608343762
 21
1033.3452612092597
  0
LINE
  8
_1-0_
  6
CONTINUOUS
 62
    7
 10
592.16795608343762
 20
1031.345293494265
 11
592.16795608343762
 21
1029.1085841941097
  0
LINE
  8
_1-0_
  6
CONTINUOUS
 62
    7
 10
592.16795608343762
 20
1027.1085289914636
 11
592.16795608343762
 21
1024.8718196913082
  0
LINE
  8
_1-0_
  6
CONTINUOUS
 62
    7
 10
592.16795608343762
 20
1022.8718519763136
 11
592.16795608343762
 21
1020.6350551885066
  0
LINE
  8
_1-0_
  6
CONTINUOUS
 62
    7
 10
592.16795608343762
 20
1018.635087473512
 11
592.16795608343762
 21
1016.3982906857052
  0
LINE
  8
_1-0_
  6
CONTINUOUS
 62
    7
 10
592.16795608343762
 20
1014.3983229707106
 11
592.16795608343762
 21
1012.1616136705552
  0
LINE
  8
_1-0_
  6
CONTINUOUS
 62
    7
 10
592.16795608343762
 20
1010.1615584679091
 11
592.16795608343762
 21
1007.9248491677538
  0
LINE
  8
_1-0_
  6
CONTINUOUS
 62
    7
 10
592.16795608343762
 20
1005.9247939651077
 11
592.16795608343762
 21
1003.6880846649523
  0
LINE
  8
_1-0_
  6
CONTINUOUS
 62
    7
 10
656.16797281508275
 20
1052.5290285206208
 11
656.16797281508275
 21
1050.2923192204655
  0
LINE
  8
_1-0_
  6
CONTINUOUS
 62
    7
 10
656.16797281508275
 20
1048.2922640178194
 11
656.16797281508275
 21
1046.0555547176641
  0
LINE
  8
_1-0_
  6
CONTINUOUS
 62
    7
 10
656.16797281508275
 20
1044.0554995150178
 11
656.16797281508275
 21
1041.8187902148625
  0
LINE
  8
_1-0_
  6
CONTINUOUS
 62
    7
 10
656.16797281508275
 20
1039.818822499868
 11
656.16797281508275
 21
1037.5820257120611
  0
LINE
  8
_1-0_
  6
CONTINUOUS
 62
    7
 10
656.16797281508275
 20
1035.5820579970664
 11
656.16797281508275
 21
1033.3452612092597
  0
LINE
  8
_1-0_
  6
CONTINUOUS
 62
    7
 10
656.16797281508275
 20
1031.345293494265
 11
656.16797281508275
 21
1029.1085841941097
  0
LINE
  8
_1-0_
  6
CONTINUOUS
 62
    7
 10
656.16797281508275
 20
1027.1085289914636
 11
656.16797281508275
 21
1024.8718196913082
  0
LINE
  8
_1-0_
  6
CONTINUOUS
 62
    7
 10
656.16797281508275
 20
1022.8718519763136
 11
656.16797281508275
 21
1020.6350551885066
  0
LINE
  8
_1-0_
  6
CONTINUOUS
 62
    7
 10
656.16797281508275
 20
1018.635087473512
 11
656.16797281508275
 21
1016.3982906857052
  0
LINE
  8
_1-0_
  6
CONTINUOUS
 62
    7
 10
656.16797281508275
 20
1014.3983229707106
 11
656.16797281508275
 21
1012.1616136705552
  0
LINE
  8
_1-0_
  6
CONTINUOUS
 62
    7
 10
656.16797281508275
 20
1010.1615584679091
 11
656.16797281508275
 21
1007.9248491677538
  0
LINE
  8
_1-0_
  6
CONTINUOUS
 62
    7
 10
656.16797281508275
 20
1005.9247939651077
 11
656.16797281508275
 21
1003.6880846649523
  0
LINE
  8
_1-0_
  6
CONTINUOUS
 62
    7
 10
656.16797281508275
 20
1001.6881169499577
 11
656.16797281508275
 21
998.45133630465352
  0
LINE
  8
_1-0_
  6
CONTINUOUS
 62
    7
 10
656.16797281508275
 20
998.45133630465352
 11
592.16795608343762
 21
998.45133630465352
  0
LINE
  8
_1-0_
  6
CONTINUOUS
 62
    7
 10
592.16795608343762
 20
998.45133630465352
 11
592.16795608343762
 21
1001.6881169499577
  0
LINE
  8
_1-0_
  6
CONTINUOUS
 62
    7
 10
656.16797281508275
 20
1056.2000978683411
 11
656.16797281508275
 21
1056.3369285554038
  0
LINE
  8
_1-0_
  6
CONTINUOUS
 62
    7
 10
592.16795608343762
 20
1056.2000978683411
 11
592.16795608343762
 21
1056.3369285554038
  0
LINE
  8
_1-0_
  6
CONTINUOUS
 62
    7
 10
656.16797281508275
 20
1058.3368962703985
 11
656.16797281508275
 21
1061.0024700385723
  0
LINE
  8
_1-0_
  6
CONTINUOUS
 62
    7
 10
592.16795608343762
 20
1058.3368962703985
 11
592.16795608343762
 21
1061.0024700385723
  0
LINE
  8
_1-0_
  6
CONTINUOUS
 62
    7
 10
656.16797281508275
 20
1088.2015935242405
 11
656.16797281508275
 21
1088.4513707694859
  0
LINE
  8
_1-0_
  6
CONTINUOUS
 62
    7
 10
656.16797281508275
 20
1088.4513707694859
 11
592.16795608343762
 21
1088.4513707694859
  0
LINE
  8
_1-0_
  6
CONTINUOUS
 62
    7
 10
592.16795608343762
 20
1088.4513707694859
 11
592.16795608343762
 21
1088.2015935242405
  0
LINE
  8
_1-0_
  6
CONTINUOUS
 62
    7
 10
592.16795608343762
 20
1084.1862602675742
 11
592.16795608343762
 21
1086.4229695677298
  0
LINE
  8
_1-0_
  6
CONTINUOUS
 62
    7
 10
594.17885975487911
 20
1264.1509841860031
 11
654.17885356888348
 21
1264.1509841860031
  0
LINE
  8
_1-0_
  6
CONTINUOUS
 62
    7
 10
654.17885356888348
 20
1264.1509841860031
 11
654.17885356888348
 21
1186.1510184740928
  0
LINE
  8
_1-0_
  6
CONTINUOUS
 62
    7
 10
654.17885356888348
 20
1186.1510184740928
 11
594.17885975487911
 21
1186.1510184740928
  0
LINE
  8
_1-0_
  6
CONTINUOUS
 62
    7
 10
594.17885975487911
 20
1186.1510184740928
 11
594.17885975487911
 21
1264.1509841860031
  0
LINE
  8
_1-0_
  6
CONTINUOUS
 62
    7
 10
594.18109068999411
 20
1196.0396602439143
 11
654.1811282478244
 21
1196.0396602439143
  0
LINE
  8
_1-0_
  6
CONTINUOUS
 62
    7
 10
654.1811282478244
 20
1196.0396602439143
 11
654.1811282478244
 21
1186.0396466936384
  0
LINE
  8
_1-0_
  6
CONTINUOUS
 62
    7
 10
654.1811282478244
 20
1186.0396466936384
 11
594.18109068999411
 21
1186.0396466936384
  0
LINE
  8
_1-0_
  6
CONTINUOUS
 62
    7
 10
594.18109068999411
 20
1186.0396466936384
 11
594.18109068999411
 21
1196.0396602439143
  0
LINE
  8
_1-0_
  6
CONTINUOUS
 62
    7
 10
596.16049880686876
 20
1190.27308666568
 11
596.16049880686876
 21
1196.052258465741
  0
LINE
  8
_1-0_
  6
CONTINUOUS
 62
    7
 10
596.16049880686876
 20
1196.052258465741
 11
652.16046970323248
 21
1196.052258465741
  0
LINE
  8
_1-0_
  6
CONTINUOUS
 62
    7
 10
652.16046970323248
 20
1196.052258465741
 11
652.16046970323248
 21
1190.27308666568
  0
LINE
  8
_1-0_
  6
CONTINUOUS
 62
    7
 10
600.17885038751433
 20
1193.0509945784756
 11
648.17886293624815
 21
1193.0509945784756
  0
LINE
  8
_1-0_
  6
CONTINUOUS
 62
    7
 10
648.17886293624815
 20
1193.0509945784756
 11
648.17886293624815
 21
1188.0509878033376
  0
LINE
  8
_1-0_
  6
CONTINUOUS
 62
    7
 10
648.17886293624815
 20
1188.0509878033376
 11
600.17885038751433
 21
1188.0509878033376
  0
LINE
  8
_1-0_
  6
CONTINUOUS
 62
    7
 10
600.17885038751433
 20
1188.0509878033376
 11
600.17885038751433
 21
1193.0509945784756
  0
LINE
  8
_1-1_
  6
CONTINUOUS
 62
    7
 10
590.13675527683085
 20
1088.4229372827242
 11
658.13675118229094
 21
1088.4229372827242
  0
LINE
  8
_1-1_
  6
CONTINUOUS
 62
    7
 10
658.13675118229094
 20
1088.4229372827242
 11
658.13675118229094
 21
1086.4229695677298
  0
LINE
  8
_1-1_
  6
CONTINUOUS
 62
    7
 10
658.13675118229094
 20
1086.4229695677298
 11
590.13675527683085
 21
1086.4229695677298
  0
LINE
  8
_1-1_
  6
CONTINUOUS
 62
    7
 10
590.13675527683085
 20
1086.4229695677298
 11
590.13675527683085
 21
1088.4229372827242
  0
LINE
  8
_1-1_
  6
CONTINUOUS
 62
    7
 10
590.13824256690771
 20
1084.1862602675742
 11
658.13823847236779
 21
1084.1862602675742
  0
LINE
  8
_1-1_
  6
CONTINUOUS
 62
    7
 10
658.13823847236779
 20
1084.1862602675742
 11
658.13823847236779
 21
1082.1862050649281
  0
LINE
  8
_1-1_
  6
CONTINUOUS
 62
    7
 10
658.13823847236779
 20
1082.1862050649281
 11
590.13824256690771
 21
1082.1862050649281
  0
LINE
  8
_1-1_
  6
CONTINUOUS
 62
    7
 10
590.13824256690771
 20
1082.1862050649281
 11
590.13824256690771
 21
1084.1862602675742
  0
LINE
  8
_1-1_
  6
CONTINUOUS
 62
    7
 10
590.13972985698445
 20
1079.9494957647728
 11
658.13972576244453
 21
1079.9494957647728
  0
LINE
  8
_1-1_
  6
CONTINUOUS
 62
    7
 10
658.13972576244453
 20
1079.9494957647728
 11
658.13972576244453
 21
1077.9495280497783
  0
LINE
  8
_1-1_
  6
CONTINUOUS
 62
    7
 10
658.13972576244453
 20
1077.9495280497783
 11
590.13972985698445
 21
1077.9495280497783
  0
LINE
  8
_1-1_
  6
CONTINUOUS
 62
    7
 10
590.13972985698445
 20
1077.9495280497783
 11
590.13972985698445
 21
1079.9494957647728
  0
LINE
  8
_1-1_
  6
CONTINUOUS
 62
    7
 10
590.14121714706118
 20
1075.7127312619714
 11
658.14121305252127
 21
1075.7127312619714
  0
LINE
  8
_1-1_
  6
CONTINUOUS
 62
    7
 10
658.14121305252127
 20
1075.7127312619714
 11
658.14121305252127
 21
1073.7127635469767
  0
LINE
  8
_1-1_
  6
CONTINUOUS
 62
    7
 10
658.14121305252127
 20
1073.7127635469767
 11
590.14121714706118
 21
1073.7127635469767
  0
LINE
  8
_1-1_
  6
CONTINUOUS
 62
    7
 10
590.14121714706118
 20
1073.7127635469767
 11
590.14121714706118
 21
1075.7127312619714
  0
LINE
  8
_1-1_
  6
CONTINUOUS
 62
    7
 10
590.14270443713804
 20
1071.4759667591698
 11
658.14270034259812
 21
1071.4759667591698
  0
LINE
  8
_1-1_
  6
CONTINUOUS
 62
    7
 10
658.14270034259812
 20
1071.4759667591698
 11
658.14270034259812
 21
1069.4759990441753
  0
LINE
  8
_1-1_
  6
CONTINUOUS
 62
    7
 10
658.14270034259812
 20
1069.4759990441753
 11
590.14270443713804
 21
1069.4759990441753
  0
LINE
  8
_1-1_
  6
CONTINUOUS
 62
    7
 10
590.14270443713804
 20
1069.4759990441753
 11
590.14270443713804
 21
1071.4759667591698
  0
LINE
  8
_1-1_
  6
CONTINUOUS
 62
    7
 10
590.14419172721477
 20
1067.23928974402
 11
658.14418763267486
 21
1067.23928974402
  0
LINE
  8
_1-1_
  6
CONTINUOUS
 62
    7
 10
658.14418763267486
 20
1067.23928974402
 11
658.14418763267486
 21
1065.2392345413737
  0
LINE
  8
_1-1_
  6
CONTINUOUS
 62
    7
 10
658.14418763267486
 20
1065.2392345413737
 11
590.14419172721477
 21
1065.2392345413737
  0
LINE
  8
_1-1_
  6
CONTINUOUS
 62
    7
 10
590.14419172721477
 20
1065.2392345413737
 11
590.14419172721477
 21
1067.23928974402
  0
LINE
  8
_1-1_
  6
CONTINUOUS
 62
    7
 10
590.14567901729151
 20
1063.0025252412183
 11
658.1456749227516
 21
1063.0025252412183
  0
LINE
  8
_1-1_
  6
CONTINUOUS
 62
    7
 10
658.1456749227516
 20
1063.0025252412183
 11
658.1456749227516
 21
1061.0024700385723
  0
LINE
  8
_1-1_
  6
CONTINUOUS
 62
    7
 10
658.1456749227516
 20
1061.0024700385723
 11
590.14567901729151
 21
1061.0024700385723
  0
LINE
  8
_1-1_
  6
CONTINUOUS
 62
    7
 10
590.14567901729151
 20
1061.0024700385723
 11
590.14567901729151
 21
1063.0025252412183
  0
LINE
  8
_1-1_
  6
CONTINUOUS
 62
    7
 10
658.14716221282833
 20
1058.3368962703985
 11
658.14716221282833
 21
1058.7657607384169
  0
LINE
  8
_1-1_
  6
CONTINUOUS
 62
    7
 10
658.14716221282833
 20
1058.7657607384169
 11
590.14716630736825
 21
1058.7657607384169
  0
LINE
  8
_1-1_
  6
CONTINUOUS
 62
    7
 10
590.14716630736825
 20
1058.7657607384169
 11
590.14716630736825
 21
1058.3368962703985
  0
LINE
  8
_1-1_
  6
CONTINUOUS
 62
    7
 10
658.14864950290507
 20
1054.200042665695
 11
658.14864950290507
 21
1052.5290285206208
  0
LINE
  8
_1-1_
  6
CONTINUOUS
 62
    7
 10
658.14864950290507
 20
1052.5290285206208
 11
590.14865359744499
 21
1052.5290285206208
  0
LINE
  8
_1-1_
  6
CONTINUOUS
 62
    7
 10
590.14865359744499
 20
1052.5290285206208
 11
590.14865359744499
 21
1054.200042665695
  0
LINE
  8
_1-1_
  6
CONTINUOUS
 62
    7
 10
590.15014088752184
 20
1050.2923192204655
 11
658.15013679298193
 21
1050.2923192204655
  0
LINE
  8
_1-1_
  6
CONTINUOUS
 62
    7
 10
658.15013679298193
 20
1050.2923192204655
 11
658.15013679298193
 21
1048.2922640178194
  0
LINE
  8
_1-1_
  6
CONTINUOUS
 62
    7
 10
658.15013679298193
 20
1048.2922640178194
 11
590.15014088752184
 21
1048.2922640178194
  0
LINE
  8
_1-1_
  6
CONTINUOUS
 62
    7
 10
590.15014088752184
 20
1048.2922640178194
 11
590.15014088752184
 21
1050.2923192204655
  0
LINE
  8
_1-1_
  6
CONTINUOUS
 62
    7
 10
590.15162817759858
 20
1046.0555547176641
 11
658.15162408305866
 21
1046.0555547176641
  0
LINE
  8
_1-1_
  6
CONTINUOUS
 62
    7
 10
658.15162408305866
 20
1046.0555547176641
 11
658.15162408305866
 21
1044.0554995150178
  0
LINE
  8
_1-1_
  6
CONTINUOUS
 62
    7
 10
658.15162408305866
 20
1044.0554995150178
 11
590.15162817759858
 21
1044.0554995150178
  0
LINE
  8
_1-1_
  6
CONTINUOUS
 62
    7
 10
590.15162817759858
 20
1044.0554995150178
 11
590.15162817759858
 21
1046.0555547176641
  0
LINE
  8
_1-1_
  6
CONTINUOUS
 62
    7
 10
590.15311546767532
 20
1041.8187902148625
 11
658.1531113731354
 21
1041.8187902148625
  0
LINE
  8
_1-1_
  6
CONTINUOUS
 62
    7
 10
658.1531113731354
 20
1041.8187902148625
 11
658.1531113731354
 21
1039.818822499868
  0
LINE
  8
_1-1_
  6
CONTINUOUS
 62
    7
 10
658.1531113731354
 20
1039.818822499868
 11
590.15311546767532
 21
1039.818822499868
  0
LINE
  8
_1-1_
  6
CONTINUOUS
 62
    7
 10
590.15311546767532
 20
1039.818822499868
 11
590.15311546767532
 21
1041.8187902148625
  0
LINE
  8
_1-1_
  6
CONTINUOUS
 62
    7
 10
590.15460275775217
 20
1037.5820257120611
 11
658.15459866321225
 21
1037.5820257120611
  0
LINE
  8
_1-1_
  6
CONTINUOUS
 62
    7
 10
658.15459866321225
 20
1037.5820257120611
 11
658.15459866321225
 21
1035.5820579970664
  0
LINE
  8
_1-1_
  6
CONTINUOUS
 62
    7
 10
658.15459866321225
 20
1035.5820579970664
 11
590.15460275775217
 21
1035.5820579970664
  0
LINE
  8
_1-1_
  6
CONTINUOUS
 62
    7
 10
590.15460275775217
 20
1035.5820579970664
 11
590.15460275775217
 21
1037.5820257120611
  0
LINE
  8
_1-1_
  6
CONTINUOUS
 62
    7
 10
590.15609004782891
 20
1033.3452612092597
 11
658.15608595328899
 21
1033.3452612092597
  0
LINE
  8
_1-1_
  6
CONTINUOUS
 62
    7
 10
658.15608595328899
 20
1033.3452612092597
 11
658.15608595328899
 21
1031.345293494265
  0
LINE
  8
_1-1_
  6
CONTINUOUS
 62
    7
 10
658.15608595328899
 20
1031.345293494265
 11
590.15609004782891
 21
1031.345293494265
  0
LINE
  8
_1-1_
  6
CONTINUOUS
 62
    7
 10
590.15609004782891
 20
1031.345293494265
 11
590.15609004782891
 21
1033.3452612092597
  0
LINE
  8
_1-1_
  6
CONTINUOUS
 62
    7
 10
590.15757733790565
 20
1029.1085841941097
 11
658.15757324336573
 21
1029.1085841941097
  0
LINE
  8
_1-1_
  6
CONTINUOUS
 62
    7
 10
658.15757324336573
 20
1029.1085841941097
 11
658.15757324336573
 21
1027.1085289914636
  0
LINE
  8
_1-1_
  6
CONTINUOUS
 62
    7
 10
658.15757324336573
 20
1027.1085289914636
 11
590.15757733790565
 21
1027.1085289914636
  0
LINE
  8
_1-1_
  6
CONTINUOUS
 62
    7
 10
590.15757733790565
 20
1027.1085289914636
 11
590.15757733790565
 21
1029.1085841941097
  0
LINE
  8
_1-1_
  6
CONTINUOUS
 62
    7
 10
590.15906462798239
 20
1024.8718196913082
 11
658.15906053344247
 21
1024.8718196913082
  0
LINE
  8
_1-1_
  6
CONTINUOUS
 62
    7
 10
658.15906053344247
 20
1024.8718196913082
 11
658.15906053344247
 21
1022.8718519763136
  0
LINE
  8
_1-1_
  6
CONTINUOUS
 62
    7
 10
658.15906053344247
 20
1022.8718519763136
 11
590.15906462798239
 21
1022.8718519763136
  0
LINE
  8
_1-1_
  6
CONTINUOUS
 62
    7
 10
590.15906462798239
 20
1022.8718519763136
 11
590.15906462798239
 21
1024.8718196913082
  0
LINE
  8
_1-1_
  6
CONTINUOUS
 62
    7
 10
590.16055191805913
 20
1020.6350551885066
 11
658.16054782351921
 21
1020.6350551885066
  0
LINE
  8
_1-1_
  6
CONTINUOUS
 62
    7
 10
658.16054782351921
 20
1020.6350551885066
 11
658.16054782351921
 21
1018.635087473512
  0
LINE
  8
_1-1_
  6
CONTINUOUS
 62
    7
 10
658.16054782351921
 20
1018.635087473512
 11
590.16055191805913
 21
1018.635087473512
  0
LINE
  8
_1-1_
  6
CONTINUOUS
 62
    7
 10
590.16055191805913
 20
1018.635087473512
 11
590.16055191805913
 21
1020.6350551885066
  0
LINE
  8
_1-1_
  6
CONTINUOUS
 62
    7
 10
590.16203920813598
 20
1016.3982906857052
 11
658.16203511359606
 21
1016.3982906857052
  0
LINE
  8
_1-1_
  6
CONTINUOUS
 62
    7
 10
658.16203511359606
 20
1016.3982906857052
 11
658.16203511359606
 21
1014.3983229707106
  0
LINE
  8
_1-1_
  6
CONTINUOUS
 62
    7
 10
658.16203511359606
 20
1014.3983229707106
 11
590.16203920813598
 21
1014.3983229707106
  0
LINE
  8
_1-1_
  6
CONTINUOUS
 62
    7
 10
590.16203920813598
 20
1014.3983229707106
 11
590.16203920813598
 21
1016.3982906857052
  0
LINE
  8
_1-1_
  6
CONTINUOUS
 62
    7
 10
590.16348275438702
 20
1012.1616136705552
 11
658.1635224036728
 21
1012.1616136705552
  0
LINE
  8
_1-1_
  6
CONTINUOUS
 62
    7
 10
658.1635224036728
 20
1012.1616136705552
 11
658.1635224036728
 21
1010.1615584679091
  0
LINE
  8
_1-1_
  6
CONTINUOUS
 62
    7
 10
658.1635224036728
 20
1010.1615584679091
 11
590.16348275438702
 21
1010.1615584679091
  0
LINE
  8
_1-1_
  6
CONTINUOUS
 62
    7
 10
590.16348275438702
 20
1010.1615584679091
 11
590.16348275438702
 21
1012.1616136705552
  0
LINE
  8
_1-1_
  6
CONTINUOUS
 62
    7
 10
590.16497004446364
 20
1007.9248491677538
 11
658.16500969374954
 21
1007.9248491677538
  0
LINE
  8
_1-1_
  6
CONTINUOUS
 62
    7
 10
658.16500969374954
 20
1007.9248491677538
 11
658.16500969374954
 21
1005.9247939651077
  0
LINE
  8
_1-1_
  6
CONTINUOUS
 62
    7
 10
658.16500969374954
 20
1005.9247939651077
 11
590.16497004446364
 21
1005.9247939651077
  0
LINE
  8
_1-1_
  6
CONTINUOUS
 62
    7
 10
590.16497004446364
 20
1005.9247939651077
 11
590.16497004446364
 21
1007.9248491677538
  0
LINE
  8
_1-1_
  6
CONTINUOUS
 62
    7
 10
590.16645733454061
 20
1003.6880846649523
 11
658.16649698382639
 21
1003.6880846649523
  0
LINE
  8
_1-1_
  6
CONTINUOUS
 62
    7
 10
658.16649698382639
 20
1003.6880846649523
 11
658.16649698382639
 21
1001.6881169499577
  0
LINE
  8
_1-1_
  6
CONTINUOUS
 62
    7
 10
658.16649698382639
 20
1001.6881169499577
 11
590.16645733454061
 21
1001.6881169499577
  0
LINE
  8
_1-1_
  6
CONTINUOUS
 62
    7
 10
590.16645733454061
 20
1001.6881169499577
 11
590.16645733454061
 21
1003.6880846649523
  0
LINE
  8
_1-1_
  6
CONTINUOUS
 62
    7
 10
590.13675527683085
 20
1088.4229372827242
 11
658.13675118229094
 21
1088.4229372827242
  0
LINE
  8
_1-1_
  6
CONTINUOUS
 62
    7
 10
658.13675118229094
 20
1088.4229372827242
 11
658.13675118229094
 21
1086.4229695677298
  0
LINE
  8
_1-1_
  6
CONTINUOUS
 62
    7
 10
658.13675118229094
 20
1086.4229695677298
 11
590.13675527683085
 21
1086.4229695677298
  0
LINE
  8
_1-1_
  6
CONTINUOUS
 62
    7
 10
590.13675527683085
 20
1086.4229695677298
 11
590.13675527683085
 21
1088.4229372827242
  0
LINE
  8
_1-1_
  6
CONTINUOUS
 62
    7
 10
572.1637733194359
 20
1046.5625456585385
 11
676.16380050835915
 21
1046.5625456585385
  0
LINE
  8
_1-1_
  6
CONTINUOUS
 62
    7
 10
676.16380050835915
 20
1046.5625456585385
 11
676.16380050835915
 21
1034.5625643932681
  0
LINE
  8
_1-1_
  6
CONTINUOUS
 62
    7
 10
676.16380050835915
 20
1034.5625643932681
 11
572.1637733194359
 21
1034.5625643932681
  0
LINE
  8
_1-1_
  6
CONTINUOUS
 62
    7
 10
572.1637733194359
 20
1034.5625643932681
 11
572.1637733194359
 21
1046.5625456585385
  0
LINE
  8
_1-1_
  6
CONTINUOUS
 62
    7
 10
664.15835126486513
 20
1046.5625456585385
 11
676.15833253013579
 21
1046.5625456585385
  0
LINE
  8
_1-1_
  6
CONTINUOUS
 62
    7
 10
676.15833253013579
 20
1046.5625456585385
 11
676.15833253013579
 21
1034.5625643932681
  0
LINE
  8
_1-1_
  6
CONTINUOUS
 62
    7
 10
676.15833253013579
 20
1034.5625643932681
 11
664.15835126486513
 21
1034.5625643932681
  0
LINE
  8
_1-1_
  6
CONTINUOUS
 62
    7
 10
664.15835126486513
 20
1034.5625643932681
 11
664.15835126486513
 21
1046.5625456585385
  0
LINE
  8
_1-1_
  6
CONTINUOUS
 62
    7
 10
572.15366849567886
 20
1046.5644703868734
 11
584.15369350477533
 21
1046.5644703868734
  0
LINE
  8
_1-1_
  6
CONTINUOUS
 62
    7
 10
584.15369350477533
 20
1046.5644703868734
 11
584.15369350477533
 21
1034.5644891216027
  0
LINE
  8
_1-1_
  6
CONTINUOUS
 62
    7
 10
584.15369350477533
 20
1034.5644891216027
 11
572.15366849567886
 21
1034.5644891216027
  0
LINE
  8
_1-1_
  6
CONTINUOUS
 62
    7
 10
572.15366849567886
 20
1034.5644891216027
 11
572.15366849567886
 21
1046.5644703868734
  0
LINE
  8
_1-0_
  6
CONTINUOUS
 62
    7
 10
572.67220780656146
 20
1058.3368962703985
 11
674.67217979283862
 21
1058.3368962703985
  0
LINE
  8
_1-0_
  6
CONTINUOUS
 62
    7
 10
674.67217979283862
 20
1058.3368962703985
 11
674.67217979283862
 21
1056.3369285554038
  0
LINE
  8
_1-0_
  6
CONTINUOUS
 62
    7
 10
674.67217979283862
 20
1056.3369285554038
 11
572.67220780656146
 21
1056.3369285554038
  0
LINE
  8
_1-0_
  6
CONTINUOUS
 62
    7
 10
572.67220780656146
 20
1056.3369285554038
 11
572.67220780656146
 21
1058.3368962703985
  0
LINE
  8
_1-0_
  6
CONTINUOUS
 62
    7
 10
572.15121884143491
 20
1056.2000978683411
 11
676.15120228653245
 21
1056.2000978683411
  0
LINE
  8
_1-0_
  6
CONTINUOUS
 62
    7
 10
676.15120228653245
 20
1056.2000978683411
 11
676.15120228653245
 21
1054.200042665695
  0
LINE
  8
_1-0_
  6
CONTINUOUS
 62
    7
 10
676.15120228653245
 20
1054.200042665695
 11
572.15121884143491
 21
1054.200042665695
  0
LINE
  8
_1-0_
  6
CONTINUOUS
 62
    7
 10
572.15121884143491
 20
1054.200042665695
 11
572.15121884143491
 21
1056.2000978683411
  0
LINE
  8
_1-0_
  6
CONTINUOUS
 62
    7
 10
597.16280108713272
 20
998.46953373618112
 11
621.16280736149974
 21
998.46953373618112
  0
LINE
  8
_1-0_
  6
CONTINUOUS
 62
    7
 10
621.16280736149974
 20
998.46953373618112
 11
621.16280736149974
 21
995.46958216368921
  0
LINE
  8
_1-0_
  6
CONTINUOUS
 62
    7
 10
621.16280736149974
 20
995.46958216368921
 11
597.16280108713272
 21
995.46958216368921
  0
LINE
  8
_1-0_
  6
CONTINUOUS
 62
    7
 10
597.16280108713272
 20
995.46958216368921
 11
597.16280108713272
 21
998.46953373618112
  0
LINE
  8
_1-0_
  6
CONTINUOUS
 62
    7
 10
627.23178200740153
 20
998.44573709495285
 11
651.23178828176844
 21
998.44573709495285
  0
LINE
  8
_1-0_
  6
CONTINUOUS
 62
    7
 10
651.23178828176844
 20
998.44573709495285
 11
651.23178828176844
 21
995.44578552246094
  0
LINE
  8
_1-0_
  6
CONTINUOUS
 62
    7
 10
651.23178828176844
 20
995.44578552246094
 11
627.23178200740153
 21
995.44578552246094
  0
LINE
  8
_1-0_
  6
CONTINUOUS
 62
    7
 10
627.23178200740153
 20
995.44578552246094
 11
627.23178200740153
 21
998.44573709495285
  0
LINE
  8
_1-0_
  6
CONTINUOUS
 62
    7
 10
636.05998595248775
 20
1380.4584679916559
 11
636.05998595248775
 21
1367.745724829007
  0
LINE
  8
_1-0_
  6
CONTINUOUS
 62
    7
 10
636.05998595248775
 20
1351.7457206460961
 11
636.05998595248775
 21
1340.4585012782034
  0
LINE
  8
_1-0_
  6
CONTINUOUS
 62
    7
 10
612.48092651367187
 20
1380.4584679916559
 11
612.48092651367187
 21
1367.745724829007
  0
LINE
  8
_1-0_
  6
CONTINUOUS
 62
    7
 10
612.48092651367187
 20
1351.7457206460961
 11
612.48092651367187
 21
1340.4585012782034
  0
LINE
  8
_1-0_
  6
CONTINUOUS
 62
    7
 10
609.24488951340606
 20
1367.745724829007
 11
639.24493016423412
 21
1367.745724829007
  0
LINE
  8
_1-0_
  6
CONTINUOUS
 62
    7
 10
639.24493016423412
 20
1367.745724829007
 11
639.24493016423412
 21
1351.7457206460961
  0
LINE
  8
_1-0_
  6
CONTINUOUS
 62
    7
 10
639.24493016423412
 20
1351.7457206460961
 11
609.24488951340606
 21
1351.7457206460961
  0
LINE
  8
_1-0_
  6
CONTINUOUS
 62
    7
 10
609.24488951340606
 20
1351.7457206460961
 11
609.24488951340606
 21
1367.745724829007
  0
LINE
  8
_1-0_
  6
CONTINUOUS
 62
    7
 10
654.17885356888348
 20
1264.1509841860031
 11
662.78418272158342
 21
1264.1509841860031
  0
LINE
  8
_1-0_
  6
CONTINUOUS
 62
    7
 10
654.1811282478244
 20
1196.0396602439143
 11
662.78418272158342
 21
1196.0396602439143
  0
LINE
  8
_1-0_
  6
CONTINUOUS
 62
    7
 10
654.1811282478244
 20
1186.0396466936384
 11
662.78418272158342
 21
1186.0396466936384
  0
LINE
  8
_1-0_
  6
CONTINUOUS
 62
    7
 10
511.15360333652575
 20
626.71643599580148
 11
507.15358041888493
 21
622.71645682198664
  0
LINE
  8
_1-0_
  6
CONTINUOUS
 62
    7
 10
507.15358041888493
 20
622.71645682198664
 11
507.15358041888493
 21
604.71644118025495
  0
LINE
  8
_1-0_
  6
CONTINUOUS
 62
    7
 10
507.15358041888493
 20
604.71644118025495
 11
511.15360333652575
 21
600.71646200644
  0
LINE
  8
_1-0_
  6
CONTINUOUS
 62
    7
 10
511.15360333652575
 20
600.71646200644
 11
556.15357682511615
 21
600.71646200644
  0
LINE
  8
_1-0_
  6
CONTINUOUS
 62
    7
 10
556.15357682511615
 20
600.71646200644
 11
560.1535997427568
 21
604.71644118025495
  0
LINE
  8
_1-0_
  6
CONTINUOUS
 62
    7
 10
560.1535997427568
 20
604.71644118025495
 11
560.1535997427568
 21
613.7164708730337
  0
LINE
  8
_1-0_
  6
CONTINUOUS
 62
    7
 10
560.1535997427568
 20
613.7164708730337
 11
560.1535997427568
 21
622.71645682198664
  0
LINE
  8
_1-0_
  6
CONTINUOUS
 62
    7
 10
560.1535997427568
 20
622.71645682198664
 11
556.15357682511615
 21
626.71643599580148
  0
LINE
  8
_1-0_
  6
CONTINUOUS
 62
    7
 10
556.15357682511615
 20
626.71643599580148
 11
511.15360333652575
 21
626.71643599580148
  0
LINE
  8
_1-0_
  6
CONTINUOUS
 62
    7
 10
520.40358524985299
 20
604.71644118025495
 11
520.40358524985299
 21
622.71645682198664
  0
LINE
  8
_1-0_
  6
CONTINUOUS
 62
    7
 10
546.90359491178879
 20
604.71644118025495
 11
546.90359491178879
 21
622.71645682198664
  0
LINE
  8
_1-0_
  6
CONTINUOUS
 62
    7
 10
521.65360881555034
 20
626.71643599580148
 11
545.65361508991714
 21
626.71643599580148
  0
LINE
  8
_1-0_
  6
CONTINUOUS
 62
    7
 10
521.65360881555034
 20
633.6449768184234
 11
521.65360881555034
 21
634.33127370120008
  0
LINE
  8
_1-0_
  6
CONTINUOUS
 62
    7
 10
545.65361508991714
 20
633.6449768184234
 11
545.65361508991714
 21
634.33127370120008
  0
LINE
  8
_1-0_
  6
CONTINUOUS
 62
    7
 10
520.65358121422719
 20
656.71643290280372
 11
546.65359894741437
 21
656.71643290280372
  0
LINE
  8
_1-0_
  6
CONTINUOUS
 62
    7
 10
521.65360881555034
 20
646.61357761810177
 11
521.65360881555034
 21
645.10161602359017
  0
LINE
  8
_1-0_
  6
CONTINUOUS
 62
    7
 10
545.65361508991714
 20
646.71646309635344
 11
545.65361508991714
 21
645.10161602359017
  0
LINE
  8
_1-0_
  6
CONTINUOUS
 62
    7
 10
546.65359894741437
 20
656.71643290280372
 11
546.65359894741437
 21
653.71643758648599
  0
LINE
  8
_1-0_
  6
CONTINUOUS
 62
    7
 10
520.65358121422719
 20
656.71643290280372
 11
520.65358121422719
 21
653.71643758648599
  0
LINE
  8
_1-0_
  6
CONTINUOUS
 62
    7
 10
596.82019944356682
 20
910.48731446726435
 11
620.82020571793362
 21
910.48731446726435
  0
LINE
  8
_1-0_
  6
CONTINUOUS
 62
    7
 10
596.82019944356682
 20
903.55881738846824
 11
596.82019944356682
 21
902.87256424951738
  0
LINE
  8
_1-0_
  6
CONTINUOUS
 62
    7
 10
620.82020571793362
 20
903.55881738846824
 11
620.82020571793362
 21
902.87256424951738
  0
LINE
  8
_1-0_
  6
CONTINUOUS
 62
    7
 10
595.82021558606948
 20
880.48736130408793
 11
621.82018957543096
 21
880.48736130408793
  0
LINE
  8
_1-0_
  6
CONTINUOUS
 62
    7
 10
596.82019944356682
 20
890.59026033261557
 11
596.82019944356682
 21
892.10222192712718
  0
LINE
  8
_1-0_
  6
CONTINUOUS
 62
    7
 10
620.82020571793362
 20
890.48737485436391
 11
620.82020571793362
 21
892.10222192712718
  0
LINE
  8
_1-0_
  6
CONTINUOUS
 62
    7
 10
621.82018957543096
 20
880.48736130408793
 11
621.82018957543096
 21
883.48731287657984
  0
LINE
  8
_1-0_
  6
CONTINUOUS
 62
    7
 10
595.82021558606948
 20
880.48736130408793
 11
595.82021558606948
 21
883.48731287657984
  0
LINE
  8
_1-0_
  6
CONTINUOUS
 62
    7
 10
596.32020751481809
 20
918.48736030254588
 11
598.32021897363848
 21
920.48732801754045
  0
LINE
  8
_1-0_
  6
CONTINUOUS
 62
    7
 10
598.32021897363848
 20
920.48732801754045
 11
619.32018618786196
 21
920.48732801754045
  0
LINE
  8
_1-0_
  6
CONTINUOUS
 62
    7
 10
619.32018618786196
 20
920.48732801754045
 11
621.32019764668235
 21
918.48736030254588
  0
LINE
  8
_1-0_
  6
CONTINUOUS
 62
    7
 10
621.32019764668235
 20
918.48736030254588
 11
621.32019764668235
 21
912.48736966991044
  0
LINE
  8
_1-0_
  6
CONTINUOUS
 62
    7
 10
621.32019764668235
 20
912.48736966991044
 11
619.32018618786196
 21
910.48731446726435
  0
LINE
  8
_1-0_
  6
CONTINUOUS
 62
    7
 10
619.32018618786196
 20
910.48731446726435
 11
598.32021897363848
 21
910.48731446726435
  0
LINE
  8
_1-0_
  6
CONTINUOUS
 62
    7
 10
598.32021897363848
 20
910.48731446726435
 11
596.32020751481809
 21
912.48736966991044
  0
LINE
  8
_1-0_
  6
CONTINUOUS
 62
    7
 10
596.32020751481809
 20
912.48736966991044
 11
596.32020751481809
 21
918.48736030254588
  0
LINE
  8
_1-0_
  6
CONTINUOUS
 62
    7
 10
602.57019411182773
 20
918.48736030254588
 11
602.57019411182773
 21
912.48736966991044
  0
LINE
  8
_1-0_
  6
CONTINUOUS
 62
    7
 10
615.07021104967271
 20
918.48736030254588
 11
615.07021104967271
 21
912.48736966991044
  0
LINE
  8
_1-0_
  6
CONTINUOUS
 62
    7
 10
598.32021897363848
 20
930.48734156781632
 11
619.32018618786196
 21
930.48734156781632
  0
LINE
  8
_1-0_
  6
CONTINUOUS
 62
    7
 10
619.32018618786196
 20
930.48734156781632
 11
619.32018618786196
 21
920.48732801754045
  0
LINE
  8
_1-0_
  6
CONTINUOUS
 62
    7
 10
619.32018618786196
 20
920.48732801754045
 11
598.32021897363848
 21
920.48732801754045
  0
LINE
  8
_1-0_
  6
CONTINUOUS
 62
    7
 10
598.32021897363848
 20
920.48732801754045
 11
598.32021897363848
 21
930.48734156781632
  0
LINE
  8
_1-0_
  6
CONTINUOUS
 62
    7
 10
620.82020571793362
 20
932.48739677046251
 11
620.78175489506657
 21
932.09720184443995
  0
LINE
  8
_1-0_
  6
CONTINUOUS
 62
    7
 10
620.78175489506657
 20
932.09720184443995
 11
620.6679772041939
 21
931.72196730683663
  0
LINE
  8
_1-0_
  6
CONTINUOUS
 62
    7
 10
620.6679772041939
 20
931.72196730683663
 11
620.48315954024258
 21
931.37621610781389
  0
LINE
  8
_1-0_
  6
CONTINUOUS
 62
    7
 10
620.48315954024258
 20
931.37621610781389
 11
620.23443214681606
 21
931.07315888275957
  0
LINE
  8
_1-0_
  6
CONTINUOUS
 62
    7
 10
620.23443214681606
 20
931.07315888275957
 11
619.93133117793604
 21
930.82443148933316
  0
LINE
  8
_1-0_
  6
CONTINUOUS
 62
    7
 10
619.93133117793604
 20
930.82443148933316
 11
619.58557997891353
 21
930.63957008155614
  0
LINE
  8
_1-0_
  6
CONTINUOUS
 62
    7
 10
619.58557997891353
 20
930.63957008155614
 11
619.21038918513591
 21
930.52574864685766
  0
LINE
  8
_1-0_
  6
CONTINUOUS
 62
    7
 10
619.21038918513591
 20
930.52574864685766
 11
618.82019425911324
 21
930.48734156781632
  0
LINE
  8
_1-0_
  6
CONTINUOUS
 62
    7
 10
618.82019425911324
 20
930.48734156781632
 11
598.82021090238709
 21
930.48734156781632
  0
LINE
  8
_1-0_
  6
CONTINUOUS
 62
    7
 10
598.82021090238709
 20
930.48734156781632
 11
598.43001597636453
 21
930.52574864685766
  0
LINE
  8
_1-0_
  6
CONTINUOUS
 62
    7
 10
598.43001597636453
 20
930.52574864685766
 11
598.05482518258702
 21
930.63957008155614
  0
LINE
  8
_1-0_
  6
CONTINUOUS
 62
    7
 10
598.05482518258702
 20
930.63957008155614
 11
597.70907398356428
 21
930.82443148933316
  0
LINE
  8
_1-0_
  6
CONTINUOUS
 62
    7
 10
597.70907398356428
 20
930.82443148933316
 11
597.40597301468426
 21
931.07315888275957
  0
LINE
  8
_1-0_
  6
CONTINUOUS
 62
    7
 10
597.40597301468426
 20
931.07315888275957
 11
597.15724562125774
 21
931.37621610781389
  0
LINE
  8
_1-0_
  6
CONTINUOUS
 62
    7
 10
597.15724562125774
 20
931.37621610781389
 11
596.97242795730642
 21
931.72196730683663
  0
LINE
  8
_1-0_
  6
CONTINUOUS
 62
    7
 10
596.97242795730642
 20
931.72196730683663
 11
596.85865026643364
 21
932.09720184443995
  0
LINE
  8
_1-0_
  6
CONTINUOUS
 62
    7
 10
596.85865026643364
 20
932.09720184443995
 11
596.82019944356682
 21
932.48739677046251
  0
LINE
  8
_1-0_
  6
CONTINUOUS
 62
    7
 10
596.82019944356682
 20
932.48739677046251
 11
596.85865026643364
 21
932.87750420883356
  0
LINE
  8
_1-0_
  6
CONTINUOUS
 62
    7
 10
596.85865026643364
 20
932.87750420883356
 11
596.97242795730642
 21
933.25273874643688
  0
LINE
  8
_1-0_
  6
CONTINUOUS
 62
    7
 10
596.97242795730642
 20
933.25273874643688
 11
597.15724562125774
 21
933.59848994545951
  0
LINE
  8
_1-0_
  6
CONTINUOUS
 62
    7
 10
597.15724562125774
 20
933.59848994545951
 11
597.40597301468426
 21
933.90154717051371
  0
LINE
  8
_1-0_
  6
CONTINUOUS
 62
    7
 10
597.40597301468426
 20
933.90154717051371
 11
597.70907398356428
 21
934.15027456394023
  0
LINE
  8
_1-0_
  6
CONTINUOUS
 62
    7
 10
597.70907398356428
 20
934.15027456394023
 11
598.05482518258702
 21
934.33513597171736
  0
LINE
  8
_1-0_
  6
CONTINUOUS
 62
    7
 10
598.05482518258702
 20
934.33513597171736
 11
598.43001597636453
 21
934.44895740641584
  0
LINE
  8
_1-0_
  6
CONTINUOUS
 62
    7
 10
598.43001597636453
 20
934.44895740641584
 11
598.82021090238709
 21
934.48736448545696
  0
LINE
  8
_1-0_
  6
CONTINUOUS
 62
    7
 10
598.82021090238709
 20
934.48736448545696
 11
608.82022445266307
 21
934.48736448545696
  0
LINE
  8
_1-0_
  6
CONTINUOUS
 62
    7
 10
608.82022445266307
 20
934.48736448545696
 11
618.82019425911324
 21
934.48736448545696
  0
LINE
  8
_1-0_
  6
CONTINUOUS
 62
    7
 10
618.82019425911324
 20
934.48736448545696
 11
619.21038918513591
 21
934.44895740641584
  0
LINE
  8
_1-0_
  6
CONTINUOUS
 62
    7
 10
619.21038918513591
 20
934.44895740641584
 11
619.58557997891353
 21
934.33513597171736
  0
LINE
  8
_1-0_
  6
CONTINUOUS
 62
    7
 10
619.58557997891353
 20
934.33513597171736
 11
619.93133117793604
 21
934.15027456394023
  0
LINE
  8
_1-0_
  6
CONTINUOUS
 62
    7
 10
619.93133117793604
 20
934.15027456394023
 11
620.23443214681606
 21
933.90154717051371
  0
LINE
  8
_1-0_
  6
CONTINUOUS
 62
    7
 10
620.23443214681606
 20
933.90154717051371
 11
620.48315954024258
 21
933.59848994545951
  0
LINE
  8
_1-0_
  6
CONTINUOUS
 62
    7
 10
620.48315954024258
 20
933.59848994545951
 11
620.6679772041939
 21
933.25273874643688
  0
LINE
  8
_1-0_
  6
CONTINUOUS
 62
    7
 10
620.6679772041939
 20
933.25273874643688
 11
620.78175489506657
 21
932.87750420883356
  0
LINE
  8
_1-0_
  6
CONTINUOUS
 62
    7
 10
620.78175489506657
 20
932.87750420883356
 11
620.82020571793362
 21
932.48739677046251
  0
LINE
  8
_1-0_
  6
CONTINUOUS
 62
    7
 10
598.32021897363848
 20
937.48731605794887
 11
619.32018618786196
 21
937.48731605794887
  0
LINE
  8
_1-0_
  6
CONTINUOUS
 62
    7
 10
619.32018618786196
 20
937.48731605794887
 11
619.32018618786196
 21
934.48736448545696
  0
LINE
  8
_1-0_
  6
CONTINUOUS
 62
    7
 10
619.32018618786196
 20
934.48736448545696
 11
598.32021897363848
 21
934.48736448545696
  0
LINE
  8
_1-0_
  6
CONTINUOUS
 62
    7
 10
598.32021897363848
 20
934.48736448545696
 11
598.32021897363848
 21
937.48731605794887
  0
LINE
  8
_1-0_
  6
CONTINUOUS
 62
    7
 10
596.82019944356682
 20
940.48735511809241
 11
596.82019944356682
 21
941.48733897558964
  0
LINE
  8
_1-0_
  6
CONTINUOUS
 62
    7
 10
596.82019944356682
 20
941.48733897558964
 11
596.85865026643364
 21
941.8775339016122
  0
LINE
  8
_1-0_
  6
CONTINUOUS
 62
    7
 10
596.85865026643364
 20
941.8775339016122
 11
596.97242795730642
 21
942.25268095156389
  0
LINE
  8
_1-0_
  6
CONTINUOUS
 62
    7
 10
596.97242795730642
 20
942.25268095156389
 11
597.15724562125774
 21
942.59851963823826
  0
LINE
  8
_1-0_
  6
CONTINUOUS
 62
    7
 10
597.15724562125774
 20
942.59851963823826
 11
597.40597301468426
 21
942.90157686329258
  0
LINE
  8
_1-0_
  6
CONTINUOUS
 62
    7
 10
597.40597301468426
 20
942.90157686329258
 11
597.70907398356428
 21
943.15030425671898
  0
LINE
  8
_1-0_
  6
CONTINUOUS
 62
    7
 10
597.70907398356428
 20
943.15030425671898
 11
598.05482518258702
 21
943.33507817684449
  0
LINE
  8
_1-0_
  6
CONTINUOUS
 62
    7
 10
598.05482518258702
 20
943.33507817684449
 11
598.43001597636453
 21
943.44889961154297
  0
LINE
  8
_1-0_
  6
CONTINUOUS
 62
    7
 10
598.43001597636453
 20
943.44889961154297
 11
598.82021090238709
 21
943.48739417823583
  0
LINE
  8
_1-0_
  6
CONTINUOUS
 62
    7
 10
598.82021090238709
 20
943.48739417823583
 11
608.82022445266307
 21
943.48739417823583
  0
LINE
  8
_1-0_
  6
CONTINUOUS
 62
    7
 10
608.82022445266307
 20
943.48739417823583
 11
618.82019425911324
 21
943.48739417823583
  0
LINE
  8
_1-0_
  6
CONTINUOUS
 62
    7
 10
618.82019425911324
 20
943.48739417823583
 11
619.21038918513591
 21
943.44889961154297
  0
LINE
  8
_1-0_
  6
CONTINUOUS
 62
    7
 10
619.21038918513591
 20
943.44889961154297
 11
619.58557997891353
 21
943.33507817684449
  0
LINE
  8
_1-0_
  6
CONTINUOUS
 62
    7
 10
619.58557997891353
 20
943.33507817684449
 11
619.93133117793604
 21
943.15030425671898
  0
LINE
  8
_1-0_
  6
CONTINUOUS
 62
    7
 10
619.93133117793604
 20
943.15030425671898
 11
620.23443214681606
 21
942.90157686329258
  0
LINE
  8
_1-0_
  6
CONTINUOUS
 62
    7
 10
620.23443214681606
 20
942.90157686329258
 11
620.48315954024258
 21
942.59851963823826
  0
LINE
  8
_1-0_
  6
CONTINUOUS
 62
    7
 10
620.48315954024258
 20
942.59851963823826
 11
620.6679772041939
 21
942.25268095156389
  0
LINE
  8
_1-0_
  6
CONTINUOUS
 62
    7
 10
620.6679772041939
 20
942.25268095156389
 11
620.78175489506657
 21
941.8775339016122
  0
LINE
  8
_1-0_
  6
CONTINUOUS
 62
    7
 10
620.78175489506657
 20
941.8775339016122
 11
620.82020571793362
 21
941.48733897558964
  0
LINE
  8
_1-0_
  6
CONTINUOUS
 62
    7
 10
620.82020571793362
 20
941.48733897558964
 11
620.82020571793362
 21
940.48735511809241
  0
LINE
  8
_1-0_
  6
CONTINUOUS
 62
    7
 10
620.82020571793362
 20
940.48735511809241
 11
620.82020571793362
 21
939.48737126059518
  0
LINE
  8
_1-0_
  6
CONTINUOUS
 62
    7
 10
620.82020571793362
 20
939.48737126059518
 11
620.78175489506657
 21
939.09717633457251
  0
LINE
  8
_1-0_
  6
CONTINUOUS
 62
    7
 10
620.78175489506657
 20
939.09717633457251
 11
620.6679772041939
 21
938.7220292846207
  0
LINE
  8
_1-0_
  6
CONTINUOUS
 62
    7
 10
620.6679772041939
 20
938.7220292846207
 11
620.48315954024258
 21
938.37619059794645
  0
LINE
  8
_1-0_
  6
CONTINUOUS
 62
    7
 10
620.48315954024258
 20
938.37619059794645
 11
620.23443214681606
 21
938.07313337289213
  0
LINE
  8
_1-0_
  6
CONTINUOUS
 62
    7
 10
620.23443214681606
 20
938.07313337289213
 11
619.93133117793604
 21
937.82440597946572
  0
LINE
  8
_1-0_
  6
CONTINUOUS
 62
    7
 10
619.93133117793604
 20
937.82440597946572
 11
619.58557997891353
 21
937.63963205934022
  0
LINE
  8
_1-0_
  6
CONTINUOUS
 62
    7
 10
619.58557997891353
 20
937.63963205934022
 11
619.21038918513591
 21
937.52581062464174
  0
LINE
  8
_1-0_
  6
CONTINUOUS
 62
    7
 10
619.21038918513591
 20
937.52581062464174
 11
618.82019425911324
 21
937.48731605794887
  0
LINE
  8
_1-0_
  6
CONTINUOUS
 62
    7
 10
618.82019425911324
 20
937.48731605794887
 11
608.82022445266307
 21
937.48731605794887
  0
LINE
  8
_1-0_
  6
CONTINUOUS
 62
    7
 10
608.82022445266307
 20
937.48731605794887
 11
598.82021090238709
 21
937.48731605794887
  0
LINE
  8
_1-0_
  6
CONTINUOUS
 62
    7
 10
598.82021090238709
 20
937.48731605794887
 11
598.43001597636453
 21
937.52581062464174
  0
LINE
  8
_1-0_
  6
CONTINUOUS
 62
    7
 10
598.43001597636453
 20
937.52581062464174
 11
598.05482518258702
 21
937.63963205934022
  0
LINE
  8
_1-0_
  6
CONTINUOUS
 62
    7
 10
598.05482518258702
 20
937.63963205934022
 11
597.70907398356428
 21
937.82440597946572
  0
LINE
  8
_1-0_
  6
CONTINUOUS
 62
    7
 10
597.70907398356428
 20
937.82440597946572
 11
597.40597301468426
 21
938.07313337289213
  0
LINE
  8
_1-0_
  6
CONTINUOUS
 62
    7
 10
597.40597301468426
 20
938.07313337289213
 11
597.15724562125774
 21
938.37619059794645
  0
LINE
  8
_1-0_
  6
CONTINUOUS
 62
    7
 10
597.15724562125774
 20
938.37619059794645
 11
596.97242795730642
 21
938.7220292846207
  0
LINE
  8
_1-0_
  6
CONTINUOUS
 62
    7
 10
596.97242795730642
 20
938.7220292846207
 11
596.85865026643364
 21
939.09717633457251
  0
LINE
  8
_1-0_
  6
CONTINUOUS
 62
    7
 10
596.85865026643364
 20
939.09717633457251
 11
596.82019944356682
 21
939.48737126059518
  0
LINE
  8
_1-0_
  6
CONTINUOUS
 62
    7
 10
596.82019944356682
 20
939.48737126059518
 11
596.82019944356682
 21
940.48735511809241
  0
LINE
  8
_1-0_
  6
CONTINUOUS
 62
    7
 10
616.82022654411867
 20
951.48735252586562
 11
616.82022654411867
 21
949.48738481087105
  0
LINE
  8
_1-0_
  6
CONTINUOUS
 62
    7
 10
616.82022654411867
 20
947.48732960822497
 11
616.82022654411867
 21
945.4873618932304
  0
LINE
  8
_1-0_
  6
CONTINUOUS
 62
    7
 10
609.16282609622897
 20
943.48739417823583
 11
608.82022445266307
 21
943.48739417823583
  0
LINE
  8
_1-0_
  6
CONTINUOUS
 62
    7
 10
600.82022236120736
 20
945.4873618932304
 11
600.82022236120736
 21
947.48732960822497
  0
LINE
  8
_1-0_
  6
CONTINUOUS
 62
    7
 10
609.16282609622897
 20
953.48732024086019
 11
608.82022445266307
 21
953.48732024086019
  0
LINE
  8
_1-0_
  6
CONTINUOUS
 62
    7
 10
600.82022236120736
 20
949.48738481087105
 11
600.82022236120736
 21
951.48735252586562
  0
LINE
  8
_1-0_
  6
CONTINUOUS
 62
    7
 10
598.82021090238709
 20
953.48732024086019
 11
618.82019425911324
 21
953.48732024086019
  0
LINE
  8
_1-0_
  6
CONTINUOUS
 62
    7
 10
618.82019425911324
 20
953.48732024086019
 11
618.82019425911324
 21
951.48735252586562
  0
LINE
  8
_1-0_
  6
CONTINUOUS
 62
    7
 10
618.82019425911324
 20
951.48735252586562
 11
598.82021090238709
 21
951.48735252586562
  0
LINE
  8
_1-0_
  6
CONTINUOUS
 62
    7
 10
598.82021090238709
 20
951.48735252586562
 11
598.82021090238709
 21
953.48732024086019
  0
LINE
  8
_1-0_
  6
CONTINUOUS
 62
    7
 10
598.82021090238709
 20
949.48738481087105
 11
618.82019425911324
 21
949.48738481087105
  0
LINE
  8
_1-0_
  6
CONTINUOUS
 62
    7
 10
618.82019425911324
 20
949.48738481087105
 11
618.82019425911324
 21
947.48732960822497
  0
LINE
  8
_1-0_
  6
CONTINUOUS
 62
    7
 10
618.82019425911324
 20
947.48732960822497
 11
598.82021090238709
 21
947.48732960822497
  0
LINE
  8
_1-0_
  6
CONTINUOUS
 62
    7
 10
598.82021090238709
 20
947.48732960822497
 11
598.82021090238709
 21
949.48738481087105
  0
LINE
  8
_1-0_
  6
CONTINUOUS
 62
    7
 10
598.82021090238709
 20
945.4873618932304
 11
618.82019425911324
 21
945.4873618932304
  0
LINE
  8
_1-0_
  6
CONTINUOUS
 62
    7
 10
618.82019425911324
 20
945.4873618932304
 11
618.82019425911324
 21
943.48739417823583
  0
LINE
  8
_1-0_
  6
CONTINUOUS
 62
    7
 10
618.82019425911324
 20
943.48739417823583
 11
598.82021090238709
 21
943.48739417823583
  0
LINE
  8
_1-0_
  6
CONTINUOUS
 62
    7
 10
598.82021090238709
 20
943.48739417823583
 11
598.82021090238709
 21
945.4873618932304
  0
LINE
  8
_1-0_
  6
CONTINUOUS
 62
    7
 10
512.65357912277159
 20
600.71646200644
 11
554.65360103887008
 21
600.71646200644
  0
LINE
  8
_1-0_
  6
CONTINUOUS
 62
    7
 10
596.82019944356682
 20
800.4873403895316
 11
596.82019944356682
 21
880.48736130408793
  0
LINE
  8
_1-0_
  6
CONTINUOUS
 62
    7
 10
596.82019944356682
 20
880.48736130408793
 11
620.82020571793362
 21
880.48736130408793
  0
LINE
  8
_1-0_
  6
CONTINUOUS
 62
    7
 10
620.82020571793362
 20
880.48736130408793
 11
620.82020571793362
 21
765.48738045121706
  0
LINE
  8
_1-0_
  6
CONTINUOUS
 62
    7
 10
545.65361508991714
 20
736.71645381736016
 11
545.65361508991714
 21
656.71643290280372
  0
LINE
  8
_1-0_
  6
CONTINUOUS
 62
    7
 10
545.65361508991714
 20
656.71643290280372
 11
521.65360881555034
 21
656.71643290280372
  0
LINE
  8
_1-0_
  6
CONTINUOUS
 62
    7
 10
521.65360881555034
 20
656.71643290280372
 11
521.65360881555034
 21
760.71641634790126
  0
LINE
  8
_1-0_
  6
CONTINUOUS
 62
    7
 10
533.653590080821
 20
822.1838405417659
 11
533.653590080821
 21
592.67590938847957
  0
LINE
  8
_1-0_
  6
CONTINUOUS
 62
    7
 10
608.82022445266307
 20
963.32154469140232
 11
608.82022445266307
 21
960.12150885975962
  0
LINE
  8
_1-0_
  6
CONTINUOUS
 62
    7
 10
687.78622881325975
 20
614.97078133365812
 11
683.7862058956191
 21
610.97075841601747
  0
LINE
  8
_1-0_
  6
CONTINUOUS
 62
    7
 10
683.7862058956191
 20
610.97075841601747
 11
683.7862058956191
 21
592.97078651811159
  0
LINE
  8
_1-0_
  6
CONTINUOUS
 62
    7
 10
683.7862058956191
 20
592.97078651811159
 11
687.78622881325975
 21
588.97076360047083
  0
LINE
  8
_1-0_
  6
CONTINUOUS
 62
    7
 10
687.78622881325975
 20
588.97076360047083
 11
732.78620230185015
 21
588.97076360047083
  0
LINE
  8
_1-0_
  6
CONTINUOUS
 62
    7
 10
732.78620230185015
 20
588.97076360047083
 11
736.7861814756651
 21
592.97078651811159
  0
LINE
  8
_1-0_
  6
CONTINUOUS
 62
    7
 10
736.7861814756651
 20
592.97078651811159
 11
736.7861814756651
 21
601.97077246706453
  0
LINE
  8
_1-0_
  6
CONTINUOUS
 62
    7
 10
736.7861814756651
 20
601.97077246706453
 11
736.7861814756651
 21
610.97075841601747
  0
LINE
  8
_1-0_
  6
CONTINUOUS
 62
    7
 10
736.7861814756651
 20
610.97075841601747
 11
732.78620230185015
 21
614.97078133365812
  0
LINE
  8
_1-0_
  6
CONTINUOUS
 62
    7
 10
732.78620230185015
 20
614.97078133365812
 11
687.78622881325975
 21
614.97078133365812
  0
LINE
  8
_1-0_
  6
CONTINUOUS
 62
    7
 10
697.03621072658689
 20
592.97078651811159
 11
697.03621072658689
 21
610.97075841601747
  0
LINE
  8
_1-0_
  6
CONTINUOUS
 62
    7
 10
723.53622038852291
 20
592.97078651811159
 11
723.53622038852291
 21
610.97075841601747
  0
LINE
  8
_1-0_
  6
CONTINUOUS
 62
    7
 10
698.28623429228423
 20
614.97078133365812
 11
722.28624056665126
 21
614.97078133365812
  0
LINE
  8
_1-0_
  6
CONTINUOUS
 62
    7
 10
698.28623429228423
 20
621.89932215628016
 11
698.28623429228423
 21
622.58561903905684
  0
LINE
  8
_1-0_
  6
CONTINUOUS
 62
    7
 10
722.28624056665126
 20
621.89932215628016
 11
722.28624056665126
 21
622.58561903905684
  0
LINE
  8
_1-0_
  6
CONTINUOUS
 62
    7
 10
697.28620669096131
 20
644.97077824066037
 11
723.28622442414849
 21
644.97077824066037
  0
LINE
  8
_1-0_
  6
CONTINUOUS
 62
    7
 10
698.28623429228423
 20
634.86787921213272
 11
698.28623429228423
 21
633.35591761762112
  0
LINE
  8
_1-0_
  6
CONTINUOUS
 62
    7
 10
722.28624056665126
 20
634.97076469038439
 11
722.28624056665126
 21
633.35591761762112
  0
LINE
  8
_1-0_
  6
CONTINUOUS
 62
    7
 10
723.28622442414849
 20
644.97077824066037
 11
723.28622442414849
 21
641.97078292434276
  0
LINE
  8
_1-0_
  6
CONTINUOUS
 62
    7
 10
697.28620669096131
 20
644.97077824066037
 11
697.28620669096131
 21
641.97078292434276
  0
LINE
  8
_1-0_
  6
CONTINUOUS
 62
    7
 10
627.79240287869129
 20
949.41774464021773
 11
651.79240915305832
 21
949.41774464021773
  0
LINE
  8
_1-0_
  6
CONTINUOUS
 62
    7
 10
627.79240287869129
 20
942.48916007377011
 11
627.79240287869129
 21
941.80290693481902
  0
LINE
  8
_1-0_
  6
CONTINUOUS
 62
    7
 10
651.79240915305832
 20
942.48916007377011
 11
651.79240915305832
 21
941.80290693481902
  0
LINE
  8
_1-0_
  6
CONTINUOUS
 62
    7
 10
626.79241902119406
 20
919.41770398938968
 11
652.79243675438124
 21
919.41770398938968
  0
LINE
  8
_1-0_
  6
CONTINUOUS
 62
    7
 10
627.79240287869129
 20
929.52060301791744
 11
627.79240287869129
 21
931.03256461242904
  0
LINE
  8
_1-0_
  6
CONTINUOUS
 62
    7
 10
651.79240915305832
 20
929.41771753966577
 11
651.79240915305832
 21
931.03256461242904
  0
LINE
  8
_1-0_
  6
CONTINUOUS
 62
    7
 10
652.79243675438124
 20
919.41770398938968
 11
652.79243675438124
 21
922.4177430495331
  0
LINE
  8
_1-0_
  6
CONTINUOUS
 62
    7
 10
626.79241902119406
 20
919.41770398938968
 11
626.79241902119406
 21
922.4177430495331
  0
LINE
  8
_1-0_
  6
CONTINUOUS
 62
    7
 10
627.29241094994268
 20
957.41770298784763
 11
629.29242240876306
 21
959.41767070284209
  0
LINE
  8
_1-0_
  6
CONTINUOUS
 62
    7
 10
629.29242240876306
 20
959.41767070284209
 11
650.29243336681236
 21
959.41767070284209
  0
LINE
  8
_1-0_
  6
CONTINUOUS
 62
    7
 10
650.29243336681236
 20
959.41767070284209
 11
652.29244482563263
 21
957.41770298784763
  0
LINE
  8
_1-0_
  6
CONTINUOUS
 62
    7
 10
652.29244482563263
 20
957.41770298784763
 11
652.29244482563263
 21
951.4177123552123
  0
LINE
  8
_1-0_
  6
CONTINUOUS
 62
    7
 10
652.29244482563263
 20
951.4177123552123
 11
650.29243336681236
 21
949.41774464021773
  0
LINE
  8
_1-0_
  6
CONTINUOUS
 62
    7
 10
650.29243336681236
 20
949.41774464021773
 11
629.29242240876306
 21
949.41774464021773
  0
LINE
  8
_1-0_
  6
CONTINUOUS
 62
    7
 10
629.29242240876306
 20
949.41774464021773
 11
627.29241094994268
 21
951.4177123552123
  0
LINE
  8
_1-0_
  6
CONTINUOUS
 62
    7
 10
627.29241094994268
 20
951.4177123552123
 11
627.29241094994268
 21
957.41770298784763
  0
LINE
  8
_1-0_
  6
CONTINUOUS
 62
    7
 10
633.54244129077813
 20
957.41770298784763
 11
633.54244129077813
 21
951.4177123552123
  0
LINE
  8
_1-0_
  6
CONTINUOUS
 62
    7
 10
646.04241448479729
 20
957.41770298784763
 11
646.04241448479729
 21
951.4177123552123
  0
LINE
  8
_1-0_
  6
CONTINUOUS
 62
    7
 10
629.29242240876306
 20
969.41768425311818
 11
650.29243336681236
 21
969.41768425311818
  0
LINE
  8
_1-0_
  6
CONTINUOUS
 62
    7
 10
650.29243336681236
 20
969.41768425311818
 11
650.29243336681236
 21
959.41767070284209
  0
LINE
  8
_1-0_
  6
CONTINUOUS
 62
    7
 10
650.29243336681236
 20
959.41767070284209
 11
629.29242240876306
 21
959.41767070284209
  0
LINE
  8
_1-0_
  6
CONTINUOUS
 62
    7
 10
629.29242240876306
 20
959.41767070284209
 11
629.29242240876306
 21
969.41768425311818
  0
LINE
  8
_1-0_
  6
CONTINUOUS
 62
    7
 10
651.79240915305832
 20
971.41773945576438
 11
651.75400207401697
 21
971.0275445297417
  0
LINE
  8
_1-0_
  6
CONTINUOUS
 62
    7
 10
651.75400207401697
 20
971.0275445297417
 11
651.64018063931849
 21
970.65230999213838
  0
LINE
  8
_1-0_
  6
CONTINUOUS
 62
    7
 10
651.64018063931849
 20
970.65230999213838
 11
651.45536297536728
 21
970.30655879311564
  0
LINE
  8
_1-0_
  6
CONTINUOUS
 62
    7
 10
651.45536297536728
 20
970.30655879311564
 11
651.20663558194065
 21
970.00350156806144
  0
LINE
  8
_1-0_
  6
CONTINUOUS
 62
    7
 10
651.20663558194065
 20
970.00350156806144
 11
650.90357835688633
 21
969.75477417463492
  0
LINE
  8
_1-0_
  6
CONTINUOUS
 62
    7
 10
650.90357835688633
 20
969.75477417463492
 11
650.55778341403789
 21
969.5699127668579
  0
LINE
  8
_1-0_
  6
CONTINUOUS
 62
    7
 10
650.55778341403789
 20
969.5699127668579
 11
650.18259262026049
 21
969.45617881981093
  0
LINE
  8
_1-0_
  6
CONTINUOUS
 62
    7
 10
650.18259262026049
 20
969.45617881981093
 11
649.79244143806363
 21
969.41768425311818
  0
LINE
  8
_1-0_
  6
CONTINUOUS
 62
    7
 10
649.79244143806363
 20
969.41768425311818
 11
629.79241433751156
 21
969.41768425311818
  0
LINE
  8
_1-0_
  6
CONTINUOUS
 62
    7
 10
629.79241433751156
 20
969.41768425311818
 11
629.40226315531493
 21
969.45617881981093
  0
LINE
  8
_1-0_
  6
CONTINUOUS
 62
    7
 10
629.40226315531493
 20
969.45617881981093
 11
629.02707236153731
 21
969.5699127668579
  0
LINE
  8
_1-0_
  6
CONTINUOUS
 62
    7
 10
629.02707236153731
 20
969.5699127668579
 11
628.68127741868886
 21
969.75477417463492
  0
LINE
  8
_1-0_
  6
CONTINUOUS
 62
    7
 10
628.68127741868886
 20
969.75477417463492
 11
628.37822019363455
 21
970.00350156806144
  0
LINE
  8
_1-0_
  6
CONTINUOUS
 62
    7
 10
628.37822019363455
 20
970.00350156806144
 11
628.12949280020803
 21
970.30655879311564
  0
LINE
  8
_1-0_
  6
CONTINUOUS
 62
    7
 10
628.12949280020803
 20
970.30655879311564
 11
627.94467513625682
 21
970.65230999213838
  0
LINE
  8
_1-0_
  6
CONTINUOUS
 62
    7
 10
627.94467513625682
 20
970.65230999213838
 11
627.83085370155834
 21
971.0275445297417
  0
LINE
  8
_1-0_
  6
CONTINUOUS
 62
    7
 10
627.83085370155834
 20
971.0275445297417
 11
627.79240287869129
 21
971.41773945576438
  0
LINE
  8
_1-0_
  6
CONTINUOUS
 62
    7
 10
627.79240287869129
 20
971.41773945576438
 11
627.83085370155834
 21
971.80793438178682
  0
LINE
  8
_1-0_
  6
CONTINUOUS
 62
    7
 10
627.83085370155834
 20
971.80793438178682
 11
627.94467513625682
 21
972.18308143173863
  0
LINE
  8
_1-0_
  6
CONTINUOUS
 62
    7
 10
627.94467513625682
 20
972.18308143173863
 11
628.12949280020803
 21
972.52883263076126
  0
LINE
  8
_1-0_
  6
CONTINUOUS
 62
    7
 10
628.12949280020803
 20
972.52883263076126
 11
628.37822019363455
 21
972.83188985581558
  0
LINE
  8
_1-0_
  6
CONTINUOUS
 62
    7
 10
628.37822019363455
 20
972.83188985581558
 11
628.68127741868886
 21
973.08061724924198
  0
LINE
  8
_1-0_
  6
CONTINUOUS
 62
    7
 10
628.68127741868886
 20
973.08061724924198
 11
629.02707236153731
 21
973.26547865701912
  0
LINE
  8
_1-0_
  6
CONTINUOUS
 62
    7
 10
629.02707236153731
 20
973.26547865701912
 11
629.40226315531493
 21
973.3793000917176
  0
LINE
  8
_1-0_
  6
CONTINUOUS
 62
    7
 10
629.40226315531493
 20
973.3793000917176
 11
629.79241433751156
 21
973.41770717075883
  0
LINE
  8
_1-0_
  6
CONTINUOUS
 62
    7
 10
629.79241433751156
 20
973.41770717075883
 11
639.79242788778765
 21
973.41770717075883
  0
LINE
  8
_1-0_
  6
CONTINUOUS
 62
    7
 10
639.79242788778765
 20
973.41770717075883
 11
649.79244143806363
 21
973.41770717075883
  0
LINE
  8
_1-0_
  6
CONTINUOUS
 62
    7
 10
649.79244143806363
 20
973.41770717075883
 11
650.18259262026049
 21
973.3793000917176
  0
LINE
  8
_1-0_
  6
CONTINUOUS
 62
    7
 10
650.18259262026049
 20
973.3793000917176
 11
650.55778341403789
 21
973.26547865701912
  0
LINE
  8
_1-0_
  6
CONTINUOUS
 62
    7
 10
650.55778341403789
 20
973.26547865701912
 11
650.90357835688633
 21
973.08061724924198
  0
LINE
  8
_1-0_
  6
CONTINUOUS
 62
    7
 10
650.90357835688633
 20
973.08061724924198
 11
651.20663558194065
 21
972.83188985581558
  0
LINE
  8
_1-0_
  6
CONTINUOUS
 62
    7
 10
651.20663558194065
 20
972.83188985581558
 11
651.45536297536728
 21
972.52883263076126
  0
LINE
  8
_1-0_
  6
CONTINUOUS
 62
    7
 10
651.45536297536728
 20
972.52883263076126
 11
651.64018063931849
 21
972.18308143173863
  0
LINE
  8
_1-0_
  6
CONTINUOUS
 62
    7
 10
651.64018063931849
 20
972.18308143173863
 11
651.75400207401697
 21
971.80793438178682
  0
LINE
  8
_1-0_
  6
CONTINUOUS
 62
    7
 10
651.75400207401697
 20
971.80793438178682
 11
651.79240915305832
 21
971.41773945576438
  0
LINE
  8
_1-0_
  6
CONTINUOUS
 62
    7
 10
629.29242240876306
 20
976.41774623090225
 11
650.29243336681236
 21
976.41774623090225
  0
LINE
  8
_1-0_
  6
CONTINUOUS
 62
    7
 10
650.29243336681236
 20
976.41774623090225
 11
650.29243336681236
 21
973.41770717075883
  0
LINE
  8
_1-0_
  6
CONTINUOUS
 62
    7
 10
650.29243336681236
 20
973.41770717075883
 11
629.29242240876306
 21
973.41770717075883
  0
LINE
  8
_1-0_
  6
CONTINUOUS
 62
    7
 10
629.29242240876306
 20
973.41770717075883
 11
629.29242240876306
 21
976.41774623090225
  0
LINE
  8
_1-0_
  6
CONTINUOUS
 62
    7
 10
627.79240287869129
 20
979.41769780339416
 11
627.79240287869129
 21
980.41768166089139
  0
LINE
  8
_1-0_
  6
CONTINUOUS
 62
    7
 10
627.79240287869129
 20
980.41768166089139
 11
627.83085370155834
 21
980.80787658691406
  0
LINE
  8
_1-0_
  6
CONTINUOUS
 62
    7
 10
627.83085370155834
 20
980.80787658691406
 11
627.94467513625682
 21
981.18311112451738
  0
LINE
  8
_1-0_
  6
CONTINUOUS
 62
    7
 10
627.94467513625682
 20
981.18311112451738
 11
628.12949280020803
 21
981.52886232354012
  0
LINE
  8
_1-0_
  6
CONTINUOUS
 62
    7
 10
628.12949280020803
 20
981.52886232354012
 11
628.37822019363455
 21
981.83191954859421
  0
LINE
  8
_1-0_
  6
CONTINUOUS
 62
    7
 10
628.37822019363455
 20
981.83191954859421
 11
628.68127741868886
 21
982.08064694202085
  0
LINE
  8
_1-0_
  6
CONTINUOUS
 62
    7
 10
628.68127741868886
 20
982.08064694202085
 11
629.02707236153731
 21
982.26550834979787
  0
LINE
  8
_1-0_
  6
CONTINUOUS
 62
    7
 10
629.02707236153731
 20
982.26550834979787
 11
629.40226315531493
 21
982.37924229684484
  0
LINE
  8
_1-0_
  6
CONTINUOUS
 62
    7
 10
629.40226315531493
 20
982.37924229684484
 11
629.79241433751156
 21
982.41773686353758
  0
LINE
  8
_1-0_
  6
CONTINUOUS
 62
    7
 10
629.79241433751156
 20
982.41773686353758
 11
639.79242788778765
 21
982.41773686353758
  0
LINE
  8
_1-0_
  6
CONTINUOUS
 62
    7
 10
639.79242788778765
 20
982.41773686353758
 11
649.79244143806363
 21
982.41773686353758
  0
LINE
  8
_1-0_
  6
CONTINUOUS
 62
    7
 10
649.79244143806363
 20
982.41773686353758
 11
650.18259262026049
 21
982.37924229684484
  0
LINE
  8
_1-0_
  6
CONTINUOUS
 62
    7
 10
650.18259262026049
 20
982.37924229684484
 11
650.55778341403789
 21
982.26550834979787
  0
LINE
  8
_1-0_
  6
CONTINUOUS
 62
    7
 10
650.55778341403789
 20
982.26550834979787
 11
650.90357835688633
 21
982.08064694202085
  0
LINE
  8
_1-0_
  6
CONTINUOUS
 62
    7
 10
650.90357835688633
 20
982.08064694202085
 11
651.20663558194065
 21
981.83191954859421
  0
LINE
  8
_1-0_
  6
CONTINUOUS
 62
    7
 10
651.20663558194065
 20
981.83191954859421
 11
651.45536297536728
 21
981.52886232354012
  0
LINE
  8
_1-0_
  6
CONTINUOUS
 62
    7
 10
651.45536297536728
 20
981.52886232354012
 11
651.64018063931849
 21
981.18311112451738
  0
LINE
  8
_1-0_
  6
CONTINUOUS
 62
    7
 10
651.64018063931849
 20
981.18311112451738
 11
651.75400207401697
 21
980.80787658691406
  0
LINE
  8
_1-0_
  6
CONTINUOUS
 62
    7
 10
651.75400207401697
 20
980.80787658691406
 11
651.79240915305832
 21
980.41768166089139
  0
LINE
  8
_1-0_
  6
CONTINUOUS
 62
    7
 10
651.79240915305832
 20
980.41768166089139
 11
651.79240915305832
 21
979.41769780339416
  0
LINE
  8
_1-0_
  6
CONTINUOUS
 62
    7
 10
651.79240915305832
 20
979.41769780339416
 11
651.79240915305832
 21
978.41771394589682
  0
LINE
  8
_1-0_
  6
CONTINUOUS
 62
    7
 10
651.79240915305832
 20
978.41771394589682
 11
651.75400207401697
 21
978.02751901987438
  0
LINE
  8
_1-0_
  6
CONTINUOUS
 62
    7
 10
651.75400207401697
 20
978.02751901987438
 11
651.64018063931849
 21
977.65237196992257
  0
LINE
  8
_1-0_
  6
CONTINUOUS
 62
    7
 10
651.64018063931849
 20
977.65237196992257
 11
651.45536297536728
 21
977.30653328324831
  0
LINE
  8
_1-0_
  6
CONTINUOUS
 62
    7
 10
651.45536297536728
 20
977.30653328324831
 11
651.20663558194065
 21
977.003476058194
  0
LINE
  8
_1-0_
  6
CONTINUOUS
 62
    7
 10
651.20663558194065
 20
977.003476058194
 11
650.90357835688633
 21
976.75474866476748
  0
LINE
  8
_1-0_
  6
CONTINUOUS
 62
    7
 10
650.90357835688633
 20
976.75474866476748
 11
650.55778341403789
 21
976.56997474464208
  0
LINE
  8
_1-0_
  6
CONTINUOUS
 62
    7
 10
650.55778341403789
 20
976.56997474464208
 11
650.18259262026049
 21
976.4561533099436
  0
LINE
  8
_1-0_
  6
CONTINUOUS
 62
    7
 10
650.18259262026049
 20
976.4561533099436
 11
649.79244143806363
 21
976.41774623090225
  0
LINE
  8
_1-0_
  6
CONTINUOUS
 62
    7
 10
649.79244143806363
 20
976.41774623090225
 11
639.79242788778765
 21
976.41774623090225
  0
LINE
  8
_1-0_
  6
CONTINUOUS
 62
    7
 10
639.79242788778765
 20
976.41774623090225
 11
629.79241433751156
 21
976.41774623090225
  0
LINE
  8
_1-0_
  6
CONTINUOUS
 62
    7
 10
629.79241433751156
 20
976.41774623090225
 11
629.40226315531493
 21
976.4561533099436
  0
LINE
  8
_1-0_
  6
CONTINUOUS
 62
    7
 10
629.40226315531493
 20
976.4561533099436
 11
629.02707236153731
 21
976.56997474464208
  0
LINE
  8
_1-0_
  6
CONTINUOUS
 62
    7
 10
629.02707236153731
 20
976.56997474464208
 11
628.68127741868886
 21
976.75474866476748
  0
LINE
  8
_1-0_
  6
CONTINUOUS
 62
    7
 10
628.68127741868886
 20
976.75474866476748
 11
628.37822019363455
 21
977.003476058194
  0
LINE
  8
_1-0_
  6
CONTINUOUS
 62
    7
 10
628.37822019363455
 20
977.003476058194
 11
628.12949280020803
 21
977.30653328324831
  0
LINE
  8
_1-0_
  6
CONTINUOUS
 62
    7
 10
628.12949280020803
 20
977.30653328324831
 11
627.94467513625682
 21
977.65237196992257
  0
LINE
  8
_1-0_
  6
CONTINUOUS
 62
    7
 10
627.94467513625682
 20
977.65237196992257
 11
627.83085370155834
 21
978.02751901987438
  0
LINE
  8
_1-0_
  6
CONTINUOUS
 62
    7
 10
627.83085370155834
 20
978.02751901987438
 11
627.79240287869129
 21
978.41771394589682
  0
LINE
  8
_1-0_
  6
CONTINUOUS
 62
    7
 10
627.79240287869129
 20
978.41771394589682
 11
627.79240287869129
 21
979.41769780339416
  0
LINE
  8
_1-0_
  6
CONTINUOUS
 62
    7
 10
631.79242579633205
 20
990.41769521116748
 11
631.79242579633205
 21
988.41772749617292
  0
LINE
  8
_1-0_
  6
CONTINUOUS
 62
    7
 10
647.79242997924325
 20
990.41769521116748
 11
647.79242997924325
 21
988.41772749617292
  0
LINE
  8
_1-0_
  6
CONTINUOUS
 62
    7
 10
631.79242579633205
 20
984.41770457853204
 11
631.79242579633205
 21
986.41767229352672
  0
LINE
  8
_1-0_
  6
CONTINUOUS
 62
    7
 10
647.79242997924325
 20
982.41773686353758
 11
631.79242579633205
 21
982.41773686353758
  0
LINE
  8
_1-0_
  6
CONTINUOUS
 62
    7
 10
647.79242997924325
 20
986.41767229352672
 11
647.79242997924325
 21
984.41770457853204
  0
LINE
  8
_1-0_
  6
CONTINUOUS
 62
    7
 10
629.79241433751156
 20
992.41775041381356
 11
649.79244143806363
 21
992.41775041381356
  0
LINE
  8
_1-0_
  6
CONTINUOUS
 62
    7
 10
649.79244143806363
 20
992.41775041381356
 11
649.79244143806363
 21
990.41769521116748
  0
LINE
  8
_1-0_
  6
CONTINUOUS
 62
    7
 10
649.79244143806363
 20
990.41769521116748
 11
629.79241433751156
 21
990.41769521116748
  0
LINE
  8
_1-0_
  6
CONTINUOUS
 62
    7
 10
629.79241433751156
 20
990.41769521116748
 11
629.79241433751156
 21
992.41775041381356
  0
LINE
  8
_1-0_
  6
CONTINUOUS
 62
    7
 10
629.79241433751156
 20
988.41772749617292
 11
649.79244143806363
 21
988.41772749617292
  0
LINE
  8
_1-0_
  6
CONTINUOUS
 62
    7
 10
649.79244143806363
 20
988.41772749617292
 11
649.79244143806363
 21
986.41767229352672
  0
LINE
  8
_1-0_
  6
CONTINUOUS
 62
    7
 10
649.79244143806363
 20
986.41767229352672
 11
629.79241433751156
 21
986.41767229352672
  0
LINE
  8
_1-0_
  6
CONTINUOUS
 62
    7
 10
629.79241433751156
 20
986.41767229352672
 11
629.79241433751156
 21
988.41772749617292
  0
LINE
  8
_1-0_
  6
CONTINUOUS
 62
    7
 10
629.79241433751156
 20
984.41770457853204
 11
649.79244143806363
 21
984.41770457853204
  0
LINE
  8
_1-0_
  6
CONTINUOUS
 62
    7
 10
649.79244143806363
 20
984.41770457853204
 11
649.79244143806363
 21
982.41773686353758
  0
LINE
  8
_1-0_
  6
CONTINUOUS
 62
    7
 10
649.79244143806363
 20
982.41773686353758
 11
629.79241433751156
 21
982.41773686353758
  0
LINE
  8
_1-0_
  6
CONTINUOUS
 62
    7
 10
629.79241433751156
 20
982.41773686353758
 11
629.79241433751156
 21
984.41770457853204
  0
LINE
  8
_1-0_
  6
CONTINUOUS
 62
    7
 10
689.28620459950571
 20
588.97076360047083
 11
731.2862265156042
 21
588.97076360047083
  0
LINE
  8
_1-0_
  6
CONTINUOUS
 62
    7
 10
627.79240287869129
 20
839.41768307483335
 11
627.79240287869129
 21
919.41770398938968
  0
LINE
  8
_1-0_
  6
CONTINUOUS
 62
    7
 10
627.79240287869129
 20
919.41770398938968
 11
651.79240915305832
 21
919.41770398938968
  0
LINE
  8
_1-0_
  6
CONTINUOUS
 62
    7
 10
651.79240915305832
 20
919.41770398938968
 11
651.79240915305832
 21
804.41772313651882
  0
LINE
  8
_1-0_
  6
CONTINUOUS
 62
    7
 10
722.28624056665126
 20
724.97075541139111
 11
722.28624056665126
 21
644.97077824066037
  0
LINE
  8
_1-0_
  6
CONTINUOUS
 62
    7
 10
722.28624056665126
 20
644.97077824066037
 11
698.28623429228423
 21
644.97077824066037
  0
LINE
  8
_1-0_
  6
CONTINUOUS
 62
    7
 10
698.28623429228423
 20
644.97077824066037
 11
698.28623429228423
 21
748.97076168575791
  0
LINE
  8
_1-0_
  6
CONTINUOUS
 62
    7
 10
710.2862155575549
 20
811.56161481349159
 11
710.2862155575549
 21
580.93025472633622
  0
LINE
  8
_1-0_
  6
CONTINUOUS
 62
    7
 10
639.79242788778765
 20
1002.2518873767042
 11
639.79242788778765
 21
999.05185154506125
  0
LINE
  8
_1-1_
  6
CONTINUOUS
 62
    7
 10
640.38581288459216
 20
960.13699417408827
 11
640.38581288459216
 21
741.66125588435466
  0
LINE
  8
_1-1_
  6
CONTINUOUS
 62
    7
 10
608.82022445266307
 20
961.72157051940667
 11
608.82022445266307
 21
759.14487566266746
  0
LINE
  8
_1-0_
  6
CONTINUOUS
 62
    7
 10
533.653590080821
 20
822.1838405417659
 11
608.82022445266307
 21
747.01724991374942
  0
LINE
  8
_1-0_
  6
CONTINUOUS
 62
    7
 10
608.82022445266307
 20
759.64994187520733
 11
608.82022445266307
 21
747.01724991374942
  0
LINE
  8
_1-0_
  6
CONTINUOUS
 62
    7
 10
640.38581288459216
 20
741.66125588435466
 11
710.2862155575549
 21
811.56161481349159
  0
LINE
  8
_1-0_
  6
CONTINUOUS
 62
    7
 10
1595.9112454565334
 20
530.6619060914029
 11
1624.9111272745611
 21
530.6619060914029
  0
LINE
  8
_1-0_
  6
CONTINUOUS
 62
    7
 10
1624.9111272745611
 20
530.6619060914029
 11
1624.9111272745611
 21
528.6618946325824
  0
LINE
  8
_1-0_
  6
CONTINUOUS
 62
    7
 10
1624.9111272745611
 20
528.6618946325824
 11
1595.9112454565334
 21
528.6618946325824
  0
LINE
  8
_1-0_
  6
CONTINUOUS
 62
    7
 10
1595.9112454565334
 20
528.6618946325824
 11
1595.9112454565334
 21
530.6619060914029
  0
LINE
  8
_1-0_
  6
CONTINUOUS
 62
    7
 10
1624.9111272745611
 20
528.6618946325824
 11
1620.4111124281715
 21
524.66191545876757
  0
LINE
  8
_1-0_
  6
CONTINUOUS
 62
    7
 10
1620.4111124281715
 20
524.66191545876757
 11
1600.4110853276197
 21
524.66191545876757
  0
LINE
  8
_1-0_
  6
CONTINUOUS
 62
    7
 10
1600.4110853276197
 20
524.66191545876757
 11
1595.9112454565334
 21
528.6618946325824
  0
LINE
  8
_1-0_
  6
CONTINUOUS
 62
    7
 10
1614.4112092831879
 20
540.5725072617696
 11
1614.4112092831879
 21
540.0556302162671
  0
LINE
  8
_1-0_
  6
CONTINUOUS
 62
    7
 10
1614.4112092831879
 20
539.0540278372157
 11
1614.4112092831879
 21
538.05561875744672
  0
LINE
  8
_1-0_
  6
CONTINUOUS
 62
    7
 10
1614.4112092831879
 20
537.05401637839532
 11
1614.4112092831879
 21
536.05565104245215
  0
LINE
  8
_1-0_
  6
CONTINUOUS
 62
    7
 10
1614.4112092831879
 20
535.05404866340075
 11
1614.4112092831879
 21
534.05563958363177
  0
LINE
  8
_1-0_
  6
CONTINUOUS
 62
    7
 10
1614.4112092831879
 20
533.05403720458037
 11
1614.4112092831879
 21
532.05562812481139
  0
LINE
  8
_1-0_
  6
CONTINUOUS
 62
    7
 10
1606.4111634479063
 20
539.50686392176567
 11
1606.4111634479063
 21
538.50845484199669
  0
LINE
  8
_1-0_
  6
CONTINUOUS
 62
    7
 10
1606.4111634479063
 20
537.50685246294529
 11
1606.4111634479063
 21
536.50848712700213
  0
LINE
  8
_1-0_
  6
CONTINUOUS
 62
    7
 10
1606.4111634479063
 20
535.50688474795061
 11
1606.4111634479063
 21
534.50847566818175
  0
LINE
  8
_1-0_
  6
CONTINUOUS
 62
    7
 10
1606.4111634479063
 20
533.50687328913034
 11
1606.4111634479063
 21
532.50846420936136
  0
LINE
  8
_1-0_
  6
CONTINUOUS
 62
    7
 10
1606.4111634479063
 20
531.50686183030996
 11
1606.4111634479063
 21
530.6619060914029
  0
LINE
  8
_1-0_
  6
CONTINUOUS
 62
    7
 10
1606.4111634479063
 20
530.6619060914029
 11
1614.4112092831879
 21
530.6619060914029
  0
LINE
  8
_1-0_
  6
CONTINUOUS
 62
    7
 10
1614.4112092831879
 20
530.6619060914029
 11
1614.4112092831879
 21
531.0540257457601
  0
LINE
  8
_1-0_
  6
CONTINUOUS
 62
    7
 10
1606.4111634479063
 20
540.50846630081696
 11
1606.4111634479063
 21
540.5725072617696
  0
LINE
  8
_1-0_
  6
CONTINUOUS
 62
    7
 10
1614.4112092831879
 20
547.57248175190216
 11
1614.4112092831879
 21
566.57248125113119
  0
LINE
  8
_1-0_
  6
CONTINUOUS
 62
    7
 10
1606.4111634479063
 20
547.57248175190216
 11
1606.4111634479063
 21
566.57248125113119
  0
LINE
  8
_1-0_
  6
CONTINUOUS
 62
    7
 10
1615.9224709764871
 20
531.56945924501156
 11
1615.5457491488071
 21
531.99141218855573
  0
LINE
  8
_1-0_
  6
CONTINUOUS
 62
    7
 10
1615.5457491488071
 20
531.99141218855573
 11
1605.3620115302242
 21
532.56786832478053
  0
LINE
  8
_1-0_
  6
CONTINUOUS
 62
    7
 10
1605.3620115302242
 20
532.56786832478053
 11
1604.9399710990288
 21
532.19110275327466
  0
LINE
  8
_1-0_
  6
CONTINUOUS
 62
    7
 10
1604.9399710990288
 20
532.19110275327466
 11
1604.9287726796272
 21
531.99141218855573
  0
LINE
  8
_1-0_
  6
CONTINUOUS
 62
    7
 10
1604.9287726796272
 20
531.99141218855573
 11
1605.3054945073072
 21
531.56945924501156
  0
LINE
  8
_1-0_
  6
CONTINUOUS
 62
    7
 10
1605.3054945073072
 20
531.56945924501156
 11
1615.4892321258897
 21
530.99300310878675
  0
LINE
  8
_1-0_
  6
CONTINUOUS
 62
    7
 10
1615.4892321258897
 20
530.99300310878675
 11
1615.9110975817821
 21
531.36976868029262
  0
LINE
  8
_1-0_
  6
CONTINUOUS
 62
    7
 10
1615.9110975817821
 20
531.36976868029262
 11
1615.9224709764871
 21
531.56945924501156
  0
LINE
  8
_1-0_
  6
CONTINUOUS
 62
    7
 10
1615.9224709764871
 20
533.56947070383194
 11
1615.5457491488071
 21
533.99142364737611
  0
LINE
  8
_1-0_
  6
CONTINUOUS
 62
    7
 10
1615.5457491488071
 20
533.99142364737611
 11
1605.3620115302242
 21
534.5678360397751
  0
LINE
  8
_1-0_
  6
CONTINUOUS
 62
    7
 10
1605.3620115302242
 20
534.5678360397751
 11
1604.9399710990288
 21
534.19111421209504
  0
LINE
  8
_1-0_
  6
CONTINUOUS
 62
    7
 10
1604.9399710990288
 20
534.19111421209504
 11
1604.9287726796272
 21
533.99142364737611
  0
LINE
  8
_1-0_
  6
CONTINUOUS
 62
    7
 10
1604.9287726796272
 20
533.99142364737611
 11
1605.3054945073072
 21
533.56947070383194
  0
LINE
  8
_1-0_
  6
CONTINUOUS
 62
    7
 10
1605.3054945073072
 20
533.56947070383194
 11
1615.4892321258897
 21
532.99301456760713
  0
LINE
  8
_1-0_
  6
CONTINUOUS
 62
    7
 10
1615.4892321258897
 20
532.99301456760713
 11
1615.9110975817821
 21
533.369780139113
  0
LINE
  8
_1-0_
  6
CONTINUOUS
 62
    7
 10
1615.9110975817821
 20
533.369780139113
 11
1615.9224709764871
 21
533.56947070383194
  0
LINE
  8
_1-0_
  6
CONTINUOUS
 62
    7
 10
1615.9224709764871
 20
535.56943841882651
 11
1615.5457491488071
 21
535.99143510619638
  0
LINE
  8
_1-0_
  6
CONTINUOUS
 62
    7
 10
1615.5457491488071
 20
535.99143510619638
 11
1605.3620115302242
 21
536.56784749859548
  0
LINE
  8
_1-0_
  6
CONTINUOUS
 62
    7
 10
1605.3620115302242
 20
536.56784749859548
 11
1604.9399710990288
 21
536.19108192708961
  0
LINE
  8
_1-0_
  6
CONTINUOUS
 62
    7
 10
1604.9399710990288
 20
536.19108192708961
 11
1604.9287726796272
 21
535.99143510619638
  0
LINE
  8
_1-0_
  6
CONTINUOUS
 62
    7
 10
1604.9287726796272
 20
535.99143510619638
 11
1605.3054945073072
 21
535.56943841882651
  0
LINE
  8
_1-0_
  6
CONTINUOUS
 62
    7
 10
1605.3054945073072
 20
535.56943841882651
 11
1615.4892321258897
 21
534.99302602642751
  0
LINE
  8
_1-0_
  6
CONTINUOUS
 62
    7
 10
1615.4892321258897
 20
534.99302602642751
 11
1615.9110975817821
 21
535.36979159793327
  0
LINE
  8
_1-0_
  6
CONTINUOUS
 62
    7
 10
1615.9110975817821
 20
535.36979159793327
 11
1615.9224709764871
 21
535.56943841882651
  0
LINE
  8
_1-0_
  6
CONTINUOUS
 62
    7
 10
1615.9224709764871
 20
537.56944987764678
 11
1615.5457491488071
 21
537.99140282119095
  0
LINE
  8
_1-0_
  6
CONTINUOUS
 62
    7
 10
1615.5457491488071
 20
537.99140282119095
 11
1605.3620115302242
 21
538.56785895741587
  0
LINE
  8
_1-0_
  6
CONTINUOUS
 62
    7
 10
1605.3620115302242
 20
538.56785895741587
 11
1604.9399710990288
 21
538.19109338590988
  0
LINE
  8
_1-0_
  6
CONTINUOUS
 62
    7
 10
1604.9399710990288
 20
538.19109338590988
 11
1604.9287726796272
 21
537.99140282119095
  0
LINE
  8
_1-0_
  6
CONTINUOUS
 62
    7
 10
1604.9287726796272
 20
537.99140282119095
 11
1605.3054945073072
 21
537.56944987764678
  0
LINE
  8
_1-0_
  6
CONTINUOUS
 62
    7
 10
1605.3054945073072
 20
537.56944987764678
 11
1615.4892321258897
 21
536.99299374142208
  0
LINE
  8
_1-0_
  6
CONTINUOUS
 62
    7
 10
1615.4892321258897
 20
536.99299374142208
 11
1615.9110975817821
 21
537.36975931292795
  0
LINE
  8
_1-0_
  6
CONTINUOUS
 62
    7
 10
1615.9110975817821
 20
537.36975931292795
 11
1615.9224709764871
 21
537.56944987764678
  0
LINE
  8
_1-0_
  6
CONTINUOUS
 62
    7
 10
1615.9224709764871
 20
539.56946133646727
 11
1615.5457491488071
 21
539.99141428001144
  0
LINE
  8
_1-0_
  6
CONTINUOUS
 62
    7
 10
1615.5457491488071
 20
539.99141428001144
 11
1605.3620115302242
 21
540.56787041623613
  0
LINE
  8
_1-0_
  6
CONTINUOUS
 62
    7
 10
1605.3620115302242
 20
540.56787041623613
 11
1604.9399710990288
 21
540.19110484473026
  0
LINE
  8
_1-0_
  6
CONTINUOUS
 62
    7
 10
1604.9399710990288
 20
540.19110484473026
 11
1604.9287726796272
 21
539.99141428001144
  0
LINE
  8
_1-0_
  6
CONTINUOUS
 62
    7
 10
1604.9287726796272
 20
539.99141428001144
 11
1605.3054945073072
 21
539.56946133646727
  0
LINE
  8
_1-0_
  6
CONTINUOUS
 62
    7
 10
1605.3054945073072
 20
539.56946133646727
 11
1615.4892321258897
 21
538.99300520024235
  0
LINE
  8
_1-0_
  6
CONTINUOUS
 62
    7
 10
1615.4892321258897
 20
538.99300520024235
 11
1615.9110975817821
 21
539.36977077174834
  0
LINE
  8
_1-0_
  6
CONTINUOUS
 62
    7
 10
1615.9110975817821
 20
539.36977077174834
 11
1615.9224709764871
 21
539.56946133646727
  0
LINE
  8
_1-0_
  6
CONTINUOUS
 62
    7
 10
1650.4111530789996
 20
649.17250393900633
 11
1650.0111595360008
 21
649.57249748200525
  0
LINE
  8
_1-0_
  6
CONTINUOUS
 62
    7
 10
1650.0111595360008
 20
649.57249748200525
 11
1570.8112131950938
 21
649.57249748200525
  0
LINE
  8
_1-0_
  6
CONTINUOUS
 62
    7
 10
1570.8112131950938
 20
649.57249748200525
 11
1570.4112196520946
 21
649.17250393900633
  0
LINE
  8
_1-0_
  6
CONTINUOUS
 62
    7
 10
1570.4112196520946
 20
649.17250393900633
 11
1570.4112196520946
 21
648.97250716750682
  0
LINE
  8
_1-0_
  6
CONTINUOUS
 62
    7
 10
1570.4112196520946
 20
648.97250716750682
 11
1570.8112131950938
 21
648.57251362450802
  0
LINE
  8
_1-0_
  6
CONTINUOUS
 62
    7
 10
1570.8112131950938
 20
648.57251362450802
 11
1650.0111595360008
 21
648.57251362450802
  0
LINE
  8
_1-0_
  6
CONTINUOUS
 62
    7
 10
1650.0111595360008
 20
648.57251362450802
 11
1650.4111530789996
 21
648.97250716750682
  0
LINE
  8
_1-0_
  6
CONTINUOUS
 62
    7
 10
1650.4111530789996
 20
648.97250716750682
 11
1650.4111530789996
 21
649.17250393900633
  0
LINE
  8
_1-0_
  6
CONTINUOUS
 62
    7
 10
1648.411185364005
 20
646.07251023693891
 11
1648.411185364005
 21
646.57250216568752
  0
LINE
  8
_1-0_
  6
CONTINUOUS
 62
    7
 10
1648.411185364005
 20
646.57250216568752
 11
1648.3726907973121
 21
646.96269709171008
  0
LINE
  8
_1-0_
  6
CONTINUOUS
 62
    7
 10
1648.3726907973121
 20
646.96269709171008
 11
1648.2589568502653
 21
647.33788788548759
  0
LINE
  8
_1-0_
  6
CONTINUOUS
 62
    7
 10
1648.2589568502653
 20
647.33788788548759
 11
1648.0741829301401
 21
647.68363908451033
  0
LINE
  8
_1-0_
  6
CONTINUOUS
 62
    7
 10
1648.0741829301401
 20
647.68363908451033
 11
1647.8253680490618
 21
647.98669630956465
  0
LINE
  8
_1-0_
  6
CONTINUOUS
 62
    7
 10
1647.8253680490618
 20
647.98669630956465
 11
1647.5223108240075
 21
648.23542370299106
  0
LINE
  8
_1-0_
  6
CONTINUOUS
 62
    7
 10
1647.5223108240075
 20
648.23542370299106
 11
1647.1765596249847
 21
648.42024136694238
  0
LINE
  8
_1-0_
  6
CONTINUOUS
 62
    7
 10
1647.1765596249847
 20
648.42024136694238
 11
1646.8014125750328
 21
648.53406280164097
  0
LINE
  8
_1-0_
  6
CONTINUOUS
 62
    7
 10
1646.8014125750328
 20
648.53406280164097
 11
1646.4112176490105
 21
648.57251362450802
  0
LINE
  8
_1-0_
  6
CONTINUOUS
 62
    7
 10
1646.4112176490105
 20
648.57251362450802
 11
1610.4110988778957
 21
648.57251362450802
  0
LINE
  8
_1-0_
  6
CONTINUOUS
 62
    7
 10
1610.4110988778957
 20
648.57251362450802
 11
1574.411155082084
 21
648.57251362450802
  0
LINE
  8
_1-0_
  6
CONTINUOUS
 62
    7
 10
1574.411155082084
 20
648.57251362450802
 11
1574.0209601560614
 21
648.53406280164097
  0
LINE
  8
_1-0_
  6
CONTINUOUS
 62
    7
 10
1574.0209601560614
 20
648.53406280164097
 11
1573.6458131061095
 21
648.42024136694238
  0
LINE
  8
_1-0_
  6
CONTINUOUS
 62
    7
 10
1573.6458131061095
 20
648.42024136694238
 11
1573.300061907087
 21
648.23542370299106
  0
LINE
  8
_1-0_
  6
CONTINUOUS
 62
    7
 10
1573.300061907087
 20
648.23542370299106
 11
1572.9970046820326
 21
647.98669630956465
  0
LINE
  8
_1-0_
  6
CONTINUOUS
 62
    7
 10
1572.9970046820326
 20
647.98669630956465
 11
1572.7481898009546
 21
647.68363908451033
  0
LINE
  8
_1-0_
  6
CONTINUOUS
 62
    7
 10
1572.7481898009546
 20
647.68363908451033
 11
1572.5634158808291
 21
647.33788788548759
  0
LINE
  8
_1-0_
  6
CONTINUOUS
 62
    7
 10
1572.5634158808291
 20
647.33788788548759
 11
1572.4495069584791
 21
646.96269709171008
  0
LINE
  8
_1-0_
  6
CONTINUOUS
 62
    7
 10
1572.4495069584791
 20
646.96269709171008
 11
1572.4111873670893
 21
646.57250216568752
  0
LINE
  8
_1-0_
  6
CONTINUOUS
 62
    7
 10
1572.4111873670893
 20
646.57250216568752
 11
1572.4111873670893
 21
646.07251023693891
  0
LINE
  8
_1-0_
  6
CONTINUOUS
 62
    7
 10
1572.4111873670893
 20
646.07251023693891
 11
1572.4111873670893
 21
645.5725183081903
  0
LINE
  8
_1-0_
  6
CONTINUOUS
 62
    7
 10
1572.4111873670893
 20
645.5725183081903
 11
1572.4495069584791
 21
645.18232338216774
  0
LINE
  8
_1-0_
  6
CONTINUOUS
 62
    7
 10
1572.4495069584791
 20
645.18232338216774
 11
1572.5634158808291
 21
644.80713258839023
  0
LINE
  8
_1-0_
  6
CONTINUOUS
 62
    7
 10
1572.5634158808291
 20
644.80713258839023
 11
1572.7481898009546
 21
644.46138138936749
  0
LINE
  8
_1-0_
  6
CONTINUOUS
 62
    7
 10
1572.7481898009546
 20
644.46138138936749
 11
1572.9970046820326
 21
644.15828042048747
  0
LINE
  8
_1-0_
  6
CONTINUOUS
 62
    7
 10
1572.9970046820326
 20
644.15828042048747
 11
1573.300061907087
 21
643.90955302706084
  0
LINE
  8
_1-0_
  6
CONTINUOUS
 62
    7
 10
1573.300061907087
 20
643.90955302706084
 11
1573.6458131061095
 21
643.72473536310963
  0
LINE
  8
_1-0_
  6
CONTINUOUS
 62
    7
 10
1573.6458131061095
 20
643.72473536310963
 11
1574.0209601560614
 21
643.61091392841115
  0
LINE
  8
_1-0_
  6
CONTINUOUS
 62
    7
 10
1574.0209601560614
 20
643.61091392841115
 11
1574.411155082084
 21
643.5725068493698
  0
LINE
  8
_1-0_
  6
CONTINUOUS
 62
    7
 10
1574.411155082084
 20
643.5725068493698
 11
1610.4110988778957
 21
643.5725068493698
  0
LINE
  8
_1-0_
  6
CONTINUOUS
 62
    7
 10
1610.4110988778957
 20
643.5725068493698
 11
1646.4112176490105
 21
643.5725068493698
  0
LINE
  8
_1-0_
  6
CONTINUOUS
 62
    7
 10
1646.4112176490105
 20
643.5725068493698
 11
1646.8014125750328
 21
643.61091392841115
  0
LINE
  8
_1-0_
  6
CONTINUOUS
 62
    7
 10
1646.8014125750328
 20
643.61091392841115
 11
1647.1765596249847
 21
643.72473536310963
  0
LINE
  8
_1-0_
  6
CONTINUOUS
 62
    7
 10
1647.1765596249847
 20
643.72473536310963
 11
1647.5223108240075
 21
643.90955302706084
  0
LINE
  8
_1-0_
  6
CONTINUOUS
 62
    7
 10
1647.5223108240075
 20
643.90955302706084
 11
1647.8253680490618
 21
644.15828042048747
  0
LINE
  8
_1-0_
  6
CONTINUOUS
 62
    7
 10
1647.8253680490618
 20
644.15828042048747
 11
1648.0741829301401
 21
644.46138138936749
  0
LINE
  8
_1-0_
  6
CONTINUOUS
 62
    7
 10
1648.0741829301401
 20
644.46138138936749
 11
1648.2589568502653
 21
644.80713258839023
  0
LINE
  8
_1-0_
  6
CONTINUOUS
 62
    7
 10
1648.2589568502653
 20
644.80713258839023
 11
1648.3726907973121
 21
645.18232338216774
  0
LINE
  8
_1-0_
  6
CONTINUOUS
 62
    7
 10
1648.3726907973121
 20
645.18232338216774
 11
1648.411185364005
 21
645.5725183081903
  0
LINE
  8
_1-0_
  6
CONTINUOUS
 62
    7
 10
1648.411185364005
 20
645.5725183081903
 11
1648.411185364005
 21
646.07251023693891
  0
LINE
  8
_1-0_
  6
CONTINUOUS
 62
    7
 10
1574.411155082084
 20
643.5725068493698
 11
1646.4112176490105
 21
643.5725068493698
  0
LINE
  8
_1-0_
  6
CONTINUOUS
 62
    7
 10
1646.4112176490105
 20
643.5725068493698
 11
1646.4112176490105
 21
640.57251153305231
  0
LINE
  8
_1-0_
  6
CONTINUOUS
 62
    7
 10
1646.4112176490105
 20
640.57251153305231
 11
1574.411155082084
 21
640.57251153305231
  0
LINE
  8
_1-0_
  6
CONTINUOUS
 62
    7
 10
1574.411155082084
 20
640.57251153305231
 11
1574.411155082084
 21
643.5725068493698
  0
LINE
  8
_1-0_
  6
CONTINUOUS
 62
    7
 10
1602.4112280179174
 20
640.57251153305231
 11
1618.411144713177
 21
640.57251153305231
  0
LINE
  8
_1-0_
  6
CONTINUOUS
 62
    7
 10
1618.411144713177
 20
640.57251153305231
 11
1618.411144713177
 21
566.57248125113119
  0
LINE
  8
_1-0_
  6
CONTINUOUS
 62
    7
 10
1618.411144713177
 20
566.57248125113119
 11
1602.4112280179174
 21
566.57248125113119
  0
LINE
  8
_1-0_
  6
CONTINUOUS
 62
    7
 10
1602.4112280179174
 20
566.57248125113119
 11
1602.4112280179174
 21
640.57251153305231
  0
LINE
  8
_1-0_
  6
CONTINUOUS
 62
    7
 10
1608.411131162901
 20
640.57251153305231
 11
1612.4112415681932
 21
640.57251153305231
  0
LINE
  8
_1-0_
  6
CONTINUOUS
 62
    7
 10
1612.4112415681932
 20
640.57251153305231
 11
1612.4112415681932
 21
614.57249379986501
  0
LINE
  8
_1-0_
  6
CONTINUOUS
 62
    7
 10
1612.4112415681932
 20
614.57249379986501
 11
1608.411131162901
 21
614.57249379986501
  0
LINE
  8
_1-0_
  6
CONTINUOUS
 62
    7
 10
1608.411131162901
 20
614.57249379986501
 11
1608.411131162901
 21
640.57251153305231
  0
LINE
  8
_1-0_
  6
CONTINUOUS
 62
    7
 10
1602.4112280179174
 20
640.57251153305231
 11
1582.4112009173655
 21
640.57251153305231
  0
LINE
  8
_1-0_
  6
CONTINUOUS
 62
    7
 10
1582.4112009173655
 20
640.57251153305231
 11
1582.4112009173655
 21
616.5725052586854
  0
LINE
  8
_1-0_
  6
CONTINUOUS
 62
    7
 10
1582.4112009173655
 20
616.5725052586854
 11
1588.4111040623493
 21
614.57249379986501
  0
LINE
  8
_1-0_
  6
CONTINUOUS
 62
    7
 10
1588.4111040623493
 20
614.57249379986501
 11
1602.4112280179174
 21
614.57249379986501
  0
LINE
  8
_1-0_
  6
CONTINUOUS
 62
    7
 10
1602.4112280179174
 20
614.57249379986501
 11
1602.4112280179174
 21
640.57251153305231
  0
LINE
  8
_1-0_
  6
CONTINUOUS
 62
    7
 10
1638.4111718137292
 20
640.57251153305231
 11
1618.411144713177
 21
640.57251153305231
  0
LINE
  8
_1-0_
  6
CONTINUOUS
 62
    7
 10
1618.411144713177
 20
640.57251153305231
 11
1618.411144713177
 21
614.57249379986501
  0
LINE
  8
_1-0_
  6
CONTINUOUS
 62
    7
 10
1618.411144713177
 20
614.57249379986501
 11
1632.4110936934424
 21
614.57249379986501
  0
LINE
  8
_1-0_
  6
CONTINUOUS
 62
    7
 10
1632.4110936934424
 20
614.57249379986501
 11
1638.4111718137292
 21
616.5725052586854
  0
LINE
  8
_1-0_
  6
CONTINUOUS
 62
    7
 10
1638.4111718137292
 20
616.5725052586854
 11
1638.4111718137292
 21
640.57251153305231
  0
LINE
  8
_1-0_
  6
CONTINUOUS
 62
    7
 10
1612.4112415681932
 20
616.5725052586854
 11
1608.411131162901
 21
616.5725052586854
  0
LINE
  8
_1-0_
  6
CONTINUOUS
 62
    7
 10
1575.4111389395812
 20
566.57248125113119
 11
1645.411233791513
 21
566.57248125113119
  0
LINE
  8
_1-0_
  6
CONTINUOUS
 62
    7
 10
1645.411233791513
 20
566.57248125113119
 11
1645.411233791513
 21
547.57248175190216
  0
LINE
  8
_1-0_
  6
CONTINUOUS
 62
    7
 10
1645.411233791513
 20
547.57248175190216
 11
1575.4111389395812
 21
547.57248175190216
  0
LINE
  8
_1-0_
  6
CONTINUOUS
 62
    7
 10
1575.4111389395812
 20
547.57248175190216
 11
1575.4111389395812
 21
566.57248125113119
  0
LINE
  8
_1-0_
  6
CONTINUOUS
 62
    7
 10
1599.4111014701225
 20
547.57248175190216
 11
1621.4110962856689
 21
547.57248175190216
  0
LINE
  8
_1-0_
  6
CONTINUOUS
 62
    7
 10
1621.4110962856689
 20
547.57248175190216
 11
1621.4110962856689
 21
540.5725072617696
  0
LINE
  8
_1-0_
  6
CONTINUOUS
 62
    7
 10
1621.4110962856689
 20
540.5725072617696
 11
1599.4111014701225
 21
540.5725072617696
  0
LINE
  8
_1-0_
  6
CONTINUOUS
 62
    7
 10
1599.4111014701225
 20
540.5725072617696
 11
1599.4111014701225
 21
547.57248175190216
  0
LINE
  8
_1-0_
  6
CONTINUOUS
 62
    7
 10
1615.9110975817821
 20
547.57248175190216
 11
1615.9110975817821
 21
540.5725072617696
  0
LINE
  8
_1-0_
  6
CONTINUOUS
 62
    7
 10
1604.9111001740089
 20
547.57248175190216
 11
1604.9111001740089
 21
540.5725072617696
  0
LINE
  8
_1-0_
  6
CONTINUOUS
 62
    7
 10
1554.411127981532
 20
380.70544666305011
 11
1554.4573214615634
 21
380.23721275182311
  0
LINE
  8
_1-0_
  6
CONTINUOUS
 62
    7
 10
1554.4573214615634
 20
380.23721275182311
 11
1554.5938021980196
 21
379.78700129682039
  0
LINE
  8
_1-0_
  6
CONTINUOUS
 62
    7
 10
1554.5938021980196
 20
379.78700129682039
 11
1554.8156708824126
 21
379.37204736540224
  0
LINE
  8
_1-0_
  6
CONTINUOUS
 62
    7
 10
1554.8156708824126
 20
379.37204736540224
 11
1555.1141787495851
 21
379.00836119780661
  0
LINE
  8
_1-0_
  6
CONTINUOUS
 62
    7
 10
1555.1141787495851
 20
379.00836119780661
 11
1555.4777774295292
 21
378.70989707446
  0
LINE
  8
_1-0_
  6
CONTINUOUS
 62
    7
 10
1555.4777774295292
 20
378.70989707446
 11
1555.8926438732956
 21
378.48811587771849
  0
LINE
  8
_1-0_
  6
CONTINUOUS
 62
    7
 10
1555.8926438732956
 20
378.48811587771849
 11
1556.3430303036014
 21
378.35154765361068
  0
LINE
  8
_1-0_
  6
CONTINUOUS
 62
    7
 10
1556.3430303036014
 20
378.35154765361068
 11
1556.8110892395252
 21
378.30544166123076
  0
LINE
  8
_1-0_
  6
CONTINUOUS
 62
    7
 10
1556.8110892395252
 20
378.30544166123076
 11
1664.0111085162657
 21
378.30544166123076
  0
LINE
  8
_1-0_
  6
CONTINUOUS
 62
    7
 10
1664.0111085162657
 20
378.30544166123076
 11
1664.4793424274928
 21
378.35154765361068
  0
LINE
  8
_1-0_
  6
CONTINUOUS
 62
    7
 10
1664.4793424274928
 20
378.35154765361068
 11
1664.9295538824956
 21
378.48811587771849
  0
LINE
  8
_1-0_
  6
CONTINUOUS
 62
    7
 10
1664.9295538824956
 20
378.48811587771849
 11
1665.3445953015653
 21
378.70989707446
  0
LINE
  8
_1-0_
  6
CONTINUOUS
 62
    7
 10
1665.3445953015653
 20
378.70989707446
 11
1665.7081939815091
 21
379.00836119780661
  0
LINE
  8
_1-0_
  6
CONTINUOUS
 62
    7
 10
1665.7081939815091
 20
379.00836119780661
 11
1666.0067018486816
 21
379.37204736540224
  0
LINE
  8
_1-0_
  6
CONTINUOUS
 62
    7
 10
1666.0067018486816
 20
379.37204736540224
 11
1666.2283955577718
 21
379.78700129682039
  0
LINE
  8
_1-0_
  6
CONTINUOUS
 62
    7
 10
1666.2283955577718
 20
379.78700129682039
 11
1666.3650512695312
 21
380.23721275182311
  0
LINE
  8
_1-0_
  6
CONTINUOUS
 62
    7
 10
1666.3650512695312
 20
380.23721275182311
 11
1666.4112447495627
 21
380.70544666305011
  0
LINE
  8
_1-0_
  6
CONTINUOUS
 62
    7
 10
1666.4112447495627
 20
380.70544666305011
 11
1666.4112447495627
 21
380.90544343454951
  0
LINE
  8
_1-0_
  6
CONTINUOUS
 62
    7
 10
1666.4112447495627
 20
380.90544343454951
 11
1666.3650512695312
 21
381.37363360195081
  0
LINE
  8
_1-0_
  6
CONTINUOUS
 62
    7
 10
1666.3650512695312
 20
381.37363360195081
 11
1666.2283955577718
 21
381.8238888007794
  0
LINE
  8
_1-0_
  6
CONTINUOUS
 62
    7
 10
1666.2283955577718
 20
381.8238888007794
 11
1666.0067018486816
 21
382.23879898837168
  0
LINE
  8
_1-0_
  6
CONTINUOUS
 62
    7
 10
1666.0067018486816
 20
382.23879898837168
 11
1665.7081939815091
 21
382.60248515596714
  0
LINE
  8
_1-0_
  6
CONTINUOUS
 62
    7
 10
1665.7081939815091
 20
382.60248515596714
 11
1665.3445953015653
 21
382.90094927931392
  0
LINE
  8
_1-0_
  6
CONTINUOUS
 62
    7
 10
1665.3445953015653
 20
382.90094927931392
 11
1664.9295538824956
 21
383.12273047605544
  0
LINE
  8
_1-0_
  6
CONTINUOUS
 62
    7
 10
1664.9295538824956
 20
383.12273047605544
 11
1664.4793424274928
 21
383.25934244398894
  0
LINE
  8
_1-0_
  6
CONTINUOUS
 62
    7
 10
1664.4793424274928
 20
383.25934244398894
 11
1664.0111085162657
 21
383.30544843636886
  0
LINE
  8
_1-0_
  6
CONTINUOUS
 62
    7
 10
1664.0111085162657
 20
383.30544843636886
 11
1610.4110988778957
 21
383.30544843636886
  0
LINE
  8
_1-0_
  6
CONTINUOUS
 62
    7
 10
1610.4110988778957
 20
383.30544843636886
 11
1556.8110892395252
 21
383.30544843636886
  0
LINE
  8
_1-0_
  6
CONTINUOUS
 62
    7
 10
1556.8110892395252
 20
383.30544843636886
 11
1556.3430303036014
 21
383.25934244398894
  0
LINE
  8
_1-0_
  6
CONTINUOUS
 62
    7
 10
1556.3430303036014
 20
383.25934244398894
 11
1555.8926438732956
 21
383.12273047605544
  0
LINE
  8
_1-0_
  6
CONTINUOUS
 62
    7
 10
1555.8926438732956
 20
383.12273047605544
 11
1555.4777774295292
 21
382.90094927931392
  0
LINE
  8
_1-0_
  6
CONTINUOUS
 62
    7
 10
1555.4777774295292
 20
382.90094927931392
 11
1555.1141787495851
 21
382.60248515596714
  0
LINE
  8
_1-0_
  6
CONTINUOUS
 62
    7
 10
1555.1141787495851
 20
382.60248515596714
 11
1554.8156708824126
 21
382.23879898837168
  0
LINE
  8
_1-0_
  6
CONTINUOUS
 62
    7
 10
1554.8156708824126
 20
382.23879898837168
 11
1554.5938021980196
 21
381.8238888007794
  0
LINE
  8
_1-0_
  6
CONTINUOUS
 62
    7
 10
1554.5938021980196
 20
381.8238888007794
 11
1554.4573214615634
 21
381.37363360195081
  0
LINE
  8
_1-0_
  6
CONTINUOUS
 62
    7
 10
1554.4573214615634
 20
381.37363360195081
 11
1554.411127981532
 21
380.90544343454951
  0
LINE
  8
_1-0_
  6
CONTINUOUS
 62
    7
 10
1554.411127981532
 20
380.90544343454951
 11
1554.411127981532
 21
380.70544666305011
  0
LINE
  8
_1-0_
  6
CONTINUOUS
 62
    7
 10
1566.4111092468024
 20
353.80544345811529
 11
1566.4111092468024
 21
353.80542158620244
  0
LINE
  8
_1-0_
  6
CONTINUOUS
 62
    7
 10
1566.4111092468024
 20
312.80544914333973
 11
1566.4111092468024
 21
312.80542727142688
  0
LINE
  8
_1-0_
  6
CONTINUOUS
 62
    7
 10
1566.4111092468024
 20
308.80542622569908
 11
1566.4111092468024
 21
308.30543429695041
  0
LINE
  8
_1-0_
  6
CONTINUOUS
 62
    7
 10
1566.4111092468024
 20
308.30543429695041
 11
1654.4110885089888
 21
308.30543429695041
  0
LINE
  8
_1-0_
  6
CONTINUOUS
 62
    7
 10
1654.4110885089888
 20
308.30543429695041
 11
1654.4110885089888
 21
378.30544166123076
  0
LINE
  8
_1-0_
  6
CONTINUOUS
 62
    7
 10
1654.4110885089888
 20
378.30544166123076
 11
1566.4111092468024
 21
378.30544166123076
  0
LINE
  8
_1-0_
  6
CONTINUOUS
 62
    7
 10
1566.4111092468024
 20
378.30544166123076
 11
1566.4111092468024
 21
357.80544450384298
  0
LINE
  8
_1-0_
  6
CONTINUOUS
 62
    7
 10
1651.9112163528971
 20
308.30543429695041
 11
1568.9111563781971
 21
308.30543429695041
  0
LINE
  8
_1-0_
  6
CONTINUOUS
 62
    7
 10
1568.9111563781971
 20
308.30543429695041
 11
1568.9111563781971
 21
306.30544471004299
  0
LINE
  8
_1-0_
  6
CONTINUOUS
 62
    7
 10
1568.9111563781971
 20
306.30544471004299
 11
1568.94965094489
 21
305.91524978402038
  0
LINE
  8
_1-0_
  6
CONTINUOUS
 62
    7
 10
1568.94965094489
 20
305.91524978402038
 11
1569.0633848919369
 21
305.54005899024276
  0
LINE
  8
_1-0_
  6
CONTINUOUS
 62
    7
 10
1569.0633848919369
 20
305.54005899024276
 11
1569.2481588120627
 21
305.19428591930733
  0
LINE
  8
_1-0_
  6
CONTINUOUS
 62
    7
 10
1569.2481588120627
 20
305.19428591930733
 11
1569.4969736931407
 21
304.89122869425302
  0
LINE
  8
_1-0_
  6
CONTINUOUS
 62
    7
 10
1569.4969736931407
 20
304.89122869425302
 11
1569.800030918195
 21
304.64250130082644
  0
LINE
  8
_1-0_
  6
CONTINUOUS
 62
    7
 10
1569.800030918195
 20
304.64250130082644
 11
1570.1457821172175
 21
304.45768363687523
  0
LINE
  8
_1-0_
  6
CONTINUOUS
 62
    7
 10
1570.1457821172175
 20
304.45768363687523
 11
1570.5209291671692
 21
304.34386220217675
  0
LINE
  8
_1-0_
  6
CONTINUOUS
 62
    7
 10
1570.5209291671692
 20
304.34386220217675
 11
1570.9111240931918
 21
304.30543325122255
  0
LINE
  8
_1-0_
  6
CONTINUOUS
 62
    7
 10
1570.9111240931918
 20
304.30543325122255
 11
1610.4110988778957
 21
304.30543325122255
  0
LINE
  8
_1-0_
  6
CONTINUOUS
 62
    7
 10
1610.4110988778957
 20
304.30543325122255
 11
1649.9110736625994
 21
304.30543325122255
  0
LINE
  8
_1-0_
  6
CONTINUOUS
 62
    7
 10
1649.9110736625994
 20
304.30543325122255
 11
1650.301268588622
 21
304.34386220217675
  0
LINE
  8
_1-0_
  6
CONTINUOUS
 62
    7
 10
1650.301268588622
 20
304.34386220217675
 11
1650.6765906138771
 21
304.45768363687523
  0
LINE
  8
_1-0_
  6
CONTINUOUS
 62
    7
 10
1650.6765906138771
 20
304.45768363687523
 11
1651.0223418128996
 21
304.64250130082644
  0
LINE
  8
_1-0_
  6
CONTINUOUS
 62
    7
 10
1651.0223418128996
 20
304.64250130082644
 11
1651.325399037954
 21
304.89122869425302
  0
LINE
  8
_1-0_
  6
CONTINUOUS
 62
    7
 10
1651.325399037954
 20
304.89122869425302
 11
1651.574038943729
 21
305.19428591930733
  0
LINE
  8
_1-0_
  6
CONTINUOUS
 62
    7
 10
1651.574038943729
 20
305.19428591930733
 11
1651.7589878391575
 21
305.54005899024276
  0
LINE
  8
_1-0_
  6
CONTINUOUS
 62
    7
 10
1651.7589878391575
 20
305.54005899024276
 11
1651.8727217862045
 21
305.91524978402038
  0
LINE
  8
_1-0_
  6
CONTINUOUS
 62
    7
 10
1651.8727217862045
 20
305.91524978402038
 11
1651.9112163528971
 21
306.30544471004299
  0
LINE
  8
_1-0_
  6
CONTINUOUS
 62
    7
 10
1651.9112163528971
 20
306.30544471004299
 11
1651.9112163528971
 21
308.30543429695041
  0
LINE
  8
_1-0_
  6
CONTINUOUS
 62
    7
 10
1650.4111530789996
 20
300.32981938837111
 11
1650.4111530789996
 21
298.31786586511089
  0
LINE
  8
_1-0_
  6
CONTINUOUS
 62
    7
 10
1650.4111530789996
 20
296.32981834264342
 11
1650.4111530789996
 21
294.31786481938303
  0
LINE
  8
_1-0_
  6
CONTINUOUS
 62
    7
 10
1650.4111530789996
 20
292.32981729691545
 11
1650.4111530789996
 21
290.31786377365518
  0
LINE
  8
_1-0_
  6
CONTINUOUS
 62
    7
 10
1570.4112196520946
 20
301.30535044725332
 11
1570.4112196520946
 21
299.28722904455708
  0
LINE
  8
_1-0_
  6
CONTINUOUS
 62
    7
 10
1570.4112196520946
 20
297.30534940152552
 11
1570.4112196520946
 21
295.28722799882928
  0
LINE
  8
_1-0_
  6
CONTINUOUS
 62
    7
 10
1570.4112196520946
 20
293.30537022771068
 11
1570.4112196520946
 21
291.28722695310148
  0
LINE
  8
_1-0_
  6
CONTINUOUS
 62
    7
 10
1570.4112196520946
 20
289.30536918198271
 11
1570.4112196520946
 21
288.30542906831124
  0
LINE
  8
_1-0_
  6
CONTINUOUS
 62
    7
 10
1570.4112196520946
 20
288.30542906831124
 11
1650.4111530789996
 21
288.30542906831124
  0
LINE
  8
_1-0_
  6
CONTINUOUS
 62
    7
 10
1650.4111530789996
 20
288.30542906831124
 11
1650.4111530789996
 21
288.32981625118776
  0
LINE
  8
_1-0_
  6
CONTINUOUS
 62
    7
 10
1570.4112196520946
 20
303.28720821837192
 11
1570.4112196520946
 21
304.30543325122255
  0
LINE
  8
_1-0_
  6
CONTINUOUS
 62
    7
 10
1570.4112196520946
 20
304.30543325122255
 11
1650.4111530789996
 21
304.30543325122255
  0
LINE
  8
_1-0_
  6
CONTINUOUS
 62
    7
 10
1650.4111530789996
 20
304.30543325122255
 11
1650.4111530789996
 21
302.31786691083869
  0
LINE
  8
_1-0_
  6
CONTINUOUS
 62
    7
 10
1651.4111369364969
 20
289.30543479772155
 11
1650.4235763255233
 21
290.317710670265
  0
LINE
  8
_1-0_
  6
CONTINUOUS
 62
    7
 10
1650.4235763255233
 20
290.317710670265
 11
1570.4295920589254
 21
291.30529315315158
  0
LINE
  8
_1-0_
  6
CONTINUOUS
 62
    7
 10
1570.4295920589254
 20
291.30529315315158
 11
1569.4173599302078
 21
290.317710670265
  0
LINE
  8
_1-0_
  6
CONTINUOUS
 62
    7
 10
1569.4173599302078
 20
290.317710670265
 11
1570.4049205411816
 21
289.30543479772155
  0
LINE
  8
_1-0_
  6
CONTINUOUS
 62
    7
 10
1570.4049205411816
 20
289.30543479772155
 11
1650.3989048077792
 21
288.31785231483479
  0
LINE
  8
_1-0_
  6
CONTINUOUS
 62
    7
 10
1650.3989048077792
 20
288.31785231483479
 11
1651.4111369364969
 21
289.30543479772155
  0
LINE
  8
_1-0_
  6
CONTINUOUS
 62
    7
 10
1651.4111369364969
 20
293.30543584344923
 11
1650.4235763255233
 21
294.3177117159928
  0
LINE
  8
_1-0_
  6
CONTINUOUS
 62
    7
 10
1650.4235763255233
 20
294.3177117159928
 11
1570.4295920589254
 21
295.30529419887944
  0
LINE
  8
_1-0_
  6
CONTINUOUS
 62
    7
 10
1570.4295920589254
 20
295.30529419887944
 11
1569.4173599302078
 21
294.3177117159928
  0
LINE
  8
_1-0_
  6
CONTINUOUS
 62
    7
 10
1569.4173599302078
 20
294.3177117159928
 11
1570.4049205411816
 21
293.30543584344923
  0
LINE
  8
_1-0_
  6
CONTINUOUS
 62
    7
 10
1570.4049205411816
 20
293.30543584344923
 11
1650.3989048077792
 21
292.31785336056276
  0
LINE
  8
_1-0_
  6
CONTINUOUS
 62
    7
 10
1650.3989048077792
 20
292.31785336056276
 11
1651.4111369364969
 21
293.30543584344923
  0
LINE
  8
_1-0_
  6
CONTINUOUS
 62
    7
 10
1651.4111369364969
 20
297.30543688917703
 11
1650.4235763255233
 21
298.3177127617206
  0
LINE
  8
_1-0_
  6
CONTINUOUS
 62
    7
 10
1650.4235763255233
 20
298.3177127617206
 11
1570.4295920589254
 21
299.30527337269439
  0
LINE
  8
_1-0_
  6
CONTINUOUS
 62
    7
 10
1570.4295920589254
 20
299.30527337269439
 11
1569.4173599302078
 21
298.3177127617206
  0
LINE
  8
_1-0_
  6
CONTINUOUS
 62
    7
 10
1569.4173599302078
 20
298.3177127617206
 11
1570.4049205411816
 21
297.30543688917703
  0
LINE
  8
_1-0_
  6
CONTINUOUS
 62
    7
 10
1570.4049205411816
 20
297.30543688917703
 11
1650.3989048077792
 21
296.31785440629045
  0
LINE
  8
_1-0_
  6
CONTINUOUS
 62
    7
 10
1650.3989048077792
 20
296.31785440629045
 11
1651.4111369364969
 21
297.30543688917703
  0
LINE
  8
_1-0_
  6
CONTINUOUS
 62
    7
 10
1651.4111369364969
 20
301.30543793490489
 11
1650.4235763255233
 21
302.31771380744846
  0
LINE
  8
_1-0_
  6
CONTINUOUS
 62
    7
 10
1650.4235763255233
 20
302.31771380744846
 11
1570.4295920589254
 21
303.30527441842207
  0
LINE
  8
_1-0_
  6
CONTINUOUS
 62
    7
 10
1570.4295920589254
 20
303.30527441842207
 11
1569.4173599302078
 21
302.31771380744846
  0
LINE
  8
_1-0_
  6
CONTINUOUS
 62
    7
 10
1569.4173599302078
 20
302.31771380744846
 11
1570.4049205411816
 21
301.30543793490489
  0
LINE
  8
_1-0_
  6
CONTINUOUS
 62
    7
 10
1570.4049205411816
 20
301.30543793490489
 11
1650.3989048077792
 21
300.31785545201842
  0
LINE
  8
_1-0_
  6
CONTINUOUS
 62
    7
 10
1650.3989048077792
 20
300.31785545201842
 11
1651.4111369364969
 21
301.30543793490489
  0
LINE
  8
_1-0_
  6
CONTINUOUS
 62
    7
 10
1664.0111085162657
 20
378.30544166123076
 11
1652.5253796669506
 21
377.30545780373347
  0
LINE
  8
_1-0_
  6
CONTINUOUS
 62
    7
 10
1652.5253796669506
 20
377.30545780373347
 11
1568.2968180888406
 21
377.30545780373347
  0
LINE
  8
_1-0_
  6
CONTINUOUS
 62
    7
 10
1568.2968180888406
 20
377.30545780373347
 11
1556.8110892395252
 21
378.30544166123076
  0
LINE
  8
_1-0_
  6
CONTINUOUS
 62
    7
 10
1566.1498711192007
 20
353.80544345811529
 11
1566.4111092468024
 21
353.80544345811529
  0
LINE
  8
_1-0_
  6
CONTINUOUS
 62
    7
 10
1562.4111738168133
 20
312.80542727142688
 11
1532.4111331659853
 21
312.80542727142688
  0
LINE
  8
_1-0_
  6
CONTINUOUS
 62
    7
 10
1532.4111331659853
 20
312.80542727142688
 11
1532.4111331659853
 21
353.80544345811529
  0
LINE
  8
_1-0_
  6
CONTINUOUS
 62
    7
 10
1532.4111331659853
 20
353.80544345811529
 11
1562.4111738168133
 21
353.80544345811529
  0
LINE
  8
_1-0_
  6
CONTINUOUS
 62
    7
 10
1566.2448827088108
 20
312.80542727142688
 11
1566.4111092468024
 21
312.80542727142688
  0
LINE
  8
_1-0_
  6
CONTINUOUS
 62
    7
 10
1566.4111092468024
 20
312.80542727142688
 11
1566.4111092468024
 21
312.80544914333973
  0
LINE
  8
_1-0_
  6
CONTINUOUS
 62
    7
 10
1519.4837827940246
 20
352.30544579995637
 11
1521.4830506078065
 21
352.30544579995637
  0
LINE
  8
_1-0_
  6
CONTINUOUS
 62
    7
 10
1523.4838931993168
 20
352.30544579995637
 11
1525.4829860377956
 21
352.30544579995637
  0
LINE
  8
_1-0_
  6
CONTINUOUS
 62
    7
 10
1527.4838286293059
 20
352.30544579995637
 11
1529.4830964430878
 21
352.30544579995637
  0
LINE
  8
_1-0_
  6
CONTINUOUS
 62
    7
 10
1518.4134588646612
 20
314.30544680149865
 11
1520.4127266784431
 21
314.30544680149865
  0
LINE
  8
_1-0_
  6
CONTINUOUS
 62
    7
 10
1522.4133942946503
 20
314.30544680149865
 11
1524.4126621084322
 21
314.30544680149865
  0
LINE
  8
_1-0_
  6
CONTINUOUS
 62
    7
 10
1526.4135046999425
 20
314.30544680149865
 11
1528.4125975384213
 21
314.30544680149865
  0
LINE
  8
_1-0_
  6
CONTINUOUS
 62
    7
 10
1530.4134401299316
 20
314.30544680149865
 11
1532.4111331659853
 21
314.30544680149865
  0
LINE
  8
_1-0_
  6
CONTINUOUS
 62
    7
 10
1532.4111331659853
 20
314.30544680149865
 11
1532.4111331659853
 21
352.30544579995637
  0
LINE
  8
_1-0_
  6
CONTINUOUS
 62
    7
 10
1532.4111331659853
 20
352.30544579995637
 11
1531.4839390345981
 21
352.30544579995637
  0
LINE
  8
_1-0_
  6
CONTINUOUS
 62
    7
 10
1516.4126162731509
 20
314.30544680149865
 11
1514.4110737804281
 21
314.30544680149865
  0
LINE
  8
_1-0_
  6
CONTINUOUS
 62
    7
 10
1514.4110737804281
 20
314.30544680149865
 11
1514.4110737804281
 21
352.30544579995637
  0
LINE
  8
_1-0_
  6
CONTINUOUS
 62
    7
 10
1514.4110737804281
 20
352.30544579995637
 11
1517.4831151778174
 21
352.30544579995637
  0
LINE
  8
_1-0_
  6
CONTINUOUS
 62
    7
 10
1531.4972371576373
 20
352.77768227124312
 11
1530.5257742745537
 21
353.80544345811529
  0
LINE
  8
_1-0_
  6
CONTINUOUS
 62
    7
 10
1530.5257742745537
 20
353.80544345811529
 11
1529.4979693438554
 21
352.83398057503121
  0
LINE
  8
_1-0_
  6
CONTINUOUS
 62
    7
 10
1529.4979693438554
 20
352.83398057503121
 11
1528.3998243412916
 21
313.84946116149194
  0
LINE
  8
_1-0_
  6
CONTINUOUS
 62
    7
 10
1528.3998243412916
 20
313.84946116149194
 11
1529.3712872243757
 21
312.82169997461978
  0
LINE
  8
_1-0_
  6
CONTINUOUS
 62
    7
 10
1529.3712872243757
 20
312.82169997461978
 11
1530.3989171797705
 21
313.79314098579073
  0
LINE
  8
_1-0_
  6
CONTINUOUS
 62
    7
 10
1530.3989171797705
 20
313.79314098579073
 11
1531.4972371576373
 21
352.77768227124312
  0
LINE
  8
_1-0_
  6
CONTINUOUS
 62
    7
 10
1527.4971267523451
 20
352.77768227124312
 11
1526.5256638692611
 21
353.80544345811529
  0
LINE
  8
_1-0_
  6
CONTINUOUS
 62
    7
 10
1526.5256638692611
 20
353.80544345811529
 11
1525.4980339138663
 21
352.83398057503121
  0
LINE
  8
_1-0_
  6
CONTINUOUS
 62
    7
 10
1525.4980339138663
 20
352.83398057503121
 11
1524.3997139359994
 21
313.84946116149194
  0
LINE
  8
_1-0_
  6
CONTINUOUS
 62
    7
 10
1524.3997139359994
 20
313.84946116149194
 11
1525.3711768190831
 21
312.82169997461978
  0
LINE
  8
_1-0_
  6
CONTINUOUS
 62
    7
 10
1525.3711768190831
 20
312.82169997461978
 11
1526.3989817497813
 21
313.79314098579073
  0
LINE
  8
_1-0_
  6
CONTINUOUS
 62
    7
 10
1526.3989817497813
 20
313.79314098579073
 11
1527.4971267523451
 21
352.77768227124312
  0
LINE
  8
_1-0_
  6
CONTINUOUS
 62
    7
 10
1523.497191322356
 20
352.77768227124312
 11
1522.5257284392719
 21
353.80544345811529
  0
LINE
  8
_1-0_
  6
CONTINUOUS
 62
    7
 10
1522.5257284392719
 20
353.80544345811529
 11
1521.4979235085741
 21
352.83398057503121
  0
LINE
  8
_1-0_
  6
CONTINUOUS
 62
    7
 10
1521.4979235085741
 20
352.83398057503121
 11
1520.3997785060101
 21
313.84946116149194
  0
LINE
  8
_1-0_
  6
CONTINUOUS
 62
    7
 10
1520.3997785060101
 20
313.84946116149194
 11
1521.3712413890939
 21
312.82169997461978
  0
LINE
  8
_1-0_
  6
CONTINUOUS
 62
    7
 10
1521.3712413890939
 20
312.82169997461978
 11
1522.3990463197922
 21
313.79314098579073
  0
LINE
  8
_1-0_
  6
CONTINUOUS
 62
    7
 10
1522.3990463197922
 20
313.79314098579073
 11
1523.497191322356
 21
352.77768227124312
  0
LINE
  8
_1-0_
  6
CONTINUOUS
 62
    7
 10
1519.4970809170638
 20
352.77768227124312
 11
1518.5257930092828
 21
353.80544345811529
  0
LINE
  8
_1-0_
  6
CONTINUOUS
 62
    7
 10
1518.5257930092828
 20
353.80544345811529
 11
1517.497988078585
 21
352.83398057503121
  0
LINE
  8
_1-0_
  6
CONTINUOUS
 62
    7
 10
1517.497988078585
 20
352.83398057503121
 11
1516.3998430760212
 21
313.84946116149194
  0
LINE
  8
_1-0_
  6
CONTINUOUS
 62
    7
 10
1516.3998430760212
 20
313.84946116149194
 11
1517.3713059591048
 21
312.82169997461978
  0
LINE
  8
_1-0_
  6
CONTINUOUS
 62
    7
 10
1517.3713059591048
 20
312.82169997461978
 11
1518.3989359144996
 21
313.79314098579073
  0
LINE
  8
_1-0_
  6
CONTINUOUS
 62
    7
 10
1518.3989359144996
 20
313.79314098579073
 11
1519.4970809170638
 21
352.77768227124312
  0
LINE
  8
_1-0_
  6
CONTINUOUS
 62
    7
 10
1566.4111092468024
 20
353.80544345811529
 11
1570.8955512912116
 21
348.68043870079009
  0
LINE
  8
_1-0_
  6
CONTINUOUS
 62
    7
 10
1570.8955512912116
 20
348.68043870079009
 11
1574.0986491906597
 21
343.55543394346483
  0
LINE
  8
_1-0_
  6
CONTINUOUS
 62
    7
 10
1574.0986491906597
 20
343.55543394346483
 11
1576.0205779204498
 21
338.43042918613975
  0
LINE
  8
_1-0_
  6
CONTINUOUS
 62
    7
 10
1576.0205779204498
 20
338.43042918613975
 11
1576.6611625052788
 21
333.30544630072751
  0
LINE
  8
_1-0_
  6
CONTINUOUS
 62
    7
 10
1576.6611625052788
 20
333.30544630072751
 11
1576.0205779204498
 21
328.18044154340242
  0
LINE
  8
_1-0_
  6
CONTINUOUS
 62
    7
 10
1576.0205779204498
 20
328.18044154340242
 11
1574.0986491906597
 21
323.05543678607717
  0
LINE
  8
_1-0_
  6
CONTINUOUS
 62
    7
 10
1574.0986491906597
 20
323.05543678607717
 11
1570.8955512912116
 21
317.93043202875197
  0
LINE
  8
_1-0_
  6
CONTINUOUS
 62
    7
 10
1570.8955512912116
 20
317.93043202875197
 11
1566.4111092468024
 21
312.80542727142688
  0
LINE
  8
_1-0_
  6
CONTINUOUS
 62
    7
 10
1550.4111925515429
 20
387.90541792468218
 11
1670.4111801795516
 21
387.90541792468218
  0
LINE
  8
_1-0_
  6
CONTINUOUS
 62
    7
 10
1670.4111801795516
 20
387.90541792468218
 11
1670.4111801795516
 21
383.30544843636886
  0
LINE
  8
_1-0_
  6
CONTINUOUS
 62
    7
 10
1670.4111801795516
 20
383.30544843636886
 11
1550.4111925515429
 21
383.30544843636886
  0
LINE
  8
_1-0_
  6
CONTINUOUS
 62
    7
 10
1550.4111925515429
 20
383.30544843636886
 11
1550.4111925515429
 21
387.90541792468218
  0
LINE
  8
_1-0_
  6
CONTINUOUS
 62
    7
 10
1661.4111504867731
 20
392.90542469982017
 11
1559.4112222443214
 21
392.90542469982017
  0
LINE
  8
_1-0_
  6
CONTINUOUS
 62
    7
 10
1559.4112222443214
 20
392.90542469982017
 11
1558.435734929265
 21
392.80936325839122
  0
LINE
  8
_1-0_
  6
CONTINUOUS
 62
    7
 10
1558.435734929265
 20
392.80936325839122
 11
1557.4976923290824
 21
392.52485341547072
  0
LINE
  8
_1-0_
  6
CONTINUOUS
 62
    7
 10
1557.4976923290824
 20
392.52485341547072
 11
1556.633314331526
 21
392.06278738367973
  0
LINE
  8
_1-0_
  6
CONTINUOUS
 62
    7
 10
1556.633314331526
 20
392.06278738367973
 11
1555.8756712688901
 21
391.44096890011355
  0
LINE
  8
_1-0_
  6
CONTINUOUS
 62
    7
 10
1555.8756712688901
 20
391.44096890011355
 11
1555.2538090414982
 21
390.68328209365188
  0
LINE
  8
_1-0_
  6
CONTINUOUS
 62
    7
 10
1555.2538090414982
 20
390.68328209365188
 11
1554.7916992658813
 21
389.8188603522695
  0
LINE
  8
_1-0_
  6
CONTINUOUS
 62
    7
 10
1554.7916992658813
 20
389.8188603522695
 11
1554.5071894229609
 21
388.88090523973858
  0
LINE
  8
_1-0_
  6
CONTINUOUS
 62
    7
 10
1554.5071894229609
 20
388.88090523973858
 11
1554.411127981532
 21
387.90541792468218
  0
LINE
  8
_1-0_
  6
CONTINUOUS
 62
    7
 10
1554.411127981532
 20
387.90541792468218
 11
1666.4112447495627
 21
387.90541792468218
  0
LINE
  8
_1-0_
  6
CONTINUOUS
 62
    7
 10
1666.4112447495627
 20
387.90541792468218
 11
1666.3150083328305
 21
388.88090523973858
  0
LINE
  8
_1-0_
  6
CONTINUOUS
 62
    7
 10
1666.3150083328305
 20
388.88090523973858
 11
1666.0304984899099
 21
389.8188603522695
  0
LINE
  8
_1-0_
  6
CONTINUOUS
 62
    7
 10
1666.0304984899099
 20
389.8188603522695
 11
1665.5685636895964
 21
390.68328209365188
  0
LINE
  8
_1-0_
  6
CONTINUOUS
 62
    7
 10
1665.5685636895964
 20
390.68328209365188
 11
1664.9467014622044
 21
391.44096890011355
  0
LINE
  8
_1-0_
  6
CONTINUOUS
 62
    7
 10
1664.9467014622044
 20
391.44096890011355
 11
1664.1890583995687
 21
392.06278738367973
  0
LINE
  8
_1-0_
  6
CONTINUOUS
 62
    7
 10
1664.1890583995687
 20
392.06278738367973
 11
1663.3245054267086
 21
392.52485341547072
  0
LINE
  8
_1-0_
  6
CONTINUOUS
 62
    7
 10
1663.3245054267086
 20
392.52485341547072
 11
1662.3866378018295
 21
392.80936325839122
  0
LINE
  8
_1-0_
  6
CONTINUOUS
 62
    7
 10
1662.3866378018295
 20
392.80936325839122
 11
1661.4111504867731
 21
392.90542469982017
  0
LINE
  8
_1-0_
  6
CONTINUOUS
 62
    7
 10
1571.1781364057974
 20
448.19105892107751
 11
1571.1781364057974
 21
450.29338718841427
  0
LINE
  8
_1-0_
  6
CONTINUOUS
 62
    7
 10
1571.1781364057974
 20
450.29338718841427
 11
1572.1781202632949
 21
450.29338718841427
  0
LINE
  8
_1-0_
  6
CONTINUOUS
 62
    7
 10
1572.1781202632949
 20
450.29338718841427
 11
1572.7634126523285
 21
450.35104155080199
  0
LINE
  8
_1-0_
  6
CONTINUOUS
 62
    7
 10
1572.7634126523285
 20
450.35104155080199
 11
1573.3261332272562
 21
450.52177370284971
  0
LINE
  8
_1-0_
  6
CONTINUOUS
 62
    7
 10
1573.3261332272562
 20
450.52177370284971
 11
1573.8449350010933
 21
450.79897832686368
  0
LINE
  8
_1-0_
  6
CONTINUOUS
 62
    7
 10
1573.8449350010933
 20
450.79897832686368
 11
1574.2995208386747
 21
451.17206941700346
  0
LINE
  8
_1-0_
  6
CONTINUOUS
 62
    7
 10
1574.2995208386747
 20
451.17206941700346
 11
1574.6725681849887
 21
451.62669899841069
  0
LINE
  8
_1-0_
  6
CONTINUOUS
 62
    7
 10
1574.6725681849887
 20
451.62669899841069
 11
1574.9497290651768
 21
452.14532579694469
  0
LINE
  8
_1-0_
  6
CONTINUOUS
 62
    7
 10
1574.9497290651768
 20
452.14532579694469
 11
1575.1205049610505
 21
452.70813385952397
  0
LINE
  8
_1-0_
  6
CONTINUOUS
 62
    7
 10
1575.1205049610505
 20
452.70813385952397
 11
1575.1780718357868
 21
453.29338250473199
  0
LINE
  8
_1-0_
  6
CONTINUOUS
 62
    7
 10
1575.1780718357868
 20
453.29338250473199
 11
1575.1780718357868
 21
471.29339814646357
  0
LINE
  8
_1-0_
  6
CONTINUOUS
 62
    7
 10
1575.1780718357868
 20
471.29339814646357
 11
1575.1205049610505
 21
471.87864679167171
  0
LINE
  8
_1-0_
  6
CONTINUOUS
 62
    7
 10
1575.1205049610505
 20
471.87864679167171
 11
1574.9497290651768
 21
472.44145485425088
  0
LINE
  8
_1-0_
  6
CONTINUOUS
 62
    7
 10
1574.9497290651768
 20
472.44145485425088
 11
1574.6725681849887
 21
472.96008165278488
  0
LINE
  8
_1-0_
  6
CONTINUOUS
 62
    7
 10
1574.6725681849887
 20
472.96008165278488
 11
1574.2995208386747
 21
473.41471123419211
  0
LINE
  8
_1-0_
  6
CONTINUOUS
 62
    7
 10
1574.2995208386747
 20
473.41471123419211
 11
1573.8449350010933
 21
473.78780232433189
  0
LINE
  8
_1-0_
  6
CONTINUOUS
 62
    7
 10
1573.8449350010933
 20
473.78780232433189
 11
1573.3261332272562
 21
474.06505069217161
  0
LINE
  8
_1-0_
  6
CONTINUOUS
 62
    7
 10
1573.3261332272562
 20
474.06505069217161
 11
1572.7634126523285
 21
474.23573910039357
  0
LINE
  8
_1-0_
  6
CONTINUOUS
 62
    7
 10
1572.7634126523285
 20
474.23573910039357
 11
1572.1781202632949
 21
474.2933934627813
  0
LINE
  8
_1-0_
  6
CONTINUOUS
 62
    7
 10
1572.1781202632949
 20
474.2933934627813
 11
1571.1781364057974
 21
474.2933934627813
  0
LINE
  8
_1-0_
  6
CONTINUOUS
 62
    7
 10
1571.1781364057974
 20
474.2933934627813
 11
1571.1781364057974
 21
496.29338827832782
  0
LINE
  8
_1-0_
  6
CONTINUOUS
 62
    7
 10
1571.1781364057974
 20
496.29338827832782
 11
1570.3279314077959
 21
500.31458320764955
  0
LINE
  8
_1-0_
  6
CONTINUOUS
 62
    7
 10
1570.3279314077959
 20
500.31458320764955
 11
1568.765401950674
 21
504.11605290004184
  0
LINE
  8
_1-0_
  6
CONTINUOUS
 62
    7
 10
1568.765401950674
 20
504.11605290004184
 11
1566.5416408229519
 21
507.57264626992713
  0
LINE
  8
_1-0_
  6
CONTINUOUS
 62
    7
 10
1566.5416408229519
 20
507.57264626992713
 11
1563.7301376519513
 21
510.57062937025853
  0
LINE
  8
_1-0_
  6
CONTINUOUS
 62
    7
 10
1563.7301376519513
 20
510.57062937025853
 11
1560.423279397736
 21
513.01131613005998
  0
LINE
  8
_1-0_
  6
CONTINUOUS
 62
    7
 10
1560.423279397736
 20
513.01131613005998
 11
1556.7297257235612
 21
514.81443662901177
  0
LINE
  8
_1-0_
  6
CONTINUOUS
 62
    7
 10
1556.7297257235612
 20
514.81443662901177
 11
1552.7712594404184
 21
515.92058675169483
  0
LINE
  8
_1-0_
  6
CONTINUOUS
 62
    7
 10
1552.7712594404184
 20
515.92058675169483
 11
1548.6780621738508
 21
516.29337163505409
  0
LINE
  8
_1-0_
  6
CONTINUOUS
 62
    7
 10
1548.6780621738508
 20
516.29337163505409
 11
1669.6782086346598
 21
516.29337163505409
  0
LINE
  8
_1-0_
  6
CONTINUOUS
 62
    7
 10
1571.1781364057974
 20
425.28079883472338
 11
1571.1781364057974
 21
423.2809623512062
  0
LINE
  8
_1-0_
  6
CONTINUOUS
 62
    7
 10
1571.1781364057974
 20
421.28081966090849
 11
1571.1781364057974
 21
419.28098317739119
  0
LINE
  8
_1-0_
  6
CONTINUOUS
 62
    7
 10
1571.1781364057974
 20
417.28079674326773
 11
1571.1781364057974
 21
415.28096025975054
  0
LINE
  8
_1-0_
  6
CONTINUOUS
 62
    7
 10
1571.1781364057974
 20
413.28081756945278
 11
1571.1781364057974
 21
411.28098108593565
  0
LINE
  8
_1-0_
  6
CONTINUOUS
 62
    7
 10
1571.1781364057974
 20
409.28079465181213
 11
1571.1781364057974
 21
407.28095816829494
  0
LINE
  8
_1-0_
  6
CONTINUOUS
 62
    7
 10
1571.1781364057974
 20
405.28081547799718
 11
1571.1781364057974
 21
403.28097899447994
  0
LINE
  8
_1-0_
  6
CONTINUOUS
 62
    7
 10
1648.1781182602106
 20
424.31830343592583
 11
1648.1781182602106
 21
422.31846695240853
  0
LINE
  8
_1-0_
  6
CONTINUOUS
 62
    7
 10
1648.1781182602106
 20
420.31832426211088
 11
1648.1781182602106
 21
418.31848777859364
  0
LINE
  8
_1-0_
  6
CONTINUOUS
 62
    7
 10
1648.1781182602106
 20
416.31830134447011
 11
1648.1781182602106
 21
414.31846486095299
  0
LINE
  8
_1-0_
  6
CONTINUOUS
 62
    7
 10
1648.1781182602106
 20
412.31832217065522
 11
1648.1781182602106
 21
410.31848568713798
  0
LINE
  8
_1-0_
  6
CONTINUOUS
 62
    7
 10
1648.1781182602106
 20
408.31829925301452
 11
1648.1781182602106
 21
406.31846276949727
  0
LINE
  8
_1-0_
  6
CONTINUOUS
 62
    7
 10
1648.1781182602106
 20
404.31832007919951
 11
1648.1781182602106
 21
402.31848359568232
  0
LINE
  8
_1-0_
  6
CONTINUOUS
 62
    7
 10
1648.1781182602106
 20
400.3182971615588
 11
1648.1781182602106
 21
400.29340692468594
  0
LINE
  8
_1-0_
  6
CONTINUOUS
 62
    7
 10
1648.1781182602106
 20
400.29340692468594
 11
1571.1781364057974
 21
400.29340692468594
  0
LINE
  8
_1-0_
  6
CONTINUOUS
 62
    7
 10
1571.1781364057974
 20
400.29340692468594
 11
1571.1781364057974
 21
401.28079256035647
  0
LINE
  8
_1-0_
  6
CONTINUOUS
 62
    7
 10
1648.1781182602106
 20
426.31848987004929
 11
1648.1781182602106
 21
450.29338718841427
  0
LINE
  8
_1-0_
  6
CONTINUOUS
 62
    7
 10
1648.1781182602106
 20
450.29338718841427
 11
1647.1781344027133
 21
450.29338718841427
  0
LINE
  8
_1-0_
  6
CONTINUOUS
 62
    7
 10
1647.1781344027133
 20
450.29338718841427
 11
1646.5928420136793
 21
450.35104155080199
  0
LINE
  8
_1-0_
  6
CONTINUOUS
 62
    7
 10
1646.5928420136793
 20
450.35104155080199
 11
1646.0301214387516
 21
450.52177370284971
  0
LINE
  8
_1-0_
  6
CONTINUOUS
 62
    7
 10
1646.0301214387516
 20
450.52177370284971
 11
1645.5114946402177
 21
450.79897832686368
  0
LINE
  8
_1-0_
  6
CONTINUOUS
 62
    7
 10
1645.5114946402177
 20
450.79897832686368
 11
1645.0567338273331
 21
451.17206941700346
  0
LINE
  8
_1-0_
  6
CONTINUOUS
 62
    7
 10
1645.0567338273331
 20
451.17206941700346
 11
1644.6836864810191
 21
451.62669899841069
  0
LINE
  8
_1-0_
  6
CONTINUOUS
 62
    7
 10
1644.6836864810191
 20
451.62669899841069
 11
1644.4065256008309
 21
452.14532579694469
  0
LINE
  8
_1-0_
  6
CONTINUOUS
 62
    7
 10
1644.4065256008309
 20
452.14532579694469
 11
1644.2357497049575
 21
452.70813385952397
  0
LINE
  8
_1-0_
  6
CONTINUOUS
 62
    7
 10
1644.2357497049575
 20
452.70813385952397
 11
1644.1781828302214
 21
453.29338250473199
  0
LINE
  8
_1-0_
  6
CONTINUOUS
 62
    7
 10
1644.1781828302214
 20
453.29338250473199
 11
1644.1781828302214
 21
471.29339814646357
  0
LINE
  8
_1-0_
  6
CONTINUOUS
 62
    7
 10
1644.1781828302214
 20
471.29339814646357
 11
1644.2357497049575
 21
471.87864679167171
  0
LINE
  8
_1-0_
  6
CONTINUOUS
 62
    7
 10
1644.2357497049575
 20
471.87864679167171
 11
1644.4065256008309
 21
472.44145485425088
  0
LINE
  8
_1-0_
  6
CONTINUOUS
 62
    7
 10
1644.4065256008309
 20
472.44145485425088
 11
1644.6836864810191
 21
472.96008165278488
  0
LINE
  8
_1-0_
  6
CONTINUOUS
 62
    7
 10
1644.6836864810191
 20
472.96008165278488
 11
1645.0567338273331
 21
473.41471123419211
  0
LINE
  8
_1-0_
  6
CONTINUOUS
 62
    7
 10
1645.0567338273331
 20
473.41471123419211
 11
1645.5114946402177
 21
473.78780232433189
  0
LINE
  8
_1-0_
  6
CONTINUOUS
 62
    7
 10
1645.5114946402177
 20
473.78780232433189
 11
1646.0301214387516
 21
474.06505069217161
  0
LINE
  8
_1-0_
  6
CONTINUOUS
 62
    7
 10
1646.0301214387516
 20
474.06505069217161
 11
1646.5928420136793
 21
474.23573910039357
  0
LINE
  8
_1-0_
  6
CONTINUOUS
 62
    7
 10
1646.5928420136793
 20
474.23573910039357
 11
1647.1781344027133
 21
474.2933934627813
  0
LINE
  8
_1-0_
  6
CONTINUOUS
 62
    7
 10
1647.1781344027133
 20
474.2933934627813
 11
1648.1781182602106
 21
474.2933934627813
  0
LINE
  8
_1-0_
  6
CONTINUOUS
 62
    7
 10
1648.1781182602106
 20
474.2933934627813
 11
1648.1781182602106
 21
496.29338827832782
  0
LINE
  8
_1-0_
  6
CONTINUOUS
 62
    7
 10
1648.1781182602106
 20
496.29338827832782
 11
1649.0283232582121
 21
500.31458320764955
  0
LINE
  8
_1-0_
  6
CONTINUOUS
 62
    7
 10
1649.0283232582121
 20
500.31458320764955
 11
1650.5908527153338
 21
504.11605290004184
  0
LINE
  8
_1-0_
  6
CONTINUOUS
 62
    7
 10
1650.5908527153338
 20
504.11605290004184
 11
1652.8146138430561
 21
507.57264626992713
  0
LINE
  8
_1-0_
  6
CONTINUOUS
 62
    7
 10
1652.8146138430561
 20
507.57264626992713
 11
1655.6261170140565
 21
510.57062937025853
  0
LINE
  8
_1-0_
  6
CONTINUOUS
 62
    7
 10
1655.6261170140565
 20
510.57062937025853
 11
1658.9331502435748
 21
513.01131613005998
  0
LINE
  8
_1-0_
  6
CONTINUOUS
 62
    7
 10
1658.9331502435748
 20
513.01131613005998
 11
1662.6265289424466
 21
514.81443662901177
  0
LINE
  8
_1-0_
  6
CONTINUOUS
 62
    7
 10
1662.6265289424466
 20
514.81443662901177
 11
1666.5849952255896
 21
515.92058675169483
  0
LINE
  8
_1-0_
  6
CONTINUOUS
 62
    7
 10
1666.5849952255896
 20
515.92058675169483
 11
1670.6781924921572
 21
516.29337163505409
  0
LINE
  8
_1-0_
  6
CONTINUOUS
 62
    7
 10
1571.1781364057974
 20
427.28098526884685
 11
1571.1781364057974
 21
449.87370892381114
  0
LINE
  8
_1-0_
  6
CONTINUOUS
 62
    7
 10
1547.6780783163533
 20
517.29339923637713
 11
1547.6973255996998
 21
517.09830177336585
  0
LINE
  8
_1-0_
  6
CONTINUOUS
 62
    7
 10
1547.6973255996998
 20
517.09830177336585
 11
1547.754192573223
 21
516.91072824839
  0
LINE
  8
_1-0_
  6
CONTINUOUS
 62
    7
 10
1547.754192573223
 20
516.91072824839
 11
1547.8467545085891
 21
516.73780890505282
  0
LINE
  8
_1-0_
  6
CONTINUOUS
 62
    7
 10
1547.8467545085891
 20
516.73780890505282
 11
1547.9709869738249
 21
516.58628029252566
  0
LINE
  8
_1-0_
  6
CONTINUOUS
 62
    7
 10
1547.9709869738249
 20
516.58628029252566
 11
1548.1225155863522
 21
516.46191659581245
  0
LINE
  8
_1-0_
  6
CONTINUOUS
 62
    7
 10
1548.1225155863522
 20
516.46191659581245
 11
1548.2953911858635
 21
516.3695296357497
  0
LINE
  8
_1-0_
  6
CONTINUOUS
 62
    7
 10
1548.2953911858635
 20
516.3695296357497
 11
1548.4829647108393
 21
516.31261891840052
  0
LINE
  8
_1-0_
  6
CONTINUOUS
 62
    7
 10
1548.4829647108393
 20
516.31261891840052
 11
1548.6780621738508
 21
516.29337163505409
  0
LINE
  8
_1-0_
  6
CONTINUOUS
 62
    7
 10
1548.6780621738508
 20
516.29337163505409
 11
1670.6781924921572
 21
516.29337163505409
  0
LINE
  8
_1-0_
  6
CONTINUOUS
 62
    7
 10
1670.6781924921572
 20
516.29337163505409
 11
1670.8732899551685
 21
516.31261891840052
  0
LINE
  8
_1-0_
  6
CONTINUOUS
 62
    7
 10
1670.8732899551685
 20
516.31261891840052
 11
1671.0608634801442
 21
516.3695296357497
  0
LINE
  8
_1-0_
  6
CONTINUOUS
 62
    7
 10
1671.0608634801442
 20
516.3695296357497
 11
1671.2337390796556
 21
516.46191659581245
  0
LINE
  8
_1-0_
  6
CONTINUOUS
 62
    7
 10
1671.2337390796556
 20
516.46191659581245
 11
1671.3852676921829
 21
516.58628029252566
  0
LINE
  8
_1-0_
  6
CONTINUOUS
 62
    7
 10
1671.3852676921829
 20
516.58628029252566
 11
1671.5096751327219
 21
516.73780890505282
  0
LINE
  8
_1-0_
  6
CONTINUOUS
 62
    7
 10
1671.5096751327219
 20
516.73780890505282
 11
1671.6020620927848
 21
516.91072824839
  0
LINE
  8
_1-0_
  6
CONTINUOUS
 62
    7
 10
1671.6020620927848
 20
516.91072824839
 11
1671.658929066308
 21
517.09830177336585
  0
LINE
  8
_1-0_
  6
CONTINUOUS
 62
    7
 10
1671.658929066308
 20
517.09830177336585
 11
1671.6781763496544
 21
517.29339923637713
  0
LINE
  8
_1-0_
  6
CONTINUOUS
 62
    7
 10
1671.6781763496544
 20
517.29339923637713
 11
1671.658929066308
 21
517.48849669938841
  0
LINE
  8
_1-0_
  6
CONTINUOUS
 62
    7
 10
1671.658929066308
 20
517.48849669938841
 11
1671.6020620927848
 21
517.67607022436425
  0
LINE
  8
_1-0_
  6
CONTINUOUS
 62
    7
 10
1671.6020620927848
 20
517.67607022436425
 11
1671.5096751327219
 21
517.84894582387562
  0
LINE
  8
_1-0_
  6
CONTINUOUS
 62
    7
 10
1671.5096751327219
 20
517.84894582387562
 11
1671.3852676921829
 21
518.00051818022848
  0
LINE
  8
_1-0_
  6
CONTINUOUS
 62
    7
 10
1671.3852676921829
 20
518.00051818022848
 11
1671.2337390796556
 21
518.1248818769418
  0
LINE
  8
_1-0_
  6
CONTINUOUS
 62
    7
 10
1671.2337390796556
 20
518.1248818769418
 11
1671.0608634801442
 21
518.21726883700444
  0
LINE
  8
_1-0_
  6
CONTINUOUS
 62
    7
 10
1671.0608634801442
 20
518.21726883700444
 11
1670.8732899551685
 21
518.27417955435385
  0
LINE
  8
_1-0_
  6
CONTINUOUS
 62
    7
 10
1670.8732899551685
 20
518.27417955435385
 11
1670.6781924921572
 21
518.29338309387435
  0
LINE
  8
_1-0_
  6
CONTINUOUS
 62
    7
 10
1670.6781924921572
 20
518.29338309387435
 11
1609.6781273330041
 21
518.29338309387435
  0
LINE
  8
_1-0_
  6
CONTINUOUS
 62
    7
 10
1609.6781273330041
 20
518.29338309387435
 11
1548.6780621738508
 21
518.29338309387435
  0
LINE
  8
_1-0_
  6
CONTINUOUS
 62
    7
 10
1548.6780621738508
 20
518.29338309387435
 11
1548.4829647108393
 21
518.27417955435385
  0
LINE
  8
_1-0_
  6
CONTINUOUS
 62
    7
 10
1548.4829647108393
 20
518.27417955435385
 11
1548.2953911858635
 21
518.21726883700444
  0
LINE
  8
_1-0_
  6
CONTINUOUS
 62
    7
 10
1548.2953911858635
 20
518.21726883700444
 11
1548.1225155863522
 21
518.1248818769418
  0
LINE
  8
_1-0_
  6
CONTINUOUS
 62
    7
 10
1548.1225155863522
 20
518.1248818769418
 11
1547.9709869738249
 21
518.00051818022848
  0
LINE
  8
_1-0_
  6
CONTINUOUS
 62
    7
 10
1547.9709869738249
 20
518.00051818022848
 11
1547.8467545085891
 21
517.84894582387562
  0
LINE
  8
_1-0_
  6
CONTINUOUS
 62
    7
 10
1547.8467545085891
 20
517.84894582387562
 11
1547.754192573223
 21
517.67607022436425
  0
LINE
  8
_1-0_
  6
CONTINUOUS
 62
    7
 10
1547.754192573223
 20
517.67607022436425
 11
1547.6973255996998
 21
517.48849669938841
  0
LINE
  8
_1-0_
  6
CONTINUOUS
 62
    7
 10
1547.6973255996998
 20
517.48849669938841
 11
1547.6780783163533
 21
517.29339923637713
  0
LINE
  8
_1-0_
  6
CONTINUOUS
 62
    7
 10
1648.1781182602106
 20
496.29338827832782
 11
1571.1781364057974
 21
496.29338827832782
  0
LINE
  8
_1-0_
  6
CONTINUOUS
 62
    7
 10
1650.1780859752052
 20
401.29339078218322
 11
1649.1907003395345
 21
402.305797886204
  0
LINE
  8
_1-0_
  6
CONTINUOUS
 62
    7
 10
1649.1907003395345
 20
402.305797886204
 11
1570.1968749057371
 21
403.29322726570041
  0
LINE
  8
_1-0_
  6
CONTINUOUS
 62
    7
 10
1570.1968749057371
 20
403.29322726570041
 11
1569.1844678017162
 21
402.305797886204
  0
LINE
  8
_1-0_
  6
CONTINUOUS
 62
    7
 10
1569.1844678017162
 20
402.305797886204
 11
1570.1718534373867
 21
401.29339078218322
  0
LINE
  8
_1-0_
  6
CONTINUOUS
 62
    7
 10
1570.1718534373867
 20
401.29339078218322
 11
1649.1656788711841
 21
400.30596140268688
  0
LINE
  8
_1-0_
  6
CONTINUOUS
 62
    7
 10
1649.1656788711841
 20
400.30596140268688
 11
1650.1780859752052
 21
401.29339078218322
  0
LINE
  8
_1-0_
  6
CONTINUOUS
 62
    7
 10
1650.1780859752052
 20
405.29336995599806
 11
1649.1907003395345
 21
406.30582080384471
  0
LINE
  8
_1-0_
  6
CONTINUOUS
 62
    7
 10
1649.1907003395345
 20
406.30582080384471
 11
1570.1968749057371
 21
407.29325018334112
  0
LINE
  8
_1-0_
  6
CONTINUOUS
 62
    7
 10
1570.1968749057371
 20
407.29325018334112
 11
1569.1844678017162
 21
406.30582080384471
  0
LINE
  8
_1-0_
  6
CONTINUOUS
 62
    7
 10
1569.1844678017162
 20
406.30582080384471
 11
1570.1718534373867
 21
405.29336995599806
  0
LINE
  8
_1-0_
  6
CONTINUOUS
 62
    7
 10
1570.1718534373867
 20
405.29336995599806
 11
1649.1656788711841
 21
404.30598432032752
  0
LINE
  8
_1-0_
  6
CONTINUOUS
 62
    7
 10
1649.1656788711841
 20
404.30598432032752
 11
1650.1780859752052
 21
405.29336995599806
  0
LINE
  8
_1-0_
  6
CONTINUOUS
 62
    7
 10
1650.1780859752052
 20
409.29339287363888
 11
1649.1907003395345
 21
410.30579997765972
  0
LINE
  8
_1-0_
  6
CONTINUOUS
 62
    7
 10
1649.1907003395345
 20
410.30579997765972
 11
1570.1968749057371
 21
411.29322935715601
  0
LINE
  8
_1-0_
  6
CONTINUOUS
 62
    7
 10
1570.1968749057371
 20
411.29322935715601
 11
1569.1844678017162
 21
410.30579997765972
  0
LINE
  8
_1-0_
  6
CONTINUOUS
 62
    7
 10
1569.1844678017162
 20
410.30579997765972
 11
1570.1718534373867
 21
409.29339287363888
  0
LINE
  8
_1-0_
  6
CONTINUOUS
 62
    7
 10
1570.1718534373867
 20
409.29339287363888
 11
1649.1656788711841
 21
408.30596349414247
  0
LINE
  8
_1-0_
  6
CONTINUOUS
 62
    7
 10
1649.1656788711841
 20
408.30596349414247
 11
1650.1780859752052
 21
409.29339287363888
  0
LINE
  8
_1-0_
  6
CONTINUOUS
 62
    7
 10
1650.1780859752052
 20
413.29337204745372
 11
1649.1907003395345
 21
414.30582289530042
  0
LINE
  8
_1-0_
  6
CONTINUOUS
 62
    7
 10
1649.1907003395345
 20
414.30582289530042
 11
1570.1968749057371
 21
415.29325227479671
  0
LINE
  8
_1-0_
  6
CONTINUOUS
 62
    7
 10
1570.1968749057371
 20
415.29325227479671
 11
1569.1844678017162
 21
414.30582289530042
  0
LINE
  8
_1-0_
  6
CONTINUOUS
 62
    7
 10
1569.1844678017162
 20
414.30582289530042
 11
1570.1718534373867
 21
413.29337204745372
  0
LINE
  8
_1-0_
  6
CONTINUOUS
 62
    7
 10
1570.1718534373867
 20
413.29337204745372
 11
1649.1656788711841
 21
412.30598641178318
  0
LINE
  8
_1-0_
  6
CONTINUOUS
 62
    7
 10
1649.1656788711841
 20
412.30598641178318
 11
1650.1780859752052
 21
413.29337204745372
  0
LINE
  8
_1-0_
  6
CONTINUOUS
 62
    7
 10
1650.1780859752052
 20
417.29339496509448
 11
1649.1907003395345
 21
418.30580206911532
  0
LINE
  8
_1-0_
  6
CONTINUOUS
 62
    7
 10
1649.1907003395345
 20
418.30580206911532
 11
1570.1968749057371
 21
419.29323144861166
  0
LINE
  8
_1-0_
  6
CONTINUOUS
 62
    7
 10
1570.1968749057371
 20
419.29323144861166
 11
1569.1844678017162
 21
418.30580206911532
  0
LINE
  8
_1-0_
  6
CONTINUOUS
 62
    7
 10
1569.1844678017162
 20
418.30580206911532
 11
1570.1718534373867
 21
417.29339496509448
  0
LINE
  8
_1-0_
  6
CONTINUOUS
 62
    7
 10
1570.1718534373867
 20
417.29339496509448
 11
1649.1656788711841
 21
416.30596558559819
  0
LINE
  8
_1-0_
  6
CONTINUOUS
 62
    7
 10
1649.1656788711841
 20
416.30596558559819
 11
1650.1780859752052
 21
417.29339496509448
  0
LINE
  8
_1-0_
  6
CONTINUOUS
 62
    7
 10
1650.1780859752052
 20
421.29337413890937
 11
1649.1907003395345
 21
422.30582498675602
  0
LINE
  8
_1-0_
  6
CONTINUOUS
 62
    7
 10
1649.1907003395345
 20
422.30582498675602
 11
1570.1968749057371
 21
423.29325436625243
  0
LINE
  8
_1-0_
  6
CONTINUOUS
 62
    7
 10
1570.1968749057371
 20
423.29325436625243
 11
1569.1844678017162
 21
422.30582498675602
  0
LINE
  8
_1-0_
  6
CONTINUOUS
 62
    7
 10
1569.1844678017162
 20
422.30582498675602
 11
1570.1718534373867
 21
421.29337413890937
  0
LINE
  8
_1-0_
  6
CONTINUOUS
 62
    7
 10
1570.1718534373867
 20
421.29337413890937
 11
1649.1656788711841
 21
420.30598850323884
  0
LINE
  8
_1-0_
  6
CONTINUOUS
 62
    7
 10
1649.1656788711841
 20
420.30598850323884
 11
1650.1780859752052
 21
421.29337413890937
  0
LINE
  8
_1-0_
  6
CONTINUOUS
 62
    7
 10
1650.1780859752052
 20
425.29339705655013
 11
1649.1907003395345
 21
426.30580416057103
  0
LINE
  8
_1-0_
  6
CONTINUOUS
 62
    7
 10
1649.1907003395345
 20
426.30580416057103
 11
1570.1968749057371
 21
427.29323354006732
  0
LINE
  8
_1-0_
  6
CONTINUOUS
 62
    7
 10
1570.1968749057371
 20
427.29323354006732
 11
1569.1844678017162
 21
426.30580416057103
  0
LINE
  8
_1-0_
  6
CONTINUOUS
 62
    7
 10
1569.1844678017162
 20
426.30580416057103
 11
1570.1718534373867
 21
425.29339705655013
  0
LINE
  8
_1-0_
  6
CONTINUOUS
 62
    7
 10
1570.1718534373867
 20
425.29339705655013
 11
1649.1656788711841
 21
424.30596767705373
  0
LINE
  8
_1-0_
  6
CONTINUOUS
 62
    7
 10
1649.1656788711841
 20
424.30596767705373
 11
1650.1780859752052
 21
425.29339705655013
  0
LINE
  8
_1-0_
  6
CONTINUOUS
 62
    7
 10
1624.6780601707665
 20
462.29341219751069
 11
1624.6780601707665
 21
468.29340283014596
  0
LINE
  8
_1-0_
  6
CONTINUOUS
 62
    7
 10
1624.6780601707665
 20
468.29340283014596
 11
1624.5629264212944
 21
469.46394386438789
  0
LINE
  8
_1-0_
  6
CONTINUOUS
 62
    7
 10
1624.5629264212944
 20
469.46394386438789
 11
1624.221374629547
 21
470.58947250189465
  0
LINE
  8
_1-0_
  6
CONTINUOUS
 62
    7
 10
1624.221374629547
 20
470.58947250189465
 11
1623.6668778938676
 21
471.62681358661428
  0
LINE
  8
_1-0_
  6
CONTINUOUS
 62
    7
 10
1623.6668778938676
 20
471.62681358661428
 11
1622.9207832012398
 21
472.53602900560293
  0
LINE
  8
_1-0_
  6
CONTINUOUS
 62
    7
 10
1622.9207832012398
 20
472.53602900560293
 11
1622.0116115260769
 21
473.28221118588237
  0
LINE
  8
_1-0_
  6
CONTINUOUS
 62
    7
 10
1622.0116115260769
 20
473.28221118588237
 11
1620.9741829537054
 21
473.83666417773622
  0
LINE
  8
_1-0_
  6
CONTINUOUS
 62
    7
 10
1620.9741829537054
 20
473.83666417773622
 11
1619.8487418038505
 21
474.17808473800596
  0
LINE
  8
_1-0_
  6
CONTINUOUS
 62
    7
 10
1619.8487418038505
 20
474.17808473800596
 11
1618.6781570257826
 21
474.2933934627813
  0
LINE
  8
_1-0_
  6
CONTINUOUS
 62
    7
 10
1618.6781570257826
 20
474.2933934627813
 11
1609.6781273330041
 21
474.2933934627813
  0
LINE
  8
_1-0_
  6
CONTINUOUS
 62
    7
 10
1609.6781273330041
 20
474.2933934627813
 11
1600.6780976402251
 21
474.2933934627813
  0
LINE
  8
_1-0_
  6
CONTINUOUS
 62
    7
 10
1600.6780976402251
 20
474.2933934627813
 11
1599.5075128621577
 21
474.17808473800596
  0
LINE
  8
_1-0_
  6
CONTINUOUS
 62
    7
 10
1599.5075128621577
 20
474.17808473800596
 11
1598.3820717123024
 21
473.83666417773622
  0
LINE
  8
_1-0_
  6
CONTINUOUS
 62
    7
 10
1598.3820717123024
 20
473.83666417773622
 11
1597.3446431399311
 21
473.28221118588237
  0
LINE
  8
_1-0_
  6
CONTINUOUS
 62
    7
 10
1597.3446431399311
 20
473.28221118588237
 11
1596.4354714647684
 21
472.53602900560293
  0
LINE
  8
_1-0_
  6
CONTINUOUS
 62
    7
 10
1596.4354714647684
 20
472.53602900560293
 11
1595.6893767721403
 21
471.62681358661428
  0
LINE
  8
_1-0_
  6
CONTINUOUS
 62
    7
 10
1595.6893767721403
 20
471.62681358661428
 11
1595.1348800364608
 21
470.58947250189465
  0
LINE
  8
_1-0_
  6
CONTINUOUS
 62
    7
 10
1595.1348800364608
 20
470.58947250189465
 11
1594.7935032200169
 21
469.46394386438789
  0
LINE
  8
_1-0_
  6
CONTINUOUS
 62
    7
 10
1594.7935032200169
 20
469.46394386438789
 11
1594.6781944952413
 21
468.29340283014596
  0
LINE
  8
_1-0_
  6
CONTINUOUS
 62
    7
 10
1594.6781944952413
 20
468.29340283014596
 11
1594.6781944952413
 21
462.29341219751069
  0
LINE
  8
_1-0_
  6
CONTINUOUS
 62
    7
 10
1594.6781944952413
 20
462.29341219751069
 11
1594.6781944952413
 21
456.2933778210496
  0
LINE
  8
_1-0_
  6
CONTINUOUS
 62
    7
 10
1594.6781944952413
 20
456.2933778210496
 11
1594.7935032200169
 21
455.12283678680774
  0
LINE
  8
_1-0_
  6
CONTINUOUS
 62
    7
 10
1594.7935032200169
 20
455.12283678680774
 11
1595.1348800364608
 21
453.99730814930092
  0
LINE
  8
_1-0_
  6
CONTINUOUS
 62
    7
 10
1595.1348800364608
 20
453.99730814930092
 11
1595.6893767721403
 21
452.95996706458129
  0
LINE
  8
_1-0_
  6
CONTINUOUS
 62
    7
 10
1595.6893767721403
 20
452.95996706458129
 11
1596.4354714647684
 21
452.05075164559264
  0
LINE
  8
_1-0_
  6
CONTINUOUS
 62
    7
 10
1596.4354714647684
 20
452.05075164559264
 11
1597.3446431399311
 21
451.30456946531319
  0
LINE
  8
_1-0_
  6
CONTINUOUS
 62
    7
 10
1597.3446431399311
 20
451.30456946531319
 11
1598.3820717123024
 21
450.75011647345934
  0
LINE
  8
_1-0_
  6
CONTINUOUS
 62
    7
 10
1598.3820717123024
 20
450.75011647345934
 11
1599.5075128621577
 21
450.4086959131896
  0
LINE
  8
_1-0_
  6
CONTINUOUS
 62
    7
 10
1599.5075128621577
 20
450.4086959131896
 11
1600.6780976402251
 21
450.29338718841427
  0
LINE
  8
_1-0_
  6
CONTINUOUS
 62
    7
 10
1600.6780976402251
 20
450.29338718841427
 11
1609.6781273330041
 21
450.29338718841427
  0
LINE
  8
_1-0_
  6
CONTINUOUS
 62
    7
 10
1609.6781273330041
 20
450.29338718841427
 11
1618.6781570257826
 21
450.29338718841427
  0
LINE
  8
_1-0_
  6
CONTINUOUS
 62
    7
 10
1618.6781570257826
 20
450.29338718841427
 11
1619.8487418038505
 21
450.4086959131896
  0
LINE
  8
_1-0_
  6
CONTINUOUS
 62
    7
 10
1619.8487418038505
 20
450.4086959131896
 11
1620.9741829537054
 21
450.75011647345934
  0
LINE
  8
_1-0_
  6
CONTINUOUS
 62
    7
 10
1620.9741829537054
 20
450.75011647345934
 11
1622.0116115260769
 21
451.30456946531319
  0
LINE
  8
_1-0_
  6
CONTINUOUS
 62
    7
 10
1622.0116115260769
 20
451.30456946531319
 11
1622.9207832012398
 21
452.05075164559264
  0
LINE
  8
_1-0_
  6
CONTINUOUS
 62
    7
 10
1622.9207832012398
 20
452.05075164559264
 11
1623.6668778938676
 21
452.95996706458129
  0
LINE
  8
_1-0_
  6
CONTINUOUS
 62
    7
 10
1623.6668778938676
 20
452.95996706458129
 11
1624.221374629547
 21
453.99730814930092
  0
LINE
  8
_1-0_
  6
CONTINUOUS
 62
    7
 10
1624.221374629547
 20
453.99730814930092
 11
1624.5629264212944
 21
455.12283678680774
  0
LINE
  8
_1-0_
  6
CONTINUOUS
 62
    7
 10
1624.5629264212944
 20
455.12283678680774
 11
1624.6780601707665
 21
456.2933778210496
  0
LINE
  8
_1-0_
  6
CONTINUOUS
 62
    7
 10
1624.6780601707665
 20
456.2933778210496
 11
1624.6780601707665
 21
462.29341219751069
  0
LINE
  8
_1-0_
  6
CONTINUOUS
 62
    7
 10
1548.6780621738508
 20
516.29337163505409
 11
1670.6781924921572
 21
516.29337163505409
  0
LINE
  8
_1-0_
  6
CONTINUOUS
 62
    7
 10
1670.6781924921572
 20
516.29337163505409
 11
1670.6781924921572
 21
512.29339246123914
  0
LINE
  8
_1-0_
  6
CONTINUOUS
 62
    7
 10
1670.6781924921572
 20
512.29339246123914
 11
1548.6780621738508
 21
512.29339246123914
  0
LINE
  8
_1-0_
  6
CONTINUOUS
 62
    7
 10
1548.6780621738508
 20
512.29339246123914
 11
1548.6780621738508
 21
516.29337163505409
  0
LINE
  8
_1-0_
  6
CONTINUOUS
 62
    7
 10
1548.6780621738508
 20
512.29339246123914
 11
1551.6773138451299
 21
512.12659725351227
  0
LINE
  8
_1-0_
  6
CONTINUOUS
 62
    7
 10
1551.6773138451299
 20
512.12659725351227
 11
1554.6396457274445
 21
511.62831133396929
  0
LINE
  8
_1-0_
  6
CONTINUOUS
 62
    7
 10
1554.6396457274445
 20
511.62831133396929
 11
1557.5283130071339
 21
510.80465883822052
  0
LINE
  8
_1-0_
  6
CONTINUOUS
 62
    7
 10
1557.5283130071339
 20
510.80465883822052
 11
1560.3077956976576
 21
509.66578833384858
  0
LINE
  8
_1-0_
  6
CONTINUOUS
 62
    7
 10
1560.3077956976576
 20
509.66578833384858
 11
1562.9439736149025
 21
508.22574158893127
  0
LINE
  8
_1-0_
  6
CONTINUOUS
 62
    7
 10
1562.9439736149025
 20
508.22574158893127
 11
1565.4043013524824
 21
506.50227859673811
  0
LINE
  8
_1-0_
  6
CONTINUOUS
 62
    7
 10
1565.4043013524824
 20
506.50227859673811
 11
1567.6581582323465
 21
504.51665885660179
  0
LINE
  8
_1-0_
  6
CONTINUOUS
 62
    7
 10
1567.6581582323465
 20
504.51665885660179
 11
1569.6780731319
 21
502.29337891096316
  0
LINE
  8
_1-0_
  6
CONTINUOUS
 62
    7
 10
1569.6780731319
 20
502.29337891096316
 11
1649.678181534108
 21
502.29337891096316
  0
LINE
  8
_1-0_
  6
CONTINUOUS
 62
    7
 10
1649.678181534108
 20
502.29337891096316
 11
1651.6980964336617
 21
504.51665885660179
  0
LINE
  8
_1-0_
  6
CONTINUOUS
 62
    7
 10
1651.6980964336617
 20
504.51665885660179
 11
1653.9519533135253
 21
506.50227859673811
  0
LINE
  8
_1-0_
  6
CONTINUOUS
 62
    7
 10
1653.9519533135253
 20
506.50227859673811
 11
1656.4122810511053
 21
508.22574158893127
  0
LINE
  8
_1-0_
  6
CONTINUOUS
 62
    7
 10
1656.4122810511053
 20
508.22574158893127
 11
1659.0484589683501
 21
509.66578833384858
  0
LINE
  8
_1-0_
  6
CONTINUOUS
 62
    7
 10
1659.0484589683501
 20
509.66578833384858
 11
1661.8279416588744
 21
510.80465883822052
  0
LINE
  8
_1-0_
  6
CONTINUOUS
 62
    7
 10
1661.8279416588744
 20
510.80465883822052
 11
1664.7167839138663
 21
511.62831133396929
  0
LINE
  8
_1-0_
  6
CONTINUOUS
 62
    7
 10
1664.7167839138663
 20
511.62831133396929
 11
1667.6789408208779
 21
512.12659725351227
  0
LINE
  8
_1-0_
  6
CONTINUOUS
 62
    7
 10
1667.6789408208779
 20
512.12659725351227
 11
1670.6781924921572
 21
512.29339246123914
  0
LINE
  8
_1-1_
  6
CONTINUOUS
 62
    7
 10
1358.104760600793
 20
1235.8085720695583
 11
1222.8176181749027
 21
1235.8085720695583
  0
LINE
  8
_1-1_
  6
CONTINUOUS
 62
    7
 10
1222.8176181749027
 20
1235.8085720695583
 11
1222.8176181749027
 21
1263.8085575177402
  0
LINE
  8
_1-1_
  6
CONTINUOUS
 62
    7
 10
1222.8176181749027
 20
1263.8085575177402
 11
1334.6185255602977
 21
1263.8085575177402
  0
LINE
  8
_1-1_
  6
CONTINUOUS
 62
    7
 10
1023.4238115700975
 20
1088.400365468618
 11
1366.2237896422162
 21
1088.400365468618
  0
LINE
  8
_1-1_
  6
CONTINUOUS
 62
    7
 10
1366.2237896422162
 20
1088.400365468618
 11
1366.2237896422162
 21
1058.4004123054415
  0
LINE
  8
_1-1_
  6
CONTINUOUS
 62
    7
 10
1366.2237896422162
 20
1058.4004123054415
 11
1023.4238115700975
 21
1058.4004123054415
  0
LINE
  8
_1-1_
  6
CONTINUOUS
 62
    7
 10
1023.4238115700975
 20
1058.4004123054415
 11
1023.4238115700975
 21
1088.400365468618
  0
LINE
  8
_1-1_
  6
CONTINUOUS
 62
    7
 10
1222.6690641425289
 20
1057.7956101701066
 11
1222.6690641425289
 21
1087.7026514473109
  0
LINE
  8
_1-1_
  6
CONTINUOUS
 62
    7
 10
1222.6690641425289
 20
1087.7026514473109
 11
1146.6690661456132
 21
1087.7026514473109
  0
LINE
  8
_1-1_
  6
CONTINUOUS
 62
    7
 10
1146.6690661456132
 20
1087.7026514473109
 11
1146.6690661456132
 21
1057.7956101701066
  0
LINE
  8
_1-0_
  6
CONTINUOUS
 62
    7
 10
1146.8183200791996
 20
1088.1714102844473
 11
1222.8183180761152
 21
1088.1714102844473
  0
LINE
  8
_1-0_
  6
CONTINUOUS
 62
    7
 10
1222.8183180761152
 20
1088.1714102844473
 11
1222.8183180761152
 21
1058.1714571212708
  0
LINE
  8
_1-0_
  6
CONTINUOUS
 62
    7
 10
1222.8183180761152
 20
1058.1714571212708
 11
1146.8183200791996
 21
1058.1714571212708
  0
LINE
  8
_1-0_
  6
CONTINUOUS
 62
    7
 10
1146.8183200791996
 20
1058.1714571212708
 11
1146.8183200791996
 21
1088.1714102844473
  0
LINE
  8
_1-0_
  6
CONTINUOUS
 62
    7
 10
1134.6381142516852
 20
1021.0375858734012
 11
1134.6381142516852
 21
1023.6983478207385
  0
LINE
  8
_1-0_
  6
CONTINUOUS
 62
    7
 10
1134.6381142516852
 20
1023.6983478207385
 11
1149.6381345770992
 21
1023.6983478207385
  0
LINE
  8
_1-0_
  6
CONTINUOUS
 62
    7
 10
1149.6381345770992
 20
1023.6983478207385
 11
1149.6381345770992
 21
1021.0375858734012
  0
LINE
  8
_1-0_
  6
CONTINUOUS
 62
    7
 10
1146.0590147511839
 20
1053.0429309859699
 11
1146.0590147511839
 21
1053.7003131999013
  0
LINE
  8
_1-0_
  6
CONTINUOUS
 62
    7
 10
1146.0590147511839
 20
1053.7003131999013
 11
1138.0589689159024
 21
1053.7003131999013
  0
LINE
  8
_1-0_
  6
CONTINUOUS
 62
    7
 10
1138.0589689159024
 20
1053.7003131999013
 11
1138.0589689159024
 21
1053.0429309859699
  0
LINE
  8
_1-0_
  6
CONTINUOUS
 62
    7
 10
1146.0590147511839
 20
1052.6429374429708
 11
1146.0590147511839
 21
1052.1804777167476
  0
LINE
  8
_1-0_
  6
CONTINUOUS
 62
    7
 10
1146.0590147511839
 20
1051.7803966860972
 11
1146.0590147511839
 21
1051.317936959874
  0
LINE
  8
_1-0_
  6
CONTINUOUS
 62
    7
 10
1146.0590147511839
 20
1050.9179434168752
 11
1146.0590147511839
 21
1050.455483690652
  0
LINE
  8
_1-0_
  6
CONTINUOUS
 62
    7
 10
1146.0590147511839
 20
1050.0554901476532
 11
1146.0590147511839
 21
1049.5930304214301
  0
LINE
  8
_1-0_
  6
CONTINUOUS
 62
    7
 10
1146.0590147511839
 20
1049.193036878431
 11
1146.0590147511839
 21
1048.7305771522078
  0
LINE
  8
_1-0_
  6
CONTINUOUS
 62
    7
 10
1146.0590147511839
 20
1048.330583609209
 11
1146.0590147511839
 21
1047.8681238829859
  0
LINE
  8
_1-0_
  6
CONTINUOUS
 62
    7
 10
1146.0590147511839
 20
1047.4681303399868
 11
1146.0590147511839
 21
1047.0055831261122
  0
LINE
  8
_1-0_
  6
CONTINUOUS
 62
    7
 10
1146.0590147511839
 20
1046.6055895831132
 11
1146.0590147511839
 21
1046.4705086490821
  0
LINE
  8
_1-0_
  6
CONTINUOUS
 62
    7
 10
1138.0589689159024
 20
1052.6429374429708
 11
1138.0589689159024
 21
1052.1804777167476
  0
LINE
  8
_1-0_
  6
CONTINUOUS
 62
    7
 10
1138.0589689159024
 20
1051.7803966860972
 11
1138.0589689159024
 21
1051.317936959874
  0
LINE
  8
_1-0_
  6
CONTINUOUS
 62
    7
 10
1138.0589689159024
 20
1050.9179434168752
 11
1138.0589689159024
 21
1050.455483690652
  0
LINE
  8
_1-0_
  6
CONTINUOUS
 62
    7
 10
1138.0589689159024
 20
1050.0554901476532
 11
1138.0589689159024
 21
1049.5930304214301
  0
LINE
  8
_1-0_
  6
CONTINUOUS
 62
    7
 10
1138.0589689159024
 20
1049.193036878431
 11
1138.0589689159024
 21
1048.7305771522078
  0
LINE
  8
_1-0_
  6
CONTINUOUS
 62
    7
 10
1138.0589689159024
 20
1048.330583609209
 11
1138.0589689159024
 21
1047.8681238829859
  0
LINE
  8
_1-0_
  6
CONTINUOUS
 62
    7
 10
1138.0589689159024
 20
1047.4681303399868
 11
1138.0589689159024
 21
1047.0055831261122
  0
LINE
  8
_1-0_
  6
CONTINUOUS
 62
    7
 10
1138.0589689159024
 20
1046.6055895831132
 11
1138.0589689159024
 21
1046.4705086490821
  0
LINE
  8
_1-0_
  6
CONTINUOUS
 62
    7
 10
1138.0589689159024
 20
1033.8498899835415
 11
1138.0589689159024
 21
1033.3874302573186
  0
LINE
  8
_1-0_
  6
CONTINUOUS
 62
    7
 10
1138.0589689159024
 20
1032.9874367143198
 11
1138.0589689159024
 21
1032.5249769880966
  0
LINE
  8
_1-0_
  6
CONTINUOUS
 62
    7
 10
1138.0589689159024
 20
1032.1249834450975
 11
1138.0589689159024
 21
1031.6625237188744
  0
LINE
  8
_1-0_
  6
CONTINUOUS
 62
    7
 10
1138.0589689159024
 20
1031.2625301758753
 11
1138.0589689159024
 21
1030.8000704496524
  0
LINE
  8
_1-0_
  6
CONTINUOUS
 62
    7
 10
1138.0589689159024
 20
1030.4000769066533
 11
1138.0589689159024
 21
1029.9376171804302
  0
LINE
  8
_1-0_
  6
CONTINUOUS
 62
    7
 10
1138.0589689159024
 20
1029.5375361497797
 11
1138.0589689159024
 21
1029.0750764235565
  0
LINE
  8
_1-0_
  6
CONTINUOUS
 62
    7
 10
1138.0589689159024
 20
1028.6750828805577
 11
1138.0589689159024
 21
1028.2126231543346
  0
LINE
  8
_1-0_
  6
CONTINUOUS
 62
    7
 10
1138.0589689159024
 20
1027.8126296113355
 11
1138.0589689159024
 21
1027.3501698851126
  0
LINE
  8
_1-0_
  6
CONTINUOUS
 62
    7
 10
1138.0589689159024
 20
1026.9501763421135
 11
1138.0589689159024
 21
1026.4877166158903
  0
LINE
  8
_1-0_
  6
CONTINUOUS
 62
    7
 10
1138.0589689159024
 20
1026.0877230728915
 11
1138.0589689159024
 21
1025.6252633466684
  0
LINE
  8
_1-0_
  6
CONTINUOUS
 62
    7
 10
1138.0589689159024
 20
1025.2252698036693
 11
1138.0589689159024
 21
1024.7627225897945
  0
LINE
  8
_1-0_
  6
CONTINUOUS
 62
    7
 10
1146.0590147511839
 20
1033.8498899835415
 11
1146.0590147511839
 21
1033.3874302573186
  0
LINE
  8
_1-0_
  6
CONTINUOUS
 62
    7
 10
1146.0590147511839
 20
1032.9874367143198
 11
1146.0590147511839
 21
1032.5249769880966
  0
LINE
  8
_1-0_
  6
CONTINUOUS
 62
    7
 10
1146.0590147511839
 20
1032.1249834450975
 11
1146.0590147511839
 21
1031.6625237188744
  0
LINE
  8
_1-0_
  6
CONTINUOUS
 62
    7
 10
1146.0590147511839
 20
1031.2625301758753
 11
1146.0590147511839
 21
1030.8000704496524
  0
LINE
  8
_1-0_
  6
CONTINUOUS
 62
    7
 10
1146.0590147511839
 20
1030.4000769066533
 11
1146.0590147511839
 21
1029.9376171804302
  0
LINE
  8
_1-0_
  6
CONTINUOUS
 62
    7
 10
1146.0590147511839
 20
1029.5375361497797
 11
1146.0590147511839
 21
1029.0750764235565
  0
LINE
  8
_1-0_
  6
CONTINUOUS
 62
    7
 10
1146.0590147511839
 20
1028.6750828805577
 11
1146.0590147511839
 21
1028.2126231543346
  0
LINE
  8
_1-0_
  6
CONTINUOUS
 62
    7
 10
1146.0590147511839
 20
1027.8126296113355
 11
1146.0590147511839
 21
1027.3501698851126
  0
LINE
  8
_1-0_
  6
CONTINUOUS
 62
    7
 10
1146.0590147511839
 20
1026.9501763421135
 11
1146.0590147511839
 21
1026.4877166158903
  0
LINE
  8
_1-0_
  6
CONTINUOUS
 62
    7
 10
1146.0590147511839
 20
1026.0877230728915
 11
1146.0590147511839
 21
1025.6252633466684
  0
LINE
  8
_1-0_
  6
CONTINUOUS
 62
    7
 10
1146.0590147511839
 20
1025.2252698036693
 11
1146.0590147511839
 21
1024.7627225897945
  0
LINE
  8
_1-0_
  6
CONTINUOUS
 62
    7
 10
1146.0590147511839
 20
1024.3627290467957
 11
1146.0590147511839
 21
1023.7002725490731
  0
LINE
  8
_1-0_
  6
CONTINUOUS
 62
    7
 10
1146.0590147511839
 20
1023.7002725490731
 11
1138.0589689159024
 21
1023.7002725490731
  0
LINE
  8
_1-0_
  6
CONTINUOUS
 62
    7
 10
1138.0589689159024
 20
1023.7002725490731
 11
1138.0589689159024
 21
1024.3627290467957
  0
LINE
  8
_1-0_
  6
CONTINUOUS
 62
    7
 10
1146.0590147511839
 20
1034.2499710141922
 11
1146.0590147511839
 21
1034.4704398961601
  0
LINE
  8
_1-0_
  6
CONTINUOUS
 62
    7
 10
1138.0589689159024
 20
1034.2499710141922
 11
1138.0589689159024
 21
1034.4723646244947
  0
LINE
  8
_1-0_
  6
CONTINUOUS
 62
    7
 10
1137.0589850584051
 20
1053.0429309859699
 11
1147.0589986086811
 21
1053.0429309859699
  0
LINE
  8
_1-0_
  6
CONTINUOUS
 62
    7
 10
1147.0589986086811
 20
1053.0429309859699
 11
1147.0589986086811
 21
1052.6429374429708
  0
LINE
  8
_1-0_
  6
CONTINUOUS
 62
    7
 10
1147.0589986086811
 20
1052.6429374429708
 11
1137.0589850584051
 21
1052.6429374429708
  0
LINE
  8
_1-0_
  6
CONTINUOUS
 62
    7
 10
1137.0589850584051
 20
1052.6429374429708
 11
1137.0589850584051
 21
1053.0429309859699
  0
LINE
  8
_1-0_
  6
CONTINUOUS
 62
    7
 10
1137.0589850584051
 20
1052.1804777167476
 11
1147.0589986086811
 21
1052.1804777167476
  0
LINE
  8
_1-0_
  6
CONTINUOUS
 62
    7
 10
1147.0589986086811
 20
1052.1804777167476
 11
1147.0589986086811
 21
1051.7803966860972
  0
LINE
  8
_1-0_
  6
CONTINUOUS
 62
    7
 10
1147.0589986086811
 20
1051.7803966860972
 11
1137.0589850584051
 21
1051.7803966860972
  0
LINE
  8
_1-0_
  6
CONTINUOUS
 62
    7
 10
1137.0589850584051
 20
1051.7803966860972
 11
1137.0589850584051
 21
1052.1804777167476
  0
LINE
  8
_1-0_
  6
CONTINUOUS
 62
    7
 10
1137.0589850584051
 20
1051.317936959874
 11
1147.0589986086811
 21
1051.317936959874
  0
LINE
  8
_1-0_
  6
CONTINUOUS
 62
    7
 10
1147.0589986086811
 20
1051.317936959874
 11
1147.0589986086811
 21
1050.9179434168752
  0
LINE
  8
_1-0_
  6
CONTINUOUS
 62
    7
 10
1147.0589986086811
 20
1050.9179434168752
 11
1137.0589850584051
 21
1050.9179434168752
  0
LINE
  8
_1-0_
  6
CONTINUOUS
 62
    7
 10
1137.0589850584051
 20
1050.9179434168752
 11
1137.0589850584051
 21
1051.317936959874
  0
LINE
  8
_1-0_
  6
CONTINUOUS
 62
    7
 10
1137.0589850584051
 20
1050.455483690652
 11
1147.0589986086811
 21
1050.455483690652
  0
LINE
  8
_1-0_
  6
CONTINUOUS
 62
    7
 10
1147.0589986086811
 20
1050.455483690652
 11
1147.0589986086811
 21
1050.0554901476532
  0
LINE
  8
_1-0_
  6
CONTINUOUS
 62
    7
 10
1147.0589986086811
 20
1050.0554901476532
 11
1137.0589850584051
 21
1050.0554901476532
  0
LINE
  8
_1-0_
  6
CONTINUOUS
 62
    7
 10
1137.0589850584051
 20
1050.0554901476532
 11
1137.0589850584051
 21
1050.455483690652
  0
LINE
  8
_1-0_
  6
CONTINUOUS
 62
    7
 10
1137.0589850584051
 20
1049.5930304214301
 11
1147.0589986086811
 21
1049.5930304214301
  0
LINE
  8
_1-0_
  6
CONTINUOUS
 62
    7
 10
1147.0589986086811
 20
1049.5930304214301
 11
1147.0589986086811
 21
1049.193036878431
  0
LINE
  8
_1-0_
  6
CONTINUOUS
 62
    7
 10
1147.0589986086811
 20
1049.193036878431
 11
1137.0589850584051
 21
1049.193036878431
  0
LINE
  8
_1-0_
  6
CONTINUOUS
 62
    7
 10
1137.0589850584051
 20
1049.193036878431
 11
1137.0589850584051
 21
1049.5930304214301
  0
LINE
  8
_1-0_
  6
CONTINUOUS
 62
    7
 10
1137.0589850584051
 20
1048.7305771522078
 11
1147.0589986086811
 21
1048.7305771522078
  0
LINE
  8
_1-0_
  6
CONTINUOUS
 62
    7
 10
1147.0589986086811
 20
1048.7305771522078
 11
1147.0589986086811
 21
1048.330583609209
  0
LINE
  8
_1-0_
  6
CONTINUOUS
 62
    7
 10
1147.0589986086811
 20
1048.330583609209
 11
1137.0589850584051
 21
1048.330583609209
  0
LINE
  8
_1-0_
  6
CONTINUOUS
 62
    7
 10
1137.0589850584051
 20
1048.330583609209
 11
1137.0589850584051
 21
1048.7305771522078
  0
LINE
  8
_1-0_
  6
CONTINUOUS
 62
    7
 10
1137.0589850584051
 20
1047.8681238829859
 11
1147.0589986086811
 21
1047.8681238829859
  0
LINE
  8
_1-0_
  6
CONTINUOUS
 62
    7
 10
1147.0589986086811
 20
1047.8681238829859
 11
1147.0589986086811
 21
1047.4681303399868
  0
LINE
  8
_1-0_
  6
CONTINUOUS
 62
    7
 10
1147.0589986086811
 20
1047.4681303399868
 11
1137.0589850584051
 21
1047.4681303399868
  0
LINE
  8
_1-0_
  6
CONTINUOUS
 62
    7
 10
1137.0589850584051
 20
1047.4681303399868
 11
1137.0589850584051
 21
1047.8681238829859
  0
LINE
  8
_1-0_
  6
CONTINUOUS
 62
    7
 10
1137.0589850584051
 20
1047.0055831261122
 11
1147.0589986086811
 21
1047.0055831261122
  0
LINE
  8
_1-0_
  6
CONTINUOUS
 62
    7
 10
1147.0589986086811
 20
1047.0055831261122
 11
1147.0589986086811
 21
1046.6055895831132
  0
LINE
  8
_1-0_
  6
CONTINUOUS
 62
    7
 10
1147.0589986086811
 20
1046.6055895831132
 11
1137.0589850584051
 21
1046.6055895831132
  0
LINE
  8
_1-0_
  6
CONTINUOUS
 62
    7
 10
1137.0589850584051
 20
1046.6055895831132
 11
1137.0589850584051
 21
1047.0055831261122
  0
LINE
  8
_1-0_
  6
CONTINUOUS
 62
    7
 10
1137.0589850584051
 20
1034.2499710141922
 11
1147.0589986086811
 21
1034.2499710141922
  0
LINE
  8
_1-0_
  6
CONTINUOUS
 62
    7
 10
1147.0589986086811
 20
1034.2499710141922
 11
1147.0589986086811
 21
1033.8498899835415
  0
LINE
  8
_1-0_
  6
CONTINUOUS
 62
    7
 10
1147.0589986086811
 20
1033.8498899835415
 11
1137.0589850584051
 21
1033.8498899835415
  0
LINE
  8
_1-0_
  6
CONTINUOUS
 62
    7
 10
1137.0589850584051
 20
1033.8498899835415
 11
1137.0589850584051
 21
1034.2499710141922
  0
LINE
  8
_1-0_
  6
CONTINUOUS
 62
    7
 10
1137.0589850584051
 20
1033.3874302573186
 11
1147.0589986086811
 21
1033.3874302573186
  0
LINE
  8
_1-0_
  6
CONTINUOUS
 62
    7
 10
1147.0589986086811
 20
1033.3874302573186
 11
1147.0589986086811
 21
1032.9874367143198
  0
LINE
  8
_1-0_
  6
CONTINUOUS
 62
    7
 10
1147.0589986086811
 20
1032.9874367143198
 11
1137.0589850584051
 21
1032.9874367143198
  0
LINE
  8
_1-0_
  6
CONTINUOUS
 62
    7
 10
1137.0589850584051
 20
1032.9874367143198
 11
1137.0589850584051
 21
1033.3874302573186
  0
LINE
  8
_1-0_
  6
CONTINUOUS
 62
    7
 10
1137.0589850584051
 20
1032.5249769880966
 11
1147.0589986086811
 21
1032.5249769880966
  0
LINE
  8
_1-0_
  6
CONTINUOUS
 62
    7
 10
1147.0589986086811
 20
1032.5249769880966
 11
1147.0589986086811
 21
1032.1249834450975
  0
LINE
  8
_1-0_
  6
CONTINUOUS
 62
    7
 10
1147.0589986086811
 20
1032.1249834450975
 11
1137.0589850584051
 21
1032.1249834450975
  0
LINE
  8
_1-0_
  6
CONTINUOUS
 62
    7
 10
1137.0589850584051
 20
1032.1249834450975
 11
1137.0589850584051
 21
1032.5249769880966
  0
LINE
  8
_1-0_
  6
CONTINUOUS
 62
    7
 10
1137.0589850584051
 20
1031.6625237188744
 11
1147.0589986086811
 21
1031.6625237188744
  0
LINE
  8
_1-0_
  6
CONTINUOUS
 62
    7
 10
1147.0589986086811
 20
1031.6625237188744
 11
1147.0589986086811
 21
1031.2625301758753
  0
LINE
  8
_1-0_
  6
CONTINUOUS
 62
    7
 10
1147.0589986086811
 20
1031.2625301758753
 11
1137.0589850584051
 21
1031.2625301758753
  0
LINE
  8
_1-0_
  6
CONTINUOUS
 62
    7
 10
1137.0589850584051
 20
1031.2625301758753
 11
1137.0589850584051
 21
1031.6625237188744
  0
LINE
  8
_1-0_
  6
CONTINUOUS
 62
    7
 10
1137.0589850584051
 20
1030.8000704496524
 11
1147.0589986086811
 21
1030.8000704496524
  0
LINE
  8
_1-0_
  6
CONTINUOUS
 62
    7
 10
1147.0589986086811
 20
1030.8000704496524
 11
1147.0589986086811
 21
1030.4000769066533
  0
LINE
  8
_1-0_
  6
CONTINUOUS
 62
    7
 10
1147.0589986086811
 20
1030.4000769066533
 11
1137.0589850584051
 21
1030.4000769066533
  0
LINE
  8
_1-0_
  6
CONTINUOUS
 62
    7
 10
1137.0589850584051
 20
1030.4000769066533
 11
1137.0589850584051
 21
1030.8000704496524
  0
LINE
  8
_1-0_
  6
CONTINUOUS
 62
    7
 10
1137.0589850584051
 20
1029.9376171804302
 11
1147.0589986086811
 21
1029.9376171804302
  0
LINE
  8
_1-0_
  6
CONTINUOUS
 62
    7
 10
1147.0589986086811
 20
1029.9376171804302
 11
1147.0589986086811
 21
1029.5375361497797
  0
LINE
  8
_1-0_
  6
CONTINUOUS
 62
    7
 10
1147.0589986086811
 20
1029.5375361497797
 11
1137.0589850584051
 21
1029.5375361497797
  0
LINE
  8
_1-0_
  6
CONTINUOUS
 62
    7
 10
1137.0589850584051
 20
1029.5375361497797
 11
1137.0589850584051
 21
1029.9376171804302
  0
LINE
  8
_1-0_
  6
CONTINUOUS
 62
    7
 10
1137.0589850584051
 20
1029.0750764235565
 11
1147.0589986086811
 21
1029.0750764235565
  0
LINE
  8
_1-0_
  6
CONTINUOUS
 62
    7
 10
1147.0589986086811
 20
1029.0750764235565
 11
1147.0589986086811
 21
1028.6750828805577
  0
LINE
  8
_1-0_
  6
CONTINUOUS
 62
    7
 10
1147.0589986086811
 20
1028.6750828805577
 11
1137.0589850584051
 21
1028.6750828805577
  0
LINE
  8
_1-0_
  6
CONTINUOUS
 62
    7
 10
1137.0589850584051
 20
1028.6750828805577
 11
1137.0589850584051
 21
1029.0750764235565
  0
LINE
  8
_1-0_
  6
CONTINUOUS
 62
    7
 10
1137.0589850584051
 20
1028.2126231543346
 11
1147.0589986086811
 21
1028.2126231543346
  0
LINE
  8
_1-0_
  6
CONTINUOUS
 62
    7
 10
1147.0589986086811
 20
1028.2126231543346
 11
1147.0589986086811
 21
1027.8126296113355
  0
LINE
  8
_1-0_
  6
CONTINUOUS
 62
    7
 10
1147.0589986086811
 20
1027.8126296113355
 11
1137.0589850584051
 21
1027.8126296113355
  0
LINE
  8
_1-0_
  6
CONTINUOUS
 62
    7
 10
1137.0589850584051
 20
1027.8126296113355
 11
1137.0589850584051
 21
1028.2126231543346
  0
LINE
  8
_1-0_
  6
CONTINUOUS
 62
    7
 10
1137.0589850584051
 20
1027.3501698851126
 11
1147.0589986086811
 21
1027.3501698851126
  0
LINE
  8
_1-0_
  6
CONTINUOUS
 62
    7
 10
1147.0589986086811
 20
1027.3501698851126
 11
1147.0589986086811
 21
1026.9501763421135
  0
LINE
  8
_1-0_
  6
CONTINUOUS
 62
    7
 10
1147.0589986086811
 20
1026.9501763421135
 11
1137.0589850584051
 21
1026.9501763421135
  0
LINE
  8
_1-0_
  6
CONTINUOUS
 62
    7
 10
1137.0589850584051
 20
1026.9501763421135
 11
1137.0589850584051
 21
1027.3501698851126
  0
LINE
  8
_1-0_
  6
CONTINUOUS
 62
    7
 10
1137.0589850584051
 20
1026.4877166158903
 11
1147.0589986086811
 21
1026.4877166158903
  0
LINE
  8
_1-0_
  6
CONTINUOUS
 62
    7
 10
1147.0589986086811
 20
1026.4877166158903
 11
1147.0589986086811
 21
1026.0877230728915
  0
LINE
  8
_1-0_
  6
CONTINUOUS
 62
    7
 10
1147.0589986086811
 20
1026.0877230728915
 11
1137.0589850584051
 21
1026.0877230728915
  0
LINE
  8
_1-0_
  6
CONTINUOUS
 62
    7
 10
1137.0589850584051
 20
1026.0877230728915
 11
1137.0589850584051
 21
1026.4877166158903
  0
LINE
  8
_1-0_
  6
CONTINUOUS
 62
    7
 10
1137.0589850584051
 20
1025.6252633466684
 11
1147.0589986086811
 21
1025.6252633466684
  0
LINE
  8
_1-0_
  6
CONTINUOUS
 62
    7
 10
1147.0589986086811
 20
1025.6252633466684
 11
1147.0589986086811
 21
1025.2252698036693
  0
LINE
  8
_1-0_
  6
CONTINUOUS
 62
    7
 10
1147.0589986086811
 20
1025.2252698036693
 11
1137.0589850584051
 21
1025.2252698036693
  0
LINE
  8
_1-0_
  6
CONTINUOUS
 62
    7
 10
1137.0589850584051
 20
1025.2252698036693
 11
1137.0589850584051
 21
1025.6252633466684
  0
LINE
  8
_1-0_
  6
CONTINUOUS
 62
    7
 10
1137.0589850584051
 20
1024.7627225897945
 11
1147.0589986086811
 21
1024.7627225897945
  0
LINE
  8
_1-0_
  6
CONTINUOUS
 62
    7
 10
1147.0589986086811
 20
1024.7627225897945
 11
1147.0589986086811
 21
1024.3627290467957
  0
LINE
  8
_1-0_
  6
CONTINUOUS
 62
    7
 10
1147.0589986086811
 20
1024.3627290467957
 11
1137.0589850584051
 21
1024.3627290467957
  0
LINE
  8
_1-0_
  6
CONTINUOUS
 62
    7
 10
1137.0589850584051
 20
1024.3627290467957
 11
1137.0589850584051
 21
1024.7627225897945
  0
LINE
  8
_1-0_
  6
CONTINUOUS
 62
    7
 10
1134.6381142516852
 20
1021.0376733610528
 11
1149.6381345770992
 21
1021.0376733610528
  0
LINE
  8
_1-0_
  6
CONTINUOUS
 62
    7
 10
1138.0589689159024
 20
1023.7002725490731
 11
1138.0589689159024
 21
1023.6983478207385
  0
LINE
  8
_1-0_
  6
CONTINUOUS
 62
    7
 10
1138.0589689159024
 20
1021.0376733610528
 11
1138.0589689159024
 21
1018.7002657739351
  0
LINE
  8
_1-0_
  6
CONTINUOUS
 62
    7
 10
1146.0590147511839
 20
1023.7002725490731
 11
1146.0590147511839
 21
1023.6983478207385
  0
LINE
  8
_1-0_
  6
CONTINUOUS
 62
    7
 10
1146.0590147511839
 20
1021.0376733610528
 11
1146.0590147511839
 21
1018.7002657739351
  0
LINE
  8
_1-0_
  6
CONTINUOUS
 62
    7
 10
1138.0589689159024
 20
1018.7002657739351
 11
1138.0589689159024
 21
1018.6040293572032
  0
LINE
  8
_1-0_
  6
CONTINUOUS
 62
    7
 10
1146.0590147511839
 20
1018.7002657739351
 11
1146.0590147511839
 21
1018.6031544806873
  0
LINE
  8
_1-0_
  6
CONTINUOUS
 62
    7
 10
1134.6381142516852
 20
1021.0376733610528
 11
1135.5024047615905
 21
1020.2552712930215
  0
LINE
  8
_1-0_
  6
CONTINUOUS
 62
    7
 10
1135.5024047615905
 20
1020.2552712930215
 11
1136.3847177277198
 21
1019.5778544068796
  0
LINE
  8
_1-0_
  6
CONTINUOUS
 62
    7
 10
1136.3847177277198
 20
1019.5778544068796
 11
1137.285228125377
 21
1019.0054227026271
  0
LINE
  8
_1-0_
  6
CONTINUOUS
 62
    7
 10
1137.285228125377
 20
1019.0054227026271
 11
1138.2037609792583
 21
1018.5378012049612
  0
LINE
  8
_1-0_
  6
CONTINUOUS
 62
    7
 10
1138.2037609792583
 20
1018.5378012049612
 11
1139.1404037770158
 21
1018.1752523768362
  0
LINE
  8
_1-0_
  6
CONTINUOUS
 62
    7
 10
1139.1404037770158
 20
1018.1752523768362
 11
1140.0951565186488
 21
1017.9175137552976
  0
LINE
  8
_1-0_
  6
CONTINUOUS
 62
    7
 10
1140.0951565186488
 20
1017.9175137552976
 11
1141.068019204158
 21
1017.7647603156482
  0
LINE
  8
_1-0_
  6
CONTINUOUS
 62
    7
 10
1141.068019204158
 20
1017.7647603156482
 11
1142.0589918335431
 21
1017.7169920578887
  0
LINE
  8
_1-0_
  6
CONTINUOUS
 62
    7
 10
1142.0589918335431
 20
1017.7169920578887
 11
1143.0524141171722
 21
1017.7729841548964
  0
LINE
  8
_1-0_
  6
CONTINUOUS
 62
    7
 10
1143.0524141171722
 20
1017.7729841548964
 11
1144.0327132530654
 21
1017.9315117795494
  0
LINE
  8
_1-0_
  6
CONTINUOUS
 62
    7
 10
1144.0327132530654
 20
1017.9315117795494
 11
1144.9998017535706
 21
1018.1926624194995
  0
LINE
  8
_1-0_
  6
CONTINUOUS
 62
    7
 10
1144.9998017535706
 20
1018.1926624194995
 11
1145.9537671063397
 21
1018.5565235623982
  0
LINE
  8
_1-0_
  6
CONTINUOUS
 62
    7
 10
1145.9537671063397
 20
1018.5565235623982
 11
1146.8946093113725
 21
1019.0228327452905
  0
LINE
  8
_1-0_
  6
CONTINUOUS
 62
    7
 10
1146.8946093113725
 20
1019.0228327452905
 11
1147.8222408810177
 21
1019.5918524311315
  0
LINE
  8
_1-0_
  6
CONTINUOUS
 62
    7
 10
1147.8222408810177
 20
1019.5918524311315
 11
1148.7367493029267
 21
1020.2634951322694
  0
LINE
  8
_1-0_
  6
CONTINUOUS
 62
    7
 10
1148.7367493029267
 20
1020.2634951322694
 11
1149.6381345770992
 21
1021.0376733610528
  0
LINE
  8
_1-0_
  6
CONTINUOUS
 62
    7
 10
1141.5283792267433
 20
1017.664062028686
 11
1141.5283792267433
 21
1019.3784700489413
  0
LINE
  8
_1-0_
  6
CONTINUOUS
 62
    7
 10
1141.5283792267433
 20
1019.3784700489413
 11
1142.5284505718923
 21
1019.3784700489413
  0
LINE
  8
_1-0_
  6
CONTINUOUS
 62
    7
 10
1142.5284505718923
 20
1019.3784700489413
 11
1142.5284505718923
 21
1017.7205790516031
  0
LINE
  8
_1-0_
  6
CONTINUOUS
 62
    7
 10
1221.6821159451163
 20
1021.0130893309604
 11
1221.6821159451163
 21
1023.673763790646
  0
LINE
  8
_1-0_
  6
CONTINUOUS
 62
    7
 10
1221.6821159451163
 20
1023.673763790646
 11
1236.6820487828788
 21
1023.673763790646
  0
LINE
  8
_1-0_
  6
CONTINUOUS
 62
    7
 10
1236.6820487828788
 20
1023.673763790646
 11
1236.6820487828788
 21
1021.0130893309604
  0
LINE
  8
_1-0_
  6
CONTINUOUS
 62
    7
 10
1225.1029706093334
 20
1034.4704398961601
 11
1225.1029706093334
 21
1034.2253869840997
  0
LINE
  8
_1-0_
  6
CONTINUOUS
 62
    7
 10
1225.1029706093334
 20
1033.8253934411007
 11
1225.1029706093334
 21
1033.3629337148775
  0
LINE
  8
_1-0_
  6
CONTINUOUS
 62
    7
 10
1225.1029706093334
 20
1032.9629401718787
 11
1225.1029706093334
 21
1032.5004804456555
  0
LINE
  8
_1-0_
  6
CONTINUOUS
 62
    7
 10
1225.1029706093334
 20
1032.1004869026567
 11
1225.1029706093334
 21
1031.6379396887819
  0
LINE
  8
_1-0_
  6
CONTINUOUS
 62
    7
 10
1225.1029706093334
 20
1031.2379461457831
 11
1225.1029706093334
 21
1030.7754864195599
  0
LINE
  8
_1-0_
  6
CONTINUOUS
 62
    7
 10
1225.1029706093334
 20
1030.3754928765609
 11
1225.1029706093334
 21
1029.9130331503377
  0
LINE
  8
_1-0_
  6
CONTINUOUS
 62
    7
 10
1225.1029706093334
 20
1029.5130396073389
 11
1225.1029706093334
 21
1029.0505798811157
  0
LINE
  8
_1-0_
  6
CONTINUOUS
 62
    7
 10
1225.1029706093334
 20
1028.6505863381169
 11
1225.1029706093334
 21
1028.1881266118937
  0
LINE
  8
_1-0_
  6
CONTINUOUS
 62
    7
 10
1225.1029706093334
 20
1027.7881330688947
 11
1225.1029706093334
 21
1027.3255858550201
  0
LINE
  8
_1-0_
  6
CONTINUOUS
 62
    7
 10
1225.1029706093334
 20
1026.9255923120211
 11
1225.1029706093334
 21
1026.4631325857979
  0
LINE
  8
_1-0_
  6
CONTINUOUS
 62
    7
 10
1225.1029706093334
 20
1026.0631390427991
 11
1225.1029706093334
 21
1025.6006793165759
  0
LINE
  8
_1-0_
  6
CONTINUOUS
 62
    7
 10
1225.1029706093334
 20
1025.2006857735769
 11
1225.1029706093334
 21
1024.7382260473537
  0
LINE
  8
_1-0_
  6
CONTINUOUS
 62
    7
 10
1233.1029289569633
 20
1033.8253934411007
 11
1233.1029289569633
 21
1033.3629337148775
  0
LINE
  8
_1-0_
  6
CONTINUOUS
 62
    7
 10
1233.1029289569633
 20
1032.9629401718787
 11
1233.1029289569633
 21
1032.5004804456555
  0
LINE
  8
_1-0_
  6
CONTINUOUS
 62
    7
 10
1233.1029289569633
 20
1032.1004869026567
 11
1233.1029289569633
 21
1031.6379396887819
  0
LINE
  8
_1-0_
  6
CONTINUOUS
 62
    7
 10
1233.1029289569633
 20
1031.2379461457831
 11
1233.1029289569633
 21
1030.7754864195599
  0
LINE
  8
_1-0_
  6
CONTINUOUS
 62
    7
 10
1233.1029289569633
 20
1030.3754928765609
 11
1233.1029289569633
 21
1029.9130331503377
  0
LINE
  8
_1-0_
  6
CONTINUOUS
 62
    7
 10
1233.1029289569633
 20
1029.5130396073389
 11
1233.1029289569633
 21
1029.0505798811157
  0
LINE
  8
_1-0_
  6
CONTINUOUS
 62
    7
 10
1233.1029289569633
 20
1028.6505863381169
 11
1233.1029289569633
 21
1028.1881266118937
  0
LINE
  8
_1-0_
  6
CONTINUOUS
 62
    7
 10
1233.1029289569633
 20
1027.7881330688947
 11
1233.1029289569633
 21
1027.3255858550201
  0
LINE
  8
_1-0_
  6
CONTINUOUS
 62
    7
 10
1233.1029289569633
 20
1026.9255923120211
 11
1233.1029289569633
 21
1026.4631325857979
  0
LINE
  8
_1-0_
  6
CONTINUOUS
 62
    7
 10
1233.1029289569633
 20
1026.0631390427991
 11
1233.1029289569633
 21
1025.6006793165759
  0
LINE
  8
_1-0_
  6
CONTINUOUS
 62
    7
 10
1233.1029289569633
 20
1025.2006857735769
 11
1233.1029289569633
 21
1024.7382260473537
  0
LINE
  8
_1-0_
  6
CONTINUOUS
 62
    7
 10
1233.1029289569633
 20
1024.3382325043549
 11
1233.1029289569633
 21
1023.6757760066323
  0
LINE
  8
_1-0_
  6
CONTINUOUS
 62
    7
 10
1233.1029289569633
 20
1023.6757760066323
 11
1225.1029706093334
 21
1023.6757760066323
  0
LINE
  8
_1-0_
  6
CONTINUOUS
 62
    7
 10
1225.1029706093334
 20
1023.6757760066323
 11
1225.1029706093334
 21
1024.3382325043549
  0
LINE
  8
_1-0_
  6
CONTINUOUS
 62
    7
 10
1233.1029289569633
 20
1034.2253869840997
 11
1233.1029289569633
 21
1034.54489188765
  0
LINE
  8
_1-0_
  6
CONTINUOUS
 62
    7
 10
1225.1029706093334
 20
1046.4705086490821
 11
1225.1029706093334
 21
1046.7624549423865
  0
LINE
  8
_1-0_
  6
CONTINUOUS
 62
    7
 10
1225.1029706093334
 20
1047.1624484853853
 11
1225.1029706093334
 21
1047.6249082116085
  0
LINE
  8
_1-0_
  6
CONTINUOUS
 62
    7
 10
1225.1029706093334
 20
1048.0249017546075
 11
1225.1029706093334
 21
1048.4873614808307
  0
LINE
  8
_1-0_
  6
CONTINUOUS
 62
    7
 10
1225.1029706093334
 20
1048.8873550238295
 11
1225.1029706093334
 21
1049.3498147500527
  0
LINE
  8
_1-0_
  6
CONTINUOUS
 62
    7
 10
1225.1029706093334
 20
1049.7498082930517
 11
1225.1029706093334
 21
1050.2123555069263
  0
LINE
  8
_1-0_
  6
CONTINUOUS
 62
    7
 10
1225.1029706093334
 20
1050.6123490499253
 11
1225.1029706093334
 21
1051.0748087761485
  0
LINE
  8
_1-0_
  6
CONTINUOUS
 62
    7
 10
1225.1029706093334
 20
1051.4748023191473
 11
1225.1029706093334
 21
1051.9372620453705
  0
LINE
  8
_1-0_
  6
CONTINUOUS
 62
    7
 10
1225.1029706093334
 20
1052.3372555883693
 11
1225.1029706093334
 21
1052.7997153145925
  0
LINE
  8
_1-0_
  6
CONTINUOUS
 62
    7
 10
1233.1029289569633
 20
1053.1997088575915
 11
1233.1029289569633
 21
1053.6757291698088
  0
LINE
  8
_1-0_
  6
CONTINUOUS
 62
    7
 10
1233.1029289569633
 20
1053.6757291698088
 11
1225.1029706093334
 21
1053.6757291698088
  0
LINE
  8
_1-0_
  6
CONTINUOUS
 62
    7
 10
1225.1029706093334
 20
1053.6757291698088
 11
1225.1029706093334
 21
1053.1997088575915
  0
LINE
  8
_1-0_
  6
CONTINUOUS
 62
    7
 10
1233.1029289569633
 20
1052.7997153145925
 11
1233.1029289569633
 21
1052.3372555883693
  0
LINE
  8
_1-0_
  6
CONTINUOUS
 62
    7
 10
1233.1029289569633
 20
1051.9372620453705
 11
1233.1029289569633
 21
1051.4748023191473
  0
LINE
  8
_1-0_
  6
CONTINUOUS
 62
    7
 10
1233.1029289569633
 20
1051.0748087761485
 11
1233.1029289569633
 21
1050.6123490499253
  0
LINE
  8
_1-0_
  6
CONTINUOUS
 62
    7
 10
1233.1029289569633
 20
1050.2123555069263
 11
1233.1029289569633
 21
1049.7498082930517
  0
LINE
  8
_1-0_
  6
CONTINUOUS
 62
    7
 10
1233.1029289569633
 20
1049.3498147500527
 11
1233.1029289569633
 21
1048.8873550238295
  0
LINE
  8
_1-0_
  6
CONTINUOUS
 62
    7
 10
1233.1029289569633
 20
1048.4873614808307
 11
1233.1029289569633
 21
1048.0249017546075
  0
LINE
  8
_1-0_
  6
CONTINUOUS
 62
    7
 10
1233.1029289569633
 20
1047.6249082116085
 11
1233.1029289569633
 21
1047.1624484853853
  0
LINE
  8
_1-0_
  6
CONTINUOUS
 62
    7
 10
1233.1029289569633
 20
1046.7624549423865
 11
1233.1029289569633
 21
1046.4705086490821
  0
LINE
  8
_1-0_
  6
CONTINUOUS
 62
    7
 10
1224.1029867518362
 20
1053.1997088575915
 11
1234.1030003021122
 21
1053.1997088575915
  0
LINE
  8
_1-0_
  6
CONTINUOUS
 62
    7
 10
1234.1030003021122
 20
1053.1997088575915
 11
1234.1030003021122
 21
1052.7997153145925
  0
LINE
  8
_1-0_
  6
CONTINUOUS
 62
    7
 10
1234.1030003021122
 20
1052.7997153145925
 11
1224.1029867518362
 21
1052.7997153145925
  0
LINE
  8
_1-0_
  6
CONTINUOUS
 62
    7
 10
1224.1029867518362
 20
1052.7997153145925
 11
1224.1029867518362
 21
1053.1997088575915
  0
LINE
  8
_1-0_
  6
CONTINUOUS
 62
    7
 10
1224.1029867518362
 20
1052.3372555883693
 11
1234.1030003021122
 21
1052.3372555883693
  0
LINE
  8
_1-0_
  6
CONTINUOUS
 62
    7
 10
1234.1030003021122
 20
1052.3372555883693
 11
1234.1030003021122
 21
1051.9372620453705
  0
LINE
  8
_1-0_
  6
CONTINUOUS
 62
    7
 10
1234.1030003021122
 20
1051.9372620453705
 11
1224.1029867518362
 21
1051.9372620453705
  0
LINE
  8
_1-0_
  6
CONTINUOUS
 62
    7
 10
1224.1029867518362
 20
1051.9372620453705
 11
1224.1029867518362
 21
1052.3372555883693
  0
LINE
  8
_1-0_
  6
CONTINUOUS
 62
    7
 10
1224.1029867518362
 20
1051.4748023191473
 11
1234.1030003021122
 21
1051.4748023191473
  0
LINE
  8
_1-0_
  6
CONTINUOUS
 62
    7
 10
1234.1030003021122
 20
1051.4748023191473
 11
1234.1030003021122
 21
1051.0748087761485
  0
LINE
  8
_1-0_
  6
CONTINUOUS
 62
    7
 10
1234.1030003021122
 20
1051.0748087761485
 11
1224.1029867518362
 21
1051.0748087761485
  0
LINE
  8
_1-0_
  6
CONTINUOUS
 62
    7
 10
1224.1029867518362
 20
1051.0748087761485
 11
1224.1029867518362
 21
1051.4748023191473
  0
LINE
  8
_1-0_
  6
CONTINUOUS
 62
    7
 10
1224.1029867518362
 20
1050.6123490499253
 11
1234.1030003021122
 21
1050.6123490499253
  0
LINE
  8
_1-0_
  6
CONTINUOUS
 62
    7
 10
1234.1030003021122
 20
1050.6123490499253
 11
1234.1030003021122
 21
1050.2123555069263
  0
LINE
  8
_1-0_
  6
CONTINUOUS
 62
    7
 10
1234.1030003021122
 20
1050.2123555069263
 11
1224.1029867518362
 21
1050.2123555069263
  0
LINE
  8
_1-0_
  6
CONTINUOUS
 62
    7
 10
1224.1029867518362
 20
1050.2123555069263
 11
1224.1029867518362
 21
1050.6123490499253
  0
LINE
  8
_1-0_
  6
CONTINUOUS
 62
    7
 10
1224.1029867518362
 20
1049.7498082930517
 11
1234.1030003021122
 21
1049.7498082930517
  0
LINE
  8
_1-0_
  6
CONTINUOUS
 62
    7
 10
1234.1030003021122
 20
1049.7498082930517
 11
1234.1030003021122
 21
1049.3498147500527
  0
LINE
  8
_1-0_
  6
CONTINUOUS
 62
    7
 10
1234.1030003021122
 20
1049.3498147500527
 11
1224.1029867518362
 21
1049.3498147500527
  0
LINE
  8
_1-0_
  6
CONTINUOUS
 62
    7
 10
1224.1029867518362
 20
1049.3498147500527
 11
1224.1029867518362
 21
1049.7498082930517
  0
LINE
  8
_1-0_
  6
CONTINUOUS
 62
    7
 10
1224.1029867518362
 20
1048.8873550238295
 11
1234.1030003021122
 21
1048.8873550238295
  0
LINE
  8
_1-0_
  6
CONTINUOUS
 62
    7
 10
1234.1030003021122
 20
1048.8873550238295
 11
1234.1030003021122
 21
1048.4873614808307
  0
LINE
  8
_1-0_
  6
CONTINUOUS
 62
    7
 10
1234.1030003021122
 20
1048.4873614808307
 11
1224.1029867518362
 21
1048.4873614808307
  0
LINE
  8
_1-0_
  6
CONTINUOUS
 62
    7
 10
1224.1029867518362
 20
1048.4873614808307
 11
1224.1029867518362
 21
1048.8873550238295
  0
LINE
  8
_1-0_
  6
CONTINUOUS
 62
    7
 10
1224.1029867518362
 20
1048.0249017546075
 11
1234.1030003021122
 21
1048.0249017546075
  0
LINE
  8
_1-0_
  6
CONTINUOUS
 62
    7
 10
1234.1030003021122
 20
1048.0249017546075
 11
1234.1030003021122
 21
1047.6249082116085
  0
LINE
  8
_1-0_
  6
CONTINUOUS
 62
    7
 10
1234.1030003021122
 20
1047.6249082116085
 11
1224.1029867518362
 21
1047.6249082116085
  0
LINE
  8
_1-0_
  6
CONTINUOUS
 62
    7
 10
1224.1029867518362
 20
1047.6249082116085
 11
1224.1029867518362
 21
1048.0249017546075
  0
LINE
  8
_1-0_
  6
CONTINUOUS
 62
    7
 10
1224.1029867518362
 20
1047.1624484853853
 11
1234.1030003021122
 21
1047.1624484853853
  0
LINE
  8
_1-0_
  6
CONTINUOUS
 62
    7
 10
1234.1030003021122
 20
1047.1624484853853
 11
1234.1030003021122
 21
1046.7624549423865
  0
LINE
  8
_1-0_
  6
CONTINUOUS
 62
    7
 10
1234.1030003021122
 20
1046.7624549423865
 11
1224.1029867518362
 21
1046.7624549423865
  0
LINE
  8
_1-0_
  6
CONTINUOUS
 62
    7
 10
1224.1029867518362
 20
1046.7624549423865
 11
1224.1029867518362
 21
1047.1624484853853
  0
LINE
  8
_1-0_
  6
CONTINUOUS
 62
    7
 10
1224.1029867518362
 20
1034.2253869840997
 11
1234.1030003021122
 21
1034.2253869840997
  0
LINE
  8
_1-0_
  6
CONTINUOUS
 62
    7
 10
1234.1030003021122
 20
1034.2253869840997
 11
1234.1030003021122
 21
1033.8253934411007
  0
LINE
  8
_1-0_
  6
CONTINUOUS
 62
    7
 10
1234.1030003021122
 20
1033.8253934411007
 11
1224.1029867518362
 21
1033.8253934411007
  0
LINE
  8
_1-0_
  6
CONTINUOUS
 62
    7
 10
1224.1029867518362
 20
1033.8253934411007
 11
1224.1029867518362
 21
1034.2253869840997
  0
LINE
  8
_1-0_
  6
CONTINUOUS
 62
    7
 10
1224.1029867518362
 20
1033.3629337148775
 11
1234.1030003021122
 21
1033.3629337148775
  0
LINE
  8
_1-0_
  6
CONTINUOUS
 62
    7
 10
1234.1030003021122
 20
1033.3629337148775
 11
1234.1030003021122
 21
1032.9629401718787
  0
LINE
  8
_1-0_
  6
CONTINUOUS
 62
    7
 10
1234.1030003021122
 20
1032.9629401718787
 11
1224.1029867518362
 21
1032.9629401718787
  0
LINE
  8
_1-0_
  6
CONTINUOUS
 62
    7
 10
1224.1029867518362
 20
1032.9629401718787
 11
1224.1029867518362
 21
1033.3629337148775
  0
LINE
  8
_1-0_
  6
CONTINUOUS
 62
    7
 10
1224.1029867518362
 20
1032.5004804456555
 11
1234.1030003021122
 21
1032.5004804456555
  0
LINE
  8
_1-0_
  6
CONTINUOUS
 62
    7
 10
1234.1030003021122
 20
1032.5004804456555
 11
1234.1030003021122
 21
1032.1004869026567
  0
LINE
  8
_1-0_
  6
CONTINUOUS
 62
    7
 10
1234.1030003021122
 20
1032.1004869026567
 11
1224.1029867518362
 21
1032.1004869026567
  0
LINE
  8
_1-0_
  6
CONTINUOUS
 62
    7
 10
1224.1029867518362
 20
1032.1004869026567
 11
1224.1029867518362
 21
1032.5004804456555
  0
LINE
  8
_1-0_
  6
CONTINUOUS
 62
    7
 10
1224.1029867518362
 20
1031.6379396887819
 11
1234.1030003021122
 21
1031.6379396887819
  0
LINE
  8
_1-0_
  6
CONTINUOUS
 62
    7
 10
1234.1030003021122
 20
1031.6379396887819
 11
1234.1030003021122
 21
1031.2379461457831
  0
LINE
  8
_1-0_
  6
CONTINUOUS
 62
    7
 10
1234.1030003021122
 20
1031.2379461457831
 11
1224.1029867518362
 21
1031.2379461457831
  0
LINE
  8
_1-0_
  6
CONTINUOUS
 62
    7
 10
1224.1029867518362
 20
1031.2379461457831
 11
1224.1029867518362
 21
1031.6379396887819
  0
LINE
  8
_1-0_
  6
CONTINUOUS
 62
    7
 10
1224.1029867518362
 20
1030.7754864195599
 11
1234.1030003021122
 21
1030.7754864195599
  0
LINE
  8
_1-0_
  6
CONTINUOUS
 62
    7
 10
1234.1030003021122
 20
1030.7754864195599
 11
1234.1030003021122
 21
1030.3754928765609
  0
LINE
  8
_1-0_
  6
CONTINUOUS
 62
    7
 10
1234.1030003021122
 20
1030.3754928765609
 11
1224.1029867518362
 21
1030.3754928765609
  0
LINE
  8
_1-0_
  6
CONTINUOUS
 62
    7
 10
1224.1029867518362
 20
1030.3754928765609
 11
1224.1029867518362
 21
1030.7754864195599
  0
LINE
  8
_1-0_
  6
CONTINUOUS
 62
    7
 10
1224.1029867518362
 20
1029.9130331503377
 11
1234.1030003021122
 21
1029.9130331503377
  0
LINE
  8
_1-0_
  6
CONTINUOUS
 62
    7
 10
1234.1030003021122
 20
1029.9130331503377
 11
1234.1030003021122
 21
1029.5130396073389
  0
LINE
  8
_1-0_
  6
CONTINUOUS
 62
    7
 10
1234.1030003021122
 20
1029.5130396073389
 11
1224.1029867518362
 21
1029.5130396073389
  0
LINE
  8
_1-0_
  6
CONTINUOUS
 62
    7
 10
1224.1029867518362
 20
1029.5130396073389
 11
1224.1029867518362
 21
1029.9130331503377
  0
LINE
  8
_1-0_
  6
CONTINUOUS
 62
    7
 10
1224.1029867518362
 20
1029.0505798811157
 11
1234.1030003021122
 21
1029.0505798811157
  0
LINE
  8
_1-0_
  6
CONTINUOUS
 62
    7
 10
1234.1030003021122
 20
1029.0505798811157
 11
1234.1030003021122
 21
1028.6505863381169
  0
LINE
  8
_1-0_
  6
CONTINUOUS
 62
    7
 10
1234.1030003021122
 20
1028.6505863381169
 11
1224.1029867518362
 21
1028.6505863381169
  0
LINE
  8
_1-0_
  6
CONTINUOUS
 62
    7
 10
1224.1029867518362
 20
1028.6505863381169
 11
1224.1029867518362
 21
1029.0505798811157
  0
LINE
  8
_1-0_
  6
CONTINUOUS
 62
    7
 10
1224.1029867518362
 20
1028.1881266118937
 11
1234.1030003021122
 21
1028.1881266118937
  0
LINE
  8
_1-0_
  6
CONTINUOUS
 62
    7
 10
1234.1030003021122
 20
1028.1881266118937
 11
1234.1030003021122
 21
1027.7881330688947
  0
LINE
  8
_1-0_
  6
CONTINUOUS
 62
    7
 10
1234.1030003021122
 20
1027.7881330688947
 11
1224.1029867518362
 21
1027.7881330688947
  0
LINE
  8
_1-0_
  6
CONTINUOUS
 62
    7
 10
1224.1029867518362
 20
1027.7881330688947
 11
1224.1029867518362
 21
1028.1881266118937
  0
LINE
  8
_1-0_
  6
CONTINUOUS
 62
    7
 10
1224.1029867518362
 20
1027.3255858550201
 11
1234.1030003021122
 21
1027.3255858550201
  0
LINE
  8
_1-0_
  6
CONTINUOUS
 62
    7
 10
1234.1030003021122
 20
1027.3255858550201
 11
1234.1030003021122
 21
1026.9255923120211
  0
LINE
  8
_1-0_
  6
CONTINUOUS
 62
    7
 10
1234.1030003021122
 20
1026.9255923120211
 11
1224.1029867518362
 21
1026.9255923120211
  0
LINE
  8
_1-0_
  6
CONTINUOUS
 62
    7
 10
1224.1029867518362
 20
1026.9255923120211
 11
1224.1029867518362
 21
1027.3255858550201
  0
LINE
  8
_1-0_
  6
CONTINUOUS
 62
    7
 10
1224.1029867518362
 20
1026.4631325857979
 11
1234.1030003021122
 21
1026.4631325857979
  0
LINE
  8
_1-0_
  6
CONTINUOUS
 62
    7
 10
1234.1030003021122
 20
1026.4631325857979
 11
1234.1030003021122
 21
1026.0631390427991
  0
LINE
  8
_1-0_
  6
CONTINUOUS
 62
    7
 10
1234.1030003021122
 20
1026.0631390427991
 11
1224.1029867518362
 21
1026.0631390427991
  0
LINE
  8
_1-0_
  6
CONTINUOUS
 62
    7
 10
1224.1029867518362
 20
1026.0631390427991
 11
1224.1029867518362
 21
1026.4631325857979
  0
LINE
  8
_1-0_
  6
CONTINUOUS
 62
    7
 10
1224.1029867518362
 20
1025.6006793165759
 11
1234.1030003021122
 21
1025.6006793165759
  0
LINE
  8
_1-0_
  6
CONTINUOUS
 62
    7
 10
1234.1030003021122
 20
1025.6006793165759
 11
1234.1030003021122
 21
1025.2006857735769
  0
LINE
  8
_1-0_
  6
CONTINUOUS
 62
    7
 10
1234.1030003021122
 20
1025.2006857735769
 11
1224.1029867518362
 21
1025.2006857735769
  0
LINE
  8
_1-0_
  6
CONTINUOUS
 62
    7
 10
1224.1029867518362
 20
1025.2006857735769
 11
1224.1029867518362
 21
1025.6006793165759
  0
LINE
  8
_1-0_
  6
CONTINUOUS
 62
    7
 10
1224.1029867518362
 20
1024.7382260473537
 11
1234.1030003021122
 21
1024.7382260473537
  0
LINE
  8
_1-0_
  6
CONTINUOUS
 62
    7
 10
1234.1030003021122
 20
1024.7382260473537
 11
1234.1030003021122
 21
1024.3382325043549
  0
LINE
  8
_1-0_
  6
CONTINUOUS
 62
    7
 10
1234.1030003021122
 20
1024.3382325043549
 11
1224.1029867518362
 21
1024.3382325043549
  0
LINE
  8
_1-0_
  6
CONTINUOUS
 62
    7
 10
1224.1029867518362
 20
1024.3382325043549
 11
1224.1029867518362
 21
1024.7382260473537
  0
LINE
  8
_1-0_
  6
CONTINUOUS
 62
    7
 10
1221.6821159451163
 20
1021.0131768186119
 11
1236.6820487828788
 21
1021.0131768186119
  0
LINE
  8
_1-0_
  6
CONTINUOUS
 62
    7
 10
1225.1029706093334
 20
1023.6757760066323
 11
1225.1029706093334
 21
1023.673763790646
  0
LINE
  8
_1-0_
  6
CONTINUOUS
 62
    7
 10
1225.1029706093334
 20
1021.0131768186119
 11
1225.1029706093334
 21
1018.6757692314943
  0
LINE
  8
_1-0_
  6
CONTINUOUS
 62
    7
 10
1233.1029289569633
 20
1023.6757760066323
 11
1233.1029289569633
 21
1023.673763790646
  0
LINE
  8
_1-0_
  6
CONTINUOUS
 62
    7
 10
1233.1029289569633
 20
1021.0131768186119
 11
1233.1029289569633
 21
1018.6757692314943
  0
LINE
  8
_1-0_
  6
CONTINUOUS
 62
    7
 10
1225.1029706093334
 20
1018.6757692314943
 11
1225.1029706093334
 21
1018.5794453271108
  0
LINE
  8
_1-0_
  6
CONTINUOUS
 62
    7
 10
1233.1029289569633
 20
1018.6757692314943
 11
1233.1029289569633
 21
1018.578570450595
  0
LINE
  8
_1-0_
  6
CONTINUOUS
 62
    7
 10
1221.6821159451163
 20
1021.0131768186119
 11
1222.5463189673699
 21
1020.2307747505806
  0
LINE
  8
_1-0_
  6
CONTINUOUS
 62
    7
 10
1222.5463189673699
 20
1020.2307747505806
 11
1223.4287194211511
 21
1019.5533578644387
  0
LINE
  8
_1-0_
  6
CONTINUOUS
 62
    7
 10
1223.4287194211511
 20
1019.5533578644387
 11
1224.3291423311564
 21
1018.9808386725348
  0
LINE
  8
_1-0_
  6
CONTINUOUS
 62
    7
 10
1224.3291423311564
 20
1018.9808386725348
 11
1225.2477626726893
 21
1018.5133046625202
  0
LINE
  8
_1-0_
  6
CONTINUOUS
 62
    7
 10
1225.2477626726893
 20
1018.5133046625202
 11
1226.1844054704468
 21
1018.1506683467437
  0
LINE
  8
_1-0_
  6
CONTINUOUS
 62
    7
 10
1226.1844054704468
 20
1018.1506683467437
 11
1227.13915821208
 21
1017.8930172128566
  0
LINE
  8
_1-0_
  6
CONTINUOUS
 62
    7
 10
1227.13915821208
 20
1017.8930172128566
 11
1228.112020897589
 21
1017.7402637732074
  0
LINE
  8
_1-0_
  6
CONTINUOUS
 62
    7
 10
1228.112020897589
 20
1017.7402637732074
 11
1229.1029935269742
 21
1017.6924080277962
  0
LINE
  8
_1-0_
  6
CONTINUOUS
 62
    7
 10
1229.1029935269742
 20
1017.6924080277962
 11
1230.0964158106033
 21
1017.7484001248038
  0
LINE
  8
_1-0_
  6
CONTINUOUS
 62
    7
 10
1230.0964158106033
 20
1017.7484001248038
 11
1231.0766274588448
 21
1017.9070152371085
  0
LINE
  8
_1-0_
  6
CONTINUOUS
 62
    7
 10
1231.0766274588448
 20
1017.9070152371085
 11
1232.0438034470017
 21
1018.1681658770585
  0
LINE
  8
_1-0_
  6
CONTINUOUS
 62
    7
 10
1232.0438034470017
 20
1018.1681658770585
 11
1232.9977687997707
 21
1018.5319395323057
  0
LINE
  8
_1-0_
  6
CONTINUOUS
 62
    7
 10
1232.9977687997707
 20
1018.5319395323057
 11
1233.9385235171519
 21
1018.9983362028497
  0
LINE
  8
_1-0_
  6
CONTINUOUS
 62
    7
 10
1233.9385235171519
 20
1018.9983362028497
 11
1234.8662425744487
 21
1019.5673558886906
  0
LINE
  8
_1-0_
  6
CONTINUOUS
 62
    7
 10
1234.8662425744487
 20
1019.5673558886906
 11
1235.7807509963575
 21
1020.2389111021771
  0
LINE
  8
_1-0_
  6
CONTINUOUS
 62
    7
 10
1235.7807509963575
 20
1020.2389111021771
 11
1236.6820487828788
 21
1021.0131768186119
  0
LINE
  8
_1-0_
  6
CONTINUOUS
 62
    7
 10
1228.5723809201745
 20
1017.639565486245
 11
1228.5723809201745
 21
1019.3538860188487
  0
LINE
  8
_1-0_
  6
CONTINUOUS
 62
    7
 10
1228.5723809201745
 20
1019.3538860188487
 11
1229.5723647776717
 21
1019.3538860188487
  0
LINE
  8
_1-0_
  6
CONTINUOUS
 62
    7
 10
1229.5723647776717
 20
1019.3538860188487
 11
1229.5723647776717
 21
1017.6960825091622
  0
LINE
  8
_1-0_
  6
CONTINUOUS
 62
    7
 10
1217.3688872348387
 20
1087.7026514473109
 11
1217.3688872348387
 21
1087.910084669194
  0
LINE
  8
_1-0_
  6
CONTINUOUS
 62
    7
 10
1217.3688872348387
 20
1087.910084669194
 11
1153.368957990845
 21
1087.910084669194
  0
LINE
  8
_1-0_
  6
CONTINUOUS
 62
    7
 10
1153.368957990845
 20
1087.910084669194
 11
1153.368957990845
 21
1087.7026514473109
  0
LINE
  8
_1-0_
  6
CONTINUOUS
 62
    7
 10
1217.3688872348387
 20
1085.8816834674378
 11
1217.3688872348387
 21
1083.6449741672825
  0
LINE
  8
_1-0_
  6
CONTINUOUS
 62
    7
 10
1217.3688872348387
 20
1081.6449189646364
 11
1217.3688872348387
 21
1079.4082096644811
  0
LINE
  8
_1-0_
  6
CONTINUOUS
 62
    7
 10
1217.3688872348387
 20
1077.4081544618348
 11
1217.3688872348387
 21
1075.1714451616795
  0
LINE
  8
_1-0_
  6
CONTINUOUS
 62
    7
 10
1217.3688872348387
 20
1073.171477446685
 11
1217.3688872348387
 21
1070.9346806588781
  0
LINE
  8
_1-0_
  6
CONTINUOUS
 62
    7
 10
1217.3688872348387
 20
1068.9347129438834
 11
1217.3688872348387
 21
1066.6979161560764
  0
LINE
  8
_1-0_
  6
CONTINUOUS
 62
    7
 10
1217.3688872348387
 20
1064.697948441082
 11
1217.3688872348387
 21
1062.4612391409266
  0
LINE
  8
_1-0_
  6
CONTINUOUS
 62
    7
 10
1217.3688872348387
 20
1060.4611839382803
 11
1217.3688872348387
 21
1057.7956101701066
  0
LINE
  8
_1-0_
  6
CONTINUOUS
 62
    7
 10
1217.3688872348387
 20
1056.1079733712331
 11
1217.3688872348387
 21
1055.7956424551119
  0
LINE
  8
_1-0_
  6
CONTINUOUS
 62
    7
 10
1217.3688872348387
 20
1054.1080056562387
 11
1217.3688872348387
 21
1053.9877101353236
  0
LINE
  8
_1-0_
  6
CONTINUOUS
 62
    7
 10
1217.3688872348387
 20
1051.9877424203289
 11
1217.3688872348387
 21
1049.7509456325222
  0
LINE
  8
_1-0_
  6
CONTINUOUS
 62
    7
 10
1217.3688872348387
 20
1047.7509779175275
 11
1217.3688872348387
 21
1046.4705086490821
  0
LINE
  8
_1-0_
  6
CONTINUOUS
 62
    7
 10
1153.368957990845
 20
1085.8816834674378
 11
1153.368957990845
 21
1083.6449741672825
  0
LINE
  8
_1-0_
  6
CONTINUOUS
 62
    7
 10
1153.368957990845
 20
1081.6449189646364
 11
1153.368957990845
 21
1079.4082096644811
  0
LINE
  8
_1-0_
  6
CONTINUOUS
 62
    7
 10
1153.368957990845
 20
1077.4081544618348
 11
1153.368957990845
 21
1075.1714451616795
  0
LINE
  8
_1-0_
  6
CONTINUOUS
 62
    7
 10
1153.368957990845
 20
1073.171477446685
 11
1153.368957990845
 21
1070.9346806588781
  0
LINE
  8
_1-0_
  6
CONTINUOUS
 62
    7
 10
1153.368957990845
 20
1068.9347129438834
 11
1153.368957990845
 21
1066.6979161560764
  0
LINE
  8
_1-0_
  6
CONTINUOUS
 62
    7
 10
1153.368957990845
 20
1064.697948441082
 11
1153.368957990845
 21
1062.4612391409266
  0
LINE
  8
_1-0_
  6
CONTINUOUS
 62
    7
 10
1153.368957990845
 20
1060.4611839382803
 11
1153.368957990845
 21
1057.7956101701066
  0
LINE
  8
_1-0_
  6
CONTINUOUS
 62
    7
 10
1153.368957990845
 20
1056.1079733712331
 11
1153.368957990845
 21
1055.7956424551119
  0
LINE
  8
_1-0_
  6
CONTINUOUS
 62
    7
 10
1153.368957990845
 20
1054.1080056562387
 11
1153.368957990845
 21
1053.9877101353236
  0
LINE
  8
_1-0_
  6
CONTINUOUS
 62
    7
 10
1153.368957990845
 20
1051.9877424203289
 11
1153.368957990845
 21
1049.7509456325222
  0
LINE
  8
_1-0_
  6
CONTINUOUS
 62
    7
 10
1153.368957990845
 20
1047.7509779175275
 11
1153.368957990845
 21
1046.4705086490821
  0
LINE
  8
_1-0_
  6
CONTINUOUS
 62
    7
 10
1165.9462702688563
 20
997.9100502043616
 11
1217.3688872348387
 21
997.9100502043616
  0
LINE
  8
_1-0_
  6
CONTINUOUS
 62
    7
 10
1217.3688872348387
 20
997.9100502043616
 11
1217.3688872348387
 21
1034.4704398961601
  0
LINE
  8
_1-0_
  6
CONTINUOUS
 62
    7
 10
1158.2358085602866
 20
997.9100502043616
 11
1153.368957990845
 21
997.9100502043616
  0
LINE
  8
_1-0_
  6
CONTINUOUS
 62
    7
 10
1153.368957990845
 20
997.9100502043616
 11
1153.368957990845
 21
1034.4704398961601
  0
LINE
  8
_1-1_
  6
CONTINUOUS
 62
    7
 10
1151.3377571842384
 20
1087.8816511824325
 11
1219.3377093458728
 21
1087.8816511824325
  0
LINE
  8
_1-1_
  6
CONTINUOUS
 62
    7
 10
1219.3377093458728
 20
1087.8816511824325
 11
1219.3377093458728
 21
1085.8816834674378
  0
LINE
  8
_1-1_
  6
CONTINUOUS
 62
    7
 10
1219.3377093458728
 20
1085.8816834674378
 11
1151.3377571842384
 21
1085.8816834674378
  0
LINE
  8
_1-1_
  6
CONTINUOUS
 62
    7
 10
1151.3377571842384
 20
1085.8816834674378
 11
1151.3377571842384
 21
1087.8816511824325
  0
LINE
  8
_1-1_
  6
CONTINUOUS
 62
    7
 10
1151.3391569866635
 20
1083.6449741672825
 11
1219.3391966359495
 21
1083.6449741672825
  0
LINE
  8
_1-1_
  6
CONTINUOUS
 62
    7
 10
1219.3391966359495
 20
1083.6449741672825
 11
1219.3391966359495
 21
1081.6449189646364
  0
LINE
  8
_1-1_
  6
CONTINUOUS
 62
    7
 10
1219.3391966359495
 20
1081.6449189646364
 11
1151.3391569866635
 21
1081.6449189646364
  0
LINE
  8
_1-1_
  6
CONTINUOUS
 62
    7
 10
1151.3391569866635
 20
1081.6449189646364
 11
1151.3391569866635
 21
1083.6449741672825
  0
LINE
  8
_1-1_
  6
CONTINUOUS
 62
    7
 10
1151.3406442767402
 20
1079.4082096644811
 11
1219.3406839260263
 21
1079.4082096644811
  0
LINE
  8
_1-1_
  6
CONTINUOUS
 62
    7
 10
1219.3406839260263
 20
1079.4082096644811
 11
1219.3406839260263
 21
1077.4081544618348
  0
LINE
  8
_1-1_
  6
CONTINUOUS
 62
    7
 10
1219.3406839260263
 20
1077.4081544618348
 11
1151.3406442767402
 21
1077.4081544618348
  0
LINE
  8
_1-1_
  6
CONTINUOUS
 62
    7
 10
1151.3406442767402
 20
1077.4081544618348
 11
1151.3406442767402
 21
1079.4082096644811
  0
LINE
  8
_1-1_
  6
CONTINUOUS
 62
    7
 10
1151.342131566817
 20
1075.1714451616795
 11
1219.342171216103
 21
1075.1714451616795
  0
LINE
  8
_1-1_
  6
CONTINUOUS
 62
    7
 10
1219.342171216103
 20
1075.1714451616795
 11
1219.342171216103
 21
1073.171477446685
  0
LINE
  8
_1-1_
  6
CONTINUOUS
 62
    7
 10
1219.342171216103
 20
1073.171477446685
 11
1151.342131566817
 21
1073.171477446685
  0
LINE
  8
_1-1_
  6
CONTINUOUS
 62
    7
 10
1151.342131566817
 20
1073.171477446685
 11
1151.342131566817
 21
1075.1714451616795
  0
LINE
  8
_1-1_
  6
CONTINUOUS
 62
    7
 10
1151.343618856894
 20
1070.9346806588781
 11
1219.3436585061797
 21
1070.9346806588781
  0
LINE
  8
_1-1_
  6
CONTINUOUS
 62
    7
 10
1219.3436585061797
 20
1070.9346806588781
 11
1219.3436585061797
 21
1068.9347129438834
  0
LINE
  8
_1-1_
  6
CONTINUOUS
 62
    7
 10
1219.3436585061797
 20
1068.9347129438834
 11
1151.343618856894
 21
1068.9347129438834
  0
LINE
  8
_1-1_
  6
CONTINUOUS
 62
    7
 10
1151.343618856894
 20
1068.9347129438834
 11
1151.343618856894
 21
1070.9346806588781
  0
LINE
  8
_1-1_
  6
CONTINUOUS
 62
    7
 10
1151.3451061469707
 20
1066.6979161560764
 11
1219.3451457962565
 21
1066.6979161560764
  0
LINE
  8
_1-1_
  6
CONTINUOUS
 62
    7
 10
1219.3451457962565
 20
1066.6979161560764
 11
1219.3451457962565
 21
1064.697948441082
  0
LINE
  8
_1-1_
  6
CONTINUOUS
 62
    7
 10
1219.3451457962565
 20
1064.697948441082
 11
1151.3451061469707
 21
1064.697948441082
  0
LINE
  8
_1-1_
  6
CONTINUOUS
 62
    7
 10
1151.3451061469707
 20
1064.697948441082
 11
1151.3451061469707
 21
1066.6979161560764
  0
LINE
  8
_1-1_
  6
CONTINUOUS
 62
    7
 10
1151.3465934370474
 20
1062.4612391409266
 11
1219.3466330863334
 21
1062.4612391409266
  0
LINE
  8
_1-1_
  6
CONTINUOUS
 62
    7
 10
1219.3466330863334
 20
1062.4612391409266
 11
1219.3466330863334
 21
1060.4611839382803
  0
LINE
  8
_1-1_
  6
CONTINUOUS
 62
    7
 10
1219.3466330863334
 20
1060.4611839382803
 11
1151.3465934370474
 21
1060.4611839382803
  0
LINE
  8
_1-1_
  6
CONTINUOUS
 62
    7
 10
1151.3465934370474
 20
1060.4611839382803
 11
1151.3465934370474
 21
1062.4612391409266
  0
LINE
  8
_1-1_
  6
CONTINUOUS
 62
    7
 10
1151.3495680172009
 20
1053.9877101353236
 11
1219.3496076664869
 21
1053.9877101353236
  0
LINE
  8
_1-1_
  6
CONTINUOUS
 62
    7
 10
1219.3496076664869
 20
1053.9877101353236
 11
1219.3496076664869
 21
1051.9877424203289
  0
LINE
  8
_1-1_
  6
CONTINUOUS
 62
    7
 10
1219.3496076664869
 20
1051.9877424203289
 11
1151.3495680172009
 21
1051.9877424203289
  0
LINE
  8
_1-1_
  6
CONTINUOUS
 62
    7
 10
1151.3495680172009
 20
1051.9877424203289
 11
1151.3495680172009
 21
1053.9877101353236
  0
LINE
  8
_1-1_
  6
CONTINUOUS
 62
    7
 10
1151.3510553072776
 20
1049.7509456325222
 11
1219.3510949565637
 21
1049.7509456325222
  0
LINE
  8
_1-1_
  6
CONTINUOUS
 62
    7
 10
1219.3510949565637
 20
1049.7509456325222
 11
1219.3510949565637
 21
1047.7509779175275
  0
LINE
  8
_1-1_
  6
CONTINUOUS
 62
    7
 10
1219.3510949565637
 20
1047.7509779175275
 11
1151.3510553072776
 21
1047.7509779175275
  0
LINE
  8
_1-1_
  6
CONTINUOUS
 62
    7
 10
1151.3510553072776
 20
1047.7509779175275
 11
1151.3510553072776
 21
1049.7509456325222
  0
LINE
  8
_1-1_
  6
CONTINUOUS
 62
    7
 10
1151.3570044675848
 20
1032.8039751089677
 11
1219.3570441168706
 21
1032.8039751089677
  0
LINE
  8
_1-1_
  6
CONTINUOUS
 62
    7
 10
1219.3570441168706
 20
1032.8039751089677
 11
1219.3570441168706
 21
1030.8040073939733
  0
LINE
  8
_1-1_
  6
CONTINUOUS
 62
    7
 10
1219.3570441168706
 20
1030.8040073939733
 11
1151.3570044675848
 21
1030.8040073939733
  0
LINE
  8
_1-1_
  6
CONTINUOUS
 62
    7
 10
1151.3570044675848
 20
1030.8040073939733
 11
1151.3570044675848
 21
1032.8039751089677
  0
LINE
  8
_1-1_
  6
CONTINUOUS
 62
    7
 10
1151.3584917576616
 20
1028.5672980938177
 11
1219.3585314069473
 21
1028.5672980938177
  0
LINE
  8
_1-1_
  6
CONTINUOUS
 62
    7
 10
1219.3585314069473
 20
1028.5672980938177
 11
1219.3585314069473
 21
1026.5672428911716
  0
LINE
  8
_1-1_
  6
CONTINUOUS
 62
    7
 10
1219.3585314069473
 20
1026.5672428911716
 11
1151.3584917576616
 21
1026.5672428911716
  0
LINE
  8
_1-1_
  6
CONTINUOUS
 62
    7
 10
1151.3584917576616
 20
1026.5672428911716
 11
1151.3584917576616
 21
1028.5672980938177
  0
LINE
  8
_1-1_
  6
CONTINUOUS
 62
    7
 10
1151.3599790477383
 20
1024.3305335910163
 11
1219.3600186970243
 21
1024.3305335910163
  0
LINE
  8
_1-1_
  6
CONTINUOUS
 62
    7
 10
1219.3600186970243
 20
1024.3305335910163
 11
1219.3600186970243
 21
1022.3304783883702
  0
LINE
  8
_1-1_
  6
CONTINUOUS
 62
    7
 10
1219.3600186970243
 20
1022.3304783883702
 11
1151.3599790477383
 21
1022.3304783883702
  0
LINE
  8
_1-1_
  6
CONTINUOUS
 62
    7
 10
1151.3599790477383
 20
1022.3304783883702
 11
1151.3599790477383
 21
1024.3305335910163
  0
LINE
  8
_1-1_
  6
CONTINUOUS
 62
    7
 10
1151.361466337815
 20
1020.0937690882148
 11
1219.3615059871011
 21
1020.0937690882148
  0
LINE
  8
_1-1_
  6
CONTINUOUS
 62
    7
 10
1219.3615059871011
 20
1020.0937690882148
 11
1219.3615059871011
 21
1018.0938013732202
  0
LINE
  8
_1-1_
  6
CONTINUOUS
 62
    7
 10
1219.3615059871011
 20
1018.0938013732202
 11
1151.361466337815
 21
1018.0938013732202
  0
LINE
  8
_1-1_
  6
CONTINUOUS
 62
    7
 10
1151.361466337815
 20
1018.0938013732202
 11
1151.361466337815
 21
1020.0937690882148
  0
LINE
  8
_1-1_
  6
CONTINUOUS
 62
    7
 10
1151.3629536278918
 20
1015.8570045854134
 11
1219.3629932771778
 21
1015.8570045854134
  0
LINE
  8
_1-1_
  6
CONTINUOUS
 62
    7
 10
1219.3629932771778
 20
1015.8570045854134
 11
1219.3629932771778
 21
1013.8570368704188
  0
LINE
  8
_1-1_
  6
CONTINUOUS
 62
    7
 10
1219.3629932771778
 20
1013.8570368704188
 11
1151.3629536278918
 21
1013.8570368704188
  0
LINE
  8
_1-1_
  6
CONTINUOUS
 62
    7
 10
1151.3629536278918
 20
1013.8570368704188
 11
1151.3629536278918
 21
1015.8570045854134
  0
LINE
  8
_1-1_
  6
CONTINUOUS
 62
    7
 10
1151.3644409179685
 20
1011.6202400826119
 11
1219.3644805672545
 21
1011.6202400826119
  0
LINE
  8
_1-1_
  6
CONTINUOUS
 62
    7
 10
1219.3644805672545
 20
1011.6202400826119
 11
1219.3644805672545
 21
1009.6202723676173
  0
LINE
  8
_1-1_
  6
CONTINUOUS
 62
    7
 10
1219.3644805672545
 20
1009.6202723676173
 11
1151.3644409179685
 21
1009.6202723676173
  0
LINE
  8
_1-1_
  6
CONTINUOUS
 62
    7
 10
1151.3644409179685
 20
1009.6202723676173
 11
1151.3644409179685
 21
1011.6202400826119
  0
LINE
  8
_1-1_
  6
CONTINUOUS
 62
    7
 10
1159.1539914635616
 20
1005.3835078648158
 11
1151.3659282080455
 21
1005.3835078648158
  0
LINE
  8
_1-1_
  6
CONTINUOUS
 62
    7
 10
1151.3659282080455
 20
1005.3835078648158
 11
1151.3659282080455
 21
1007.383563067462
  0
LINE
  8
_1-1_
  6
CONTINUOUS
 62
    7
 10
1151.3659282080455
 20
1007.383563067462
 11
1219.3659678573313
 21
1007.383563067462
  0
LINE
  8
_1-1_
  6
CONTINUOUS
 62
    7
 10
1219.3659678573313
 20
1007.383563067462
 11
1219.3659678573313
 21
1005.3835078648158
  0
LINE
  8
_1-1_
  6
CONTINUOUS
 62
    7
 10
1219.3659678573313
 20
1005.3835078648158
 11
1166.0534426420352
 21
1005.3835078648158
  0
LINE
  8
_1-1_
  6
CONTINUOUS
 62
    7
 10
1164.9054296780737
 20
1001.1468308496659
 11
1219.367455147408
 21
1001.1468308496659
  0
LINE
  8
_1-1_
  6
CONTINUOUS
 62
    7
 10
1219.367455147408
 20
1001.1468308496659
 11
1219.367455147408
 21
1003.1467985646605
  0
LINE
  8
_1-1_
  6
CONTINUOUS
 62
    7
 10
1219.367455147408
 20
1003.1467985646605
 11
1164.9054296780737
 21
1003.1467985646605
  0
LINE
  8
_1-1_
  6
CONTINUOUS
 62
    7
 10
1159.1539914635616
 20
1001.1468308496659
 11
1151.3674154981222
 21
1001.1468308496659
  0
LINE
  8
_1-1_
  6
CONTINUOUS
 62
    7
 10
1151.3674154981222
 20
1001.1468308496659
 11
1151.3674154981222
 21
1003.1467985646605
  0
LINE
  8
_1-1_
  6
CONTINUOUS
 62
    7
 10
1151.3674154981222
 20
1003.1467985646605
 11
1159.1539914635616
 21
1003.1467985646605
  0
LINE
  8
_1-1_
  6
CONTINUOUS
 62
    7
 10
1151.3377571842384
 20
1087.8816511824325
 11
1219.3377093458728
 21
1087.8816511824325
  0
LINE
  8
_1-1_
  6
CONTINUOUS
 62
    7
 10
1219.3377093458728
 20
1087.8816511824325
 11
1219.3377093458728
 21
1085.8816834674378
  0
LINE
  8
_1-1_
  6
CONTINUOUS
 62
    7
 10
1219.3377093458728
 20
1085.8816834674378
 11
1151.3377571842384
 21
1085.8816834674378
  0
LINE
  8
_1-1_
  6
CONTINUOUS
 62
    7
 10
1151.3377571842384
 20
1085.8816834674378
 11
1151.3377571842384
 21
1087.8816511824325
  0
LINE
  8
_1-1_
  6
CONTINUOUS
 62
    7
 10
1133.3647314830175
 20
1046.4705086490821
 11
1237.3647149281151
 21
1046.4705086490821
  0
LINE
  8
_1-1_
  6
CONTINUOUS
 62
    7
 10
1237.3647149281151
 20
1046.4705086490821
 11
1237.3647149281151
 21
1034.4704398961601
  0
LINE
  8
_1-1_
  6
CONTINUOUS
 62
    7
 10
1237.3647149281151
 20
1034.4704398961601
 11
1133.3647314830175
 21
1034.4704398961601
  0
LINE
  8
_1-1_
  6
CONTINUOUS
 62
    7
 10
1133.3647314830175
 20
1034.4704398961601
 11
1133.3647314830175
 21
1046.4705086490821
  0
LINE
  8
_1-1_
  6
CONTINUOUS
 62
    7
 10
1237.3592906937174
 20
1046.4705086490821
 11
1237.3592906937174
 21
1034.54489188765
  0
LINE
  8
_1-1_
  6
CONTINUOUS
 62
    7
 10
1237.3592906937174
 20
1034.54489188765
 11
1225.359309428447
 21
1034.54489188765
  0
LINE
  8
_1-1_
  6
CONTINUOUS
 62
    7
 10
1225.359309428447
 20
1034.54489188765
 11
1225.359309428447
 21
1046.4705086490821
  0
LINE
  8
_1-1_
  6
CONTINUOUS
 62
    7
 10
1133.3546704030864
 20
1046.4724333774168
 11
1145.3546516683571
 21
1046.4724333774168
  0
LINE
  8
_1-1_
  6
CONTINUOUS
 62
    7
 10
1145.3546516683571
 20
1046.4724333774168
 11
1145.3546516683571
 21
1034.4723646244947
  0
LINE
  8
_1-1_
  6
CONTINUOUS
 62
    7
 10
1145.3546516683571
 20
1034.4723646244947
 11
1133.3546704030864
 21
1034.4723646244947
  0
LINE
  8
_1-1_
  6
CONTINUOUS
 62
    7
 10
1133.3546704030864
 20
1034.4723646244947
 11
1133.3546704030864
 21
1046.4724333774168
  0
LINE
  8
_1-0_
  6
CONTINUOUS
 62
    7
 10
1133.8731222263173
 20
1057.7956101701066
 11
1235.8731379564204
 21
1057.7956101701066
  0
LINE
  8
_1-0_
  6
CONTINUOUS
 62
    7
 10
1235.8731379564204
 20
1057.7956101701066
 11
1235.8731379564204
 21
1055.7956424551119
  0
LINE
  8
_1-0_
  6
CONTINUOUS
 62
    7
 10
1235.8731379564204
 20
1055.7956424551119
 11
1133.8731222263173
 21
1055.7956424551119
  0
LINE
  8
_1-0_
  6
CONTINUOUS
 62
    7
 10
1133.8731222263173
 20
1055.7956424551119
 11
1133.8731222263173
 21
1057.7956101701066
  0
LINE
  8
_1-0_
  6
CONTINUOUS
 62
    7
 10
1133.3521332611908
 20
1056.1079733712331
 11
1237.35220419394
 21
1056.1079733712331
  0
LINE
  8
_1-0_
  6
CONTINUOUS
 62
    7
 10
1237.35220419394
 20
1056.1079733712331
 11
1237.35220419394
 21
1054.1080056562387
  0
LINE
  8
_1-0_
  6
CONTINUOUS
 62
    7
 10
1237.35220419394
 20
1054.1080056562387
 11
1133.3521332611908
 21
1054.1080056562387
  0
LINE
  8
_1-0_
  6
CONTINUOUS
 62
    7
 10
1133.3521332611908
 20
1054.1080056562387
 11
1133.3521332611908
 21
1056.1079733712331
  0
LINE
  8
_1-0_
  6
CONTINUOUS
 62
    7
 10
1134.7770446423856
 20
1100.4012216104043
 11
1234.7770926574942
 21
1100.4012216104043
  0
LINE
  8
_1-0_
  6
CONTINUOUS
 62
    7
 10
1234.7770926574942
 20
1100.4012216104043
 11
1234.7770926574942
 21
1088.4012403451336
  0
LINE
  8
_1-0_
  6
CONTINUOUS
 62
    7
 10
1234.7770926574942
 20
1088.4012403451336
 11
1134.7770446423856
 21
1088.4012403451336
  0
LINE
  8
_1-0_
  6
CONTINUOUS
 62
    7
 10
1134.7770446423856
 20
1088.4012403451336
 11
1134.7770446423856
 21
1100.4012216104043
  0
LINE
  8
_1-0_
  6
CONTINUOUS
 62
    7
 10
1145.4950693491342
 20
1324.3577988083298
 11
1223.4950350610445
 21
1324.3577988083298
  0
LINE
  8
_1-0_
  6
CONTINUOUS
 62
    7
 10
1223.4950350610445
 20
1324.3577988083298
 11
1223.4950350610445
 21
1100.3578277352233
  0
LINE
  8
_1-0_
  6
CONTINUOUS
 62
    7
 10
1223.4950350610445
 20
1100.3578277352233
 11
1145.4950693491342
 21
1100.3578277352233
  0
LINE
  8
_1-0_
  6
CONTINUOUS
 62
    7
 10
1145.4950693491342
 20
1100.3578277352233
 11
1145.4950693491342
 21
1324.3577988083298
  0
LINE
  8
_1-0_
  6
CONTINUOUS
 62
    7
 10
1264.9999643568826
 20
1088.2015935242405
 11
1264.9999643568826
 21
1088.400365468618
  0
LINE
  8
_1-0_
  6
CONTINUOUS
 62
    7
 10
1264.9999643568826
 20
1351.4559615440812
 11
1264.9999643568826
 21
1367.4559657269922
  0
LINE
  8
_1-0_
  6
CONTINUOUS
 62
    7
 10
1264.9999643568826
 20
1088.2015935242405
 11
1264.9999643568826
 21
1088.400365468618
  0
LINE
  8
_1-1_
  6
CONTINUOUS
 62
    7
 10
1172.8094140719261
 20
997.99228859684172
 11
1196.809464090119
 21
997.99228859684172
  0
LINE
  8
_1-1_
  6
CONTINUOUS
 62
    7
 10
1196.809464090119
 20
997.99228859684172
 11
1196.809464090119
 21
994.99233702434992
  0
LINE
  8
_1-1_
  6
CONTINUOUS
 62
    7
 10
1196.809464090119
 20
994.99233702434992
 11
1172.8094140719261
 21
994.99233702434992
  0
LINE
  8
_1-1_
  6
CONTINUOUS
 62
    7
 10
1172.8094140719261
 20
994.99233702434992
 11
1172.8094140719261
 21
997.99228859684172
  0
LINE
  8
_1-0_
  6
CONTINUOUS
 62
    7
 10
1438.7692502290586
 20
1196.0396602439143
 11
1438.8234925730349
 21
1196.0396602439143
  0
LINE
  8
_1-0_
  6
CONTINUOUS
 62
    7
 10
1415.5956960552908
 20
1186.0396466936384
 11
1415.7984924316406
 21
1186.0396466936384
  0
LINE
  8
_1-0_
  6
CONTINUOUS
 62
    7
 10
1438.8176309003793
 20
1196.0606572802922
 11
1415.5809981298262
 21
1185.9449850546346
  0
LINE
  8
_1-0_
  6
CONTINUOUS
 62
    7
 10
1438.8176309003793
 20
1196.0606572802922
 11
1433.9251464490262
 21
1207.3068449395962
  0
LINE
  8
_1-0_
  6
CONTINUOUS
 62
    7
 10
1433.9251464490262
 20
1207.3068449395962
 11
1431.3103155187655
 21
1213.317684041027
  0
LINE
  8
_1-0_
  6
CONTINUOUS
 62
    7
 10
1415.6476637203261
 20
1185.9202260492389
 11
1408.5880226518198
 21
1202.1479605891989
  0
LINE
  8
_1-0_
  6
CONTINUOUS
 62
    7
 10
1336.8421992003687
 20
1263.7869480678014
 11
1355.2799593067537
 21
1263.7869480678014
  0
LINE
  8
_1-0_
  6
CONTINUOUS
 62
    7
 10
1334.6185255602977
 20
1263.8085575177402
 11
1337.2400055520782
 21
1263.7869480678014
  0
LINE
  8
_1-0_
  6
CONTINUOUS
 62
    7
 10
1145.4779217694256
 20
1380.0595243004759
 11
1223.4779749689874
 21
1380.0595243004759
  0
LINE
  8
_1-0_
  6
CONTINUOUS
 62
    7
 10
1223.4779749689874
 20
1380.0595243004759
 11
1223.4779749689874
 21
1324.059553404112
  0
LINE
  8
_1-0_
  6
CONTINUOUS
 62
    7
 10
1223.4779749689874
 20
1324.059553404112
 11
1145.4779217694256
 21
1324.059553404112
  0
LINE
  8
_1-0_
  6
CONTINUOUS
 62
    7
 10
1145.4779217694256
 20
1324.059553404112
 11
1145.4779217694256
 21
1380.0595243004759
  0
LINE
  8
_1-1_
  6
CONTINUOUS
 62
    7
 10
1253.47381621254
 20
1367.4559657269922
 11
1353.4738642276484
 21
1367.4559657269922
  0
LINE
  8
_1-1_
  6
CONTINUOUS
 62
    7
 10
1353.4738642276484
 20
1367.4559657269922
 11
1353.4738642276484
 21
1351.4559615440812
  0
LINE
  8
_1-1_
  6
CONTINUOUS
 62
    7
 10
1353.4738642276484
 20
1351.4559615440812
 11
1253.47381621254
 21
1351.4559615440812
  0
LINE
  8
_1-1_
  6
CONTINUOUS
 62
    7
 10
1253.47381621254
 20
1351.4559615440812
 11
1253.47381621254
 21
1367.4559657269922
  0
LINE
  8
_1-1_
  6
CONTINUOUS
 62
    7
 10
1223.5067584063554
 20
1365.3444512562401
 11
1253.5067115695319
 21
1365.3444512562401
  0
LINE
  8
_1-1_
  6
CONTINUOUS
 62
    7
 10
1253.5067115695319
 20
1365.3444512562401
 11
1253.5067115695319
 21
1353.3444699909694
  0
LINE
  8
_1-1_
  6
CONTINUOUS
 62
    7
 10
1253.5067115695319
 20
1353.3444699909694
 11
1223.5067584063554
 21
1353.3444699909694
  0
LINE
  8
_1-1_
  6
CONTINUOUS
 62
    7
 10
1223.5067584063554
 20
1353.3444699909694
 11
1223.5067584063554
 21
1365.3444512562401
  0
LINE
  8
_1-1_
  6
CONTINUOUS
 62
    7
 10
1116.6636887480392
 20
1130.5363431952633
 11
1142.6636189935748
 21
1130.5363431952633
  0
LINE
  8
_1-1_
  6
CONTINUOUS
 62
    7
 10
1142.6636189935748
 20
1130.5363431952633
 11
1142.6636189935748
 21
1114.5363390123521
  0
LINE
  8
_1-1_
  6
CONTINUOUS
 62
    7
 10
1142.6636189935748
 20
1114.5363390123521
 11
1116.6636887480392
 21
1114.5363390123521
  0
LINE
  8
_1-1_
  6
CONTINUOUS
 62
    7
 10
1116.6636887480392
 20
1114.5363390123521
 11
1116.6636887480392
 21
1130.5363431952633
  0
LINE
  8
_1-1_
  6
CONTINUOUS
 62
    7
 10
1142.8379818831631
 20
1125.8332695095694
 11
1144.8379495981576
 21
1125.8332695095694
  0
LINE
  8
_1-1_
  6
CONTINUOUS
 62
    7
 10
1144.8379495981576
 20
1125.8332695095694
 11
1144.8379495981576
 21
1119.8332788769342
  0
LINE
  8
_1-1_
  6
CONTINUOUS
 62
    7
 10
1144.8379495981576
 20
1119.8332788769342
 11
1142.8379818831631
 21
1119.8332788769342
  0
LINE
  8
_1-1_
  6
CONTINUOUS
 62
    7
 10
1142.8379818831631
 20
1119.8332788769342
 11
1142.8379818831631
 21
1125.8332695095694
  0
LINE
  8
_1-0_
  6
CONTINUOUS
 62
    7
 10
1149.22256823212
 20
336.8765172626982
 11
1148.4362292197679
 21
336.8765172626982
  0
LINE
  8
_1-0_
  6
CONTINUOUS
 62
    7
 10
1147.9397367970823
 20
336.8765172626982
 11
1147.15339778473
 21
336.8765172626982
  0
LINE
  8
_1-0_
  6
CONTINUOUS
 62
    7
 10
1146.6568178743928
 20
336.8765172626982
 11
1145.8704788620407
 21
336.8765172626982
  0
LINE
  8
_1-0_
  6
CONTINUOUS
 62
    7
 10
1145.3739864393551
 20
336.8765172626982
 11
1144.5876474270028
 21
336.8765172626982
  0
LINE
  8
_1-0_
  6
CONTINUOUS
 62
    7
 10
1144.091155004317
 20
336.8765172626982
 11
1143.3047285043133
 21
336.8765172626982
  0
LINE
  8
_1-0_
  6
CONTINUOUS
 62
    7
 10
1143.0598505675562
 20
331.8765104875601
 11
1141.4973211104345
 21
331.8765104875601
  0
LINE
  8
_1-0_
  6
CONTINUOUS
 62
    7
 10
1141.4973211104345
 20
331.8765104875601
 11
1141.4973211104345
 21
336.8765172626982
  0
LINE
  8
_1-0_
  6
CONTINUOUS
 62
    7
 10
1141.4973211104345
 20
336.8765172626982
 11
1142.8082360816277
 21
336.8765172626982
  0
LINE
  8
_1-0_
  6
CONTINUOUS
 62
    7
 10
1143.5564304778934
 20
331.8765104875601
 11
1144.3427694902457
 21
331.8765104875601
  0
LINE
  8
_1-0_
  6
CONTINUOUS
 62
    7
 10
1144.8392619129313
 20
331.8765104875601
 11
1145.6256009252834
 21
331.8765104875601
  0
LINE
  8
_1-0_
  6
CONTINUOUS
 62
    7
 10
1146.1221808356206
 20
331.8765104875601
 11
1146.9085198479729
 21
331.8765104875601
  0
LINE
  8
_1-0_
  6
CONTINUOUS
 62
    7
 10
1147.4050122706585
 20
331.8765104875601
 11
1148.1913512830106
 21
331.8765104875601
  0
LINE
  8
_1-0_
  6
CONTINUOUS
 62
    7
 10
1148.6878437056964
 20
331.8765104875601
 11
1149.330965432421
 21
331.8765104875601
  0
LINE
  8
_1-0_
  6
CONTINUOUS
 62
    7
 10
1149.330965432421
 20
334.72283374388695
 11
1149.204283312941
 21
337.24099081915767
  0
LINE
  8
_1-0_
  6
CONTINUOUS
 62
    7
 10
1149.204283312941
 20
337.24099081915767
 11
1149.330965432421
 21
337.48967446875838
  0
LINE
  8
_1-0_
  6
CONTINUOUS
 62
    7
 10
1147.9219768038126
 20
337.23009860653679
 11
1148.3738505241954
 21
338.11682969907082
  0
LINE
  8
_1-0_
  6
CONTINUOUS
 62
    7
 10
1148.3738505241954
 20
338.11682969907082
 11
1148.7219638898105
 21
331.19988099028234
  0
LINE
  8
_1-0_
  6
CONTINUOUS
 62
    7
 10
1148.7219638898105
 20
331.19988099028234
 11
1148.2700026817763
 21
330.31314989774842
  0
LINE
  8
_1-0_
  6
CONTINUOUS
 62
    7
 10
1148.2700026817763
 20
330.31314989774842
 11
1147.9219768038126
 21
337.23009860653679
  0
LINE
  8
_1-0_
  6
CONTINUOUS
 62
    7
 10
1146.6395828070326
 20
337.21918452200271
 11
1147.091544015067
 21
338.10591561453691
  0
LINE
  8
_1-0_
  6
CONTINUOUS
 62
    7
 10
1147.091544015067
 20
338.10591561453691
 11
1147.4395698930307
 21
331.18896690574843
  0
LINE
  8
_1-0_
  6
CONTINUOUS
 62
    7
 10
1147.4395698930307
 20
331.18896690574843
 11
1146.9876961726479
 21
330.30225768512736
  0
LINE
  8
_1-0_
  6
CONTINUOUS
 62
    7
 10
1146.9876961726479
 20
330.30225768512736
 11
1146.6395828070326
 21
337.21918452200271
  0
LINE
  8
_1-0_
  6
CONTINUOUS
 62
    7
 10
1145.3572762979043
 20
337.2082704374688
 11
1145.8091500182868
 21
338.09500153000283
  0
LINE
  8
_1-0_
  6
CONTINUOUS
 62
    7
 10
1145.8091500182868
 20
338.09500153000283
 11
1146.1572633839021
 21
331.17807469312737
  0
LINE
  8
_1-0_
  6
CONTINUOUS
 62
    7
 10
1146.1572633839021
 20
331.17807469312737
 11
1145.7053896635196
 21
330.29134360059345
  0
LINE
  8
_1-0_
  6
CONTINUOUS
 62
    7
 10
1145.7053896635196
 20
330.29134360059345
 11
1145.3572762979043
 21
337.2082704374688
  0
LINE
  8
_1-0_
  6
CONTINUOUS
 62
    7
 10
1144.0749697887759
 20
337.19735635293489
 11
1144.5268435091584
 21
338.08408744546898
  0
LINE
  8
_1-0_
  6
CONTINUOUS
 62
    7
 10
1144.5268435091584
 20
338.08408744546898
 11
1144.8749568747737
 21
331.16716060859346
  0
LINE
  8
_1-0_
  6
CONTINUOUS
 62
    7
 10
1144.8749568747737
 20
331.16716060859346
 11
1144.423083154391
 21
330.28042951605954
  0
LINE
  8
_1-0_
  6
CONTINUOUS
 62
    7
 10
1144.423083154391
 20
330.28042951605954
 11
1144.0749697887759
 21
337.19735635293489
  0
LINE
  8
_1-0_
  6
CONTINUOUS
 62
    7
 10
1142.7926632796475
 20
337.18646414031383
 11
1143.24453700003
 21
338.07317336093502
  0
LINE
  8
_1-0_
  6
CONTINUOUS
 62
    7
 10
1143.24453700003
 20
338.07317336093502
 11
1143.5926503656451
 21
331.15624652405955
  0
LINE
  8
_1-0_
  6
CONTINUOUS
 62
    7
 10
1143.5926503656451
 20
331.15624652405955
 11
1143.1407766452626
 21
330.26951543152563
  0
LINE
  8
_1-0_
  6
CONTINUOUS
 62
    7
 10
1143.1407766452626
 20
330.26951543152563
 11
1142.7926632796475
 21
337.18646414031383
  0
LINE
  8
_1-0_
  6
CONTINUOUS
 62
    7
 10
1140.2990902344691
 20
340.51556612994216
 11
1141.4990708634659
 21
340.51556612994216
  0
LINE
  8
_1-0_
  6
CONTINUOUS
 62
    7
 10
1141.4990708634659
 20
340.51556612994216
 11
1141.4990708634659
 21
328.5155629927587
  0
LINE
  8
_1-0_
  6
CONTINUOUS
 62
    7
 10
1141.4990708634659
 20
328.5155629927587
 11
1140.2990902344691
 21
328.5155629927587
  0
LINE
  8
_1-0_
  6
CONTINUOUS
 62
    7
 10
1140.2990902344691
 20
328.5155629927587
 11
1140.2990902344691
 21
340.51556612994216
  0
LINE
  8
_1-0_
  6
CONTINUOUS
 62
    7
 10
1136.7440295127367
 20
330.5071756370279
 11
1136.7440295127367
 21
338.50717772848355
  0
LINE
  8
_1-0_
  6
CONTINUOUS
 62
    7
 10
1138.7439972277314
 20
340.50718918730382
 11
1140.3040770306088
 21
340.50718918730382
  0
LINE
  8
_1-0_
  6
CONTINUOUS
 62
    7
 10
1140.3040770306088
 20
340.50718918730382
 11
1140.3040770306088
 21
328.50718605012048
  0
LINE
  8
_1-0_
  6
CONTINUOUS
 62
    7
 10
1140.3040770306088
 20
328.50718605012048
 11
1138.7439972277314
 21
328.50718605012048
  0
LINE
  8
_1-0_
  6
CONTINUOUS
 62
    7
 10
1385.7445593874425
 20
329.79010497280996
 11
1462.9802329751976
 21
329.79010497280996
  0
LINE
  8
_1-0_
  6
CONTINUOUS
 62
    7
 10
1462.9802329751976
 20
329.79010497280996
 11
1462.9802329751976
 21
338.7900909217629
  0
LINE
  8
_1-0_
  6
CONTINUOUS
 62
    7
 10
1462.9802329751976
 20
338.7900909217629
 11
1385.7445593874425
 21
338.7900909217629
  0
LINE
  8
_1-0_
  6
CONTINUOUS
 62
    7
 10
1364.7445484293935
 20
329.79010497280996
 11
1180.3069308365634
 21
329.79010497280996
  0
LINE
  8
_1-0_
  6
CONTINUOUS
 62
    7
 10
1364.7445484293935
 20
338.7900909217629
 11
1179.78611684674
 21
338.7900909217629
  0
LINE
  8
_1-0_
  6
CONTINUOUS
 62
    7
 10
1149.330965432421
 20
338.7900909217629
 11
1106.9802055211601
 21
338.7900909217629
  0
LINE
  8
_1-0_
  6
CONTINUOUS
 62
    7
 10
1106.9802055211601
 20
338.7900909217629
 11
1106.9802055211601
 21
329.79010497280996
  0
LINE
  8
_1-0_
  6
CONTINUOUS
 62
    7
 10
1106.9802055211601
 20
329.79010497280996
 11
1149.330965432421
 21
329.79010497280996
  0
LINE
  8
_1-0_
  6
CONTINUOUS
 62
    7
 10
1463.2445331706044
 20
338.7900909217629
 11
1465.2445883732503
 21
337.29009326360398
  0
LINE
  8
_1-0_
  6
CONTINUOUS
 62
    7
 10
1465.2445883732503
 20
337.29009326360398
 11
1465.2445883732503
 21
331.2901026309687
  0
LINE
  8
_1-0_
  6
CONTINUOUS
 62
    7
 10
1465.2445883732503
 20
331.2901026309687
 11
1463.2445331706044
 21
329.79010497280996
  0
LINE
  8
_1-0_
  6
CONTINUOUS
 62
    7
 10
1106.7276286710644
 20
329.79010497280996
 11
1104.7275734684181
 21
331.2901026309687
  0
LINE
  8
_1-0_
  6
CONTINUOUS
 62
    7
 10
1104.7275734684181
 20
331.2901026309687
 11
1104.7275734684181
 21
337.29009326360398
  0
LINE
  8
_1-0_
  6
CONTINUOUS
 62
    7
 10
1104.7275734684181
 20
337.29009326360398
 11
1106.7276286710644
 21
338.7900909217629
  0
LINE
  8
_1-0_
  6
CONTINUOUS
 62
    7
 10
1375.2445539084181
 20
320.790097151944
 11
1373.7438782209595
 21
320.87375721876214
  0
LINE
  8
_1-0_
  6
CONTINUOUS
 62
    7
 10
1373.7438782209595
 20
320.87375721876214
 11
1372.2618374032863
 21
321.12373131122365
  0
LINE
  8
_1-0_
  6
CONTINUOUS
 62
    7
 10
1372.2618374032863
 20
321.12373131122365
 11
1370.8167163745775
 21
321.5368917457846
  0
LINE
  8
_1-0_
  6
CONTINUOUS
 62
    7
 10
1370.8167163745775
 20
321.5368917457846
 11
1369.4265375910577
 21
322.10812049482769
  0
LINE
  8
_1-0_
  6
CONTINUOUS
 62
    7
 10
1369.4265375910577
 20
322.10812049482769
 11
1368.1084486324355
 21
322.83035293048869
  0
LINE
  8
_1-0_
  6
CONTINUOUS
 62
    7
 10
1368.1084486324355
 20
322.83035293048869
 11
1366.8788096895548
 21
323.69462156848101
  0
LINE
  8
_1-0_
  6
CONTINUOUS
 62
    7
 10
1366.8788096895548
 20
323.69462156848101
 11
1365.75284361379
 21
324.69023104339954
  0
LINE
  8
_1-0_
  6
CONTINUOUS
 62
    7
 10
1365.75284361379
 20
324.69023104339954
 11
1364.7445484293935
 21
325.80482372445942
  0
LINE
  8
_1-0_
  6
CONTINUOUS
 62
    7
 10
1364.7445484293935
 20
325.80482372445942
 11
1364.7445484293935
 21
342.77537217011314
  0
LINE
  8
_1-0_
  6
CONTINUOUS
 62
    7
 10
1364.7445484293935
 20
342.77537217011314
 11
1365.75284361379
 21
343.8899648511732
  0
LINE
  8
_1-0_
  6
CONTINUOUS
 62
    7
 10
1365.75284361379
 20
343.8899648511732
 11
1366.8788096895548
 21
344.88557432609173
  0
LINE
  8
_1-0_
  6
CONTINUOUS
 62
    7
 10
1366.8788096895548
 20
344.88557432609173
 11
1368.1084486324355
 21
345.74984296408388
  0
LINE
  8
_1-0_
  6
CONTINUOUS
 62
    7
 10
1368.1084486324355
 20
345.74984296408388
 11
1369.4265375910577
 21
346.47207539974488
  0
LINE
  8
_1-0_
  6
CONTINUOUS
 62
    7
 10
1369.4265375910577
 20
346.47207539974488
 11
1370.8167163745775
 21
347.04330414878814
  0
LINE
  8
_1-0_
  6
CONTINUOUS
 62
    7
 10
1370.8167163745775
 20
347.04330414878814
 11
1372.2618374032863
 21
347.45646458334903
  0
LINE
  8
_1-0_
  6
CONTINUOUS
 62
    7
 10
1372.2618374032863
 20
347.45646458334903
 11
1373.7438782209595
 21
347.70643867581043
  0
LINE
  8
_1-0_
  6
CONTINUOUS
 62
    7
 10
1373.7438782209595
 20
347.70643867581043
 11
1375.2445539084181
 21
347.79009874262869
  0
LINE
  8
_1-0_
  6
CONTINUOUS
 62
    7
 10
1375.2445539084181
 20
347.79009874262869
 11
1376.7452295958765
 21
347.70643867581043
  0
LINE
  8
_1-0_
  6
CONTINUOUS
 62
    7
 10
1376.7452295958765
 20
347.70643867581043
 11
1378.2272704135496
 21
347.45646458334903
  0
LINE
  8
_1-0_
  6
CONTINUOUS
 62
    7
 10
1378.2272704135496
 20
347.45646458334903
 11
1379.6723914422582
 21
347.04330414878814
  0
LINE
  8
_1-0_
  6
CONTINUOUS
 62
    7
 10
1379.6723914422582
 20
347.04330414878814
 11
1381.062570225778
 21
346.47207539974488
  0
LINE
  8
_1-0_
  6
CONTINUOUS
 62
    7
 10
1381.062570225778
 20
346.47207539974488
 11
1382.3806591844004
 21
345.74984296408388
  0
LINE
  8
_1-0_
  6
CONTINUOUS
 62
    7
 10
1382.3806591844004
 20
345.74984296408388
 11
1383.6102981272811
 21
344.88557432609173
  0
LINE
  8
_1-0_
  6
CONTINUOUS
 62
    7
 10
1383.6102981272811
 20
344.88557432609173
 11
1384.7362642030457
 21
343.8899648511732
  0
LINE
  8
_1-0_
  6
CONTINUOUS
 62
    7
 10
1384.7362642030457
 20
343.8899648511732
 11
1385.7445593874425
 21
342.77537217011314
  0
LINE
  8
_1-0_
  6
CONTINUOUS
 62
    7
 10
1385.7445593874425
 20
342.77537217011314
 11
1385.7445593874425
 21
325.80482372445942
  0
LINE
  8
_1-0_
  6
CONTINUOUS
 62
    7
 10
1385.7445593874425
 20
325.80482372445942
 11
1384.7362642030457
 21
324.69023104339954
  0
LINE
  8
_1-0_
  6
CONTINUOUS
 62
    7
 10
1384.7362642030457
 20
324.69023104339954
 11
1383.6102981272811
 21
323.69462156848101
  0
LINE
  8
_1-0_
  6
CONTINUOUS
 62
    7
 10
1383.6102981272811
 20
323.69462156848101
 11
1382.3806591844004
 21
322.83035293048869
  0
LINE
  8
_1-0_
  6
CONTINUOUS
 62
    7
 10
1382.3806591844004
 20
322.83035293048869
 11
1381.062570225778
 21
322.10812049482769
  0
LINE
  8
_1-0_
  6
CONTINUOUS
 62
    7
 10
1381.062570225778
 20
322.10812049482769
 11
1379.6723914422582
 21
321.5368917457846
  0
LINE
  8
_1-0_
  6
CONTINUOUS
 62
    7
 10
1379.6723914422582
 20
321.5368917457846
 11
1378.2272704135496
 21
321.12373131122365
  0
LINE
  8
_1-0_
  6
CONTINUOUS
 62
    7
 10
1378.2272704135496
 20
321.12373131122365
 11
1376.7452295958765
 21
320.87375721876214
  0
LINE
  8
_1-0_
  6
CONTINUOUS
 62
    7
 10
1376.7452295958765
 20
320.87375721876214
 11
1375.2445539084181
 21
320.790097151944
  0
LINE
  8
_1-0_
  6
CONTINUOUS
 62
    7
 10
1166.1539659536943
 20
996.51724679129461
 11
1166.1539659536943
 21
656.5172672639942
  0
LINE
  8
_1-0_
  6
CONTINUOUS
 62
    7
 10
1166.1539659536943
 20
656.5172672639942
 11
1158.1540076060644
 21
656.5172672639942
  0
LINE
  8
_1-0_
  6
CONTINUOUS
 62
    7
 10
1158.1540076060644
 20
656.5172672639942
 11
1158.1540076060644
 21
996.51724679129461
  0
LINE
  8
_1-0_
  6
CONTINUOUS
 62
    7
 10
1158.1540076060644
 20
996.51724679129461
 11
1166.1539659536943
 21
996.51724679129461
  0
LINE
  8
_1-0_
  6
CONTINUOUS
 62
    7
 10
1165.1539820961971
 20
1006.1325771375972
 11
1165.1539820961971
 21
1006.7503274453652
  0
LINE
  8
_1-0_
  6
CONTINUOUS
 62
    7
 10
1165.1539820961971
 20
1006.7503274453652
 11
1159.1539914635616
 21
1006.7503274453652
  0
LINE
  8
_1-0_
  6
CONTINUOUS
 62
    7
 10
1159.1539914635616
 20
1006.7503274453652
 11
1159.1539914635616
 21
1006.5273214215017
  0
LINE
  8
_1-0_
  6
CONTINUOUS
 62
    7
 10
1165.1539820961971
 20
997.13044774118077
 11
1165.1539820961971
 21
996.75031389508922
  0
LINE
  8
_1-0_
  6
CONTINUOUS
 62
    7
 10
1165.1539820961971
 20
996.75031389508922
 11
1159.1539914635616
 21
996.75031389508922
  0
LINE
  8
_1-0_
  6
CONTINUOUS
 62
    7
 10
1159.1539914635616
 20
996.75031389508922
 11
1159.1539914635616
 21
997.52519202508506
  0
LINE
  8
_1-0_
  6
CONTINUOUS
 62
    7
 10
1165.1539820961971
 20
998.13261878996741
 11
1165.1539820961971
 21
999.13041545617534
  0
LINE
  8
_1-0_
  6
CONTINUOUS
 62
    7
 10
1159.1539914635616
 20
998.52736307387181
 11
1159.1539914635616
 21
999.52515974007963
  0
LINE
  8
_1-0_
  6
CONTINUOUS
 62
    7
 10
1165.1539820961971
 20
1000.132586504962
 11
1165.1539820961971
 21
1001.1468308496659
  0
LINE
  8
_1-0_
  6
CONTINUOUS
 62
    7
 10
1159.1539914635616
 20
1000.5273307888663
 11
1159.1539914635616
 21
1001.5252149427259
  0
LINE
  8
_1-0_
  6
CONTINUOUS
 62
    7
 10
1165.1539820961971
 20
1002.1326417076081
 11
1165.1539820961971
 21
1003.1467985646605
  0
LINE
  8
_1-0_
  6
CONTINUOUS
 62
    7
 10
1159.1539914635616
 20
1002.5272985038609
 11
1159.1539914635616
 21
1003.5251826577205
  0
LINE
  8
_1-0_
  6
CONTINUOUS
 62
    7
 10
1165.1539820961971
 20
1004.1326094226026
 11
1165.1539820961971
 21
1005.1304060888106
  0
LINE
  8
_1-0_
  6
CONTINUOUS
 62
    7
 10
1159.1539914635616
 20
1004.5273537065071
 11
1159.1539914635616
 21
1005.5251503727151
  0
LINE
  8
_1-0_
  6
CONTINUOUS
 62
    7
 10
1165.7876551565516
 20
998.09088718016619
 11
1166.1605275275624
 21
997.66552221821075
  0
LINE
  8
_1-0_
  6
CONTINUOUS
 62
    7
 10
1166.1605275275624
 20
997.66552221821075
 11
1166.1474043798262
 21
997.46596288496914
  0
LINE
  8
_1-0_
  6
CONTINUOUS
 62
    7
 10
1166.1474043798262
 20
997.46596288496914
 11
1165.7220394178707
 21
997.09309051395837
  0
LINE
  8
_1-0_
  6
CONTINUOUS
 62
    7
 10
1165.7220394178707
 20
997.09309051395837
 11
1158.5375534705672
 21
997.56569880776408
  0
LINE
  8
_1-0_
  6
CONTINUOUS
 62
    7
 10
1158.5375534705672
 20
997.56569880776408
 11
1158.1646810995564
 21
997.99115125737126
  0
LINE
  8
_1-0_
  6
CONTINUOUS
 62
    7
 10
1158.1646810995564
 20
997.99115125737126
 11
1158.1778042472927
 21
998.19071059061287
  0
LINE
  8
_1-0_
  6
CONTINUOUS
 62
    7
 10
1158.1778042472927
 20
998.19071059061287
 11
1158.6032566968997
 21
998.56358296162375
  0
LINE
  8
_1-0_
  6
CONTINUOUS
 62
    7
 10
1158.6032566968997
 20
998.56358296162375
 11
1165.7876551565516
 21
998.09088718016619
  0
LINE
  8
_1-0_
  6
CONTINUOUS
 62
    7
 10
1165.7876551565516
 20
1000.0909423828125
 11
1166.1605275275624
 21
999.66548993320532
  0
LINE
  8
_1-0_
  6
CONTINUOUS
 62
    7
 10
1166.1605275275624
 20
999.66548993320532
 11
1166.1474043798262
 21
999.46593059996371
  0
LINE
  8
_1-0_
  6
CONTINUOUS
 62
    7
 10
1166.1474043798262
 20
999.46593059996371
 11
1165.7220394178707
 21
999.09305822895294
  0
LINE
  8
_1-0_
  6
CONTINUOUS
 62
    7
 10
1165.7220394178707
 20
999.09305822895294
 11
1158.5375534705672
 21
999.56575401041039
  0
LINE
  8
_1-0_
  6
CONTINUOUS
 62
    7
 10
1158.5375534705672
 20
999.56575401041039
 11
1158.1646810995564
 21
999.99111897236594
  0
LINE
  8
_1-0_
  6
CONTINUOUS
 62
    7
 10
1158.1646810995564
 20
999.99111897236594
 11
1158.1778042472927
 21
1000.1906783056074
  0
LINE
  8
_1-0_
  6
CONTINUOUS
 62
    7
 10
1158.1778042472927
 20
1000.1906783056074
 11
1158.6032566968997
 21
1000.5635506766182
  0
LINE
  8
_1-0_
  6
CONTINUOUS
 62
    7
 10
1158.6032566968997
 20
1000.5635506766182
 11
1165.7876551565516
 21
1000.0909423828125
  0
LINE
  8
_1-0_
  6
CONTINUOUS
 62
    7
 10
1165.7876551565516
 20
1002.0909100978071
 11
1166.1605275275624
 21
1001.6655451358514
  0
LINE
  8
_1-0_
  6
CONTINUOUS
 62
    7
 10
1166.1605275275624
 20
1001.6655451358514
 11
1166.1474043798262
 21
1001.4659858026098
  0
LINE
  8
_1-0_
  6
CONTINUOUS
 62
    7
 10
1166.1474043798262
 20
1001.4659858026098
 11
1165.7220394178707
 21
1001.0930259439475
  0
LINE
  8
_1-0_
  6
CONTINUOUS
 62
    7
 10
1165.7220394178707
 20
1001.0930259439475
 11
1158.5375534705672
 21
1001.565721725405
  0
LINE
  8
_1-0_
  6
CONTINUOUS
 62
    7
 10
1158.5375534705672
 20
1001.565721725405
 11
1158.1646810995564
 21
1001.9910866873604
  0
LINE
  8
_1-0_
  6
CONTINUOUS
 62
    7
 10
1158.1646810995564
 20
1001.9910866873604
 11
1158.1778042472927
 21
1002.1907335082535
  0
LINE
  8
_1-0_
  6
CONTINUOUS
 62
    7
 10
1158.1778042472927
 20
1002.1907335082535
 11
1158.6032566968997
 21
1002.5636058792644
  0
LINE
  8
_1-0_
  6
CONTINUOUS
 62
    7
 10
1158.6032566968997
 20
1002.5636058792644
 11
1165.7876551565516
 21
1002.0909100978071
  0
LINE
  8
_1-0_
  6
CONTINUOUS
 62
    7
 10
1165.7876551565516
 20
1004.0908778128016
 11
1166.1605275275624
 21
1003.665512850846
  0
LINE
  8
_1-0_
  6
CONTINUOUS
 62
    7
 10
1166.1605275275624
 20
1003.665512850846
 11
1166.1474043798262
 21
1003.4659535176045
  0
LINE
  8
_1-0_
  6
CONTINUOUS
 62
    7
 10
1166.1474043798262
 20
1003.4659535176045
 11
1165.7220394178707
 21
1003.0930811465936
  0
LINE
  8
_1-0_
  6
CONTINUOUS
 62
    7
 10
1165.7220394178707
 20
1003.0930811465936
 11
1158.5375534705672
 21
1003.5656894403995
  0
LINE
  8
_1-0_
  6
CONTINUOUS
 62
    7
 10
1158.5375534705672
 20
1003.5656894403995
 11
1158.1646810995564
 21
1003.9911418900066
  0
LINE
  8
_1-0_
  6
CONTINUOUS
 62
    7
 10
1158.1646810995564
 20
1003.9911418900066
 11
1158.1778042472927
 21
1004.1907012232481
  0
LINE
  8
_1-0_
  6
CONTINUOUS
 62
    7
 10
1158.1778042472927
 20
1004.1907012232481
 11
1158.6032566968997
 21
1004.563573594259
  0
LINE
  8
_1-0_
  6
CONTINUOUS
 62
    7
 10
1158.6032566968997
 20
1004.563573594259
 11
1165.7876551565516
 21
1004.0908778128016
  0
LINE
  8
_1-0_
  6
CONTINUOUS
 62
    7
 10
1165.7876551565516
 20
1006.0909330154477
 11
1166.1605275275624
 21
1005.6654805658407
  0
LINE
  8
_1-0_
  6
CONTINUOUS
 62
    7
 10
1166.1605275275624
 20
1005.6654805658407
 11
1166.1474043798262
 21
1005.4659212325989
  0
LINE
  8
_1-0_
  6
CONTINUOUS
 62
    7
 10
1166.1474043798262
 20
1005.4659212325989
 11
1165.7220394178707
 21
1005.0930488615882
  0
LINE
  8
_1-0_
  6
CONTINUOUS
 62
    7
 10
1165.7220394178707
 20
1005.0930488615882
 11
1158.5375534705672
 21
1005.5657446430456
  0
LINE
  8
_1-0_
  6
CONTINUOUS
 62
    7
 10
1158.5375534705672
 20
1005.5657446430456
 11
1158.1646810995564
 21
1005.9911096050012
  0
LINE
  8
_1-0_
  6
CONTINUOUS
 62
    7
 10
1158.1646810995564
 20
1005.9911096050012
 11
1158.1778042472927
 21
1006.1906689382427
  0
LINE
  8
_1-0_
  6
CONTINUOUS
 62
    7
 10
1158.1778042472927
 20
1006.1906689382427
 11
1158.6032566968997
 21
1006.5635413092535
  0
LINE
  8
_1-0_
  6
CONTINUOUS
 62
    7
 10
1158.6032566968997
 20
1006.5635413092535
 11
1165.7876551565516
 21
1006.0909330154477
  0
LINE
  8
_1-0_
  6
CONTINUOUS
 62
    7
 10
1159.171226530922
 20
653.13503839794737
 11
1159.171226530922
 21
652.13719798791362
  0
LINE
  8
_1-0_
  6
CONTINUOUS
 62
    7
 10
1159.171226530922
 20
651.13502693912687
 11
1159.171226530922
 21
650.13718652909324
  0
LINE
  8
_1-0_
  6
CONTINUOUS
 62
    7
 10
1159.171226530922
 20
649.13501548030649
 11
1159.171226530922
 21
648.13717507027286
  0
LINE
  8
_1-0_
  6
CONTINUOUS
 62
    7
 10
1165.1713046512086
 20
654.74030557286324
 11
1165.1713046512086
 21
653.74246516282949
  0
LINE
  8
_1-0_
  6
CONTINUOUS
 62
    7
 10
1165.1713046512086
 20
652.74029411404285
 11
1165.1713046512086
 21
651.74245370400911
  0
LINE
  8
_1-0_
  6
CONTINUOUS
 62
    7
 10
1165.1713046512086
 20
650.74028265522247
 11
1165.1713046512086
 21
649.74244224518884
  0
LINE
  8
_1-0_
  6
CONTINUOUS
 62
    7
 10
1165.1713046512086
 20
648.7402711964022
 11
1165.1713046512086
 21
647.74243078636846
  0
LINE
  8
_1-0_
  6
CONTINUOUS
 62
    7
 10
1165.1713046512086
 20
646.74030348140764
 11
1165.1713046512086
 21
646.51725371371822
  0
LINE
  8
_1-0_
  6
CONTINUOUS
 62
    7
 10
1165.1713046512086
 20
646.51725371371822
 11
1159.171226530922
 21
646.51725371371822
  0
LINE
  8
_1-0_
  6
CONTINUOUS
 62
    7
 10
1159.171226530922
 20
646.51725371371822
 11
1159.171226530922
 21
647.13500402148622
  0
LINE
  8
_1-0_
  6
CONTINUOUS
 62
    7
 10
1165.1713046512086
 20
655.74243287782406
 11
1165.1713046512086
 21
656.5172672639942
  0
LINE
  8
_1-0_
  6
CONTINUOUS
 62
    7
 10
1165.1713046512086
 20
656.5172672639942
 11
1159.171226530922
 21
656.5172672639942
  0
LINE
  8
_1-0_
  6
CONTINUOUS
 62
    7
 10
1159.171226530922
 20
656.5172672639942
 11
1159.171226530922
 21
656.13717716172857
  0
LINE
  8
_1-0_
  6
CONTINUOUS
 62
    7
 10
1159.171226530922
 20
654.13716570290819
 11
1159.171226530922
 21
655.13500611294194
  0
LINE
  8
_1-0_
  6
CONTINUOUS
 62
    7
 10
1158.5375534705672
 20
655.17669397891711
 11
1158.1646810995564
 21
655.60210268469848
  0
LINE
  8
_1-0_
  6
CONTINUOUS
 62
    7
 10
1158.1646810995564
 20
655.60210268469848
 11
1158.1778042472927
 21
655.80166201793998
  0
LINE
  8
_1-0_
  6
CONTINUOUS
 62
    7
 10
1158.1778042472927
 20
655.80166201793998
 11
1158.6032566968997
 21
656.17457813277667
  0
LINE
  8
_1-0_
  6
CONTINUOUS
 62
    7
 10
1158.6032566968997
 20
656.17457813277667
 11
1165.7876551565516
 21
655.70188235131923
  0
LINE
  8
_1-0_
  6
CONTINUOUS
 62
    7
 10
1165.7876551565516
 20
655.70188235131923
 11
1166.1605275275624
 21
655.27651738936368
  0
LINE
  8
_1-0_
  6
CONTINUOUS
 62
    7
 10
1166.1605275275624
 20
655.27651738936368
 11
1166.1474043798262
 21
655.07691431229637
  0
LINE
  8
_1-0_
  6
CONTINUOUS
 62
    7
 10
1166.1474043798262
 20
655.07691431229637
 11
1165.7220394178707
 21
654.7040419412856
  0
LINE
  8
_1-0_
  6
CONTINUOUS
 62
    7
 10
1165.7220394178707
 20
654.7040419412856
 11
1158.5375534705672
 21
655.17669397891711
  0
LINE
  8
_1-0_
  6
CONTINUOUS
 62
    7
 10
1158.5375534705672
 20
653.17672626392255
 11
1158.1646810995564
 21
653.60209122587798
  0
LINE
  8
_1-0_
  6
CONTINUOUS
 62
    7
 10
1158.1646810995564
 20
653.60209122587798
 11
1158.1778042472927
 21
653.80169430294541
  0
LINE
  8
_1-0_
  6
CONTINUOUS
 62
    7
 10
1158.1778042472927
 20
653.80169430294541
 11
1158.6032566968997
 21
654.17456667395629
  0
LINE
  8
_1-0_
  6
CONTINUOUS
 62
    7
 10
1158.6032566968997
 20
654.17456667395629
 11
1165.7876551565516
 21
653.70191463632466
  0
LINE
  8
_1-0_
  6
CONTINUOUS
 62
    7
 10
1165.7876551565516
 20
653.70191463632466
 11
1166.1605275275624
 21
653.27650593054341
  0
LINE
  8
_1-0_
  6
CONTINUOUS
 62
    7
 10
1166.1605275275624
 20
653.27650593054341
 11
1166.1474043798262
 21
653.07694659730168
  0
LINE
  8
_1-0_
  6
CONTINUOUS
 62
    7
 10
1166.1474043798262
 20
653.07694659730168
 11
1165.7220394178707
 21
652.70403048246521
  0
LINE
  8
_1-0_
  6
CONTINUOUS
 62
    7
 10
1165.7220394178707
 20
652.70403048246521
 11
1158.5375534705672
 21
653.17672626392255
  0
LINE
  8
_1-0_
  6
CONTINUOUS
 62
    7
 10
1158.5375534705672
 20
651.17671480510228
 11
1158.1646810995564
 21
651.60212351088353
  0
LINE
  8
_1-0_
  6
CONTINUOUS
 62
    7
 10
1158.1646810995564
 20
651.60212351088353
 11
1158.1778042472927
 21
651.80168284412514
  0
LINE
  8
_1-0_
  6
CONTINUOUS
 62
    7
 10
1158.1778042472927
 20
651.80168284412514
 11
1158.6032566968997
 21
652.1745552151358
  0
LINE
  8
_1-0_
  6
CONTINUOUS
 62
    7
 10
1158.6032566968997
 20
652.1745552151358
 11
1165.7876551565516
 21
651.70190317750439
  0
LINE
  8
_1-0_
  6
CONTINUOUS
 62
    7
 10
1165.7876551565516
 20
651.70190317750439
 11
1166.1605275275624
 21
651.27649447172303
  0
LINE
  8
_1-0_
  6
CONTINUOUS
 62
    7
 10
1166.1605275275624
 20
651.27649447172303
 11
1166.1474043798262
 21
651.07693513848153
  0
LINE
  8
_1-0_
  6
CONTINUOUS
 62
    7
 10
1166.1474043798262
 20
651.07693513848153
 11
1165.7220394178707
 21
650.70406276747065
  0
LINE
  8
_1-0_
  6
CONTINUOUS
 62
    7
 10
1165.7220394178707
 20
650.70406276747065
 11
1158.5375534705672
 21
651.17671480510228
  0
LINE
  8
_1-0_
  6
CONTINUOUS
 62
    7
 10
1158.5375534705672
 20
649.17670334628178
 11
1158.1646810995564
 21
649.60211205206315
  0
LINE
  8
_1-0_
  6
CONTINUOUS
 62
    7
 10
1158.1646810995564
 20
649.60211205206315
 11
1158.1778042472927
 21
649.80167138530476
  0
LINE
  8
_1-0_
  6
CONTINUOUS
 62
    7
 10
1158.1778042472927
 20
649.80167138530476
 11
1158.6032566968997
 21
650.17454375631564
  0
LINE
  8
_1-0_
  6
CONTINUOUS
 62
    7
 10
1158.6032566968997
 20
650.17454375631564
 11
1165.7876551565516
 21
649.70189171868401
  0
LINE
  8
_1-0_
  6
CONTINUOUS
 62
    7
 10
1165.7876551565516
 20
649.70189171868401
 11
1166.1605275275624
 21
649.27648301290264
  0
LINE
  8
_1-0_
  6
CONTINUOUS
 62
    7
 10
1166.1605275275624
 20
649.27648301290264
 11
1166.1474043798262
 21
649.07692367966104
  0
LINE
  8
_1-0_
  6
CONTINUOUS
 62
    7
 10
1166.1474043798262
 20
649.07692367966104
 11
1165.7220394178707
 21
648.70405130865026
  0
LINE
  8
_1-0_
  6
CONTINUOUS
 62
    7
 10
1165.7220394178707
 20
648.70405130865026
 11
1158.5375534705672
 21
649.17670334628178
  0
LINE
  8
_1-0_
  6
CONTINUOUS
 62
    7
 10
1158.5375534705672
 20
647.17673563128733
 11
1158.1646810995564
 21
647.60210059324277
  0
LINE
  8
_1-0_
  6
CONTINUOUS
 62
    7
 10
1158.1646810995564
 20
647.60210059324277
 11
1158.1778042472927
 21
647.80165992648438
  0
LINE
  8
_1-0_
  6
CONTINUOUS
 62
    7
 10
1158.1778042472927
 20
647.80165992648438
 11
1158.6032566968997
 21
648.17457604132096
  0
LINE
  8
_1-0_
  6
CONTINUOUS
 62
    7
 10
1158.6032566968997
 20
648.17457604132096
 11
1165.7876551565516
 21
647.70188025986363
  0
LINE
  8
_1-0_
  6
CONTINUOUS
 62
    7
 10
1165.7876551565516
 20
647.70188025986363
 11
1166.1605275275624
 21
647.27651529790808
  0
LINE
  8
_1-0_
  6
CONTINUOUS
 62
    7
 10
1166.1605275275624
 20
647.27651529790808
 11
1166.1474043798262
 21
647.07691222084065
  0
LINE
  8
_1-0_
  6
CONTINUOUS
 62
    7
 10
1166.1474043798262
 20
647.07691222084065
 11
1165.7220394178707
 21
646.70403984983
  0
LINE
  8
_1-0_
  6
CONTINUOUS
 62
    7
 10
1165.7220394178707
 20
646.70403984983
 11
1158.5375534705672
 21
647.17673563128733
  0
LINE
  8
_1-0_
  6
CONTINUOUS
 62
    7
 10
1158.3309951251997
 20
325.98069577603724
 11
1158.3309951251997
 21
285.51286697387695
  0
LINE
  8
_1-0_
  6
CONTINUOUS
 62
    7
 10
1158.3309951251997
 20
285.51286697387695
 11
1166.3309534728296
 21
285.51286697387695
  0
LINE
  8
_1-0_
  6
CONTINUOUS
 62
    7
 10
1166.3309534728296
 20
285.51286697387695
 11
1166.3309534728296
 21
325.98069577603724
  0
LINE
  8
_1-0_
  6
CONTINUOUS
 62
    7
 10
1158.3309951251997
 20
341.98069995894855
 11
1158.3309951251997
 21
635.51288192336619
  0
LINE
  8
_1-0_
  6
CONTINUOUS
 62
    7
 10
1158.3309951251997
 20
635.51288192336619
 11
1166.3309534728296
 21
635.51288192336619
  0
LINE
  8
_1-0_
  6
CONTINUOUS
 62
    7
 10
1166.3309534728296
 20
635.51288192336619
 11
1166.3309534728296
 21
341.98069995894855
  0
LINE
  8
_1-0_
  6
CONTINUOUS
 62
    7
 10
1158.3309951251997
 20
285.51286697387695
 11
1159.6643069351962
 21
283.51285551505657
  0
LINE
  8
_1-0_
  6
CONTINUOUS
 62
    7
 10
1159.6643069351962
 20
283.51285551505657
 11
1164.9976416628333
 21
283.51285551505657
  0
LINE
  8
_1-0_
  6
CONTINUOUS
 62
    7
 10
1164.9976416628333
 20
283.51285551505657
 11
1166.3309534728296
 21
285.51286697387695
  0
LINE
  8
_1-0_
  6
CONTINUOUS
 62
    7
 10
1159.3309789826972
 20
642.28766319834574
 11
1159.3309789826972
 21
641.28982278831222
  0
LINE
  8
_1-0_
  6
CONTINUOUS
 62
    7
 10
1159.3309789826972
 20
640.28769548335117
 11
1159.3309789826972
 21
639.28985507331754
  0
LINE
  8
_1-0_
  6
CONTINUOUS
 62
    7
 10
1159.3309789826972
 20
638.2876840245309
 11
1159.3309789826972
 21
637.28984361449716
  0
LINE
  8
_1-0_
  6
CONTINUOUS
 62
    7
 10
1165.3309696153324
 20
643.89293037326172
 11
1165.3309696153324
 21
642.89508996322809
  0
LINE
  8
_1-0_
  6
CONTINUOUS
 62
    7
 10
1165.3309696153324
 20
641.89296265826715
 11
1165.3309696153324
 21
640.89512224823352
  0
LINE
  8
_1-0_
  6
CONTINUOUS
 62
    7
 10
1165.3309696153324
 20
639.89295119944688
 11
1165.3309696153324
 21
638.89511078941314
  0
LINE
  8
_1-0_
  6
CONTINUOUS
 62
    7
 10
1165.3309696153324
 20
637.89293974062639
 11
1165.3309696153324
 21
636.89509933059276
  0
LINE
  8
_1-0_
  6
CONTINUOUS
 62
    7
 10
1165.3309696153324
 20
635.89292828180612
 11
1165.3309696153324
 21
635.51288192336619
  0
LINE
  8
_1-0_
  6
CONTINUOUS
 62
    7
 10
1165.3309696153324
 20
635.51288192336619
 11
1159.3309789826972
 21
635.51288192336619
  0
LINE
  8
_1-0_
  6
CONTINUOUS
 62
    7
 10
1159.3309789826972
 20
635.51288192336619
 11
1159.3309789826972
 21
636.28767256571052
  0
LINE
  8
_1-0_
  6
CONTINUOUS
 62
    7
 10
1165.3309696153324
 20
644.89510142204836
 11
1165.3309696153324
 21
645.51285172981636
  0
LINE
  8
_1-0_
  6
CONTINUOUS
 62
    7
 10
1165.3309696153324
 20
645.51285172981636
 11
1159.3309789826972
 21
645.51285172981636
  0
LINE
  8
_1-0_
  6
CONTINUOUS
 62
    7
 10
1159.3309789826972
 20
645.51285172981636
 11
1159.3309789826972
 21
645.28984570595287
  0
LINE
  8
_1-0_
  6
CONTINUOUS
 62
    7
 10
1159.3309789826972
 20
643.28983424713238
 11
1159.3309789826972
 21
644.28767465716624
  0
LINE
  8
_1-0_
  6
CONTINUOUS
 62
    7
 10
1165.9646426756869
 20
636.85341146461747
 11
1166.3375150466977
 21
636.4280027588361
  0
LINE
  8
_1-0_
  6
CONTINUOUS
 62
    7
 10
1166.3375150466977
 20
636.4280027588361
 11
1166.3243918989615
 21
636.22844342559461
  0
LINE
  8
_1-0_
  6
CONTINUOUS
 62
    7
 10
1166.3243918989615
 20
636.22844342559461
 11
1165.8990269370061
 21
635.85557105458383
  0
LINE
  8
_1-0_
  6
CONTINUOUS
 62
    7
 10
1165.8990269370061
 20
635.85557105458383
 11
1158.7145409897025
 21
636.32822309221535
  0
LINE
  8
_1-0_
  6
CONTINUOUS
 62
    7
 10
1158.7145409897025
 20
636.32822309221535
 11
1158.341668618692
 21
636.75363179799672
  0
LINE
  8
_1-0_
  6
CONTINUOUS
 62
    7
 10
1158.341668618692
 20
636.75363179799672
 11
1158.354791766428
 21
636.95319113123833
  0
LINE
  8
_1-0_
  6
CONTINUOUS
 62
    7
 10
1158.354791766428
 20
636.95319113123833
 11
1158.780244216035
 21
637.3260635022491
  0
LINE
  8
_1-0_
  6
CONTINUOUS
 62
    7
 10
1158.780244216035
 20
637.3260635022491
 11
1165.9646426756869
 21
636.85341146461747
  0
LINE
  8
_1-0_
  6
CONTINUOUS
 62
    7
 10
1165.9646426756869
 20
638.85342292343785
 11
1166.3375150466977
 21
638.42801421765648
  0
LINE
  8
_1-0_
  6
CONTINUOUS
 62
    7
 10
1166.3375150466977
 20
638.42801421765648
 11
1166.3243918989615
 21
638.22845488441499
  0
LINE
  8
_1-0_
  6
CONTINUOUS
 62
    7
 10
1166.3243918989615
 20
638.22845488441499
 11
1165.8990269370061
 21
637.8555825134041
  0
LINE
  8
_1-0_
  6
CONTINUOUS
 62
    7
 10
1165.8990269370061
 20
637.8555825134041
 11
1158.7145409897025
 21
638.32823455103573
  0
LINE
  8
_1-0_
  6
CONTINUOUS
 62
    7
 10
1158.7145409897025
 20
638.32823455103573
 11
1158.341668618692
 21
638.75364325681699
  0
LINE
  8
_1-0_
  6
CONTINUOUS
 62
    7
 10
1158.341668618692
 20
638.75364325681699
 11
1158.354791766428
 21
638.95320259005859
  0
LINE
  8
_1-0_
  6
CONTINUOUS
 62
    7
 10
1158.354791766428
 20
638.95320259005859
 11
1158.780244216035
 21
639.32607496106937
  0
LINE
  8
_1-0_
  6
CONTINUOUS
 62
    7
 10
1158.780244216035
 20
639.32607496106937
 11
1165.9646426756869
 21
638.85342292343785
  0
LINE
  8
_1-0_
  6
CONTINUOUS
 62
    7
 10
1165.9646426756869
 20
640.85343438225823
 11
1166.3375150466977
 21
640.42802567647686
  0
LINE
  8
_1-0_
  6
CONTINUOUS
 62
    7
 10
1166.3375150466977
 20
640.42802567647686
 11
1166.3243918989615
 21
640.22846634323525
  0
LINE
  8
_1-0_
  6
CONTINUOUS
 62
    7
 10
1166.3243918989615
 20
640.22846634323525
 11
1165.8990269370061
 21
639.85559397222448
  0
LINE
  8
_1-0_
  6
CONTINUOUS
 62
    7
 10
1165.8990269370061
 20
639.85559397222448
 11
1158.7145409897025
 21
640.328246009856
  0
LINE
  8
_1-0_
  6
CONTINUOUS
 62
    7
 10
1158.7145409897025
 20
640.328246009856
 11
1158.341668618692
 21
640.75361097181155
  0
LINE
  8
_1-0_
  6
CONTINUOUS
 62
    7
 10
1158.341668618692
 20
640.75361097181155
 11
1158.354791766428
 21
640.95321404887898
  0
LINE
  8
_1-0_
  6
CONTINUOUS
 62
    7
 10
1158.354791766428
 20
640.95321404887898
 11
1158.780244216035
 21
641.32608641988986
  0
LINE
  8
_1-0_
  6
CONTINUOUS
 62
    7
 10
1158.780244216035
 20
641.32608641988986
 11
1165.9646426756869
 21
640.85343438225823
  0
LINE
  8
_1-0_
  6
CONTINUOUS
 62
    7
 10
1165.9646426756869
 20
642.8534020972528
 11
1166.3375150466977
 21
642.42803713529725
  0
LINE
  8
_1-0_
  6
CONTINUOUS
 62
    7
 10
1166.3375150466977
 20
642.42803713529725
 11
1166.3243918989615
 21
642.22843405822982
  0
LINE
  8
_1-0_
  6
CONTINUOUS
 62
    7
 10
1166.3243918989615
 20
642.22843405822982
 11
1165.8990269370061
 21
641.85556168721905
  0
LINE
  8
_1-0_
  6
CONTINUOUS
 62
    7
 10
1165.8990269370061
 20
641.85556168721905
 11
1158.7145409897025
 21
642.32821372485068
  0
LINE
  8
_1-0_
  6
CONTINUOUS
 62
    7
 10
1158.7145409897025
 20
642.32821372485068
 11
1158.341668618692
 21
642.75362243063205
  0
LINE
  8
_1-0_
  6
CONTINUOUS
 62
    7
 10
1158.341668618692
 20
642.75362243063205
 11
1158.354791766428
 21
642.95318176387354
  0
LINE
  8
_1-0_
  6
CONTINUOUS
 62
    7
 10
1158.354791766428
 20
642.95318176387354
 11
1158.780244216035
 21
643.32609787871002
  0
LINE
  8
_1-0_
  6
CONTINUOUS
 62
    7
 10
1158.780244216035
 20
643.32609787871002
 11
1165.9646426756869
 21
642.8534020972528
  0
LINE
  8
_1-0_
  6
CONTINUOUS
 62
    7
 10
1165.9646426756869
 20
644.85341355607318
 11
1166.3375150466977
 21
644.42800485029181
  0
LINE
  8
_1-0_
  6
CONTINUOUS
 62
    7
 10
1166.3375150466977
 20
644.42800485029181
 11
1166.3243918989615
 21
644.2284455170502
  0
LINE
  8
_1-0_
  6
CONTINUOUS
 62
    7
 10
1166.3243918989615
 20
644.2284455170502
 11
1165.8990269370061
 21
643.85557314603943
  0
LINE
  8
_1-0_
  6
CONTINUOUS
 62
    7
 10
1165.8990269370061
 20
643.85557314603943
 11
1158.7145409897025
 21
644.32822518367107
  0
LINE
  8
_1-0_
  6
CONTINUOUS
 62
    7
 10
1158.7145409897025
 20
644.32822518367107
 11
1158.341668618692
 21
644.7536338894522
  0
LINE
  8
_1-0_
  6
CONTINUOUS
 62
    7
 10
1158.341668618692
 20
644.7536338894522
 11
1158.354791766428
 21
644.95319322269393
  0
LINE
  8
_1-0_
  6
CONTINUOUS
 62
    7
 10
1158.354791766428
 20
644.95319322269393
 11
1158.780244216035
 21
645.32606559370481
  0
LINE
  8
_1-0_
  6
CONTINUOUS
 62
    7
 10
1158.780244216035
 20
645.32606559370481
 11
1165.9646426756869
 21
644.85341355607318
  0
LINE
  8
_1-0_
  6
CONTINUOUS
 62
    7
 10
1149.330965432421
 20
341.98069995894855
 11
1183.3310290008897
 21
341.98069995894855
  0
LINE
  8
_1-0_
  6
CONTINUOUS
 62
    7
 10
1183.3310290008897
 20
341.98069995894855
 11
1183.3310290008897
 21
325.98069577603724
  0
LINE
  8
_1-0_
  6
CONTINUOUS
 62
    7
 10
1183.3310290008897
 20
325.98069577603724
 11
1149.330965432421
 21
325.98069577603724
  0
LINE
  8
_1-0_
  6
CONTINUOUS
 62
    7
 10
1149.330965432421
 20
325.98069577603724
 11
1149.330965432421
 21
341.98069995894855
  0
LINE
  8
_1-0_
  6
CONTINUOUS
 62
    7
 10
1171.7759224438757
 20
340.39087435453553
 11
1173.2975951677124
 21
340.88531081740911
  0
LINE
  8
_1-0_
  6
CONTINUOUS
 62
    7
 10
1173.2975951677124
 20
340.88531081740911
 11
1177.6238595380746
 21
327.57052138045026
  0
LINE
  8
_1-0_
  6
CONTINUOUS
 62
    7
 10
1177.6238595380746
 20
327.57052138045026
 11
1176.1020993265865
 21
327.07608491757668
  0
LINE
  8
_1-0_
  6
CONTINUOUS
 62
    7
 10
1176.1020993265865
 20
327.07608491757668
 11
1171.7759224438757
 21
340.39087435453553
  0
LINE
  8
_1-0_
  6
CONTINUOUS
 62
    7
 10
1226.4831758005739
 20
622.63916148182045
 11
1222.4831528829332
 21
618.63913856417969
  0
LINE
  8
_1-0_
  6
CONTINUOUS
 62
    7
 10
1222.4831528829332
 20
618.63913856417969
 11
1222.4831528829332
 21
600.63916666627381
  0
LINE
  8
_1-0_
  6
CONTINUOUS
 62
    7
 10
1222.4831528829332
 20
600.63916666627381
 11
1226.4831758005739
 21
596.63914374863316
  0
LINE
  8
_1-0_
  6
CONTINUOUS
 62
    7
 10
1226.4831758005739
 20
596.63914374863316
 11
1271.4831492891642
 21
596.63914374863316
  0
LINE
  8
_1-0_
  6
CONTINUOUS
 62
    7
 10
1271.4831492891642
 20
596.63914374863316
 11
1275.483172206805
 21
600.63916666627381
  0
LINE
  8
_1-0_
  6
CONTINUOUS
 62
    7
 10
1275.483172206805
 20
600.63916666627381
 11
1275.483172206805
 21
609.63915261522675
  0
LINE
  8
_1-0_
  6
CONTINUOUS
 62
    7
 10
1275.483172206805
 20
609.63915261522675
 11
1275.483172206805
 21
618.63913856417969
  0
LINE
  8
_1-0_
  6
CONTINUOUS
 62
    7
 10
1275.483172206805
 20
618.63913856417969
 11
1271.4831492891642
 21
622.63916148182045
  0
LINE
  8
_1-0_
  6
CONTINUOUS
 62
    7
 10
1271.4831492891642
 20
622.63916148182045
 11
1226.4831758005739
 21
622.63916148182045
  0
LINE
  8
_1-0_
  6
CONTINUOUS
 62
    7
 10
1235.2592371053217
 20
600.63916666627381
 11
1235.2592371053217
 21
618.63913856417969
  0
LINE
  8
_1-0_
  6
CONTINUOUS
 62
    7
 10
1261.7592467672575
 20
600.63916666627381
 11
1261.7592467672575
 21
618.63913856417969
  0
LINE
  8
_1-0_
  6
CONTINUOUS
 62
    7
 10
1236.5092606710191
 20
622.63916148182045
 11
1260.5092232015602
 21
622.63916148182045
  0
LINE
  8
_1-0_
  6
CONTINUOUS
 62
    7
 10
1227.9831515868198
 20
596.63914374863316
 11
1269.9831735029184
 21
596.63914374863316
  0
LINE
  8
_1-0_
  6
CONTINUOUS
 62
    7
 10
1172.7326874014952
 20
929.09628790778072
 11
1196.732737419688
 21
929.09628790778072
  0
LINE
  8
_1-0_
  6
CONTINUOUS
 62
    7
 10
1172.7326874014952
 20
922.16770334133298
 11
1172.7326874014952
 21
921.48145020238212
  0
LINE
  8
_1-0_
  6
CONTINUOUS
 62
    7
 10
1196.732737419688
 20
922.16770334133298
 11
1196.732737419688
 21
921.48145020238212
  0
LINE
  8
_1-0_
  6
CONTINUOUS
 62
    7
 10
1171.732703543998
 20
899.09624725695278
 11
1197.7327212771852
 21
899.09624725695278
  0
LINE
  8
_1-0_
  6
CONTINUOUS
 62
    7
 10
1172.7326874014952
 20
909.19914628548042
 11
1172.7326874014952
 21
910.71110787999214
  0
LINE
  8
_1-0_
  6
CONTINUOUS
 62
    7
 10
1196.732737419688
 20
909.09626080722876
 11
1196.732737419688
 21
910.71110787999214
  0
LINE
  8
_1-0_
  6
CONTINUOUS
 62
    7
 10
1197.7327212771852
 20
899.09624725695278
 11
1197.7327212771852
 21
902.0962863170962
  0
LINE
  8
_1-0_
  6
CONTINUOUS
 62
    7
 10
1171.732703543998
 20
899.09624725695278
 11
1171.732703543998
 21
902.0962863170962
  0
LINE
  8
_1-0_
  6
CONTINUOUS
 62
    7
 10
1172.2326954727466
 20
937.09624625541073
 11
1174.2327506753927
 21
939.09630145805681
  0
LINE
  8
_1-0_
  6
CONTINUOUS
 62
    7
 10
1174.2327506753927
 20
939.09630145805681
 11
1195.2326741457905
 21
939.09630145805681
  0
LINE
  8
_1-0_
  6
CONTINUOUS
 62
    7
 10
1195.2326741457905
 20
939.09630145805681
 11
1197.2327293484366
 21
937.09624625541073
  0
LINE
  8
_1-0_
  6
CONTINUOUS
 62
    7
 10
1197.2327293484366
 20
937.09624625541073
 11
1197.2327293484366
 21
931.09625562277529
  0
LINE
  8
_1-0_
  6
CONTINUOUS
 62
    7
 10
1197.2327293484366
 20
931.09625562277529
 11
1195.2326741457905
 21
929.09628790778072
  0
LINE
  8
_1-0_
  6
CONTINUOUS
 62
    7
 10
1195.2326741457905
 20
929.09628790778072
 11
1174.2327506753927
 21
929.09628790778072
  0
LINE
  8
_1-0_
  6
CONTINUOUS
 62
    7
 10
1174.2327506753927
 20
929.09628790778072
 11
1172.2326954727466
 21
931.09625562277529
  0
LINE
  8
_1-0_
  6
CONTINUOUS
 62
    7
 10
1172.2326954727466
 20
931.09625562277529
 11
1172.2326954727466
 21
937.09624625541073
  0
LINE
  8
_1-0_
  6
CONTINUOUS
 62
    7
 10
1178.482725813582
 20
937.09624625541073
 11
1178.482725813582
 21
931.09625562277529
  0
LINE
  8
_1-0_
  6
CONTINUOUS
 62
    7
 10
1190.9826990076012
 20
937.09624625541073
 11
1190.9826990076012
 21
931.09625562277529
  0
LINE
  8
_1-0_
  6
CONTINUOUS
 62
    7
 10
1174.2327506753927
 20
949.09631500833268
 11
1195.2326741457905
 21
949.09631500833268
  0
LINE
  8
_1-0_
  6
CONTINUOUS
 62
    7
 10
1195.2326741457905
 20
949.09631500833268
 11
1195.2326741457905
 21
939.09630145805681
  0
LINE
  8
_1-0_
  6
CONTINUOUS
 62
    7
 10
1195.2326741457905
 20
939.09630145805681
 11
1174.2327506753927
 21
939.09630145805681
  0
LINE
  8
_1-0_
  6
CONTINUOUS
 62
    7
 10
1174.2327506753927
 20
939.09630145805681
 11
1174.2327506753927
 21
949.09631500833268
  0
LINE
  8
_1-0_
  6
CONTINUOUS
 62
    7
 10
1196.732737419688
 20
951.09628272332725
 11
1196.6942428529953
 21
950.7060877973048
  0
LINE
  8
_1-0_
  6
CONTINUOUS
 62
    7
 10
1196.6942428529953
 20
950.7060877973048
 11
1196.5805089059481
 21
950.330940747353
  0
LINE
  8
_1-0_
  6
CONTINUOUS
 62
    7
 10
1196.5805089059481
 20
950.330940747353
 11
1196.3956474981712
 21
949.98510206067874
  0
LINE
  8
_1-0_
  6
CONTINUOUS
 62
    7
 10
1196.3956474981712
 20
949.98510206067874
 11
1196.1469201047448
 21
949.68204483562442
  0
LINE
  8
_1-0_
  6
CONTINUOUS
 62
    7
 10
1196.1469201047448
 20
949.68204483562442
 11
1195.8438628796903
 21
949.43331744219802
  0
LINE
  8
_1-0_
  6
CONTINUOUS
 62
    7
 10
1195.8438628796903
 20
949.43331744219802
 11
1195.4981116806678
 21
949.24854352207251
  0
LINE
  8
_1-0_
  6
CONTINUOUS
 62
    7
 10
1195.4981116806678
 20
949.24854352207251
 11
1195.1228771430644
 21
949.13472208737403
  0
LINE
  8
_1-0_
  6
CONTINUOUS
 62
    7
 10
1195.1228771430644
 20
949.13472208737403
 11
1194.7326822170419
 21
949.09631500833268
  0
LINE
  8
_1-0_
  6
CONTINUOUS
 62
    7
 10
1194.7326822170419
 20
949.09631500833268
 11
1174.7327426041415
 21
949.09631500833268
  0
LINE
  8
_1-0_
  6
CONTINUOUS
 62
    7
 10
1174.7327426041415
 20
949.09631500833268
 11
1174.342547678119
 21
949.13472208737403
  0
LINE
  8
_1-0_
  6
CONTINUOUS
 62
    7
 10
1174.342547678119
 20
949.13472208737403
 11
1173.9673131405157
 21
949.24854352207251
  0
LINE
  8
_1-0_
  6
CONTINUOUS
 62
    7
 10
1173.9673131405157
 20
949.24854352207251
 11
1173.6215619414929
 21
949.43331744219802
  0
LINE
  8
_1-0_
  6
CONTINUOUS
 62
    7
 10
1173.6215619414929
 20
949.43331744219802
 11
1173.3185047164386
 21
949.68204483562442
  0
LINE
  8
_1-0_
  6
CONTINUOUS
 62
    7
 10
1173.3185047164386
 20
949.68204483562442
 11
1173.069777323012
 21
949.98510206067874
  0
LINE
  8
_1-0_
  6
CONTINUOUS
 62
    7
 10
1173.069777323012
 20
949.98510206067874
 11
1172.8849159152351
 21
950.330940747353
  0
LINE
  8
_1-0_
  6
CONTINUOUS
 62
    7
 10
1172.8849159152351
 20
950.330940747353
 11
1172.7711819681881
 21
950.7060877973048
  0
LINE
  8
_1-0_
  6
CONTINUOUS
 62
    7
 10
1172.7711819681881
 20
950.7060877973048
 11
1172.7326874014952
 21
951.09628272332725
  0
LINE
  8
_1-0_
  6
CONTINUOUS
 62
    7
 10
1172.7326874014952
 20
951.09628272332725
 11
1172.7711819681881
 21
951.48647764934992
  0
LINE
  8
_1-0_
  6
CONTINUOUS
 62
    7
 10
1172.7711819681881
 20
951.48647764934992
 11
1172.8849159152351
 21
951.86162469930173
  0
LINE
  8
_1-0_
  6
CONTINUOUS
 62
    7
 10
1172.8849159152351
 20
951.86162469930173
 11
1173.069777323012
 21
952.20737589832436
  0
LINE
  8
_1-0_
  6
CONTINUOUS
 62
    7
 10
1173.069777323012
 20
952.20737589832436
 11
1173.3185047164386
 21
952.51052061103019
  0
LINE
  8
_1-0_
  6
CONTINUOUS
 62
    7
 10
1173.3185047164386
 20
952.51052061103019
 11
1173.6215619414929
 21
952.75924800445659
  0
LINE
  8
_1-0_
  6
CONTINUOUS
 62
    7
 10
1173.6215619414929
 20
952.75924800445659
 11
1173.9673131405157
 21
952.94402192458222
  0
LINE
  8
_1-0_
  6
CONTINUOUS
 62
    7
 10
1173.9673131405157
 20
952.94402192458222
 11
1174.342547678119
 21
953.0578433592807
  0
LINE
  8
_1-0_
  6
CONTINUOUS
 62
    7
 10
1174.342547678119
 20
953.0578433592807
 11
1174.7327426041415
 21
953.09625043832182
  0
LINE
  8
_1-0_
  6
CONTINUOUS
 62
    7
 10
1174.7327426041415
 20
953.09625043832182
 11
1184.7327561544175
 21
953.09625043832182
  0
LINE
  8
_1-0_
  6
CONTINUOUS
 62
    7
 10
1184.7327561544175
 20
953.09625043832182
 11
1194.7326822170419
 21
953.09625043832182
  0
LINE
  8
_1-0_
  6
CONTINUOUS
 62
    7
 10
1194.7326822170419
 20
953.09625043832182
 11
1195.1228771430644
 21
953.0578433592807
  0
LINE
  8
_1-0_
  6
CONTINUOUS
 62
    7
 10
1195.1228771430644
 20
953.0578433592807
 11
1195.4981116806678
 21
952.94402192458222
  0
LINE
  8
_1-0_
  6
CONTINUOUS
 62
    7
 10
1195.4981116806678
 20
952.94402192458222
 11
1195.8438628796903
 21
952.75924800445659
  0
LINE
  8
_1-0_
  6
CONTINUOUS
 62
    7
 10
1195.8438628796903
 20
952.75924800445659
 11
1196.1469201047448
 21
952.51052061103019
  0
LINE
  8
_1-0_
  6
CONTINUOUS
 62
    7
 10
1196.1469201047448
 20
952.51052061103019
 11
1196.3956474981712
 21
952.20737589832436
  0
LINE
  8
_1-0_
  6
CONTINUOUS
 62
    7
 10
1196.3956474981712
 20
952.20737589832436
 11
1196.5805089059481
 21
951.86162469930173
  0
LINE
  8
_1-0_
  6
CONTINUOUS
 62
    7
 10
1196.5805089059481
 20
951.86162469930173
 11
1196.6942428529953
 21
951.48647764934992
  0
LINE
  8
_1-0_
  6
CONTINUOUS
 62
    7
 10
1196.6942428529953
 20
951.48647764934992
 11
1196.732737419688
 21
951.09628272332725
  0
LINE
  8
_1-0_
  6
CONTINUOUS
 62
    7
 10
1174.2327506753927
 20
956.09628949846535
 11
1195.2326741457905
 21
956.09628949846535
  0
LINE
  8
_1-0_
  6
CONTINUOUS
 62
    7
 10
1195.2326741457905
 20
956.09628949846535
 11
1195.2326741457905
 21
953.09625043832182
  0
LINE
  8
_1-0_
  6
CONTINUOUS
 62
    7
 10
1195.2326741457905
 20
953.09625043832182
 11
1174.2327506753927
 21
953.09625043832182
  0
LINE
  8
_1-0_
  6
CONTINUOUS
 62
    7
 10
1174.2327506753927
 20
953.09625043832182
 11
1174.2327506753927
 21
956.09628949846535
  0
LINE
  8
_1-0_
  6
CONTINUOUS
 62
    7
 10
1172.7326874014952
 20
959.09624107095726
 11
1172.7326874014952
 21
960.096312416106
  0
LINE
  8
_1-0_
  6
CONTINUOUS
 62
    7
 10
1172.7326874014952
 20
960.096312416106
 11
1172.7711819681881
 21
960.48641985447705
  0
LINE
  8
_1-0_
  6
CONTINUOUS
 62
    7
 10
1172.7711819681881
 20
960.48641985447705
 11
1172.8849159152351
 21
960.86165439208025
  0
LINE
  8
_1-0_
  6
CONTINUOUS
 62
    7
 10
1172.8849159152351
 20
960.86165439208025
 11
1173.069777323012
 21
961.207405591103
  0
LINE
  8
_1-0_
  6
CONTINUOUS
 62
    7
 10
1173.069777323012
 20
961.207405591103
 11
1173.3185047164386
 21
961.51046281615731
  0
LINE
  8
_1-0_
  6
CONTINUOUS
 62
    7
 10
1173.3185047164386
 20
961.51046281615731
 11
1173.6215619414929
 21
961.75919020958395
  0
LINE
  8
_1-0_
  6
CONTINUOUS
 62
    7
 10
1173.6215619414929
 20
961.75919020958395
 11
1173.9673131405157
 21
961.94405161736086
  0
LINE
  8
_1-0_
  6
CONTINUOUS
 62
    7
 10
1173.9673131405157
 20
961.94405161736086
 11
1174.342547678119
 21
962.05787305205945
  0
LINE
  8
_1-0_
  6
CONTINUOUS
 62
    7
 10
1174.342547678119
 20
962.05787305205945
 11
1174.7327426041415
 21
962.09628013110068
  0
LINE
  8
_1-0_
  6
CONTINUOUS
 62
    7
 10
1174.7327426041415
 20
962.09628013110068
 11
1184.7327561544175
 21
962.09628013110068
  0
LINE
  8
_1-0_
  6
CONTINUOUS
 62
    7
 10
1184.7327561544175
 20
962.09628013110068
 11
1194.7326822170419
 21
962.09628013110068
  0
LINE
  8
_1-0_
  6
CONTINUOUS
 62
    7
 10
1194.7326822170419
 20
962.09628013110068
 11
1195.1228771430644
 21
962.05787305205945
  0
LINE
  8
_1-0_
  6
CONTINUOUS
 62
    7
 10
1195.1228771430644
 20
962.05787305205945
 11
1195.4981116806678
 21
961.94405161736086
  0
LINE
  8
_1-0_
  6
CONTINUOUS
 62
    7
 10
1195.4981116806678
 20
961.94405161736086
 11
1195.8438628796903
 21
961.75919020958395
  0
LINE
  8
_1-0_
  6
CONTINUOUS
 62
    7
 10
1195.8438628796903
 20
961.75919020958395
 11
1196.1469201047448
 21
961.51046281615731
  0
LINE
  8
_1-0_
  6
CONTINUOUS
 62
    7
 10
1196.1469201047448
 20
961.51046281615731
 11
1196.3956474981712
 21
961.207405591103
  0
LINE
  8
_1-0_
  6
CONTINUOUS
 62
    7
 10
1196.3956474981712
 20
961.207405591103
 11
1196.5805089059481
 21
960.86165439208025
  0
LINE
  8
_1-0_
  6
CONTINUOUS
 62
    7
 10
1196.5805089059481
 20
960.86165439208025
 11
1196.6942428529953
 21
960.48641985447705
  0
LINE
  8
_1-0_
  6
CONTINUOUS
 62
    7
 10
1196.6942428529953
 20
960.48641985447705
 11
1196.732737419688
 21
960.096312416106
  0
LINE
  8
_1-0_
  6
CONTINUOUS
 62
    7
 10
1196.732737419688
 20
960.096312416106
 11
1196.732737419688
 21
959.09624107095726
  0
LINE
  8
_1-0_
  6
CONTINUOUS
 62
    7
 10
1196.732737419688
 20
959.09624107095726
 11
1196.732737419688
 21
958.09625721345992
  0
LINE
  8
_1-0_
  6
CONTINUOUS
 62
    7
 10
1196.732737419688
 20
958.09625721345992
 11
1196.6942428529953
 21
957.70606228743736
  0
LINE
  8
_1-0_
  6
CONTINUOUS
 62
    7
 10
1196.6942428529953
 20
957.70606228743736
 11
1196.5805089059481
 21
957.33091523748556
  0
LINE
  8
_1-0_
  6
CONTINUOUS
 62
    7
 10
1196.5805089059481
 20
957.33091523748556
 11
1196.3956474981712
 21
956.98516403846293
  0
LINE
  8
_1-0_
  6
CONTINUOUS
 62
    7
 10
1196.3956474981712
 20
956.98516403846293
 11
1196.1469201047448
 21
956.68210681340861
  0
LINE
  8
_1-0_
  6
CONTINUOUS
 62
    7
 10
1196.1469201047448
 20
956.68210681340861
 11
1195.8438628796903
 21
956.43337941998209
  0
LINE
  8
_1-0_
  6
CONTINUOUS
 62
    7
 10
1195.8438628796903
 20
956.43337941998209
 11
1195.4981116806678
 21
956.24851801220518
  0
LINE
  8
_1-0_
  6
CONTINUOUS
 62
    7
 10
1195.4981116806678
 20
956.24851801220518
 11
1195.1228771430644
 21
956.13469657750659
  0
LINE
  8
_1-0_
  6
CONTINUOUS
 62
    7
 10
1195.1228771430644
 20
956.13469657750659
 11
1194.7326822170419
 21
956.09628949846535
  0
LINE
  8
_1-0_
  6
CONTINUOUS
 62
    7
 10
1194.7326822170419
 20
956.09628949846535
 11
1184.7327561544175
 21
956.09628949846535
  0
LINE
  8
_1-0_
  6
CONTINUOUS
 62
    7
 10
1184.7327561544175
 20
956.09628949846535
 11
1174.7327426041415
 21
956.09628949846535
  0
LINE
  8
_1-0_
  6
CONTINUOUS
 62
    7
 10
1174.7327426041415
 20
956.09628949846535
 11
1174.342547678119
 21
956.13469657750659
  0
LINE
  8
_1-0_
  6
CONTINUOUS
 62
    7
 10
1174.342547678119
 20
956.13469657750659
 11
1173.9673131405157
 21
956.24851801220518
  0
LINE
  8
_1-0_
  6
CONTINUOUS
 62
    7
 10
1173.9673131405157
 20
956.24851801220518
 11
1173.6215619414929
 21
956.43337941998209
  0
LINE
  8
_1-0_
  6
CONTINUOUS
 62
    7
 10
1173.6215619414929
 20
956.43337941998209
 11
1173.3185047164386
 21
956.68210681340861
  0
LINE
  8
_1-0_
  6
CONTINUOUS
 62
    7
 10
1173.3185047164386
 20
956.68210681340861
 11
1173.069777323012
 21
956.98516403846293
  0
LINE
  8
_1-0_
  6
CONTINUOUS
 62
    7
 10
1173.069777323012
 20
956.98516403846293
 11
1172.8849159152351
 21
957.33091523748556
  0
LINE
  8
_1-0_
  6
CONTINUOUS
 62
    7
 10
1172.8849159152351
 20
957.33091523748556
 11
1172.7711819681881
 21
957.70606228743736
  0
LINE
  8
_1-0_
  6
CONTINUOUS
 62
    7
 10
1172.7711819681881
 20
957.70606228743736
 11
1172.7326874014952
 21
958.09625721345992
  0
LINE
  8
_1-0_
  6
CONTINUOUS
 62
    7
 10
1172.7326874014952
 20
958.09625721345992
 11
1172.7326874014952
 21
959.09624107095726
  0
LINE
  8
_1-0_
  6
CONTINUOUS
 62
    7
 10
1176.732710319136
 20
966.09630304874133
 11
1176.732710319136
 21
964.09624784609514
  0
LINE
  8
_1-0_
  6
CONTINUOUS
 62
    7
 10
1192.7327145020472
 20
970.09623847873047
 11
1192.7327145020472
 21
968.0962707637359
  0
LINE
  8
_1-0_
  6
CONTINUOUS
 62
    7
 10
1192.7327145020472
 20
966.09630304874133
 11
1192.7327145020472
 21
964.09624784609514
  0
LINE
  8
_1-0_
  6
CONTINUOUS
 62
    7
 10
1176.732710319136
 20
968.0962707637359
 11
1176.732710319136
 21
970.09623847873047
  0
LINE
  8
_1-0_
  6
CONTINUOUS
 62
    7
 10
1174.7327426041415
 20
972.09629368137666
 11
1194.7326822170419
 21
972.09629368137666
  0
LINE
  8
_1-0_
  6
CONTINUOUS
 62
    7
 10
1194.7326822170419
 20
972.09629368137666
 11
1194.7326822170419
 21
970.09623847873047
  0
LINE
  8
_1-0_
  6
CONTINUOUS
 62
    7
 10
1194.7326822170419
 20
970.09623847873047
 11
1174.7327426041415
 21
970.09623847873047
  0
LINE
  8
_1-0_
  6
CONTINUOUS
 62
    7
 10
1174.7327426041415
 20
970.09623847873047
 11
1174.7327426041415
 21
972.09629368137666
  0
LINE
  8
_1-0_
  6
CONTINUOUS
 62
    7
 10
1174.7327426041415
 20
968.0962707637359
 11
1194.7326822170419
 21
968.0962707637359
  0
LINE
  8
_1-0_
  6
CONTINUOUS
 62
    7
 10
1194.7326822170419
 20
968.0962707637359
 11
1194.7326822170419
 21
966.09630304874133
  0
LINE
  8
_1-0_
  6
CONTINUOUS
 62
    7
 10
1194.7326822170419
 20
966.09630304874133
 11
1174.7327426041415
 21
966.09630304874133
  0
LINE
  8
_1-0_
  6
CONTINUOUS
 62
    7
 10
1174.7327426041415
 20
966.09630304874133
 11
1174.7327426041415
 21
968.0962707637359
  0
LINE
  8
_1-0_
  6
CONTINUOUS
 62
    7
 10
1174.7327426041415
 20
964.09624784609514
 11
1194.7326822170419
 21
964.09624784609514
  0
LINE
  8
_1-0_
  6
CONTINUOUS
 62
    7
 10
1194.7326822170419
 20
964.09624784609514
 11
1194.7326822170419
 21
962.09628013110068
  0
LINE
  8
_1-0_
  6
CONTINUOUS
 62
    7
 10
1194.7326822170419
 20
962.09628013110068
 11
1174.7327426041415
 21
962.09628013110068
  0
LINE
  8
_1-0_
  6
CONTINUOUS
 62
    7
 10
1174.7327426041415
 20
962.09628013110068
 11
1174.7327426041415
 21
964.09624784609514
  0
LINE
  8
_1-0_
  6
CONTINUOUS
 62
    7
 10
1172.7326874014952
 20
819.09631383004796
 11
1172.7326874014952
 21
899.09624725695278
  0
LINE
  8
_1-0_
  6
CONTINUOUS
 62
    7
 10
1172.7326874014952
 20
899.09624725695278
 11
1196.732737419688
 21
899.09624725695278
  0
LINE
  8
_1-0_
  6
CONTINUOUS
 62
    7
 10
1196.732737419688
 20
899.09624725695278
 11
1196.732737419688
 21
784.09626640408192
  0
LINE
  8
_1-0_
  6
CONTINUOUS
 62
    7
 10
1236.5092606710191
 20
629.56770230444238
 11
1236.5092606710191
 21
630.25399918721905
  0
LINE
  8
_1-0_
  6
CONTINUOUS
 62
    7
 10
1260.5092232015602
 20
629.56770230444238
 11
1260.5092232015602
 21
630.25399918721905
  0
LINE
  8
_1-0_
  6
CONTINUOUS
 62
    7
 10
1235.5092768135219
 20
652.63915838882269
 11
1261.5092070590574
 21
652.63915838882269
  0
LINE
  8
_1-0_
  6
CONTINUOUS
 62
    7
 10
1236.5092606710191
 20
642.53625936029493
 11
1236.5092606710191
 21
641.02434150960914
  0
LINE
  8
_1-0_
  6
CONTINUOUS
 62
    7
 10
1260.5092232015602
 20
642.6391448385466
 11
1260.5092232015602
 21
641.02434150960914
  0
LINE
  8
_1-0_
  6
CONTINUOUS
 62
    7
 10
1261.5092070590574
 20
652.63915838882269
 11
1261.5092070590574
 21
649.63916307250497
  0
LINE
  8
_1-0_
  6
CONTINUOUS
 62
    7
 10
1235.5092768135219
 20
652.63915838882269
 11
1235.5092768135219
 21
649.63916307250497
  0
LINE
  8
_1-0_
  6
CONTINUOUS
 62
    7
 10
1260.5092232015602
 20
732.63917930337914
 11
1260.5092232015602
 21
652.63915838882269
  0
LINE
  8
_1-0_
  6
CONTINUOUS
 62
    7
 10
1260.5092232015602
 20
652.63915838882269
 11
1236.5092606710191
 21
652.63915838882269
  0
LINE
  8
_1-0_
  6
CONTINUOUS
 62
    7
 10
1236.5092606710191
 20
652.63915838882269
 11
1236.5092606710191
 21
756.63914183392023
  0
LINE
  8
_1-0_
  6
CONTINUOUS
 62
    7
 10
1247.8497600187206
 20
788.30835938913935
 11
1247.8497600187206
 21
580.30834875511846
  0
LINE
  8
_1-0_
  6
CONTINUOUS
 62
    7
 10
1249.1533260271815
 20
788.30835938913935
 11
1183.1533415805418
 21
722.30833119867384
  0
LINE
  8
_1-1_
  6
CONTINUOUS
 62
    7
 10
1184.8914587543736
 20
988.74291909707551
 11
1184.8914587543736
 21
722.7428823640447
  0
LINE
  8
_1-0_
  6
CONTINUOUS
 62
    7
 10
1307.9999701304787
 20
354.80542731561258
 11
1284.9999914574346
 21
354.80542731561258
  0
LINE
  8
_1-0_
  6
CONTINUOUS
 62
    7
 10
1284.9999914574346
 20
354.80542731561258
 11
1284.609796531412
 21
354.76699836465843
  0
LINE
  8
_1-0_
  6
CONTINUOUS
 62
    7
 10
1284.609796531412
 20
354.76699836465843
 11
1284.2346494814603
 21
354.6531988018728
  0
LINE
  8
_1-0_
  6
CONTINUOUS
 62
    7
 10
1284.2346494814603
 20
354.6531988018728
 11
1283.8888982824378
 21
354.46838113792154
  0
LINE
  8
_1-0_
  6
CONTINUOUS
 62
    7
 10
1283.8888982824378
 20
354.46838113792154
 11
1283.5857535697319
 21
354.21965374449513
  0
LINE
  8
_1-0_
  6
CONTINUOUS
 62
    7
 10
1283.5857535697319
 20
354.21965374449513
 11
1283.3370261763052
 21
353.9165746475278
  0
LINE
  8
_1-0_
  6
CONTINUOUS
 62
    7
 10
1283.3370261763052
 20
353.9165746475278
 11
1283.1522522561797
 21
353.57080157659226
  0
LINE
  8
_1-0_
  6
CONTINUOUS
 62
    7
 10
1283.1522522561797
 20
353.57080157659226
 11
1283.0384308214811
 21
353.19561078281481
  0
LINE
  8
_1-0_
  6
CONTINUOUS
 62
    7
 10
1283.0384308214811
 20
353.19561078281481
 11
1283.0000237424401
 21
352.80543772870516
  0
LINE
  8
_1-0_
  6
CONTINUOUS
 62
    7
 10
1283.0000237424401
 20
352.80543772870516
 11
1283.0000237424401
 21
333.30544630072751
  0
LINE
  8
_1-0_
  6
CONTINUOUS
 62
    7
 10
1283.0000237424401
 20
333.30544630072751
 11
1283.0000237424401
 21
313.80543300083701
  0
LINE
  8
_1-0_
  6
CONTINUOUS
 62
    7
 10
1283.0000237424401
 20
313.80543300083701
 11
1283.0384308214811
 21
313.41525994672736
  0
LINE
  8
_1-0_
  6
CONTINUOUS
 62
    7
 10
1283.0384308214811
 20
313.41525994672736
 11
1283.1522522561797
 21
313.04006915294991
  0
LINE
  8
_1-0_
  6
CONTINUOUS
 62
    7
 10
1283.1522522561797
 20
313.04006915294991
 11
1283.3370261763052
 21
312.6942960820142
  0
LINE
  8
_1-0_
  6
CONTINUOUS
 62
    7
 10
1283.3370261763052
 20
312.6942960820142
 11
1283.5857535697319
 21
312.39121698504704
  0
LINE
  8
_1-0_
  6
CONTINUOUS
 62
    7
 10
1283.5857535697319
 20
312.39121698504704
 11
1283.8888982824378
 21
312.14248959162063
  0
LINE
  8
_1-0_
  6
CONTINUOUS
 62
    7
 10
1283.8888982824378
 20
312.14248959162063
 11
1284.2346494814603
 21
311.95767192766937
  0
LINE
  8
_1-0_
  6
CONTINUOUS
 62
    7
 10
1284.2346494814603
 20
311.95767192766937
 11
1284.609796531412
 21
311.84387236488362
  0
LINE
  8
_1-0_
  6
CONTINUOUS
 62
    7
 10
1284.609796531412
 20
311.84387236488362
 11
1284.9999914574346
 21
311.80544341392959
  0
LINE
  8
_1-0_
  6
CONTINUOUS
 62
    7
 10
1284.9999914574346
 20
311.80544341392959
 11
1307.9999701304787
 21
311.80544341392959
  0
LINE
  8
_1-0_
  6
CONTINUOUS
 62
    7
 10
1307.9999701304787
 20
311.80544341392959
 11
1307.9999701304787
 21
354.80542731561258
  0
LINE
  8
_1-0_
  6
CONTINUOUS
 62
    7
 10
1291.9999659475673
 20
355.80543304502271
 11
1300.0000117828486
 21
355.80543304502271
  0
LINE
  8
_1-0_
  6
CONTINUOUS
 62
    7
 10
1300.0000117828486
 20
355.80543304502271
 11
1300.0000117828486
 21
310.80543768451946
  0
LINE
  8
_1-0_
  6
CONTINUOUS
 62
    7
 10
1300.0000117828486
 20
310.80543768451946
 11
1291.9999659475673
 21
310.80543768451946
  0
LINE
  8
_1-0_
  6
CONTINUOUS
 62
    7
 10
1291.9999659475673
 20
310.80543768451946
 11
1291.9999659475673
 21
355.80543304502271
  0
LINE
  8
_1-0_
  6
CONTINUOUS
 62
    7
 10
1300.0000117828486
 20
355.80543304502271
 11
1291.9999659475673
 21
355.80543304502271
  0
LINE
  8
_1-0_
  6
CONTINUOUS
 62
    7
 10
1300.0000117828486
 20
354.80542731561258
 11
1291.9999659475673
 21
354.80542731561258
  0
LINE
  8
_1-0_
  6
CONTINUOUS
 62
    7
 10
1300.0000117828486
 20
353.80544345811529
 11
1291.9999659475673
 21
353.80544345811529
  0
LINE
  8
_1-0_
  6
CONTINUOUS
 62
    7
 10
1300.0000117828486
 20
352.80543772870516
 11
1291.9999659475673
 21
352.80543772870516
  0
LINE
  8
_1-0_
  6
CONTINUOUS
 62
    7
 10
1300.0000117828486
 20
351.80543199929491
 11
1291.9999659475673
 21
351.80543199929491
  0
LINE
  8
_1-0_
  6
CONTINUOUS
 62
    7
 10
1300.0000117828486
 20
350.80542626988472
 11
1291.9999659475673
 21
350.80542626988472
  0
LINE
  8
_1-0_
  6
CONTINUOUS
 62
    7
 10
1300.0000117828486
 20
349.80544241238749
 11
1291.9999659475673
 21
349.80544241238749
  0
LINE
  8
_1-0_
  6
CONTINUOUS
 62
    7
 10
1300.0000117828486
 20
348.80543668297719
 11
1291.9999659475673
 21
348.80543668297719
  0
LINE
  8
_1-0_
  6
CONTINUOUS
 62
    7
 10
1300.0000117828486
 20
347.80543095356705
 11
1291.9999659475673
 21
347.80543095356705
  0
LINE
  8
_1-0_
  6
CONTINUOUS
 62
    7
 10
1300.0000117828486
 20
346.80542522415692
 11
1291.9999659475673
 21
346.80542522415692
  0
LINE
  8
_1-0_
  6
CONTINUOUS
 62
    7
 10
1300.0000117828486
 20
345.80544136665964
 11
1291.9999659475673
 21
345.80544136665964
  0
LINE
  8
_1-0_
  6
CONTINUOUS
 62
    7
 10
1300.0000117828486
 20
344.8054356372495
 11
1291.9999659475673
 21
344.8054356372495
  0
LINE
  8
_1-0_
  6
CONTINUOUS
 62
    7
 10
1300.0000117828486
 20
343.8054299078392
 11
1291.9999659475673
 21
343.8054299078392
  0
LINE
  8
_1-0_
  6
CONTINUOUS
 62
    7
 10
1300.0000117828486
 20
342.80544605034197
 11
1291.9999659475673
 21
342.80544605034197
  0
LINE
  8
_1-0_
  6
CONTINUOUS
 62
    7
 10
1300.0000117828486
 20
341.80544032093178
 11
1291.9999659475673
 21
341.80544032093178
  0
LINE
  8
_1-0_
  6
CONTINUOUS
 62
    7
 10
1300.0000117828486
 20
340.80543459152153
 11
1291.9999659475673
 21
340.80543459152153
  0
LINE
  8
_1-0_
  6
CONTINUOUS
 62
    7
 10
1300.0000117828486
 20
339.8054288621114
 11
1291.9999659475673
 21
339.8054288621114
  0
LINE
  8
_1-0_
  6
CONTINUOUS
 62
    7
 10
1300.0000117828486
 20
338.80544500461411
 11
1291.9999659475673
 21
338.80544500461411
  0
LINE
  8
_1-0_
  6
CONTINUOUS
 62
    7
 10
1300.0000117828486
 20
337.80543927520398
 11
1291.9999659475673
 21
337.80543927520398
  0
LINE
  8
_1-0_
  6
CONTINUOUS
 62
    7
 10
1300.0000117828486
 20
336.80543354579385
 11
1291.9999659475673
 21
336.80543354579385
  0
LINE
  8
_1-0_
  6
CONTINUOUS
 62
    7
 10
1300.0000117828486
 20
335.80542781638371
 11
1291.9999659475673
 21
335.80542781638371
  0
LINE
  8
_1-0_
  6
CONTINUOUS
 62
    7
 10
1300.0000117828486
 20
334.80544395888626
 11
1291.9999659475673
 21
334.80544395888626
  0
LINE
  8
_1-0_
  6
CONTINUOUS
 62
    7
 10
1300.0000117828486
 20
333.80543822947618
 11
1291.9999659475673
 21
333.80543822947618
  0
LINE
  8
_1-0_
  6
CONTINUOUS
 62
    7
 10
1300.0000117828486
 20
332.80543250006588
 11
1291.9999659475673
 21
332.80543250006588
  0
LINE
  8
_1-0_
  6
CONTINUOUS
 62
    7
 10
1300.0000117828486
 20
331.80542677065574
 11
1291.9999659475673
 21
331.80542677065574
  0
LINE
  8
_1-0_
  6
CONTINUOUS
 62
    7
 10
1300.0000117828486
 20
330.80544291315846
 11
1291.9999659475673
 21
330.80544291315846
  0
LINE
  8
_1-0_
  6
CONTINUOUS
 62
    7
 10
1300.0000117828486
 20
329.80543718374832
 11
1291.9999659475673
 21
329.80543718374832
  0
LINE
  8
_1-0_
  6
CONTINUOUS
 62
    7
 10
1300.0000117828486
 20
328.80543145433819
 11
1291.9999659475673
 21
328.80543145433819
  0
LINE
  8
_1-0_
  6
CONTINUOUS
 62
    7
 10
1300.0000117828486
 20
327.80542572492806
 11
1291.9999659475673
 21
327.80542572492806
  0
LINE
  8
_1-0_
  6
CONTINUOUS
 62
    7
 10
1300.0000117828486
 20
326.80544186743077
 11
1291.9999659475673
 21
326.80544186743077
  0
LINE
  8
_1-0_
  6
CONTINUOUS
 62
    7
 10
1300.0000117828486
 20
325.80543613802047
 11
1291.9999659475673
 21
325.80543613802047
  0
LINE
  8
_1-0_
  6
CONTINUOUS
 62
    7
 10
1300.0000117828486
 20
324.80543040861022
 11
1291.9999659475673
 21
324.80543040861022
  0
LINE
  8
_1-0_
  6
CONTINUOUS
 62
    7
 10
1300.0000117828486
 20
323.80544655111294
 11
1291.9999659475673
 21
323.80544655111294
  0
LINE
  8
_1-0_
  6
CONTINUOUS
 62
    7
 10
1300.0000117828486
 20
322.8054408217028
 11
1291.9999659475673
 21
322.8054408217028
  0
LINE
  8
_1-0_
  6
CONTINUOUS
 62
    7
 10
1300.0000117828486
 20
321.80543509229267
 11
1291.9999659475673
 21
321.80543509229267
  0
LINE
  8
_1-0_
  6
CONTINUOUS
 62
    7
 10
1300.0000117828486
 20
320.80542936288253
 11
1291.9999659475673
 21
320.80542936288253
  0
LINE
  8
_1-0_
  6
CONTINUOUS
 62
    7
 10
1300.0000117828486
 20
319.80544550538525
 11
1291.9999659475673
 21
319.80544550538525
  0
LINE
  8
_1-0_
  6
CONTINUOUS
 62
    7
 10
1300.0000117828486
 20
318.80543977597512
 11
1291.9999659475673
 21
318.80543977597512
  0
LINE
  8
_1-0_
  6
CONTINUOUS
 62
    7
 10
1300.0000117828486
 20
317.80543404656487
 11
1291.9999659475673
 21
317.80543404656487
  0
LINE
  8
_1-0_
  6
CONTINUOUS
 62
    7
 10
1300.0000117828486
 20
316.80542831715468
 11
1291.9999659475673
 21
316.80542831715468
  0
LINE
  8
_1-0_
  6
CONTINUOUS
 62
    7
 10
1300.0000117828486
 20
315.80544445965745
 11
1291.9999659475673
 21
315.80544445965745
  0
LINE
  8
_1-0_
  6
CONTINUOUS
 62
    7
 10
1300.0000117828486
 20
314.80543873024715
 11
1291.9999659475673
 21
314.80543873024715
  0
LINE
  8
_1-0_
  6
CONTINUOUS
 62
    7
 10
1300.0000117828486
 20
313.80543300083701
 11
1291.9999659475673
 21
313.80543300083701
  0
LINE
  8
_1-0_
  6
CONTINUOUS
 62
    7
 10
1300.0000117828486
 20
312.80542727142688
 11
1291.9999659475673
 21
312.80542727142688
  0
LINE
  8
_1-0_
  6
CONTINUOUS
 62
    7
 10
1300.0000117828486
 20
311.80544341392959
 11
1291.9999659475673
 21
311.80544341392959
  0
LINE
  8
_1-0_
  6
CONTINUOUS
 62
    7
 10
1300.0000117828486
 20
310.80543768451946
 11
1291.9999659475673
 21
310.80543768451946
  0
ARC
  8
_1-0_
  6
CONTINUOUS
 62
    7
 10
533.653590080821
 20
602.77115324749445
 40
23.945312822187269
 50
56.403244018554688
 51
123.59674072265625
  0
ARC
  8
_1-0_
  6
CONTINUOUS
 62
    7
 10
560.27861959685674
 20
604.48206176168674
 40
22.613780839102606
 50
100.51020812988281
 51
126.2602081298828
  0
ARC
  8
_1-0_
  6
CONTINUOUS
 62
    7
 10
507.02860430861062
 20
604.48206176168674
 40
22.613780839102606
 50
53.739776611328118
 51
79.489776611328111
  0
ARC
  8
_1-0_
  6
CONTINUOUS
 62
    7
 10
533.653590080821
 20
624.66174475474702
 40
23.945312822187269
 50
236.40324401855469
 51
303.59674072265625
  0
ARC
  8
_1-0_
  6
CONTINUOUS
 62
    7
 10
560.27861959685674
 20
622.95083624055485
 40
22.613780839102606
 50
233.73977661132815
 51
259.48977661132812
  0
ARC
  8
_1-0_
  6
CONTINUOUS
 62
    7
 10
506.86447747425689
 20
623.33035767308525
 40
23.017052435046455
 50
280.73956298828125
 51
306.03086853027344
  0
ARC
  8
_1-0_
  6
CONTINUOUS
 62
    7
 10
528.65358330568279
 20
652.71645372898877
 40
8.0622577575182817
 50
172.8749694824219
 51
199.7477722167969
  0
ARC
  8
_1-0_
  6
CONTINUOUS
 62
    7
 10
538.15360492721027
 20
652.71645372898877
 40
8.5000001716797868
 50
341.07534790039062
 51
6.7098236083984224
  0
ARC
  8
_1-0_
  6
CONTINUOUS
 62
    7
 10
525.65358798936529
 20
639.71644486239506
 40
4.9999999401652211
 50
158.96052551269531
 51
201.03945922851562
  0
ARC
  8
_1-0_
  6
CONTINUOUS
 62
    7
 10
541.6535921722766
 20
639.71644486239506
 40
4.9999999401652211
 50
338.96052551269531
 51
21.039459228515653
  0
ARC
  8
_1-0_
  6
CONTINUOUS
 62
    7
 10
523.11771466465075
 20
628.71644745462186
 40
2.478627351950494
 50
156.73660278320312
 51
233.7939758300781
  0
ARC
  8
_1-0_
  6
CONTINUOUS
 62
    7
 10
544.18950924081685
 20
628.71644745462186
 40
2.478627351950494
 50
306.20600891113281
 51
23.263381958007816
  0
ARC
  8
_1-0_
  6
CONTINUOUS
 62
    7
 10
511.65359526527425
 20
646.61357761810177
 40
9.9999998803304422
 50
0
 51
19.747772216796875
  0
ARC
  8
_1-0_
  6
CONTINUOUS
 62
    7
 10
555.65358489636742
 20
646.71646309635344
 40
9.9999998803304422
 50
161.0753479003906
 51
179.99999999999997
  0
ARC
  8
_1-0_
  6
CONTINUOUS
 62
    7
 10
511.65359526527425
 20
645.10161602359017
 40
9.9999998803304422
 50
338.96052551269531
 51
359.99998474121094
  0
ARC
  8
_1-0_
  6
CONTINUOUS
 62
    7
 10
555.65358489636742
 20
645.10161602359017
 40
9.9999998803304422
 50
180
 51
201.03945922851562
  0
ARC
  8
_1-0_
  6
CONTINUOUS
 62
    7
 10
555.65358489636742
 20
634.33127370120008
 40
9.9999998803304422
 50
158.96052551269531
 51
180
  0
ARC
  8
_1-0_
  6
CONTINUOUS
 62
    7
 10
511.65359526527425
 20
634.33127370120008
 40
9.9999998803304422
 50
0
 51
21.039459228515625
  0
ARC
  8
_1-0_
  6
CONTINUOUS
 62
    7
 10
511.65359526527425
 20
633.6449768184234
 40
9.9999998803304422
 50
336.73660278320318
 51
359.99998474121099
  0
ARC
  8
_1-0_
  6
CONTINUOUS
 62
    7
 10
555.65358489636742
 20
633.6449768184234
 40
9.9999998803304422
 50
180
 51
203.26338195800781
  0
ARC
  8
_1-0_
  6
CONTINUOUS
 62
    7
 10
603.82021767752508
 20
884.48738422172869
 40
8.0622577575182817
 50
160.25221252441409
 51
187.12501525878909
  0
ARC
  8
_1-0_
  6
CONTINUOUS
 62
    7
 10
613.32019555522663
 20
884.48738422172869
 40
8.5000001716797868
 50
353.2901611328125
 51
18.924636840820309
  0
ARC
  8
_1-0_
  6
CONTINUOUS
 62
    7
 10
600.82022236120736
 20
897.48734934449647
 40
4.9999999401652211
 50
158.96052551269531
 51
201.03945922851562
  0
ARC
  8
_1-0_
  6
CONTINUOUS
 62
    7
 10
616.82022654411867
 20
897.48734934449647
 40
4.9999999401652211
 50
338.96052551269531
 51
21.039459228515653
  0
ARC
  8
_1-0_
  6
CONTINUOUS
 62
    7
 10
598.28430529266711
 20
908.48734675226979
 40
2.478627351950494
 50
126.20600891113281
 51
203.26338195800781
  0
ARC
  8
_1-0_
  6
CONTINUOUS
 62
    7
 10
619.35609986883321
 20
908.48734675226979
 40
2.478627351950494
 50
336.73660278320318
 51
53.793975830078161
  0
ARC
  8
_1-0_
  6
CONTINUOUS
 62
    7
 10
586.82018589329061
 20
890.59026033261557
 40
9.9999998803304422
 50
340.25221252441406
 51
0.0000000000000159
  0
ARC
  8
_1-0_
  6
CONTINUOUS
 62
    7
 10
630.82021926820971
 20
890.48737485436391
 40
9.9999998803304422
 50
180
 51
198.92463684082031
  0
ARC
  8
_1-0_
  6
CONTINUOUS
 62
    7
 10
586.82018589329061
 20
892.10222192712718
 40
9.9999998803304422
 50
0
 51
21.039459228515625
  0
ARC
  8
_1-0_
  6
CONTINUOUS
 62
    7
 10
630.82021926820971
 20
892.10222192712718
 40
9.9999998803304422
 50
158.96052551269531
 51
180
  0
ARC
  8
_1-0_
  6
CONTINUOUS
 62
    7
 10
630.82021926820971
 20
902.87256424951738
 40
9.9999998803304422
 50
180
 51
201.03945922851562
  0
ARC
  8
_1-0_
  6
CONTINUOUS
 62
    7
 10
586.82018589329061
 20
902.87256424951738
 40
9.9999998803304422
 50
338.96052551269531
 51
0.0000000000000254
  0
ARC
  8
_1-0_
  6
CONTINUOUS
 62
    7
 10
586.82018589329061
 20
903.55881738846824
 40
9.9999998803304422
 50
0
 51
23.263381958007816
  0
ARC
  8
_1-0_
  6
CONTINUOUS
 62
    7
 10
630.82021926820971
 20
903.55881738846824
 40
9.9999998803304422
 50
156.73660278320312
 51
180
  0
ARC
  8
_1-0_
  6
CONTINUOUS
 62
    7
 10
608.82022445266307
 20
909.72171002833534
 40
10.765624824177804
 50
54.510650634765625
 51
125.48933410644533
  0
ARC
  8
_1-0_
  6
CONTINUOUS
 62
    7
 10
621.94520942953091
 20
909.39363133493077
 40
11.400083906401999
 50
103.31245422363281
 51
127.08976745605467
  0
ARC
  8
_1-0_
  6
CONTINUOUS
 62
    7
 10
621.94520942953091
 20
921.58109863752554
 40
11.400083906401999
 50
232.91021728515625
 51
256.68753051757812
  0
ARC
  8
_1-0_
  6
CONTINUOUS
 62
    7
 10
608.82022445266307
 20
921.25301994412098
 40
10.765624824177804
 50
234.51065063476562
 51
305.48933410644531
  0
ARC
  8
_1-0_
  6
CONTINUOUS
 62
    7
 10
595.69519573196942
 20
909.39363133493077
 40
11.400083906401999
 50
52.910217285156243
 51
76.687530517578125
  0
ARC
  8
_1-0_
  6
CONTINUOUS
 62
    7
 10
595.69519573196942
 20
921.58109863752554
 40
11.400083906401999
 50
283.31245422363281
 51
307.08976745605469
  0
ARC
  8
_1-0_
  6
CONTINUOUS
 62
    7
 10
710.2862155575549
 20
591.0254548415254
 40
23.945312822187269
 50
56.403244018554688
 51
123.59674072265625
  0
ARC
  8
_1-0_
  6
CONTINUOUS
 62
    7
 10
736.91120132976505
 20
592.73640709954338
 40
22.613780839102606
 50
100.51020812988281
 51
126.2602081298828
  0
ARC
  8
_1-0_
  6
CONTINUOUS
 62
    7
 10
683.66122978534474
 20
592.73640709954338
 40
22.613780839102606
 50
53.739776611328118
 51
79.489776611328111
  0
ARC
  8
_1-0_
  6
CONTINUOUS
 62
    7
 10
710.2862155575549
 20
612.91609009260367
 40
23.945312822187269
 50
236.40324401855469
 51
303.59674072265625
  0
ARC
  8
_1-0_
  6
CONTINUOUS
 62
    7
 10
736.91120132976505
 20
611.20513783458568
 40
22.613780839102606
 50
233.73977661132815
 51
259.48977661132812
  0
ARC
  8
_1-0_
  6
CONTINUOUS
 62
    7
 10
683.49710295099089
 20
611.58465926711619
 40
23.017052435046455
 50
280.73956298828125
 51
306.03086853027344
  0
ARC
  8
_1-0_
  6
CONTINUOUS
 62
    7
 10
705.28620878241691
 20
640.97075532301972
 40
8.0622577575182817
 50
172.8749694824219
 51
199.7477722167969
  0
ARC
  8
_1-0_
  6
CONTINUOUS
 62
    7
 10
714.78623040394427
 20
640.97075532301972
 40
8.5000001716797868
 50
341.07534790039062
 51
6.7098236083984224
  0
ARC
  8
_1-0_
  6
CONTINUOUS
 62
    7
 10
702.2862134660993
 20
627.97079020025183
 40
4.9999999401652211
 50
158.96052551269531
 51
201.03945922851562
  0
ARC
  8
_1-0_
  6
CONTINUOUS
 62
    7
 10
718.28621764901061
 20
627.97079020025183
 40
4.9999999401652211
 50
338.96052551269531
 51
21.039459228515653
  0
ARC
  8
_1-0_
  6
CONTINUOUS
 62
    7
 10
699.75034014138475
 20
616.97079279247851
 40
2.478627351950494
 50
156.73660278320312
 51
233.7939758300781
  0
ARC
  8
_1-0_
  6
CONTINUOUS
 62
    7
 10
720.82213471755097
 20
616.97079279247851
 40
2.478627351950494
 50
306.20600891113281
 51
23.263381958007816
  0
ARC
  8
_1-0_
  6
CONTINUOUS
 62
    7
 10
688.28622074200837
 20
634.86787921213272
 40
9.9999998803304422
 50
0
 51
19.747772216796875
  0
ARC
  8
_1-0_
  6
CONTINUOUS
 62
    7
 10
732.28621037310154
 20
634.97076469038439
 40
9.9999998803304422
 50
161.0753479003906
 51
179.99999999999997
  0
ARC
  8
_1-0_
  6
CONTINUOUS
 62
    7
 10
688.28622074200837
 20
633.35591761762112
 40
9.9999998803304422
 50
338.96052551269531
 51
0.0000000000000254
  0
ARC
  8
_1-0_
  6
CONTINUOUS
 62
    7
 10
732.28621037310154
 20
633.35591761762112
 40
9.9999998803304422
 50
180
 51
201.03945922851562
  0
ARC
  8
_1-0_
  6
CONTINUOUS
 62
    7
 10
732.28621037310154
 20
622.58561903905684
 40
9.9999998803304422
 50
158.96052551269531
 51
180
  0
ARC
  8
_1-0_
  6
CONTINUOUS
 62
    7
 10
688.28622074200837
 20
622.58561903905684
 40
9.9999998803304422
 50
0
 51
21.039459228515625
  0
ARC
  8
_1-0_
  6
CONTINUOUS
 62
    7
 10
688.28622074200837
 20
621.89932215628016
 40
9.9999998803304422
 50
336.73660278320318
 51
0.0000000000000413
  0
ARC
  8
_1-0_
  6
CONTINUOUS
 62
    7
 10
732.28621037310154
 20
621.89932215628016
 40
9.9999998803304422
 50
180
 51
203.26338195800781
  0
ARC
  8
_1-0_
  6
CONTINUOUS
 62
    7
 10
634.79242111264966
 20
923.41772690703033
 40
8.0622577575182817
 50
160.25221252441409
 51
187.12501525878909
  0
ARC
  8
_1-0_
  6
CONTINUOUS
 62
    7
 10
644.29244273417692
 20
923.41772690703033
 40
8.5000001716797868
 50
353.2901611328125
 51
18.924636840820309
  0
ARC
  8
_1-0_
  6
CONTINUOUS
 62
    7
 10
631.79242579633205
 20
936.41769202979833
 40
4.9999999401652211
 50
158.96052551269531
 51
201.03945922851562
  0
ARC
  8
_1-0_
  6
CONTINUOUS
 62
    7
 10
647.79242997924325
 20
936.41769202979833
 40
4.9999999401652211
 50
338.96052551269531
 51
21.039459228515653
  0
ARC
  8
_1-0_
  6
CONTINUOUS
 62
    7
 10
629.25650872779158
 20
947.41768943757154
 40
2.478627351950494
 50
126.20600891113281
 51
203.26338195800781
  0
ARC
  8
_1-0_
  6
CONTINUOUS
 62
    7
 10
650.3283033039578
 20
947.41768943757154
 40
2.478627351950494
 50
336.73660278320318
 51
53.793975830078161
  0
ARC
  8
_1-0_
  6
CONTINUOUS
 62
    7
 10
617.79243307224101
 20
929.52060301791744
 40
9.9999998803304422
 50
340.25221252441406
 51
0.0000000000000159
  0
ARC
  8
_1-0_
  6
CONTINUOUS
 62
    7
 10
661.79242270333418
 20
929.41771753966577
 40
9.9999998803304422
 50
180
 51
198.92463684082031
  0
ARC
  8
_1-0_
  6
CONTINUOUS
 62
    7
 10
617.79243307224101
 20
931.03256461242904
 40
9.9999998803304422
 50
0
 51
21.039459228515625
  0
ARC
  8
_1-0_
  6
CONTINUOUS
 62
    7
 10
661.79242270333418
 20
931.03256461242904
 40
9.9999998803304422
 50
158.96052551269531
 51
180
  0
ARC
  8
_1-0_
  6
CONTINUOUS
 62
    7
 10
661.79242270333418
 20
941.80290693481902
 40
9.9999998803304422
 50
180
 51
201.03945922851562
  0
ARC
  8
_1-0_
  6
CONTINUOUS
 62
    7
 10
617.79243307224101
 20
941.80290693481902
 40
9.9999998803304422
 50
338.96052551269531
 51
0.0000000000000254
  0
ARC
  8
_1-0_
  6
CONTINUOUS
 62
    7
 10
617.79243307224101
 20
942.48916007377011
 40
9.9999998803304422
 50
0
 51
23.263381958007816
  0
ARC
  8
_1-0_
  6
CONTINUOUS
 62
    7
 10
661.79242270333418
 20
942.48916007377011
 40
9.9999998803304422
 50
156.73660278320312
 51
180
  0
ARC
  8
_1-0_
  6
CONTINUOUS
 62
    7
 10
639.79242788778765
 20
948.65205271363709
 40
10.765624824177804
 50
54.510650634765625
 51
125.48933410644533
  0
ARC
  8
_1-0_
  6
CONTINUOUS
 62
    7
 10
652.91741286465549
 20
948.32397402023253
 40
11.400083906401999
 50
103.31245422363281
 51
127.08976745605467
  0
ARC
  8
_1-0_
  6
CONTINUOUS
 62
    7
 10
652.91741286465549
 20
960.51144132282741
 40
11.400083906401999
 50
232.91021728515625
 51
256.68753051757812
  0
ARC
  8
_1-0_
  6
CONTINUOUS
 62
    7
 10
639.79242788778765
 20
960.18336262942273
 40
10.765624824177804
 50
234.51065063476562
 51
305.48933410644531
  0
ARC
  8
_1-0_
  6
CONTINUOUS
 62
    7
 10
626.6674429109197
 20
948.32397402023253
 40
11.400083906401999
 50
52.910217285156243
 51
76.687530517578125
  0
ARC
  8
_1-0_
  6
CONTINUOUS
 62
    7
 10
626.6674429109197
 20
960.51144132282741
 40
11.400083906401999
 50
283.31245422363281
 51
307.08976745605469
  0
ARC
  8
_1-0_
  6
CONTINUOUS
 62
    7
 10
1610.4110988778957
 20
249.47114782443833
 40
401.99504174781117
 50
84.289398193359375
 51
95.710586547851562
  0
ARC
  8
_1-0_
  6
CONTINUOUS
 62
    7
 10
1562.4111738168133
 20
357.80544450384298
 40
4.0000000204819051
 50
270
 51
0
  0
ARC
  8
_1-0_
  6
CONTINUOUS
 62
    7
 10
1562.4111738168133
 20
308.80542622569908
 40
4.0000000204819051
 50
0
 51
90
  0
ARC
  8
_1-1_
  6
CONTINUOUS
 62
    7
 10
1334.6185255602977
 20
1149.8085605223666
 40
113.99999699537358
 50
23.510543823242188
 51
23.935562133789063
  0
ARC
  8
_1-1_
  6
CONTINUOUS
 62
    7
 10
1347.7284626610949
 20
1169.8085876229186
 40
94.000002702690907
 50
88.769134521484361
 51
89.999999999999986
  0
ARC
  8
_1-1_
  6
CONTINUOUS
 62
    7
 10
1354.2833874676676
 20
1179.8086011731946
 40
84.000000088371365
 50
23.510543823242188
 51
90
  0
ARC
  8
_1-1_
  6
CONTINUOUS
 62
    7
 10
1357.236795609522
 20
1179.8086011731946
 40
55.999998236254825
 50
23.510543823242188
 51
90
  0
ARC
  8
_1-0_
  6
CONTINUOUS
 62
    7
 10
1138.7439972277314
 20
338.50717772848355
 40
2.0000000102409525
 50
90
 51
180
  0
ARC
  8
_1-0_
  6
CONTINUOUS
 62
    7
 10
1138.7439972277314
 20
330.5071756370279
 40
2.0000000102409525
 50
180
 51
270
  0
CIRCLE
  8
_1-0_
  6
CONTINUOUS
 62
    7
 10
1174.6998472471496
 20
333.98069786749289
 40
6.9999997795318532
  0
ARC
  8
_1-0_
  6
CONTINUOUS
 62
    7
 10
1248.5092419362895
 20
598.69383498968762
 40
23.945312822187269
 50
56.403244018554688
 51
123.59674072265625
  0
ARC
  8
_1-0_
  6
CONTINUOUS
 62
    7
 10
1275.1342714523255
 20
600.4047872477056
 40
22.613780839102606
 50
100.51020812988281
 51
126.2602081298828
  0
ARC
  8
_1-0_
  6
CONTINUOUS
 62
    7
 10
1222.358133028833
 20
600.4047872477056
 40
22.613780839102606
 50
53.739776611328118
 51
79.489776611328111
  0
ARC
  8
_1-0_
  6
CONTINUOUS
 62
    7
 10
1248.5092419362895
 20
620.584470240766
 40
23.945312822187269
 50
236.40324401855469
 51
303.59674072265625
  0
ARC
  8
_1-0_
  6
CONTINUOUS
 62
    7
 10
1275.1342714523255
 20
618.87351798274801
 40
22.613780839102606
 50
233.73977661132815
 51
259.48977661132812
  0
ARC
  8
_1-0_
  6
CONTINUOUS
 62
    7
 10
1222.194006194479
 20
619.25303941527841
 40
23.017052435046455
 50
280.73956298828125
 51
306.03086853027344
  0
ARC
  8
_1-0_
  6
CONTINUOUS
 62
    7
 10
1237.9733665201193
 20
624.63917294064083
 40
2.478627351950494
 50
156.73660278320312
 51
233.7939758300781
  0
ARC
  8
_1-0_
  6
CONTINUOUS
 62
    7
 10
1259.0451173524598
 20
624.63917294064083
 40
2.478627351950494
 50
306.20600891113281
 51
23.263381958007816
  0
ARC
  8
_1-0_
  6
CONTINUOUS
 62
    7
 10
1179.7327493792793
 20
903.09627017459343
 40
8.0622577575182817
 50
160.25221252441409
 51
187.12501525878909
  0
ARC
  8
_1-0_
  6
CONTINUOUS
 62
    7
 10
1189.2326835131553
 20
903.09627017459343
 40
8.5000001716797868
 50
353.2901611328125
 51
18.924636840820309
  0
ARC
  8
_1-0_
  6
CONTINUOUS
 62
    7
 10
1176.732710319136
 20
916.09623529736143
 40
4.9999999401652211
 50
158.96052551269531
 51
201.03945922851562
  0
ARC
  8
_1-0_
  6
CONTINUOUS
 62
    7
 10
1192.7327145020472
 20
916.09623529736143
 40
4.9999999401652211
 50
338.96052551269531
 51
21.039459228515653
  0
ARC
  8
_1-0_
  6
CONTINUOUS
 62
    7
 10
1174.1967932505956
 20
927.09632019278615
 40
2.478627351950494
 50
126.20600891113281
 51
203.26338195800781
  0
ARC
  8
_1-0_
  6
CONTINUOUS
 62
    7
 10
1195.2686315705878
 20
927.09632019278615
 40
2.478627351950494
 50
336.73660278320318
 51
53.793975830078161
  0
ARC
  8
_1-0_
  6
CONTINUOUS
 62
    7
 10
1162.7326738512193
 20
909.19914628548042
 40
9.9999998803304422
 50
340.25221252441406
 51
0.0000000000000159
  0
ARC
  8
_1-0_
  6
CONTINUOUS
 62
    7
 10
1206.7327509699639
 20
909.09626080722876
 40
9.9999998803304422
 50
180
 51
198.92463684082031
  0
ARC
  8
_1-0_
  6
CONTINUOUS
 62
    7
 10
1162.7326738512193
 20
910.71110787999214
 40
9.9999998803304422
 50
0
 51
21.039459228515625
  0
ARC
  8
_1-0_
  6
CONTINUOUS
 62
    7
 10
1206.7327509699639
 20
910.71110787999214
 40
9.9999998803304422
 50
158.96052551269531
 51
180
  0
ARC
  8
_1-0_
  6
CONTINUOUS
 62
    7
 10
1206.7327509699639
 20
921.48145020238212
 40
9.9999998803304422
 50
180
 51
201.03945922851562
  0
ARC
  8
_1-0_
  6
CONTINUOUS
 62
    7
 10
1162.7326738512193
 20
921.48145020238212
 40
9.9999998803304422
 50
338.96052551269531
 51
0.0000000000000254
  0
ARC
  8
_1-0_
  6
CONTINUOUS
 62
    7
 10
1162.7326738512193
 20
922.16770334133298
 40
9.9999998803304422
 50
0
 51
23.263381958007816
  0
ARC
  8
_1-0_
  6
CONTINUOUS
 62
    7
 10
1206.7327509699639
 20
922.16770334133298
 40
9.9999998803304422
 50
156.73660278320312
 51
180
  0
ARC
  8
_1-0_
  6
CONTINUOUS
 62
    7
 10
1184.7327561544175
 20
928.3306834688517
 40
10.765624824177804
 50
54.510650634765625
 51
125.48933410644533
  0
ARC
  8
_1-0_
  6
CONTINUOUS
 62
    7
 10
1197.8577411312854
 20
928.00251728779563
 40
11.400083906401999
 50
103.31245422363281
 51
127.08976745605467
  0
ARC
  8
_1-0_
  6
CONTINUOUS
 62
    7
 10
1197.8577411312854
 20
940.1899845903904
 40
11.400083906401999
 50
232.91021728515625
 51
256.68753051757812
  0
ARC
  8
_1-0_
  6
CONTINUOUS
 62
    7
 10
1184.7327561544175
 20
939.86190589698583
 40
10.765624824177804
 50
234.51065063476562
 51
305.48933410644531
  0
ARC
  8
_1-0_
  6
CONTINUOUS
 62
    7
 10
1171.6076836898978
 20
928.00251728779563
 40
11.400083906401999
 50
52.910217285156243
 51
76.687530517578125
  0
ARC
  8
_1-0_
  6
CONTINUOUS
 62
    7
 10
1171.6076836898978
 20
940.1899845903904
 40
11.400083906401999
 50
283.31245422363281
 51
307.08976745605469
  0
ARC
  8
_1-0_
  6
CONTINUOUS
 62
    7
 10
1243.5092351611515
 20
648.63917921500774
 40
8.0622577575182817
 50
172.8749694824219
 51
199.7477722167969
  0
ARC
  8
_1-0_
  6
CONTINUOUS
 62
    7
 10
1253.0092567826789
 20
648.63917921500774
 40
8.5000001716797868
 50
341.07534790039062
 51
6.7098236083984224
  0
ARC
  8
_1-0_
  6
CONTINUOUS
 62
    7
 10
1240.5092835886599
 20
635.63917034841415
 40
4.9999999401652211
 50
158.96052551269531
 51
201.03945922851562
  0
ARC
  8
_1-0_
  6
CONTINUOUS
 62
    7
 10
1256.5092002839194
 20
635.63917034841415
 40
4.9999999401652211
 50
338.96052551269531
 51
21.039459228515653
  0
ARC
  8
_1-0_
  6
CONTINUOUS
 62
    7
 10
1226.5092471207431
 20
642.53625936029493
 40
9.9999998803304422
 50
0
 51
19.747772216796875
  0
ARC
  8
_1-0_
  6
CONTINUOUS
 62
    7
 10
1270.5092367518362
 20
642.6391448385466
 40
9.9999998803304422
 50
161.0753479003906
 51
179.99999999999997
  0
ARC
  8
_1-0_
  6
CONTINUOUS
 62
    7
 10
1226.5092471207431
 20
641.02434150960914
 40
9.9999998803304422
 50
338.96052551269531
 51
359.99998474121094
  0
ARC
  8
_1-0_
  6
CONTINUOUS
 62
    7
 10
1270.5092367518362
 20
641.02434150960914
 40
9.9999998803304422
 50
180
 51
201.03945922851562
  0
ARC
  8
_1-0_
  6
CONTINUOUS
 62
    7
 10
1270.5092367518362
 20
630.25399918721905
 40
9.9999998803304422
 50
158.96052551269531
 51
180
  0
ARC
  8
_1-0_
  6
CONTINUOUS
 62
    7
 10
1226.5092471207431
 20
630.25399918721905
 40
9.9999998803304422
 50
0
 51
21.039459228515625
  0
ARC
  8
_1-0_
  6
CONTINUOUS
 62
    7
 10
1226.5092471207431
 20
629.56770230444238
 40
9.9999998803304422
 50
336.73660278320318
 51
0.0000000000000413
  0
ARC
  8
_1-0_
  6
CONTINUOUS
 62
    7
 10
1270.5092367518362
 20
629.56770230444238
 40
9.9999998803304422
 50
180
 51
203.26338195800781
  0
TEXT
  8
_0-0_
 62
    6
 10
2063.5623024605416
 20
1784.0835359197786
 40
100
 41
1
 50
0
  1
BX-6601_
  0
ENDSEC
  0
EOF
